  0
SECTION
  2
HEADER
  9
$ACADVER
  1
AC1006
  9
$DWGCODEPAGE
  3
ansi_1252
  9
$INSBASE
 10
0.0
 20
0.0
 30
0.0
  9
$EXTMIN
 10
-11.30800247
 20
-345.02354302
  9
$EXTMAX
 10
417.09199753
 20
-31.33433677
  9
$LIMMIN
 10
-11.30800247
 20
-345.02354302
  9
$LIMMAX
 10
417.09199753
 20
-31.33433677
  9
$ORTHOMODE
 70
     0
  9
$REGENMODE
 70
     1
  9
$FILLMODE
 70
     1
  9
$QTEXTMODE
 70
     0
  9
$MIRRTEXT
 70
     1
  9
$DRAGMODE
 70
     2
  9
$LTSCALE
 40
1.0
  9
$OSMODE
 70
    37
  9
$ATTMODE
 70
     1
  9
$TEXTSIZE
 40
1.0
  9
$TRACEWID
 40
0.05
  9
$TEXTSTYLE
  7
STANDARD
  9
$CLAYER
  8
0
  9
$CELTYPE
  6
BYBLOCK
  9
$CECOLOR
 62
   256
  9
$DIMSCALE
 40
1.0
  9
$DIMASZ
 40
0.18
  9
$DIMEXO
 40
0.0625
  9
$DIMDLI
 40
0.38
  9
$DIMRND
 40
0.0
  9
$DIMDLE
 40
0.0
  9
$DIMEXE
 40
0.18
  9
$DIMTP
 40
0.0
  9
$DIMTM
 40
0.0
  9
$DIMTXT
 40
0.18
  9
$DIMCEN
 40
0.09
  9
$DIMTSZ
 40
0.0
  9
$DIMTOL
 70
     0
  9
$DIMLIM
 70
     0
  9
$DIMTIH
 70
     1
  9
$DIMTOH
 70
     1
  9
$DIMSE1
 70
     0
  9
$DIMSE2
 70
     0
  9
$DIMTAD
 70
     0
  9
$DIMZIN
 70
     0
  9
$DIMBLK
  1

  9
$DIMASO
 70
     1
  9
$DIMSHO
 70
     1
  9
$DIMPOST
  1

  9
$DIMAPOST
  1

  9
$DIMALT
 70
     0
  9
$DIMALTD
 70
     2
  9
$DIMALTF
 40
25.4
  9
$DIMLFAC
 40
1.0
  9
$DIMTOFL
 70
     0
  9
$DIMTVP
 40
0.0
  9
$DIMTIX
 70
     0
  9
$DIMSOXD
 70
     0
  9
$DIMSAH
 70
     0
  9
$DIMBLK1
  1

  9
$DIMBLK2
  1

  9
$LUNITS
 70
     2
  9
$LUPREC
 70
     4
  9
$SKETCHINC
 40
0.1
  9
$FILLETRAD
 40
0.5
  9
$AUNITS
 70
     0
  9
$AUPREC
 70
     0
  9
$MENU
  1
.
  9
$ELEVATION
 40
0.0
  9
$THICKNESS
 40
0.0
  9
$LIMCHECK
 70
     0
  9
$CHAMFERA
 40
0.0
  9
$CHAMFERB
 40
0.0
  9
$SKPOLY
 70
     0
  9
$TDCREATE
 40
2447893.125
  9
$TDUPDATE
 40
2460791.515700116
  9
$TDINDWG
 40
0.0
  9
$TDUSRTIMER
 40
0.0
  9
$USRTIMER
 70
     1
  9
$ANGBASE
 50
0.0
  9
$ANGDIR
 70
     0
  9
$PDMODE
 70
     0
  9
$PDSIZE
 40
0.0
  9
$PLINEWID
 40
0.0
  9
$COORDS
 70
     1
  9
$SPLFRAME
 70
     0
  9
$SPLINETYPE
 70
     6
  9
$SPLINESEGS
 70
     8
  9
$ATTDIA
 70
     0
  9
$ATTREQ
 70
     1
  9
$HANDLING
 70
     1
  9
$HANDSEED
  5
72A
  9
$SURFTAB1
 70
     6
  9
$SURFTAB2
 70
     6
  9
$SURFTYPE
 70
     6
  9
$SURFU
 70
     6
  9
$SURFV
 70
     6
  9
$UCSNAME
  2

  9
$UCSORG
 10
0.0
 20
0.0
 30
0.0
  9
$UCSXDIR
 10
1.0
 20
0.0
 30
0.0
  9
$UCSYDIR
 10
0.0
 20
1.0
 30
0.0
  9
$USERI1
 70
     0
  9
$USERI2
 70
     0
  9
$USERI3
 70
     0
  9
$USERI4
 70
     0
  9
$USERI5
 70
     0
  9
$USERR1
 40
0.0
  9
$USERR2
 40
0.0
  9
$USERR3
 40
0.0
  9
$USERR4
 40
0.0
  9
$USERR5
 40
0.0
  9
$WORLDVIEW
 70
     1
  0
ENDSEC
  0
SECTION
  2
TABLES
  0
TABLE
  2
VPORT
 70
     1
  0
VPORT
  2
*ACTIVE
 70
     0
 10
0.0
 20
0.0
 11
1.0
 21
1.0
 12
202.89199753
 22
-188.17893989
 13
0.0
 23
0.0
 14
1.0
 24
1.0
 15
0.0
 25
0.0
 16
0.0
 26
0.0
 36
1.0
 17
0.0
 27
0.0
 37
0.0
 40
313.68920625
 41
1.365682948
 42
50.0
 43
0.0
 44
0.0
 50
0.0
 51
0.0
 71
     0
 72
   100
 73
     1
 74
     1
 75
     0
 76
     0
 77
     0
 78
     0
  0
ENDTAB
  0
TABLE
  2
LTYPE
 70
    19
  0
LTYPE
  2
CONTINUOUS
 70
     0
  3
Solid line
 72
    65
 73
     0
 40
0.0
  0
LTYPE
  2
DOT
 70
     0
  3
..............
 72
    65
 73
     2
 40
2.0
 49
0.5
 49
-1.5
  0
LTYPE
  2
HIDDEN
 70
     0
  3
-- -- -- -- --
 72
    65
 73
     2
 40
7.0
 49
4.0
 49
-3.0
  0
LTYPE
  2
DASHDOT
 70
     0
  3
--.--.--.--.--
 72
    65
 73
     4
 40
8.5
 49
4.0
 49
-2.0
 49
0.5
 49
-2.0
  0
LTYPE
  2
STRICHPUNKT2
 70
     0
  3
--.--.--.--.--
 72
    65
 73
     4
 40
18.5
 49
10.0
 49
-4.0
 49
0.5
 49
-4.0
  0
LTYPE
  2
STRICHPUNKT3
 70
     0
  3
--.--.--.--.--
 72
    65
 73
     4
 40
35.5
 49
25.0
 49
-5.0
 49
0.5
 49
-5.0
  0
LTYPE
  2
PHANTOM
 70
     0
  3
--..--..--..--
 72
    65
 73
     6
 40
23.0
 49
10.0
 49
-4.0
 49
0.5
 49
-4.0
 49
0.5
 49
-4.0
  0
LTYPE
  2
PHANTOM2
 70
     0
  3
--..--..--..--
 72
    65
 73
     6
 40
33.0
 49
20.0
 49
-4.0
 49
0.5
 49
-4.0
 49
0.5
 49
-4.0
  0
LTYPE
  2
PHANTOM3
 70
     0
  3
--..--..--..--
 72
    65
 73
     6
 40
50.0
 49
37.0
 49
-4.0
 49
0.5
 49
-4.0
 49
0.5
 49
-4.0
  0
LTYPE
  2
STR3PKT
 70
     0
  3
--...--...--...
 72
    65
 73
     8
 40
31.5
 49
20.0
 49
-2.5
 49
0.5
 49
-2.5
 49
0.5
 49
-2.5
 49
0.5
 49
-2.5
  0
LTYPE
  2
2STRPKT
 70
     0
  3
--.--.--.--.--
 72
    65
 73
     6
 40
28.0
 49
10.0
 49
-2.5
 49
10.0
 49
-2.5
 49
0.5
 49
-2.5
  0
LTYPE
  2
GESTRICHELT2
 70
     0
  3
-- -- -- -- --
 72
    65
 73
     2
 40
25.0
 49
10.0
 49
-15.0
  0
LTYPE
  2
2STR2PKT
 70
     0
  3
--..--..--..--
 72
    65
 73
     8
 40
31.0
 49
10.0
 49
-2.5
 49
10.0
 49
-2.5
 49
0.5
 49
-2.5
 49
0.5
 49
-2.5
  0
LTYPE
  2
STR3PKT2
 70
     0
  3
--...--...--...
 72
    65
 73
     8
 40
21.0
 49
10.0
 49
-2.5
 49
0.5
 49
-2.5
 49
0.5
 49
-2.5
 49
0.5
 49
-2.0
  0
LTYPE
  2
2STR3PKT
 70
     0
  3
--...--...--...
 72
    65
 73
    10
 40
34.0
 49
10.0
 49
-2.5
 49
10.0
 49
-2.5
 49
0.5
 49
-2.5
 49
0.5
 49
-2.5
 49
0.5
 49
-2.5
  0
LTYPE
  2
STRKSTR
 70
     0
  3
-- - -- - -- -
 72
    65
 73
     4
 40
30.0
 49
20.0
 49
-2.5
 49
5.0
 49
-2.5
  0
LTYPE
  2
STRKSTR2
 70
     0
  3
-- - -- - -- -
 72
    65
 73
     6
 40
37.5
 49
20.0
 49
-2.5
 49
5.0
 49
-2.5
 49
5.0
 49
-2.5
  0
LTYPE
  2
STRKSTR3
 70
     0
  3
-- - -- - -- -
 72
    65
 73
     8
 40
45.0
 49
20.0
 49
-2.5
 49
5.0
 49
-2.5
 49
5.0
 49
-2.5
 49
5.0
 49
-2.5
  0
LTYPE
  2
PUNKT2
 70
     0
  3
..............
 72
    65
 73
     2
 40
3.5
 49
0.5
 49
-3.0
  0
ENDTAB
  0
TABLE
  2
LAYER
 70
    16
  0
LAYER
  2
0
 70
     0
 62
     7
  6
CONTINUOUS
  0
LAYER
  2
LE_GREEN
 70
     0
 62
     3
  6
CONTINUOUS
  0
LAYER
  2
LE_RED
 70
     0
 62
     1
  6
CONTINUOUS
  0
LAYER
  2
LE_ALL
 70
     0
 62
     7
  6
CONTINUOUS
  0
LAYER
  2
LE_HIDDEN1
 70
     0
 62
     3
  6
HIDDEN
  0
LAYER
  2
LE_HIDDEN
 70
     0
 62
     7
  6
CONTINUOUS
  0
LAYER
  2
LE_MIDDLE
 70
     0
 62
     7
  6
CONTINUOUS
  0
LAYER
  2
TXT_YELLOW
 70
     0
 62
     2
  6
CONTINUOUS
  0
LAYER
  2
TXT_DIM49
 70
     0
 62
     2
  6
CONTINUOUS
  0
LAYER
  2
TXT_ALL
 70
     0
 62
     7
  6
CONTINUOUS
  0
LAYER
  2
DIM49
 70
     0
 62
     4
  6
CONTINUOUS
  0
LAYER
  2
HATCH
 70
     0
 62
     3
  6
CONTINUOUS
  0
LAYER
  2
APPLE
 70
     0
 62
     7
  6
CONTINUOUS
  0
LAYER
  2
10
 70
     0
 62
     7
  6
CONTINUOUS
  0
LAYER
  2
20
 70
     0
 62
     7
  6
CONTINUOUS
  0
LAYER
  2
49
 70
     0
 62
     7
  6
CONTINUOUS
  0
ENDTAB
  0
TABLE
  2
STYLE
 70
     5
  0
STYLE
  2
MONOTXT
 70
     0
 40
0.0
 41
1.0
 50
0.0
 71
     0
 42
1.0
  3
monotxt.shx
  4

  0
STYLE
  2
STANDARD
 70
     0
 40
0.0
 41
1.0
 50
0.0
 71
     0
 42
1.0
  3
txt
  4

  0
STYLE
  2
ARIAL
 70
     0
 40
0.0
 41
1.0
 50
0.0
 71
     0
 42
1.0
  3
arial.ttf
  4

  0
STYLE
  2
ARIAL_NARROW
 70
     0
 40
0.0
 41
1.0
 50
0.0
 71
     0
 42
1.0
  3
ArialN.ttf
  4

  0
STYLE
  2
ISOCPEUR
 70
     0
 40
0.0
 41
1.0
 50
0.0
 71
     0
 42
1.0
  3
ISOCPEUR.ttf
  4

  0
ENDTAB
  0
TABLE
  2
VIEW
 70
     0
  0
ENDTAB
  0
TABLE
  2
UCS
 70
     0
  0
ENDTAB
  0
ENDSEC
  0
SECTION
  2
BLOCKS
  0
BLOCK
  8
0
  2
_D1
 70
     0
 10
120.40671938
 20
-179.04687796
 30
0.0
  0
TEXT
  5
43D
  8
TXT_DIM49
 10
120.40671938
 20
-179.04687796
 30
0.0
 40
2.5
  1
310
  7
ARIAL
  0
LINE
  5
43E
  8
DIM49
 10
46.78647249
 20
-179.54687796
 30
0.0
 11
44.78647249
 21
-181.54687796
 31
0.0
  0
LINE
  5
43F
  8
DIM49
 10
200.03647249
 20
-181.29687796
 30
0.0
 11
201.53647249
 21
-179.79687796
 31
0.0
  0
LINE
  5
440
  8
DIM49
 10
45.78647249
 20
-180.54687796
 30
0.0
 11
200.78647249
 21
-180.54687796
 31
0.0
  0
LINE
  5
441
  8
DIM49
 10
45.78647249
 20
-182.54687796
 30
0.0
 11
45.78647249
 21
-178.54687796
 31
0.0
  0
LINE
  5
442
  8
DIM49
 10
200.78647249
 20
-182.54687796
 30
0.0
 11
200.78647249
 21
-178.54687796
 31
0.0
  0
ENDBLK
  8
0
  0
BLOCK
  8
0
  2
_D2
 70
     0
 10
145.90671938
 20
-236.17084518
 30
0.0
  0
TEXT
  5
445
  8
TXT_DIM49
 10
145.90671938
 20
-236.17084518
 30
0.0
 40
2.5
  1
208
  7
ARIAL
  0
LINE
  5
446
  8
DIM49
 10
199.78647249
 20
-238.67084518
 30
0.0
 11
201.78647249
 21
-236.67084518
 31
0.0
  0
LINE
  5
447
  8
DIM49
 10
97.53647249
 20
-236.92084518
 30
0.0
 11
96.03647249
 21
-238.42084518
 31
0.0
  0
LINE
  5
448
  8
DIM49
 10
200.78647249
 20
-237.67084518
 30
0.0
 11
96.78647249
 21
-237.67084518
 31
0.0
  0
LINE
  5
449
  8
DIM49
 10
200.78647249
 20
-235.67084518
 30
0.0
 11
200.78647249
 21
-239.67084518
 31
0.0
  0
LINE
  5
44A
  8
DIM49
 10
96.78647249
 20
-235.67084518
 30
0.0
 11
96.78647249
 21
-239.67084518
 31
0.0
  0
ENDBLK
  8
0
  0
BLOCK
  8
0
  2
_D3
 70
     0
 10
70.40671938
 20
-186.34634888
 30
0.0
  0
TEXT
  5
44D
  8
TXT_DIM49
 10
70.40671938
 20
-186.34634888
 30
0.0
 40
2.5
  1
110
  7
ARIAL
  0
LINE
  5
44E
  8
DIM49
 10
46.78647249
 20
-186.84634888
 30
0.0
 11
44.78647249
 21
-188.84634888
 31
0.0
  0
LINE
  5
44F
  8
DIM49
 10
100.03647249
 20
-188.59634888
 30
0.0
 11
101.53647249
 21
-187.09634888
 31
0.0
  0
LINE
  5
450
  8
DIM49
 10
45.78647249
 20
-187.84634888
 30
0.0
 11
100.78647249
 21
-187.84634888
 31
0.0
  0
LINE
  5
451
  8
DIM49
 10
45.78647249
 20
-189.84634888
 30
0.0
 11
45.78647249
 21
-185.84634888
 31
0.0
  0
LINE
  5
452
  8
DIM49
 10
100.78647249
 20
-189.84634888
 30
0.0
 11
100.78647249
 21
-185.84634888
 31
0.0
  0
ENDBLK
  8
0
  0
BLOCK
  8
0
  2
_D4
 70
     0
 10
37.36505197
 20
-214.59068063
 30
0.0
  0
TEXT
  5
455
  8
TXT_DIM49
 10
37.36505197
 20
-214.59068063
 30
0.0
 40
2.5
  1
60
 50
90.00020741
  7
ARIAL
  0
LINE
  5
456
  8
DIM49
 10
37.86505197
 20
-226.67084518
 30
0.0
 11
39.86505197
 21
-228.67084518
 31
0.0
  0
LINE
  5
457
  8
DIM49
 10
39.61505197
 20
-198.42084518
 30
0.0
 11
38.11505197
 21
-196.92084518
 31
0.0
  0
LINE
  5
458
  8
DIM49
 10
38.86505197
 20
-227.67084518
 30
0.0
 11
38.86505197
 21
-197.67084518
 31
0.0
  0
LINE
  5
459
  8
DIM49
 10
40.86505197
 20
-227.67084518
 30
0.0
 11
36.86505197
 21
-227.67084518
 31
0.0
  0
LINE
  5
45A
  8
DIM49
 10
40.86505197
 20
-197.67084518
 30
0.0
 11
36.86505197
 21
-197.67084518
 31
0.0
  0
ENDBLK
  8
0
  0
BLOCK
  8
0
  2
_D5
 70
     0
 10
37.36505197
 20
-196.63076291
 30
0.0
  0
TEXT
  5
45D
  8
TXT_DIM49
 10
37.36505197
 20
-196.63076291
 30
0.0
 40
2.5
  1
8
 50
90.00020741
  7
ARIAL
  0
LINE
  5
45E
  8
DIM49
 10
37.86505197
 20
-196.67084518
 30
0.0
 11
39.86505197
 21
-198.67084518
 31
0.0
  0
LINE
  5
45F
  8
DIM49
 10
39.61505197
 20
-194.42084518
 30
0.0
 11
38.11505197
 21
-192.92084518
 31
0.0
  0
LINE
  5
460
  8
DIM49
 10
38.86505197
 20
-197.67084518
 30
0.0
 11
38.86505197
 21
-193.67084518
 31
0.0
  0
LINE
  5
461
  8
DIM49
 10
40.86505197
 20
-197.67084518
 30
0.0
 11
36.86505197
 21
-197.67084518
 31
0.0
  0
LINE
  5
462
  8
DIM49
 10
40.86505197
 20
-193.67084518
 30
0.0
 11
36.86505197
 21
-193.67084518
 31
0.0
  0
ENDBLK
  8
0
  0
BLOCK
  8
0
  2
_D6
 70
     0
 10
27.36505197
 20
-212.59068063
 30
0.0
  0
TEXT
  5
465
  8
TXT_DIM49
 10
27.36505197
 20
-212.59068063
 30
0.0
 40
2.5
  1
68
 50
90.00020741
  7
ARIAL
  0
LINE
  5
466
  8
DIM49
 10
29.86505197
 20
-194.67084518
 30
0.0
 11
27.86505197
 21
-192.67084518
 31
0.0
  0
LINE
  5
467
  8
DIM49
 10
28.11505197
 20
-226.92084518
 30
0.0
 11
29.61505197
 21
-228.42084518
 31
0.0
  0
LINE
  5
468
  8
DIM49
 10
28.86505197
 20
-193.67084518
 30
0.0
 11
28.86505197
 21
-227.67084518
 31
0.0
  0
LINE
  5
469
  8
DIM49
 10
30.86505197
 20
-193.67084518
 30
0.0
 11
26.86505197
 21
-193.67084518
 31
0.0
  0
LINE
  5
46A
  8
DIM49
 10
30.86505197
 20
-227.67084518
 30
0.0
 11
26.86505197
 21
-227.67084518
 31
0.0
  0
ENDBLK
  8
0
  0
BLOCK
  8
0
  2
_D7
 70
     0
 10
262.5508014
 20
-184.98068545
 30
0.0
  0
TEXT
  5
473
  8
TXT_DIM49
 10
262.5508014
 20
-184.98068545
 30
0.0
 40
2.5
  1
60
  7
ARIAL
  0
LINE
  5
474
  8
DIM49
 10
250.47063684
 20
-185.48068545
 30
0.0
 11
248.47063684
 21
-187.48068545
 31
0.0
  0
LINE
  5
475
  8
DIM49
 10
278.72063684
 20
-187.23068545
 30
0.0
 11
280.22063684
 21
-185.73068545
 31
0.0
  0
LINE
  5
476
  8
DIM49
 10
249.47063684
 20
-186.48068545
 30
0.0
 11
279.47063684
 21
-186.48068545
 31
0.0
  0
LINE
  5
477
  8
DIM49
 10
249.47063684
 20
-188.48068545
 30
0.0
 11
249.47063684
 21
-184.48068545
 31
0.0
  0
LINE
  5
478
  8
DIM49
 10
279.47063684
 20
-188.48068545
 30
0.0
 11
279.47063684
 21
-184.48068545
 31
0.0
  0
ENDBLK
  8
0
  0
BLOCK
  8
0
  2
_D8
 70
     0
 10
215.24954748
 20
-129.41059599
 30
0.0
  0
TEXT
  5
491
  8
TXT_DIM49
 10
215.24954748
 20
-129.41059599
 30
0.0
 40
2.5
  1
60
 50
90.00020741
  7
ARIAL
  0
LINE
  5
492
  8
DIM49
 10
217.74954748
 20
-113.49076055
 30
0.0
 11
215.74954748
 21
-111.49076055
 31
0.0
  0
LINE
  5
493
  8
DIM49
 10
215.99954748
 20
-141.74076055
 30
0.0
 11
217.49954748
 21
-143.24076055
 31
0.0
  0
LINE
  5
494
  8
DIM49
 10
216.74954748
 20
-112.49076055
 30
0.0
 11
216.74954748
 21
-142.49076055
 31
0.0
  0
LINE
  5
495
  8
DIM49
 10
214.74954748
 20
-112.49076055
 30
0.0
 11
218.74954748
 21
-112.49076055
 31
0.0
  0
LINE
  5
496
  8
DIM49
 10
214.74954748
 20
-142.49076055
 30
0.0
 11
218.74954748
 21
-142.49076055
 31
0.0
  0
ENDBLK
  8
0
  0
BLOCK
  8
0
  2
_D9
 70
     0
 10
161.68062375
 20
-131.25313256
 30
0.0
  0
TEXT
  5
499
  8
TXT_DIM49
 10
161.68062375
 20
-131.25313256
 30
0.0
 40
2.5
  1
Ø
 50
90.00020741
  7
ARIAL
  0
TEXT
  5
49A
  8
TXT_DIM49
 10
161.68062375
 20
-127.56805966
 30
0.0
 40
2.5
  1
13
 50
90.00020741
  7
ARIAL
  0
LINE
  5
49B
  8
DIM49
 10
162.18062375
 20
-129.74076055
 30
0.0
 11
164.18062375
 21
-131.74076055
 31
0.0
  0
LINE
  5
49C
  8
DIM49
 10
163.93062375
 20
-124.99076055
 30
0.0
 11
162.43062375
 21
-123.49076055
 31
0.0
  0
LINE
  5
49D
  8
DIM49
 10
163.18062375
 20
-130.74076055
 30
0.0
 11
163.18062375
 21
-124.24076055
 31
0.0
  0
LINE
  5
49E
  8
DIM49
 10
165.18062375
 20
-130.74076055
 30
0.0
 11
161.18062375
 21
-130.74076055
 31
0.0
  0
LINE
  5
49F
  8
DIM49
 10
165.18062375
 20
-124.24076055
 30
0.0
 11
161.18062375
 21
-124.24076055
 31
0.0
  0
ENDBLK
  8
0
  0
BLOCK
  8
0
  2
_D10
 70
     0
 10
139.52410047
 20
-118.62544632
 30
0.0
  0
TEXT
  5
4A2
  8
TXT_DIM49
 10
139.52410047
 20
-118.62544632
 30
0.0
 40
2.5
  1
Ø
  7
ARIAL
  0
TEXT
  5
4A3
  8
TXT_DIM49
 10
143.20917337
 20
-118.62544632
 30
0.0
 40
2.5
  1
13
  7
ARIAL
  0
LINE
  5
4A4
  8
DIM49
 10
141.03647249
 20
-119.12544632
 30
0.0
 11
139.03647249
 21
-121.12544632
 31
0.0
  0
LINE
  5
4A5
  8
DIM49
 10
145.78647249
 20
-120.87544632
 30
0.0
 11
147.28647249
 21
-119.37544632
 31
0.0
  0
LINE
  5
4A6
  8
DIM49
 10
140.03647249
 20
-120.12544632
 30
0.0
 11
146.53647249
 21
-120.12544632
 31
0.0
  0
LINE
  5
4A7
  8
DIM49
 10
140.03647249
 20
-122.12544632
 30
0.0
 11
140.03647249
 21
-118.12544632
 31
0.0
  0
LINE
  5
4A8
  8
DIM49
 10
146.53647249
 20
-122.12544632
 30
0.0
 11
146.53647249
 21
-118.12544632
 31
0.0
  0
ENDBLK
  8
0
  0
BLOCK
  8
0
  2
_D11
 70
     0
 10
48.73401826
 20
-106.74076055
 30
0.0
  0
TEXT
  5
4AB
  8
TXT_DIM49
 10
48.73401826
 20
-106.74076055
 30
0.0
 40
2.5
  1
Ø
  7
ARIAL
  0
TEXT
  5
4AC
  8
TXT_DIM49
 10
52.41909116
 20
-106.74076055
 30
0.0
 40
2.5
  1
8
  7
ARIAL
  0
LINE
  5
4AD
  8
DIM49
 10
50.53647249
 20
-107.24076055
 30
0.0
 11
48.53647249
 21
-109.24076055
 31
0.0
  0
LINE
  5
4AE
  8
DIM49
 10
52.78647249
 20
-108.99076055
 30
0.0
 11
54.28647249
 21
-107.49076055
 31
0.0
  0
LINE
  5
4AF
  8
DIM49
 10
49.53647249
 20
-108.24076055
 30
0.0
 11
53.53647249
 21
-108.24076055
 31
0.0
  0
LINE
  5
4B0
  8
DIM49
 10
49.53647249
 20
-110.24076055
 30
0.0
 11
49.53647249
 21
-106.24076055
 31
0.0
  0
LINE
  5
4B1
  8
DIM49
 10
53.53647249
 20
-110.24076055
 30
0.0
 11
53.53647249
 21
-106.24076055
 31
0.0
  0
ENDBLK
  8
0
  0
BLOCK
  8
0
  2
_D12
 70
     0
 10
57.02410047
 20
-117.85993707
 30
0.0
  0
TEXT
  5
4B4
  8
TXT_DIM49
 10
57.02410047
 20
-117.85993707
 30
0.0
 40
2.5
  1
Ø
  7
ARIAL
  0
TEXT
  5
4B5
  8
TXT_DIM49
 10
60.70917337
 20
-117.85993707
 30
0.0
 40
2.5
  1
13
  7
ARIAL
  0
LINE
  5
4B6
  8
DIM49
 10
58.53647249
 20
-118.35993707
 30
0.0
 11
56.53647249
 21
-120.35993707
 31
0.0
  0
LINE
  5
4B7
  8
DIM49
 10
63.28647249
 20
-120.10993707
 30
0.0
 11
64.78647249
 21
-118.60993707
 31
0.0
  0
LINE
  5
4B8
  8
DIM49
 10
57.53647249
 20
-119.35993707
 30
0.0
 11
64.03647249
 21
-119.35993707
 31
0.0
  0
LINE
  5
4B9
  8
DIM49
 10
57.53647249
 20
-121.35993707
 30
0.0
 11
57.53647249
 21
-117.35993707
 31
0.0
  0
LINE
  5
4BA
  8
DIM49
 10
64.03647249
 20
-121.35993707
 30
0.0
 11
64.03647249
 21
-117.35993707
 31
0.0
  0
ENDBLK
  8
0
  0
BLOCK
  8
0
  2
_D13
 70
     0
 10
34.28647249
 20
-111.61113892
 30
0.0
  0
TEXT
  5
4BD
  8
TXT_DIM49
 10
34.28647249
 20
-111.61113892
 30
0.0
 40
2.5
  1
11,5
 50
90.00020741
  7
ARIAL
  0
LINE
  5
4BE
  8
DIM49
 10
34.78647249
 20
-111.49076055
 30
0.0
 11
36.78647249
 21
-113.49076055
 31
0.0
  0
LINE
  5
4BF
  8
DIM49
 10
36.53647249
 20
-118.99076055
 30
0.0
 11
35.03647249
 21
-117.49076055
 31
0.0
  0
LINE
  5
4C0
  8
DIM49
 10
35.78647249
 20
-103.89255689
 30
0.0
 11
35.78647249
 21
-124.24076055
 31
0.0
  0
LINE
  5
4C1
  8
DIM49
 10
37.78647249
 20
-112.49076055
 30
0.0
 11
33.78647249
 21
-112.49076055
 31
0.0
  0
LINE
  5
4C2
  8
DIM49
 10
37.78647249
 20
-118.24076055
 30
0.0
 11
33.78647249
 21
-118.24076055
 31
0.0
  0
ENDBLK
  8
0
  0
BLOCK
  8
0
  2
_D14
 70
     0
 10
41.58244341
 20
-126.22505138
 30
0.0
  0
TEXT
  5
4C5
  8
TXT_DIM49
 10
41.58244341
 20
-126.22505138
 30
0.0
 40
2.5
  1
18,5
 50
90.00020741
  7
ARIAL
  0
LINE
  5
4C6
  8
DIM49
 10
36.78647249
 20
-119.24076055
 30
0.0
 11
34.78647249
 21
-117.24076055
 31
0.0
  0
LINE
  5
4C7
  8
DIM49
 10
35.03647249
 20
-126.74076055
 30
0.0
 11
36.53647249
 21
-128.24076055
 31
0.0
  0
LINE
  5
4C8
  8
DIM49
 10
35.78647249
 20
-118.24076055
 30
0.0
 11
35.78647249
 21
-127.49076055
 31
0.0
  0
LINE
  5
4C9
  8
DIM49
 10
35.78647249
 20
-122.86576055
 30
0.0
 11
38.08244364
 21
-122.86576055
 31
0.0
  0
LINE
  5
4CA
  8
DIM49
 10
37.78647249
 20
-118.24076055
 30
0.0
 11
33.78647249
 21
-118.24076055
 31
0.0
  0
LINE
  5
4CB
  8
DIM49
 10
37.78647249
 20
-127.49076055
 30
0.0
 11
33.78647249
 21
-127.49076055
 31
0.0
  0
ENDBLK
  8
0
  0
BLOCK
  8
0
  2
_D15
 70
     0
 10
34.28647249
 20
-135.47505138
 30
0.0
  0
TEXT
  5
4CE
  8
TXT_DIM49
 10
34.28647249
 20
-135.47505138
 30
0.0
 40
2.5
  1
18,5
 50
90.00020741
  7
ARIAL
  0
LINE
  5
4CF
  8
DIM49
 10
36.78647249
 20
-128.49076055
 30
0.0
 11
34.78647249
 21
-126.49076055
 31
0.0
  0
LINE
  5
4D0
  8
DIM49
 10
35.03647249
 20
-135.99076055
 30
0.0
 11
36.53647249
 21
-137.49076055
 31
0.0
  0
LINE
  5
4D1
  8
DIM49
 10
35.78647249
 20
-127.49076055
 30
0.0
 11
35.78647249
 21
-136.74076055
 31
0.0
  0
LINE
  5
4D2
  8
DIM49
 10
37.78647249
 20
-127.49076055
 30
0.0
 11
33.78647249
 21
-127.49076055
 31
0.0
  0
LINE
  5
4D3
  8
DIM49
 10
37.78647249
 20
-136.74076055
 30
0.0
 11
33.78647249
 21
-136.74076055
 31
0.0
  0
ENDBLK
  8
0
  0
BLOCK
  8
0
  2
_D16
 70
     0
 10
34.28647249
 20
-150.43431209
 30
0.0
  0
TEXT
  5
4D6
  8
TXT_DIM49
 10
34.28647249
 20
-150.43431209
 30
0.0
 40
2.5
  1
11,5
 50
90.00020741
  7
ARIAL
  0
LINE
  5
4D7
  8
DIM49
 10
34.78647249
 20
-135.74076055
 30
0.0
 11
36.78647249
 21
-137.74076055
 31
0.0
  0
LINE
  5
4D8
  8
DIM49
 10
36.53647249
 20
-143.24076055
 30
0.0
 11
35.03647249
 21
-141.74076055
 31
0.0
  0
LINE
  5
4D9
  8
DIM49
 10
35.78647249
 20
-130.74076055
 30
0.0
 11
35.78647249
 21
-151.43431066
 31
0.0
  0
LINE
  5
4DA
  8
DIM49
 10
37.78647249
 20
-136.74076055
 30
0.0
 11
33.78647249
 21
-136.74076055
 31
0.0
  0
LINE
  5
4DB
  8
DIM49
 10
37.78647249
 20
-142.49076055
 30
0.0
 11
33.78647249
 21
-142.49076055
 31
0.0
  0
ENDBLK
  8
0
  0
BLOCK
  8
0
  2
_D17
 70
     0
 10
38.02246087
 20
-149.72788177
 30
0.0
  0
TEXT
  5
4DE
  8
TXT_DIM49
 10
38.02246087
 20
-149.72788177
 30
0.0
 40
2.5
  1
11,5
  7
ARIAL
  0
LINE
  5
4DF
  8
DIM49
 10
44.78647249
 20
-152.22788177
 30
0.0
 11
46.78647249
 21
-150.22788177
 31
0.0
  0
LINE
  5
4E0
  8
DIM49
 10
52.28647249
 20
-150.47788177
 30
0.0
 11
50.78647249
 21
-151.97788177
 31
0.0
  0
LINE
  5
4E1
  8
DIM49
 10
37.02246111
 20
-151.22788177
 30
0.0
 11
57.53647249
 21
-151.22788177
 31
0.0
  0
LINE
  5
4E2
  8
DIM49
 10
45.78647249
 20
-149.22788177
 30
0.0
 11
45.78647249
 21
-153.22788177
 31
0.0
  0
LINE
  5
4E3
  8
DIM49
 10
51.53647249
 20
-149.22788177
 30
0.0
 11
51.53647249
 21
-153.22788177
 31
0.0
  0
ENDBLK
  8
0
  0
BLOCK
  8
0
  2
_D18
 70
     0
 10
52.80218165
 20
-149.72788177
 30
0.0
  0
TEXT
  5
4E6
  8
TXT_DIM49
 10
52.80218165
 20
-149.72788177
 30
0.0
 40
2.5
  1
18,5
  7
ARIAL
  0
LINE
  5
4E7
  8
DIM49
 10
52.53647249
 20
-150.22788177
 30
0.0
 11
50.53647249
 21
-152.22788177
 31
0.0
  0
LINE
  5
4E8
  8
DIM49
 10
60.03647249
 20
-151.97788177
 30
0.0
 11
61.53647249
 21
-150.47788177
 31
0.0
  0
LINE
  5
4E9
  8
DIM49
 10
51.53647249
 20
-151.22788177
 30
0.0
 11
60.78647249
 21
-151.22788177
 31
0.0
  0
LINE
  5
4EA
  8
DIM49
 10
51.53647249
 20
-149.22788177
 30
0.0
 11
51.53647249
 21
-153.22788177
 31
0.0
  0
LINE
  5
4EB
  8
DIM49
 10
60.78647249
 20
-149.22788177
 30
0.0
 11
60.78647249
 21
-153.22788177
 31
0.0
  0
ENDBLK
  8
0
  0
BLOCK
  8
0
  2
_D19
 70
     0
 10
71.43203931
 20
-149.72788177
 30
0.0
  0
TEXT
  5
4EE
  8
TXT_DIM49
 10
71.43203931
 20
-149.72788177
 30
0.0
 40
2.5
  1
18,5
  7
ARIAL
  0
LINE
  5
4EF
  8
DIM49
 10
59.78647249
 20
-152.22788177
 30
0.0
 11
61.78647249
 21
-150.22788177
 31
0.0
  0
LINE
  5
4F0
  8
DIM49
 10
70.78647249
 20
-150.47788177
 30
0.0
 11
69.28647249
 21
-151.97788177
 31
0.0
  0
LINE
  5
4F1
  8
DIM49
 10
54.78647249
 20
-151.22788177
 30
0.0
 11
79.15061968
 21
-151.22788177
 31
0.0
  0
LINE
  5
4F2
  8
DIM49
 10
60.78647249
 20
-149.22788177
 30
0.0
 11
60.78647249
 21
-153.22788177
 31
0.0
  0
LINE
  5
4F3
  8
DIM49
 10
70.03647249
 20
-149.22788177
 30
0.0
 11
70.03647249
 21
-153.22788177
 31
0.0
  0
ENDBLK
  8
0
  0
BLOCK
  8
0
  2
_D20
 70
     0
 10
206.18934401
 20
-136.91059599
 30
0.0
  0
TEXT
  5
4F6
  8
TXT_DIM49
 10
206.18934401
 20
-136.91059599
 30
0.0
 40
2.5
  1
30
 50
90.00020741
  7
ARIAL
  0
LINE
  5
4F7
  8
DIM49
 10
206.68934401
 20
-141.49076055
 30
0.0
 11
208.68934401
 21
-143.49076055
 31
0.0
  0
LINE
  5
4F8
  8
DIM49
 10
208.43934401
 20
-128.24076055
 30
0.0
 11
206.93934401
 21
-126.74076055
 31
0.0
  0
LINE
  5
4F9
  8
DIM49
 10
207.68934401
 20
-142.49076055
 30
0.0
 11
207.68934401
 21
-127.49076055
 31
0.0
  0
LINE
  5
4FA
  8
DIM49
 10
205.68934401
 20
-142.49076055
 30
0.0
 11
209.68934401
 21
-142.49076055
 31
0.0
  0
LINE
  5
4FB
  8
DIM49
 10
205.68934401
 20
-127.49076055
 30
0.0
 11
209.68934401
 21
-127.49076055
 31
0.0
  0
ENDBLK
  8
0
  0
BLOCK
  8
0
  2
_D21
 70
     0
 10
206.18934401
 20
-121.91059599
 30
0.0
  0
TEXT
  5
4FE
  8
TXT_DIM49
 10
206.18934401
 20
-121.91059599
 30
0.0
 40
2.5
  1
30
 50
90.00020741
  7
ARIAL
  0
LINE
  5
4FF
  8
DIM49
 10
206.68934401
 20
-126.49076055
 30
0.0
 11
208.68934401
 21
-128.49076055
 31
0.0
  0
LINE
  5
500
  8
DIM49
 10
208.43934401
 20
-113.24076055
 30
0.0
 11
206.93934401
 21
-111.74076055
 31
0.0
  0
LINE
  5
501
  8
DIM49
 10
207.68934401
 20
-127.49076055
 30
0.0
 11
207.68934401
 21
-112.49076055
 31
0.0
  0
LINE
  5
502
  8
DIM49
 10
205.68934401
 20
-127.49076055
 30
0.0
 11
209.68934401
 21
-127.49076055
 31
0.0
  0
LINE
  5
503
  8
DIM49
 10
205.68934401
 20
-112.49076055
 30
0.0
 11
209.68934401
 21
-112.49076055
 31
0.0
  0
ENDBLK
  8
0
  0
BLOCK
  8
0
  2
_D22
 70
     0
 10
193.86663704
 20
-147.49322547
 30
0.0
  0
TEXT
  5
506
  8
TXT_DIM49
 10
193.86663704
 20
-147.49322547
 30
0.0
 40
2.5
  1
20
  7
ARIAL
  0
LINE
  5
507
  8
DIM49
 10
199.78647249
 20
-149.99322547
 30
0.0
 11
201.78647249
 21
-147.99322547
 31
0.0
  0
LINE
  5
508
  8
DIM49
 10
191.53647249
 20
-148.24322547
 30
0.0
 11
190.03647249
 21
-149.74322547
 31
0.0
  0
LINE
  5
509
  8
DIM49
 10
200.78647249
 20
-148.99322547
 30
0.0
 11
190.78647249
 21
-148.99322547
 31
0.0
  0
LINE
  5
50A
  8
DIM49
 10
200.78647249
 20
-146.99322547
 30
0.0
 11
200.78647249
 21
-150.99322547
 31
0.0
  0
LINE
  5
50B
  8
DIM49
 10
190.78647249
 20
-146.99322547
 30
0.0
 11
190.78647249
 21
-150.99322547
 31
0.0
  0
ENDBLK
  8
0
  0
BLOCK
  8
0
  2
_D23
 70
     0
 10
178.86663705
 20
-147.49322547
 30
0.0
  0
TEXT
  5
50E
  8
TXT_DIM49
 10
178.86663705
 20
-147.49322547
 30
0.0
 40
2.5
  1
40
  7
ARIAL
  0
LINE
  5
50F
  8
DIM49
 10
189.78647249
 20
-149.99322547
 30
0.0
 11
191.78647249
 21
-147.99322547
 31
0.0
  0
LINE
  5
510
  8
DIM49
 10
171.5364725
 20
-148.24322547
 30
0.0
 11
170.0364725
 21
-149.74322547
 31
0.0
  0
LINE
  5
511
  8
DIM49
 10
190.78647249
 20
-148.99322547
 30
0.0
 11
170.7864725
 21
-148.99322547
 31
0.0
  0
LINE
  5
512
  8
DIM49
 10
190.78647249
 20
-146.99322547
 30
0.0
 11
190.78647249
 21
-150.99322547
 31
0.0
  0
LINE
  5
513
  8
DIM49
 10
170.7864725
 20
-146.99322547
 30
0.0
 11
170.7864725
 21
-150.99322547
 31
0.0
  0
ENDBLK
  8
0
  0
BLOCK
  8
0
  2
_D24
 70
     0
 10
155.11663705
 20
-147.49322547
 30
0.0
  0
TEXT
  5
516
  8
TXT_DIM49
 10
155.11663705
 20
-147.49322547
 30
0.0
 40
2.5
  1
55
  7
ARIAL
  0
LINE
  5
517
  8
DIM49
 10
169.7864725
 20
-149.99322547
 30
0.0
 11
171.7864725
 21
-147.99322547
 31
0.0
  0
LINE
  5
518
  8
DIM49
 10
144.03647249
 20
-148.24322547
 30
0.0
 11
142.53647249
 21
-149.74322547
 31
0.0
  0
LINE
  5
519
  8
DIM49
 10
170.7864725
 20
-148.99322547
 30
0.0
 11
143.28647249
 21
-148.99322547
 31
0.0
  0
LINE
  5
51A
  8
DIM49
 10
170.7864725
 20
-146.99322547
 30
0.0
 11
170.7864725
 21
-150.99322547
 31
0.0
  0
LINE
  5
51B
  8
DIM49
 10
143.28647249
 20
-146.99322547
 30
0.0
 11
143.28647249
 21
-150.99322547
 31
0.0
  0
ENDBLK
  8
0
  0
BLOCK
  8
0
  2
_ZBL0002_00001
 70
     0
 10
0.0
 20
0.0
 30
0.0
  0
INSERT
  5
1C8
  8
0
  2
DINA3_00002
 10
-7.10800247
 20
-336.67893989
 30
0.0
  0
ENDBLK
  8
0
  0
BLOCK
  8
0
  2
DINA3_00002
 70
     0
 10
-7.10800247
 20
-336.67893989
 30
0.0
  0
POLYLINE
  5
1CB
  8
0
 66
     1
 10
0.0
 20
0.0
 30
0.0
 70
     1
  0
VERTEX
  5
1CC
  8
0
 10
-7.10800247
 20
-336.67893989
 30
0.0
  0
VERTEX
  5
1CD
  8
0
 10
412.89199753
 20
-336.67893989
 30
0.0
  0
VERTEX
  5
1CE
  8
0
 10
412.89199753
 20
-39.67893989
 30
0.0
  0
VERTEX
  5
1CF
  8
0
 10
-7.10800247
 20
-39.67893989
 30
0.0
  0
SEQEND
  5
1D0
  8
0
  0
POLYLINE
  5
1D1
  8
0
 66
     1
 10
0.0
 20
0.0
 30
0.0
 70
     1
  0
VERTEX
  5
1D2
  8
0
 10
-2.10800247
 20
-331.67893989
 30
0.0
  0
VERTEX
  5
1D3
  8
0
 10
407.89199753
 20
-331.67893989
 30
0.0
  0
VERTEX
  5
1D4
  8
0
 10
407.89199753
 20
-44.67893989
 30
0.0
  0
VERTEX
  5
1D5
  8
0
 10
-2.10800247
 20
-44.67893989
 30
0.0
  0
SEQEND
  5
1D6
  8
0
  0
LINE
  5
1D7
  8
0
 10
222.89199753
 20
-331.67893989
 30
0.0
 11
222.89199753
 21
-336.67893989
 31
0.0
  0
LINE
  5
1D8
  8
0
 10
222.89199753
 20
-44.67893989
 30
0.0
 11
222.89199753
 21
-39.67893989
 31
0.0
  0
LINE
  5
1D9
  8
0
 10
12.89199753
 20
-331.67893989
 30
0.0
 11
12.89199753
 21
-336.67893989
 31
0.0
  0
LINE
  5
1DA
  8
0
 10
12.89199753
 20
-44.67893989
 30
0.0
 11
12.89199753
 21
-39.67893989
 31
0.0
  0
TEXT
  5
1DB
  8
TXT_ALL
 62
     4
 10
411.89199753
 20
-335.67893989
 30
0.0
 40
2.5
  1

 50
90.00020741
  0
POLYLINE
  5
1DC
  8
0
 66
     1
 10
0.0
 20
0.0
 30
0.0
  0
VERTEX
  5
1DD
  8
0
 10
407.89199753
 20
-54.67893989
 30
0.0
  0
VERTEX
  5
1DE
  8
0
 10
338.89869753
 20
-54.67893989
 30
0.0
  0
VERTEX
  5
1DF
  8
0
 10
338.89869753
 20
-44.67893989
 30
0.0
  0
SEQEND
  5
1E0
  8
0
  0
LINE
  5
1E1
  8
0
 10
340.80199753
 20
-312.17893989
 30
0.0
 11
200.91199753
 21
-312.17893989
 31
0.0
  0
LINE
  5
1E2
  8
0
 10
200.91199753
 20
-321.92893989
 30
0.0
 11
340.80199753
 21
-321.92893989
 31
0.0
  0
POLYLINE
  5
1E3
  8
0
 66
     1
 10
0.0
 20
0.0
 30
0.0
  0
VERTEX
  5
1E4
  8
0
 10
200.91199753
 20
-312.17893989
 30
0.0
  0
VERTEX
  5
1E5
  8
0
 10
200.91199753
 20
-321.92893989
 30
0.0
  0
VERTEX
  5
1E6
  8
0
 10
200.91199753
 20
-331.67893989
 30
0.0
  0
SEQEND
  5
1E7
  8
0
  0
POLYLINE
  5
1E8
  8
0
 66
     1
 10
0.0
 20
0.0
 30
0.0
  0
VERTEX
  5
1E9
  8
0
 10
270.85699753
 20
-312.17893989
 30
0.0
  0
VERTEX
  5
1EA
  8
0
 10
270.85699753
 20
-321.92893989
 30
0.0
  0
VERTEX
  5
1EB
  8
0
 10
270.85699753
 20
-331.67893989
 30
0.0
  0
SEQEND
  5
1EC
  8
0
  0
INSERT
  5
1ED
  8
0
  2
FLEX_00003
 10
202.91199753
 20
-317.05393989
 30
0.0
  0
INSERT
  5
1EE
  8
0
  2
FLEX_00005
 10
202.91199753
 20
-326.80393989
 30
0.0
  0
INSERT
  5
1EF
  8
0
  2
FLEX_00007
 10
272.85699753
 20
-326.80393989
 30
0.0
  0
INSERT
  5
1F0
  8
0
  2
FLEX_00009
 10
272.85699753
 20
-317.05393989
 30
0.0
  0
INSERT
  5
1F1
  8
0
  2
SCHRIFE_00011
 10
1.33395779
 20
-49.67893989
 30
0.0
  0
INSERT
  5
1F2
  8
0
  2
_B_M_P___00015
 10
389.73442361
 20
-336.56893989
 30
0.0
  0
ENDBLK
  8
0
  0
BLOCK
  8
0
  2
FLEX_00003
 70
     0
 10
202.91199753
 20
-317.05393989
 30
0.0
  0
INSERT
  5
1F5
  8
0
  2
TFIELD_00004
 10
202.91199753
 20
-317.05393989
 30
0.0
  0
ENDBLK
  8
0
  0
BLOCK
  8
0
  2
TFIELD_00004
 70
     0
 10
202.91199753
 20
-317.05393989
 30
0.0
  0
TEXT
  5
1F8
  8
TXT_ALL
 10
202.91199753
 20
-318.35393985
 30
0.0
 40
2.5999999
  1
E-mail: verkoop@jonkers-bouwmetaal.nl
  7
ARIAL
  0
ENDBLK
  8
0
  0
BLOCK
  8
0
  2
FLEX_00005
 70
     0
 10
202.91199753
 20
-326.80393989
 30
0.0
  0
INSERT
  5
1FB
  8
0
  2
TFIELD_00006
 10
202.91199753
 20
-326.80393989
 30
0.0
  0
ENDBLK
  8
0
  0
BLOCK
  8
0
  2
TFIELD_00006
 70
     0
 10
202.91199753
 20
-326.80393989
 30
0.0
  0
TEXT
  5
1FE
  8
TXT_ALL
 10
202.91199753
 20
-328.10393985
 30
0.0
 40
2.5999999
  1
Telefoon: 0527-685156
  7
ARIAL
  0
ENDBLK
  8
0
  0
BLOCK
  8
0
  2
FLEX_00007
 70
     0
 10
272.85699753
 20
-326.80393989
 30
0.0
  0
INSERT
  5
201
  8
0
  2
TFIELD_00008
 10
272.85699753
 20
-326.80393989
 30
0.0
  0
ENDBLK
  8
0
  0
BLOCK
  8
0
  2
TFIELD_00008
 70
     0
 10
272.85699753
 20
-326.80393989
 30
0.0
  0
TEXT
  5
204
  8
TXT_ALL
 10
272.85699753
 20
-328.10393985
 30
0.0
 40
2.5999999
  1
Website: www.jonkers-bouwmetaal.nl
  7
ARIAL
  0
ENDBLK
  8
0
  0
BLOCK
  8
0
  2
FLEX_00009
 70
     0
 10
272.85699753
 20
-317.05393989
 30
0.0
  0
INSERT
  5
207
  8
0
  2
TFIELD_00010
 10
272.85699753
 20
-317.05393989
 30
0.0
  0
ENDBLK
  8
0
  0
BLOCK
  8
0
  2
TFIELD_00010
 70
     0
 10
272.85699753
 20
-317.05393989
 30
0.0
  0
TEXT
  5
20A
  8
TXT_ALL
 10
272.85699753
 20
-318.35393985
 30
0.0
 40
2.5999999
  1
Adres: Hoornse Hop 10, 8321 WX Urk
  7
ARIAL
  0
ENDBLK
  8
0
  0
BLOCK
  8
0
  2
SCHRIFE_00011
 70
     0
 10
1.33395779
 20
-49.67893989
 30
0.0
  0
TEXT
  5
20D
  8
TXT_ALL
 10
1.33395779
 20
-50.92893989
 30
0.0
 40
2.5
  1
Art. nr. 91017458
  7
ARIAL
  0
TEXT
  5
20E
  8
TXT_ALL
 10
44.0719946
 20
-50.92893989
 30
0.0
 40
2.5
  1
Omschrijving: Z08-anker 208x68x110 60x8 (sprong 60mm)
  7
ARIAL
  0
LINE
  5
20F
  8
0
 10
407.89199753
 20
-54.67893989
 30
0.0
 11
-2.10800247
 21
-54.67893989
 31
0.0
  0
LINE
  5
210
  8
0
 10
40.91199753
 20
-54.67893989
 30
0.0
 11
40.91199753
 21
-44.67893989
 31
0.0
  0
LINE
  5
211
  8
0
 10
200.91199753
 20
-54.67893989
 30
0.0
 11
200.91199753
 21
-44.67893989
 31
0.0
  0
TEXT
  5
212
  8
TXT_ALL
 10
271.90569753
 20
-50.92893989
 30
0.0
 40
2.5
  1
Behandeling: Thermisch verzinkt
  7
ARIAL
  0
LINE
  5
213
  8
0
 10
340.80199753
 20
-312.17893989
 30
0.0
 11
407.89199753
 21
-312.17893989
 31
0.0
  0
LINE
  5
214
  8
0
 10
340.80199753
 20
-331.67893989
 30
0.0
 11
340.80199753
 21
-312.17893989
 31
0.0
  0
LINE
  5
215
  8
0
 10
340.80199753
 20
-331.67893989
 30
0.0
 11
340.80199753
 21
-312.17893989
 31
0.0
  0
TEXT
  5
216
  8
TXT_ALL
 10
135.25719563
 20
-330.52440648
 30
0.0
 40
2.5
  1

  0
TEXT
  5
217
  8
TXT_ALL
 10
256.39237859
 20
-320.42893989
 30
0.0
 40
2.5
  1

  0
POLYLINE
  5
218
  8
0
 66
     1
 10
0.0
 20
0.0
 30
0.0
  0
VERTEX
  5
219
  8
0
 10
338.89869753
 20
-54.67893989
 30
0.0
  0
VERTEX
  5
21A
  8
0
 10
269.90569753
 20
-54.67893989
 30
0.0
  0
VERTEX
  5
21B
  8
0
 10
269.90569753
 20
-44.67893989
 30
0.0
  0
SEQEND
  5
21C
  8
0
  0
TEXT
  5
21D
  8
TXT_ALL
 10
340.89869753
 20
-50.92893989
 30
0.0
 40
2.5
  1
Verpakkingshoeveelheid: 1 st.
  7
ARIAL
  0
TEXT
  5
21E
  8
TXT_ALL
 10
202.91199753
 20
-50.92893989
 30
0.0
 40
2.5
  1
Materiaal: S355
  7
ARIAL
  0
INSERT
  5
21F
  8
0
  2
FLEX_00012
 10
382.46723295
 20
-335.67844974
 30
0.0
  0
INSERT
  5
220
  8
0
  2
_B_M_P___00014
 10
341.56136485
 20
-330.88625783
 30
0.0
  0
ENDBLK
  8
0
  0
BLOCK
  8
0
  2
FLEX_00012
 70
     0
 10
382.46723295
 20
-335.67844974
 30
0.0
  0
INSERT
  5
223
  8
0
  2
TFIELD_00013
 10
375.67364476
 20
-334.17844974
 30
0.0
  0
ENDBLK
  8
0
  0
BLOCK
  8
0
  2
TFIELD_00013
 70
     0
 10
375.67364476
 20
-334.17844974
 30
0.0
  0
TEXT
  5
226
  8
TXT_ALL
 10
375.67364476
 20
-334.92844974
 30
0.0
 40
1.5
  1
Onderdeel van
  7
ARIAL
  0
ENDBLK
  8
0
  0
BLOCK
  8
0
  2
_B_M_P___00014
 70
     0
 10
341.56136485
 20
-330.88625783
 30
0.0
  0
ENDBLK
  8
0
  0
BLOCK
  8
0
  2
_B_M_P___00015
 70
     0
 10
389.73442361
 20
-336.56893989
 30
0.0
  0
ENDBLK
  8
0
  0
BLOCK
  8
0
  2
_ANS0003_00016
 70
     0
 10
0.0
 20
0.0
 30
0.0
  0
INSERT
  5
22D
  8
0
  2
_A3D0003_00017
 10
0.0
 20
0.0
 30
0.0
  0
ENDBLK
  8
0
  0
BLOCK
  8
0
  2
_A3D0003_00017
 70
     0
 10
0.0
 20
0.0
 30
0.0
  0
INSERT
  5
230
  8
0
  2
PLAATWERK__D___8MM_00018
 10
0.0
 20
0.0
 30
0.0
  0
ENDBLK
  8
0
  0
BLOCK
  8
0
  2
PLAATWERK__D___8MM_00018
 70
     0
 10
0.0
 20
0.0
 30
0.0
  0
INSERT
  5
233
  8
0
  2
SHEET_FLANGE_00019
 10
0.0
 20
0.0
 30
0.0
  0
INSERT
  5
234
  8
0
  2
BEND_ZONE_00023
 10
0.0
 20
0.0
 30
0.0
  0
INSERT
  5
235
  8
0
  2
SHEET_FLANGE_00025
 10
0.0
 20
0.0
 30
0.0
  0
INSERT
  5
236
  8
0
  2
BEND_ZONE_00027
 10
0.0
 20
0.0
 30
0.0
  0
INSERT
  5
237
  8
0
  2
SHEET_FLANGE_00029
 10
0.0
 20
0.0
 30
0.0
  0
ENDBLK
  8
0
  0
BLOCK
  8
0
  2
SHEET_FLANGE_00019
 70
     0
 10
0.0
 20
0.0
 30
0.0
  0
INSERT
  5
23A
  8
0
  2
SHEET_FLANGE_00020
 10
104.78647249
 20
-227.67084518
 30
0.0
  0
INSERT
  5
23B
  8
0
  2
_00021
 10
0.0
 20
0.0
 30
0.0
  0
ENDBLK
  8
0
  0
BLOCK
  8
0
  2
SHEET_FLANGE_00020
 70
     0
 10
104.78647249
 20
-227.67084518
 30
0.0
  0
LINE
  5
23E
  8
LE_ALL
  6
DOT
 62
     3
 10
104.78647249
 20
-227.67084518
 30
0.0
 11
104.78647249
 21
-227.67084518
 31
0.0
  0
LINE
  5
23F
  8
LE_ALL
  6
DOT
 62
     3
 10
104.78647249
 20
-223.67084518
 30
0.0
 11
104.78647249
 21
-223.67084518
 31
0.0
  0
LINE
  5
240
  8
LE_ALL
  6
DOT
 62
     3
 10
200.78647249
 20
-227.67084518
 30
0.0
 11
200.78647249
 21
-227.67084518
 31
0.0
  0
LINE
  5
241
  8
LE_ALL
  6
DOT
 62
     3
 10
200.78647249
 20
-223.67084518
 30
0.0
 11
200.78647249
 21
-223.67084518
 31
0.0
  0
LINE
  5
242
  8
LE_ALL
  6
DOT
 62
     3
 10
187.53647249
 20
-227.67084518
 30
0.0
 11
187.53647249
 21
-223.67084518
 31
0.0
  0
LINE
  5
243
  8
LE_ALL
  6
DOT
 62
     3
 10
174.03647249
 20
-227.67084518
 30
0.0
 11
174.03647249
 21
-223.67084518
 31
0.0
  0
LINE
  5
244
  8
LE_ALL
  6
DOT
 62
     3
 10
140.03647249
 20
-223.67084518
 30
0.0
 11
140.03647249
 21
-227.67084518
 31
0.0
  0
LINE
  5
245
  8
LE_ALL
  6
DOT
 62
     3
 10
146.53647249
 20
-223.67084518
 30
0.0
 11
146.53647249
 21
-227.67084518
 31
0.0
  0
LINE
  5
246
  8
LE_ALL
  6
DOT
 62
     3
 10
170.78647249
 20
-227.67084518
 30
0.0
 11
170.78647249
 21
-223.67084518
 31
0.0
  0
LINE
  5
247
  8
LE_ALL
  6
DOT
 62
     3
 10
190.78647249
 20
-227.67084518
 30
0.0
 11
190.78647249
 21
-223.67084518
 31
0.0
  0
LINE
  5
248
  8
LE_ALL
 10
200.78647249
 20
-223.67084518
 30
0.0
 11
104.78647249
 21
-223.67084518
 31
0.0
  0
LINE
  5
249
  8
LE_ALL
 10
200.78647249
 20
-227.67084518
 30
0.0
 11
200.78647249
 21
-223.67084518
 31
0.0
  0
LINE
  5
24A
  8
LE_ALL
 10
104.78647249
 20
-227.67084518
 30
0.0
 11
200.78647249
 21
-227.67084518
 31
0.0
  0
ENDBLK
  8
0
  0
BLOCK
  8
0
  2
_00021
 70
     0
 10
0.0
 20
0.0
 30
0.0
  0
INSERT
  5
24D
  8
0
  2
_00022
 10
143.28647249
 20
-222.17084518
 30
0.0
  0
ENDBLK
  8
0
  0
BLOCK
  8
0
  2
_00022
 70
     0
 10
143.28647249
 20
-222.17084518
 30
0.0
  0
LINE
  5
250
  8
LE_ALL
  6
STRICHPUNKT2
 62
     1
 10
143.28647249
 20
-222.17084518
 30
0.0
 11
143.28647249
 21
-229.17084518
 31
0.0
  0
LINE
  5
251
  8
LE_ALL
  6
STRICHPUNKT2
 62
     1
 10
174.03647249
 20
-222.17084518
 30
0.0
 11
174.03647249
 21
-229.17084518
 31
0.0
  0
LINE
  5
252
  8
LE_ALL
  6
STRICHPUNKT2
 62
     1
 10
187.53647249
 20
-222.17084518
 30
0.0
 11
187.53647249
 21
-229.17084518
 31
0.0
  0
ENDBLK
  8
0
  0
BLOCK
  8
0
  2
BEND_ZONE_00023
 70
     0
 10
0.0
 20
0.0
 30
0.0
  0
INSERT
  5
255
  8
0
  2
BEND_ZONE_00024
 10
96.78647249
 20
-219.67084518
 30
0.0
  0
ENDBLK
  8
0
  0
BLOCK
  8
0
  2
BEND_ZONE_00024
 70
     0
 10
96.78647249
 20
-219.67084518
 30
0.0
  0
LINE
  5
258
  8
LE_ALL
  6
DOT
 62
     3
 10
96.78647249
 20
-219.67084518
 30
0.0
 11
96.78647249
 21
-219.67084518
 31
0.0
  0
LINE
  5
259
  8
LE_ALL
  6
DOT
 62
     3
 10
100.78647249
 20
-219.67084518
 30
0.0
 11
100.78647249
 21
-219.67084518
 31
0.0
  0
LINE
  5
25A
  8
LE_ALL
  6
DOT
 62
     3
 10
104.78647249
 20
-227.67084518
 30
0.0
 11
104.78647249
 21
-227.67084518
 31
0.0
  0
LINE
  5
25B
  8
LE_ALL
  6
DOT
 62
     3
 10
104.78647249
 20
-223.67084518
 30
0.0
 11
104.78647249
 21
-223.67084518
 31
0.0
  0
ARC
  5
25C
  8
LE_ALL
 10
104.78647249
 20
-219.67084518
 30
0.0
 40
8.0
 50
180.0
 51
-90.0
  0
ARC
  5
25D
  8
LE_ALL
 10
104.78647249
 20
-219.67084518
 30
0.0
 40
4.0
 50
180.0
 51
-90.0
  0
ENDBLK
  8
0
  0
BLOCK
  8
0
  2
SHEET_FLANGE_00025
 70
     0
 10
0.0
 20
0.0
 30
0.0
  0
INSERT
  5
260
  8
0
  2
SHEET_FLANGE_00026
 10
96.78647249
 20
-219.67084518
 30
0.0
  0
ENDBLK
  8
0
  0
BLOCK
  8
0
  2
SHEET_FLANGE_00026
 70
     0
 10
96.78647249
 20
-219.67084518
 30
0.0
  0
LINE
  5
263
  8
LE_ALL
  6
DOT
 62
     3
 10
96.78647249
 20
-219.67084518
 30
0.0
 11
96.78647249
 21
-219.67084518
 31
0.0
  0
LINE
  5
264
  8
LE_ALL
  6
DOT
 62
     3
 10
100.78647249
 20
-219.67084518
 30
0.0
 11
100.78647249
 21
-219.67084518
 31
0.0
  0
LINE
  5
265
  8
LE_ALL
  6
DOT
 62
     3
 10
96.78647249
 20
-201.67084518
 30
0.0
 11
96.78647249
 21
-201.67084518
 31
0.0
  0
POLYLINE
  5
266
  8
LE_ALL
  6
DOT
 62
     3
 66
     1
 10
0.0
 20
0.0
 30
0.0
  0
VERTEX
  5
267
  8
LE_ALL
  6
DOT
 62
     3
 10
100.78647249
 20
-201.67084518
 30
0.0
  0
VERTEX
  5
268
  8
LE_ALL
  6
DOT
 62
     3
 10
100.78647249
 20
-201.67084518
 30
0.0
  0
SEQEND
  5
269
  8
LE_ALL
  0
LINE
  5
26A
  8
LE_ALL
 10
100.78647249
 20
-201.67084518
 30
0.0
 11
100.78647249
 21
-219.67084518
 31
0.0
  0
LINE
  5
26B
  8
LE_ALL
 10
96.78647249
 20
-219.67084518
 30
0.0
 11
96.78647249
 21
-201.67084518
 31
0.0
  0
ENDBLK
  8
0
  0
BLOCK
  8
0
  2
BEND_ZONE_00027
 70
     0
 10
0.0
 20
0.0
 30
0.0
  0
INSERT
  5
26E
  8
0
  2
BEND_ZONE_00028
 10
92.78647249
 20
-193.67084518
 30
0.0
  0
ENDBLK
  8
0
  0
BLOCK
  8
0
  2
BEND_ZONE_00028
 70
     0
 10
92.78647249
 20
-193.67084518
 30
0.0
  0
LINE
  5
271
  8
LE_ALL
  6
DOT
 62
     3
 10
92.78647249
 20
-193.67084518
 30
0.0
 11
92.78647249
 21
-193.67084518
 31
0.0
  0
LINE
  5
272
  8
LE_ALL
  6
DOT
 62
     3
 10
92.78647249
 20
-197.67084518
 30
0.0
 11
92.78647249
 21
-197.67084518
 31
0.0
  0
LINE
  5
273
  8
LE_ALL
  6
DOT
 62
     3
 10
100.78647249
 20
-201.67084518
 30
0.0
 11
100.78647249
 21
-201.67084518
 31
0.0
  0
LINE
  5
274
  8
LE_ALL
  6
DOT
 62
     3
 10
96.78647249
 20
-201.67084518
 30
0.0
 11
96.78647249
 21
-201.67084518
 31
0.0
  0
ARC
  5
275
  8
LE_ALL
 10
92.78647249
 20
-201.67084518
 30
0.0
 40
8.0
 50
0.0
 51
90.0
  0
ARC
  5
276
  8
LE_ALL
 10
92.78647249
 20
-201.67084518
 30
0.0
 40
4.0
 50
0.0
 51
90.0
  0
ENDBLK
  8
0
  0
BLOCK
  8
0
  2
SHEET_FLANGE_00029
 70
     0
 10
0.0
 20
0.0
 30
0.0
  0
INSERT
  5
279
  8
0
  2
SHEET_FLANGE_00030
 10
92.78647249
 20
-193.67084518
 30
0.0
  0
INSERT
  5
27A
  8
0
  2
_00031
 10
0.0
 20
0.0
 30
0.0
  0
ENDBLK
  8
0
  0
BLOCK
  8
0
  2
SHEET_FLANGE_00030
 70
     0
 10
92.78647249
 20
-193.67084518
 30
0.0
  0
LINE
  5
27D
  8
LE_ALL
  6
DOT
 62
     3
 10
92.78647249
 20
-193.67084518
 30
0.0
 11
92.78647249
 21
-193.67084518
 31
0.0
  0
LINE
  5
27E
  8
LE_ALL
  6
DOT
 62
     3
 10
92.78647249
 20
-197.67084518
 30
0.0
 11
92.78647249
 21
-197.67084518
 31
0.0
  0
LINE
  5
27F
  8
LE_ALL
  6
DOT
 62
     3
 10
45.78647249
 20
-193.67084518
 30
0.0
 11
45.78647249
 21
-193.67084518
 31
0.0
  0
LINE
  5
280
  8
LE_ALL
  6
DOT
 62
     3
 10
45.78647249
 20
-197.67084518
 30
0.0
 11
45.78647249
 21
-197.67084518
 31
0.0
  0
LINE
  5
281
  8
LE_ALL
  6
DOT
 62
     3
 10
72.03647249
 20
-197.67084518
 30
0.0
 11
72.03647249
 21
-193.67084518
 31
0.0
  0
LINE
  5
282
  8
LE_ALL
  6
DOT
 62
     3
 10
68.03647249
 20
-197.67084518
 30
0.0
 11
68.03647249
 21
-193.67084518
 31
0.0
  0
LINE
  5
283
  8
LE_ALL
  6
DOT
 62
     3
 10
53.53647249
 20
-197.67084518
 30
0.0
 11
53.53647249
 21
-193.67084518
 31
0.0
  0
LINE
  5
284
  8
LE_ALL
  6
DOT
 62
     3
 10
49.53647249
 20
-197.67084518
 30
0.0
 11
49.53647249
 21
-193.67084518
 31
0.0
  0
LINE
  5
285
  8
LE_ALL
  6
DOT
 62
     3
 10
57.53647249
 20
-193.67084518
 30
0.0
 11
57.53647249
 21
-197.67084518
 31
0.0
  0
LINE
  5
286
  8
LE_ALL
  6
DOT
 62
     3
 10
64.03647249
 20
-193.67084518
 30
0.0
 11
64.03647249
 21
-197.67084518
 31
0.0
  0
LINE
  5
287
  8
LE_ALL
 10
92.78647249
 20
-197.67084518
 30
0.0
 11
45.78647249
 21
-197.67084518
 31
0.0
  0
LINE
  5
288
  8
LE_ALL
 10
45.78647249
 20
-193.67084518
 30
0.0
 11
45.78647249
 21
-197.67084518
 31
0.0
  0
LINE
  5
289
  8
LE_ALL
 10
45.78647249
 20
-193.67084518
 30
0.0
 11
92.78647249
 21
-193.67084518
 31
0.0
  0
ENDBLK
  8
0
  0
BLOCK
  8
0
  2
_00031
 70
     0
 10
0.0
 20
0.0
 30
0.0
  0
INSERT
  5
28C
  8
0
  2
_00032
 10
70.03647249
 20
-198.67084518
 30
0.0
  0
ENDBLK
  8
0
  0
BLOCK
  8
0
  2
_00032
 70
     0
 10
70.03647249
 20
-198.67084518
 30
0.0
  0
LINE
  5
28F
  8
LE_ALL
  6
STRICHPUNKT2
 62
     1
 10
70.03647249
 20
-198.67084518
 30
0.0
 11
70.03647249
 21
-192.67084518
 31
0.0
  0
LINE
  5
290
  8
LE_ALL
  6
STRICHPUNKT2
 62
     1
 10
51.53647249
 20
-198.67084518
 30
0.0
 11
51.53647249
 21
-192.67084518
 31
0.0
  0
LINE
  5
291
  8
LE_ALL
  6
STRICHPUNKT2
 62
     1
 10
51.53647249
 20
-198.67084518
 30
0.0
 11
51.53647249
 21
-192.67084518
 31
0.0
  0
LINE
  5
292
  8
LE_ALL
  6
STRICHPUNKT2
 62
     1
 10
60.78647249
 20
-192.17084518
 30
0.0
 11
60.78647249
 21
-199.17084518
 31
0.0
  0
LINE
  5
293
  8
LE_ALL
  6
STRICHPUNKT2
 62
     1
 10
70.03647249
 20
-198.67084518
 30
0.0
 11
70.03647249
 21
-192.67084518
 31
0.0
  0
ENDBLK
  8
0
  0
BLOCK
  8
0
  2
_ANS0004_00033
 70
     0
 10
0.0
 20
0.0
 30
0.0
  0
INSERT
  5
296
  8
0
  2
_A3D0004_00034
 10
0.0
 20
0.0
 30
0.0
  0
ENDBLK
  8
0
  0
BLOCK
  8
0
  2
_A3D0004_00034
 70
     0
 10
0.0
 20
0.0
 30
0.0
  0
INSERT
  5
299
  8
0
  2
PLAATWERK__D___8MM_00035
 10
0.0
 20
0.0
 30
0.0
  0
ENDBLK
  8
0
  0
BLOCK
  8
0
  2
PLAATWERK__D___8MM_00035
 70
     0
 10
0.0
 20
0.0
 30
0.0
  0
INSERT
  5
29C
  8
0
  2
SHEET_FLANGE_00036
 10
0.0
 20
0.0
 30
0.0
  0
INSERT
  5
29D
  8
0
  2
BEND_ZONE_00040
 10
0.0
 20
0.0
 30
0.0
  0
INSERT
  5
29E
  8
0
  2
SHEET_FLANGE_00042
 10
0.0
 20
0.0
 30
0.0
  0
INSERT
  5
29F
  8
0
  2
BEND_ZONE_00044
 10
0.0
 20
0.0
 30
0.0
  0
INSERT
  5
2A0
  8
0
  2
SHEET_FLANGE_00046
 10
0.0
 20
0.0
 30
0.0
  0
ENDBLK
  8
0
  0
BLOCK
  8
0
  2
SHEET_FLANGE_00036
 70
     0
 10
0.0
 20
0.0
 30
0.0
  0
INSERT
  5
2A3
  8
0
  2
SHEET_FLANGE_00037
 10
249.47063684
 20
-227.67084518
 30
0.0
  0
INSERT
  5
2A4
  8
0
  2
_00038
 10
0.0
 20
0.0
 30
0.0
  0
ENDBLK
  8
0
  0
BLOCK
  8
0
  2
SHEET_FLANGE_00037
 70
     0
 10
249.47063684
 20
-227.67084518
 30
0.0
  0
LINE
  5
2A7
  8
LE_ALL
  6
DOT
 62
     3
 10
249.47063684
 20
-227.67084518
 30
0.0
 11
249.47063684
 21
-227.67084518
 31
0.0
  0
LINE
  5
2A8
  8
LE_ALL
  6
DOT
 62
     3
 10
249.47063684
 20
-223.67084518
 30
0.0
 11
249.47063684
 21
-223.67084518
 31
0.0
  0
LINE
  5
2A9
  8
LE_ALL
  6
DOT
 62
     3
 10
279.47063684
 20
-227.67084518
 30
0.0
 11
279.47063684
 21
-227.67084518
 31
0.0
  0
LINE
  5
2AA
  8
LE_ALL
  6
DOT
 62
     3
 10
279.47063684
 20
-223.67084518
 30
0.0
 11
279.47063684
 21
-223.67084518
 31
0.0
  0
LINE
  5
2AB
  8
LE_ALL
  6
DOT
 62
     3
 10
261.22063684
 20
-227.67084518
 30
0.0
 11
261.22063684
 21
-227.67084518
 31
0.0
  0
LINE
  5
2AC
  8
LE_ALL
  6
DOT
 62
     3
 10
267.72063684
 20
-227.67084518
 30
0.0
 11
267.72063684
 21
-227.67084518
 31
0.0
  0
LINE
  5
2AD
  8
LE_ALL
  6
DOT
 62
     3
 10
267.72063684
 20
-223.67084518
 30
0.0
 11
267.72063684
 21
-223.67084518
 31
0.0
  0
LINE
  5
2AE
  8
LE_ALL
  6
DOT
 62
     3
 10
261.22063684
 20
-223.67084518
 30
0.0
 11
261.22063684
 21
-223.67084518
 31
0.0
  0
LINE
  5
2AF
  8
LE_ALL
  6
DOT
 62
     3
 10
267.72063684
 20
-227.67084518
 30
0.0
 11
267.72063684
 21
-223.67084518
 31
0.0
  0
LINE
  5
2B0
  8
LE_ALL
  6
DOT
 62
     3
 10
261.22063684
 20
-227.67084518
 30
0.0
 11
261.22063684
 21
-223.67084518
 31
0.0
  0
LINE
  5
2B1
  8
LE_ALL
 10
249.47063684
 20
-227.67084518
 30
0.0
 11
249.47063684
 21
-223.67084518
 31
0.0
  0
LINE
  5
2B2
  8
LE_ALL
 10
279.47063684
 20
-223.67084518
 30
0.0
 11
249.47063684
 21
-223.67084518
 31
0.0
  0
LINE
  5
2B3
  8
LE_ALL
 10
279.47063684
 20
-227.67084518
 30
0.0
 11
279.47063684
 21
-223.67084518
 31
0.0
  0
LINE
  5
2B4
  8
LE_ALL
 10
249.47063684
 20
-227.67084518
 30
0.0
 11
279.47063684
 21
-227.67084518
 31
0.0
  0
ENDBLK
  8
0
  0
BLOCK
  8
0
  2
_00038
 70
     0
 10
0.0
 20
0.0
 30
0.0
  0
INSERT
  5
2B7
  8
0
  2
_00039
 10
264.47063684
 20
-222.17084518
 30
0.0
  0
ENDBLK
  8
0
  0
BLOCK
  8
0
  2
_00039
 70
     0
 10
264.47063684
 20
-222.17084518
 30
0.0
  0
LINE
  5
2BA
  8
LE_ALL
  6
STRICHPUNKT2
 62
     1
 10
264.47063684
 20
-222.17084518
 30
0.0
 11
264.47063684
 21
-229.17084518
 31
0.0
  0
LINE
  5
2BB
  8
LE_ALL
  6
STRICHPUNKT2
 62
     1
 10
264.47063684
 20
-222.17084518
 30
0.0
 11
264.47063684
 21
-229.17084518
 31
0.0
  0
LINE
  5
2BC
  8
LE_ALL
  6
STRICHPUNKT2
 62
     1
 10
264.47063684
 20
-222.17084518
 30
0.0
 11
264.47063684
 21
-229.17084518
 31
0.0
  0
ENDBLK
  8
0
  0
BLOCK
  8
0
  2
BEND_ZONE_00040
 70
     0
 10
0.0
 20
0.0
 30
0.0
  0
INSERT
  5
2BF
  8
0
  2
BEND_ZONE_00041
 10
249.47063684
 20
-223.67084518
 30
0.0
  0
ENDBLK
  8
0
  0
BLOCK
  8
0
  2
BEND_ZONE_00041
 70
     0
 10
249.47063684
 20
-223.67084518
 30
0.0
  0
LINE
  5
2C2
  8
LE_ALL
  6
DOT
 62
     3
 10
249.47063684
 20
-223.67084518
 30
0.0
 11
279.47063684
 21
-223.67084518
 31
0.0
  0
LINE
  5
2C3
  8
LE_ALL
 10
249.47063684
 20
-219.67084518
 30
0.0
 11
249.47063684
 21
-223.67084518
 31
0.0
  0
LINE
  5
2C4
  8
LE_ALL
 10
249.47063684
 20
-219.67084518
 30
0.0
 11
279.47063684
 21
-219.67084518
 31
0.0
  0
LINE
  5
2C5
  8
LE_ALL
 10
279.47063684
 20
-223.67084518
 30
0.0
 11
279.47063684
 21
-219.67084518
 31
0.0
  0
ENDBLK
  8
0
  0
BLOCK
  8
0
  2
SHEET_FLANGE_00042
 70
     0
 10
0.0
 20
0.0
 30
0.0
  0
INSERT
  5
2C8
  8
0
  2
SHEET_FLANGE_00043
 10
279.47063684
 20
-219.67084518
 30
0.0
  0
ENDBLK
  8
0
  0
BLOCK
  8
0
  2
SHEET_FLANGE_00043
 70
     0
 10
279.47063684
 20
-219.67084518
 30
0.0
  0
POLYLINE
  5
2CB
  8
LE_ALL
 66
     1
 10
0.0
 20
0.0
 30
0.0
 70
     1
  0
VERTEX
  5
2CC
  8
LE_ALL
 10
279.47063684
 20
-219.67084518
 30
0.0
  0
VERTEX
  5
2CD
  8
LE_ALL
 10
279.47063684
 20
-201.67084518
 30
0.0
  0
VERTEX
  5
2CE
  8
LE_ALL
 10
249.47063684
 20
-201.67084518
 30
0.0
  0
VERTEX
  5
2CF
  8
LE_ALL
 10
249.47063684
 20
-219.67084518
 30
0.0
  0
SEQEND
  5
2D0
  8
LE_ALL
  0
ENDBLK
  8
0
  0
BLOCK
  8
0
  2
BEND_ZONE_00044
 70
     0
 10
0.0
 20
0.0
 30
0.0
  0
INSERT
  5
2D3
  8
0
  2
BEND_ZONE_00045
 10
279.47063684
 20
-197.67084518
 30
0.0
  0
ENDBLK
  8
0
  0
BLOCK
  8
0
  2
BEND_ZONE_00045
 70
     0
 10
279.47063684
 20
-197.67084518
 30
0.0
  0
LINE
  5
2D6
  8
LE_ALL
  6
DOT
 62
     3
 10
279.47063684
 20
-197.67084518
 30
0.0
 11
249.47063684
 21
-197.67084518
 31
0.0
  0
POLYLINE
  5
2D7
  8
LE_ALL
 66
     1
 10
0.0
 20
0.0
 30
0.0
  0
VERTEX
  5
2D8
  8
LE_ALL
 10
279.47063684
 20
-201.67084518
 30
0.0
  0
VERTEX
  5
2D9
  8
LE_ALL
 10
249.47063684
 20
-201.67084518
 30
0.0
  0
VERTEX
  5
2DA
  8
LE_ALL
 10
249.47063684
 20
-193.67084518
 30
0.0
  0
SEQEND
  5
2DB
  8
LE_ALL
  0
LINE
  5
2DC
  8
LE_ALL
 10
279.47063684
 20
-193.67084518
 30
0.0
 11
249.47063684
 21
-193.67084518
 31
0.0
  0
LINE
  5
2DD
  8
LE_ALL
 10
279.47063684
 20
-193.67084518
 30
0.0
 11
279.47063684
 21
-201.67084518
 31
0.0
  0
ENDBLK
  8
0
  0
BLOCK
  8
0
  2
SHEET_FLANGE_00046
 70
     0
 10
0.0
 20
0.0
 30
0.0
  0
INSERT
  5
2E0
  8
0
  2
SHEET_FLANGE_00047
 10
249.47063684
 20
-193.67084518
 30
0.0
  0
INSERT
  5
2E1
  8
0
  2
_00048
 10
0.0
 20
0.0
 30
0.0
  0
ENDBLK
  8
0
  0
BLOCK
  8
0
  2
SHEET_FLANGE_00047
 70
     0
 10
249.47063684
 20
-193.67084518
 30
0.0
  0
LINE
  5
2E4
  8
LE_ALL
  6
DOT
 62
     3
 10
249.47063684
 20
-193.67084518
 30
0.0
 11
249.47063684
 21
-193.67084518
 31
0.0
  0
LINE
  5
2E5
  8
LE_ALL
  6
DOT
 62
     3
 10
249.47063684
 20
-197.67084518
 30
0.0
 11
249.47063684
 21
-197.67084518
 31
0.0
  0
LINE
  5
2E6
  8
LE_ALL
  6
DOT
 62
     3
 10
279.47063684
 20
-193.67084518
 30
0.0
 11
279.47063684
 21
-193.67084518
 31
0.0
  0
LINE
  5
2E7
  8
LE_ALL
  6
DOT
 62
     3
 10
279.47063684
 20
-197.67084518
 30
0.0
 11
279.47063684
 21
-197.67084518
 31
0.0
  0
LINE
  5
2E8
  8
LE_ALL
  6
DOT
 62
     3
 10
275.72063684
 20
-197.67084518
 30
0.0
 11
275.72063684
 21
-193.67084518
 31
0.0
  0
LINE
  5
2E9
  8
LE_ALL
  6
DOT
 62
     3
 10
271.72063684
 20
-197.67084518
 30
0.0
 11
271.72063684
 21
-193.67084518
 31
0.0
  0
LINE
  5
2EA
  8
LE_ALL
  6
DOT
 62
     3
 10
257.22063684
 20
-197.67084518
 30
0.0
 11
257.22063684
 21
-193.67084518
 31
0.0
  0
LINE
  5
2EB
  8
LE_ALL
  6
DOT
 62
     3
 10
253.22063684
 20
-197.67084518
 30
0.0
 11
253.22063684
 21
-193.67084518
 31
0.0
  0
LINE
  5
2EC
  8
LE_ALL
  6
DOT
 62
     3
 10
261.22063684
 20
-193.67084518
 30
0.0
 11
261.22063684
 21
-197.67084518
 31
0.0
  0
LINE
  5
2ED
  8
LE_ALL
  6
DOT
 62
     3
 10
267.72063684
 20
-193.67084518
 30
0.0
 11
267.72063684
 21
-197.67084518
 31
0.0
  0
LINE
  5
2EE
  8
LE_ALL
  6
DOT
 62
     3
 10
279.47063684
 20
-197.67084518
 30
0.0
 11
249.47063684
 21
-197.67084518
 31
0.0
  0
LINE
  5
2EF
  8
LE_ALL
 10
249.47063684
 20
-193.67084518
 30
0.0
 11
279.47063684
 21
-193.67084518
 31
0.0
  0
ENDBLK
  8
0
  0
BLOCK
  8
0
  2
_00048
 70
     0
 10
0.0
 20
0.0
 30
0.0
  0
INSERT
  5
2F2
  8
0
  2
_00049
 10
255.22063684
 20
-198.67084518
 30
0.0
  0
ENDBLK
  8
0
  0
BLOCK
  8
0
  2
_00049
 70
     0
 10
255.22063684
 20
-198.67084518
 30
0.0
  0
LINE
  5
2F5
  8
LE_ALL
  6
STRICHPUNKT2
 62
     1
 10
255.22063684
 20
-198.67084518
 30
0.0
 11
255.22063684
 21
-192.67084518
 31
0.0
  0
LINE
  5
2F6
  8
LE_ALL
  6
STRICHPUNKT2
 62
     1
 10
255.22063684
 20
-198.67084518
 30
0.0
 11
255.22063684
 21
-192.67084518
 31
0.0
  0
LINE
  5
2F7
  8
LE_ALL
  6
STRICHPUNKT2
 62
     1
 10
273.72063684
 20
-198.67084518
 30
0.0
 11
273.72063684
 21
-192.67084518
 31
0.0
  0
LINE
  5
2F8
  8
LE_ALL
  6
STRICHPUNKT2
 62
     1
 10
264.47063684
 20
-192.17084518
 30
0.0
 11
264.47063684
 21
-199.17084518
 31
0.0
  0
LINE
  5
2F9
  8
LE_ALL
  6
STRICHPUNKT2
 62
     1
 10
273.72063684
 20
-198.67084518
 30
0.0
 11
273.72063684
 21
-192.67084518
 31
0.0
  0
ENDBLK
  8
0
  0
BLOCK
  8
0
  2
_ANS0005_00050
 70
     0
 10
0.0
 20
0.0
 30
0.0
  0
INSERT
  5
2FC
  8
0
  2
_A3D0005_00051
 10
0.0
 20
0.0
 30
0.0
  0
ENDBLK
  8
0
  0
BLOCK
  8
0
  2
_A3D0005_00051
 70
     0
 10
0.0
 20
0.0
 30
0.0
  0
INSERT
  5
2FF
  8
0
  2
PLAATWERK__D___8MM_00052
 10
0.0
 20
0.0
 30
0.0
  0
ENDBLK
  8
0
  0
BLOCK
  8
0
  2
PLAATWERK__D___8MM_00052
 70
     0
 10
0.0
 20
0.0
 30
0.0
  0
INSERT
  5
302
  8
0
  2
SHEET_FLANGE_00053
 10
0.0
 20
0.0
 30
0.0
  0
INSERT
  5
303
  8
0
  2
BEND_ZONE_00057
 10
0.0
 20
0.0
 30
0.0
  0
INSERT
  5
304
  8
0
  2
SHEET_FLANGE_00059
 10
0.0
 20
0.0
 30
0.0
  0
INSERT
  5
305
  8
0
  2
BEND_ZONE_00061
 10
0.0
 20
0.0
 30
0.0
  0
INSERT
  5
306
  8
0
  2
SHEET_FLANGE_00063
 10
0.0
 20
0.0
 30
0.0
  0
ENDBLK
  8
0
  0
BLOCK
  8
0
  2
SHEET_FLANGE_00053
 70
     0
 10
0.0
 20
0.0
 30
0.0
  0
INSERT
  5
309
  8
0
  2
SHEET_FLANGE_00054
 10
200.78647249
 20
-142.49076055
 30
0.0
  0
INSERT
  5
30A
  8
0
  2
_00055
 10
0.0
 20
0.0
 30
0.0
  0
ENDBLK
  8
0
  0
BLOCK
  8
0
  2
SHEET_FLANGE_00054
 70
     0
 10
200.78647249
 20
-142.49076055
 30
0.0
  0
LINE
  5
30D
  8
LE_ALL
  6
DOT
 62
     3
 10
200.78647249
 20
-142.49076055
 30
0.0
 11
200.78647249
 21
-142.49076055
 31
0.0
  0
LINE
  5
30E
  8
LE_ALL
  6
DOT
 62
     3
 10
200.78647249
 20
-112.49076055
 30
0.0
 11
200.78647249
 21
-112.49076055
 31
0.0
  0
LINE
  5
30F
  8
LE_ALL
  6
DOT
 62
     3
 10
174.03647249
 20
-124.24076055
 30
0.0
 11
174.03647249
 21
-124.24076055
 31
0.0
  0
LINE
  5
310
  8
LE_ALL
  6
DOT
 62
     3
 10
174.03647249
 20
-130.74076055
 30
0.0
 11
174.03647249
 21
-130.74076055
 31
0.0
  0
LINE
  5
311
  8
LE_ALL
  6
DOT
 62
     3
 10
187.53647249
 20
-124.24076055
 30
0.0
 11
187.53647249
 21
-124.24076055
 31
0.0
  0
LINE
  5
312
  8
LE_ALL
  6
DOT
 62
     3
 10
187.53647249
 20
-130.74076055
 30
0.0
 11
187.53647249
 21
-130.74076055
 31
0.0
  0
POLYLINE
  5
313
  8
LE_ALL
 66
     1
 10
0.0
 20
0.0
 30
0.0
 70
     1
  0
VERTEX
  5
314
  8
LE_ALL
 10
174.03647249
 20
-130.74076055
 30
0.0
 42
-1.0
  0
VERTEX
  5
315
  8
LE_ALL
 10
174.03647249
 20
-124.24076055
 30
0.0
  0
VERTEX
  5
316
  8
LE_ALL
 10
187.53647249
 20
-124.24076055
 30
0.0
 42
-1.0
  0
VERTEX
  5
317
  8
LE_ALL
 10
187.53647249
 20
-130.74076055
 30
0.0
  0
SEQEND
  5
318
  8
LE_ALL
  0
CIRCLE
  5
319
  8
LE_ALL
 10
143.28647249
 20
-127.49076055
 30
0.0
 40
3.25
  0
POLYLINE
  5
31A
  8
LE_ALL
 66
     1
 10
0.0
 20
0.0
 30
0.0
 70
     1
  0
VERTEX
  5
31B
  8
LE_ALL
 10
200.78647249
 20
-142.49076055
 30
0.0
  0
VERTEX
  5
31C
  8
LE_ALL
 10
104.78647249
 20
-142.49076055
 30
0.0
  0
VERTEX
  5
31D
  8
LE_ALL
 10
104.78647249
 20
-112.49076055
 30
0.0
  0
VERTEX
  5
31E
  8
LE_ALL
 10
200.78647249
 20
-112.49076055
 30
0.0
  0
SEQEND
  5
31F
  8
LE_ALL
  0
ENDBLK
  8
0
  0
BLOCK
  8
0
  2
_00055
 70
     0
 10
0.0
 20
0.0
 30
0.0
  0
INSERT
  5
322
  8
0
  2
_00056
 10
143.28647249
 20
-127.49076055
 30
0.0
  0
ENDBLK
  8
0
  0
BLOCK
  8
0
  2
_00056
 70
     0
 10
143.28647249
 20
-127.49076055
 30
0.0
  0
LINE
  5
325
  8
LE_ALL
  6
STRICHPUNKT2
 62
     1
 10
143.28647249
 20
-127.49076055
 30
0.0
 11
148.03647249
 21
-127.49076055
 31
0.0
  0
LINE
  5
326
  8
LE_ALL
  6
STRICHPUNKT2
 62
     1
 10
143.28647249
 20
-127.49076055
 30
0.0
 11
138.53647249
 21
-127.49076055
 31
0.0
  0
LINE
  5
327
  8
LE_ALL
  6
STRICHPUNKT2
 62
     1
 10
143.28647249
 20
-127.49076055
 30
0.0
 11
143.28647249
 21
-122.74076055
 31
0.0
  0
LINE
  5
328
  8
LE_ALL
  6
STRICHPUNKT2
 62
     1
 10
143.28647249
 20
-127.49076055
 30
0.0
 11
143.28647249
 21
-132.24076055
 31
0.0
  0
LINE
  5
329
  8
LE_ALL
  6
STRICHPUNKT2
 62
     1
 10
143.28647249
 20
-127.49076055
 30
0.0
 11
148.03647249
 21
-127.49076055
 31
0.0
  0
LINE
  5
32A
  8
LE_ALL
  6
STRICHPUNKT2
 62
     1
 10
143.28647249
 20
-127.49076055
 30
0.0
 11
138.53647249
 21
-127.49076055
 31
0.0
  0
LINE
  5
32B
  8
LE_ALL
  6
STRICHPUNKT2
 62
     1
 10
143.28647249
 20
-127.49076055
 30
0.0
 11
143.28647249
 21
-122.74076055
 31
0.0
  0
LINE
  5
32C
  8
LE_ALL
  6
STRICHPUNKT2
 62
     1
 10
143.28647249
 20
-127.49076055
 30
0.0
 11
143.28647249
 21
-132.24076055
 31
0.0
  0
LINE
  5
32D
  8
LE_ALL
  6
STRICHPUNKT2
 62
     1
 10
169.28647249
 20
-127.49076055
 30
0.0
 11
192.28647249
 21
-127.49076055
 31
0.0
  0
LINE
  5
32E
  8
LE_ALL
  6
STRICHPUNKT2
 62
     1
 10
174.03647249
 20
-132.24076055
 30
0.0
 11
174.03647249
 21
-122.74076055
 31
0.0
  0
LINE
  5
32F
  8
LE_ALL
  6
STRICHPUNKT2
 62
     1
 10
187.53647249
 20
-132.24076055
 30
0.0
 11
187.53647249
 21
-122.74076055
 31
0.0
  0
LINE
  5
330
  8
LE_ALL
  6
STRICHPUNKT2
 62
     1
 10
169.28647249
 20
-127.49076055
 30
0.0
 11
192.28647249
 21
-127.49076055
 31
0.0
  0
LINE
  5
331
  8
LE_ALL
  6
STRICHPUNKT2
 62
     1
 10
174.03647249
 20
-132.24076055
 30
0.0
 11
174.03647249
 21
-122.74076055
 31
0.0
  0
LINE
  5
332
  8
LE_ALL
  6
STRICHPUNKT2
 62
     1
 10
187.53647249
 20
-132.24076055
 30
0.0
 11
187.53647249
 21
-122.74076055
 31
0.0
  0
ENDBLK
  8
0
  0
BLOCK
  8
0
  2
BEND_ZONE_00057
 70
     0
 10
0.0
 20
0.0
 30
0.0
  0
INSERT
  5
335
  8
0
  2
BEND_ZONE_00058
 10
100.78647249
 20
-142.49076055
 30
0.0
  0
ENDBLK
  8
0
  0
BLOCK
  8
0
  2
BEND_ZONE_00058
 70
     0
 10
100.78647249
 20
-142.49076055
 30
0.0
  0
LINE
  5
338
  8
LE_ALL
  6
DOT
 62
     3
 10
100.78647249
 20
-142.49076055
 30
0.0
 11
100.78647249
 21
-112.49076055
 31
0.0
  0
POLYLINE
  5
339
  8
LE_ALL
 66
     1
 10
0.0
 20
0.0
 30
0.0
  0
VERTEX
  5
33A
  8
LE_ALL
 10
100.78647249
 20
-142.49076055
 30
0.0
  0
VERTEX
  5
33B
  8
LE_ALL
 10
104.78647249
 20
-142.49076055
 30
0.0
  0
VERTEX
  5
33C
  8
LE_ALL
 10
104.78647249
 20
-112.49076055
 30
0.0
  0
VERTEX
  5
33D
  8
LE_ALL
 10
100.78647249
 20
-112.49076055
 30
0.0
  0
SEQEND
  5
33E
  8
LE_ALL
  0
ENDBLK
  8
0
  0
BLOCK
  8
0
  2
SHEET_FLANGE_00059
 70
     0
 10
0.0
 20
0.0
 30
0.0
  0
INSERT
  5
341
  8
0
  2
SHEET_FLANGE_00060
 10
96.78647249
 20
-112.49076055
 30
0.0
  0
ENDBLK
  8
0
  0
BLOCK
  8
0
  2
SHEET_FLANGE_00060
 70
     0
 10
96.78647249
 20
-112.49076055
 30
0.0
  0
LINE
  5
344
  8
LE_ALL
  6
DOT
 62
     3
 10
96.78647249
 20
-112.49076055
 30
0.0
 11
96.78647249
 21
-112.49076055
 31
0.0
  0
LINE
  5
345
  8
LE_ALL
  6
DOT
 62
     3
 10
100.78647249
 20
-112.49076055
 30
0.0
 11
100.78647249
 21
-112.49076055
 31
0.0
  0
LINE
  5
346
  8
LE_ALL
  6
DOT
 62
     3
 10
96.78647249
 20
-142.49076055
 30
0.0
 11
96.78647249
 21
-142.49076055
 31
0.0
  0
LINE
  5
347
  8
LE_ALL
  6
DOT
 62
     3
 10
100.78647249
 20
-142.49076055
 30
0.0
 11
100.78647249
 21
-142.49076055
 31
0.0
  0
LINE
  5
348
  8
LE_ALL
 10
100.78647249
 20
-112.49076055
 30
0.0
 11
100.78647249
 21
-142.49076055
 31
0.0
  0
LINE
  5
349
  8
LE_ALL
  6
DOT
 62
     3
 10
96.78647249
 20
-142.49076055
 30
0.0
 11
96.78647249
 21
-112.49076055
 31
0.0
  0
ENDBLK
  8
0
  0
BLOCK
  8
0
  2
BEND_ZONE_00061
 70
     0
 10
0.0
 20
0.0
 30
0.0
  0
INSERT
  5
34C
  8
0
  2
BEND_ZONE_00062
 10
96.78647249
 20
-112.49076055
 30
0.0
  0
ENDBLK
  8
0
  0
BLOCK
  8
0
  2
BEND_ZONE_00062
 70
     0
 10
96.78647249
 20
-112.49076055
 30
0.0
  0
LINE
  5
34F
  8
LE_ALL
  6
DOT
 62
     3
 10
96.78647249
 20
-112.49076055
 30
0.0
 11
96.78647249
 21
-142.49076055
 31
0.0
  0
POLYLINE
  5
350
  8
LE_ALL
 66
     1
 10
0.0
 20
0.0
 30
0.0
  0
VERTEX
  5
351
  8
LE_ALL
 10
100.78647249
 20
-112.49076055
 30
0.0
  0
VERTEX
  5
352
  8
LE_ALL
 10
100.78647249
 20
-142.49076055
 30
0.0
  0
VERTEX
  5
353
  8
LE_ALL
 10
92.78647249
 20
-142.49076055
 30
0.0
  0
SEQEND
  5
354
  8
LE_ALL
  0
LINE
  5
355
  8
LE_ALL
 10
92.78647249
 20
-112.49076055
 30
0.0
 11
92.78647249
 21
-142.49076055
 31
0.0
  0
LINE
  5
356
  8
LE_ALL
 10
92.78647249
 20
-112.49076055
 30
0.0
 11
100.78647249
 21
-112.49076055
 31
0.0
  0
ENDBLK
  8
0
  0
BLOCK
  8
0
  2
SHEET_FLANGE_00063
 70
     0
 10
0.0
 20
0.0
 30
0.0
  0
INSERT
  5
359
  8
0
  2
SHEET_FLANGE_00064
 10
45.78647249
 20
-142.49076055
 30
0.0
  0
INSERT
  5
35A
  8
0
  2
_00065
 10
0.0
 20
0.0
 30
0.0
  0
ENDBLK
  8
0
  0
BLOCK
  8
0
  2
SHEET_FLANGE_00064
 70
     0
 10
45.78647249
 20
-142.49076055
 30
0.0
  0
LINE
  5
35D
  8
LE_ALL
  6
DOT
 62
     3
 10
45.78647249
 20
-142.49076055
 30
0.0
 11
45.78647249
 21
-142.49076055
 31
0.0
  0
LINE
  5
35E
  8
LE_ALL
  6
DOT
 62
     3
 10
45.78647249
 20
-112.49076055
 30
0.0
 11
45.78647249
 21
-112.49076055
 31
0.0
  0
CIRCLE
  5
35F
  8
LE_ALL
 10
60.78647249
 20
-127.49076055
 30
0.0
 40
3.25
  0
CIRCLE
  5
360
  8
LE_ALL
 10
51.53647249
 20
-118.24076055
 30
0.0
 40
2.0
  0
CIRCLE
  5
361
  8
LE_ALL
 10
51.53647249
 20
-136.74076055
 30
0.0
 40
2.0
  0
CIRCLE
  5
362
  8
LE_ALL
 10
70.03647249
 20
-118.24076055
 30
0.0
 40
2.0
  0
CIRCLE
  5
363
  8
LE_ALL
 10
70.03647249
 20
-136.74076055
 30
0.0
 40
2.0
  0
POLYLINE
  5
364
  8
LE_ALL
 66
     1
 10
0.0
 20
0.0
 30
0.0
 70
     1
  0
VERTEX
  5
365
  8
LE_ALL
 10
92.78647249
 20
-142.49076055
 30
0.0
  0
VERTEX
  5
366
  8
LE_ALL
 10
92.78647249
 20
-112.49076055
 30
0.0
  0
VERTEX
  5
367
  8
LE_ALL
 10
45.78647249
 20
-112.49076055
 30
0.0
  0
VERTEX
  5
368
  8
LE_ALL
 10
45.78647249
 20
-142.49076055
 30
0.0
  0
SEQEND
  5
369
  8
LE_ALL
  0
ENDBLK
  8
0
  0
BLOCK
  8
0
  2
_00065
 70
     0
 10
0.0
 20
0.0
 30
0.0
  0
INSERT
  5
36C
  8
0
  2
_00066
 10
70.03647249
 20
-136.74076055
 30
0.0
  0
ENDBLK
  8
0
  0
BLOCK
  8
0
  2
_00066
 70
     0
 10
70.03647249
 20
-136.74076055
 30
0.0
  0
LINE
  5
36F
  8
LE_ALL
  6
STRICHPUNKT2
 62
     1
 10
70.03647249
 20
-136.74076055
 30
0.0
 11
70.03647249
 21
-133.74076055
 31
0.0
  0
LINE
  5
370
  8
LE_ALL
  6
STRICHPUNKT2
 62
     1
 10
70.03647249
 20
-136.74076055
 30
0.0
 11
70.03647249
 21
-139.74076055
 31
0.0
  0
LINE
  5
371
  8
LE_ALL
  6
STRICHPUNKT2
 62
     1
 10
70.03647249
 20
-136.74076055
 30
0.0
 11
67.03647249
 21
-136.74076055
 31
0.0
  0
LINE
  5
372
  8
LE_ALL
  6
STRICHPUNKT2
 62
     1
 10
70.03647249
 20
-136.74076055
 30
0.0
 11
73.03647249
 21
-136.74076055
 31
0.0
  0
LINE
  5
373
  8
LE_ALL
  6
STRICHPUNKT2
 62
     1
 10
70.03647249
 20
-136.74076055
 30
0.0
 11
70.03647249
 21
-133.74076055
 31
0.0
  0
LINE
  5
374
  8
LE_ALL
  6
STRICHPUNKT2
 62
     1
 10
70.03647249
 20
-136.74076055
 30
0.0
 11
70.03647249
 21
-139.74076055
 31
0.0
  0
LINE
  5
375
  8
LE_ALL
  6
STRICHPUNKT2
 62
     1
 10
70.03647249
 20
-136.74076055
 30
0.0
 11
67.03647249
 21
-136.74076055
 31
0.0
  0
LINE
  5
376
  8
LE_ALL
  6
STRICHPUNKT2
 62
     1
 10
70.03647249
 20
-136.74076055
 30
0.0
 11
73.03647249
 21
-136.74076055
 31
0.0
  0
LINE
  5
377
  8
LE_ALL
  6
STRICHPUNKT2
 62
     1
 10
70.03647249
 20
-118.24076055
 30
0.0
 11
70.03647249
 21
-115.24076055
 31
0.0
  0
LINE
  5
378
  8
LE_ALL
  6
STRICHPUNKT2
 62
     1
 10
70.03647249
 20
-118.24076055
 30
0.0
 11
70.03647249
 21
-121.24076055
 31
0.0
  0
LINE
  5
379
  8
LE_ALL
  6
STRICHPUNKT2
 62
     1
 10
70.03647249
 20
-118.24076055
 30
0.0
 11
67.03647249
 21
-118.24076055
 31
0.0
  0
LINE
  5
37A
  8
LE_ALL
  6
STRICHPUNKT2
 62
     1
 10
70.03647249
 20
-118.24076055
 30
0.0
 11
73.03647249
 21
-118.24076055
 31
0.0
  0
LINE
  5
37B
  8
LE_ALL
  6
STRICHPUNKT2
 62
     1
 10
70.03647249
 20
-118.24076055
 30
0.0
 11
70.03647249
 21
-115.24076055
 31
0.0
  0
LINE
  5
37C
  8
LE_ALL
  6
STRICHPUNKT2
 62
     1
 10
70.03647249
 20
-118.24076055
 30
0.0
 11
70.03647249
 21
-121.24076055
 31
0.0
  0
LINE
  5
37D
  8
LE_ALL
  6
STRICHPUNKT2
 62
     1
 10
70.03647249
 20
-118.24076055
 30
0.0
 11
67.03647249
 21
-118.24076055
 31
0.0
  0
LINE
  5
37E
  8
LE_ALL
  6
STRICHPUNKT2
 62
     1
 10
70.03647249
 20
-118.24076055
 30
0.0
 11
73.03647249
 21
-118.24076055
 31
0.0
  0
LINE
  5
37F
  8
LE_ALL
  6
STRICHPUNKT2
 62
     1
 10
51.53647249
 20
-136.74076055
 30
0.0
 11
51.53647249
 21
-133.74076055
 31
0.0
  0
LINE
  5
380
  8
LE_ALL
  6
STRICHPUNKT2
 62
     1
 10
51.53647249
 20
-136.74076055
 30
0.0
 11
51.53647249
 21
-139.74076055
 31
0.0
  0
LINE
  5
381
  8
LE_ALL
  6
STRICHPUNKT2
 62
     1
 10
51.53647249
 20
-136.74076055
 30
0.0
 11
48.53647249
 21
-136.74076055
 31
0.0
  0
LINE
  5
382
  8
LE_ALL
  6
STRICHPUNKT2
 62
     1
 10
51.53647249
 20
-136.74076055
 30
0.0
 11
54.53647249
 21
-136.74076055
 31
0.0
  0
LINE
  5
383
  8
LE_ALL
  6
STRICHPUNKT2
 62
     1
 10
51.53647249
 20
-136.74076055
 30
0.0
 11
51.53647249
 21
-133.74076055
 31
0.0
  0
LINE
  5
384
  8
LE_ALL
  6
STRICHPUNKT2
 62
     1
 10
51.53647249
 20
-136.74076055
 30
0.0
 11
51.53647249
 21
-139.74076055
 31
0.0
  0
LINE
  5
385
  8
LE_ALL
  6
STRICHPUNKT2
 62
     1
 10
51.53647249
 20
-136.74076055
 30
0.0
 11
48.53647249
 21
-136.74076055
 31
0.0
  0
LINE
  5
386
  8
LE_ALL
  6
STRICHPUNKT2
 62
     1
 10
51.53647249
 20
-136.74076055
 30
0.0
 11
54.53647249
 21
-136.74076055
 31
0.0
  0
LINE
  5
387
  8
LE_ALL
  6
STRICHPUNKT2
 62
     1
 10
51.53647249
 20
-118.24076055
 30
0.0
 11
51.53647249
 21
-115.24076055
 31
0.0
  0
LINE
  5
388
  8
LE_ALL
  6
STRICHPUNKT2
 62
     1
 10
51.53647249
 20
-118.24076055
 30
0.0
 11
51.53647249
 21
-121.24076055
 31
0.0
  0
LINE
  5
389
  8
LE_ALL
  6
STRICHPUNKT2
 62
     1
 10
51.53647249
 20
-118.24076055
 30
0.0
 11
48.53647249
 21
-118.24076055
 31
0.0
  0
LINE
  5
38A
  8
LE_ALL
  6
STRICHPUNKT2
 62
     1
 10
51.53647249
 20
-118.24076055
 30
0.0
 11
54.53647249
 21
-118.24076055
 31
0.0
  0
LINE
  5
38B
  8
LE_ALL
  6
STRICHPUNKT2
 62
     1
 10
51.53647249
 20
-118.24076055
 30
0.0
 11
51.53647249
 21
-115.24076055
 31
0.0
  0
LINE
  5
38C
  8
LE_ALL
  6
STRICHPUNKT2
 62
     1
 10
51.53647249
 20
-118.24076055
 30
0.0
 11
51.53647249
 21
-121.24076055
 31
0.0
  0
LINE
  5
38D
  8
LE_ALL
  6
STRICHPUNKT2
 62
     1
 10
51.53647249
 20
-118.24076055
 30
0.0
 11
48.53647249
 21
-118.24076055
 31
0.0
  0
LINE
  5
38E
  8
LE_ALL
  6
STRICHPUNKT2
 62
     1
 10
51.53647249
 20
-118.24076055
 30
0.0
 11
54.53647249
 21
-118.24076055
 31
0.0
  0
LINE
  5
38F
  8
LE_ALL
  6
STRICHPUNKT2
 62
     1
 10
60.78647249
 20
-127.49076055
 30
0.0
 11
65.53647249
 21
-127.49076055
 31
0.0
  0
LINE
  5
390
  8
LE_ALL
  6
STRICHPUNKT2
 62
     1
 10
60.78647249
 20
-127.49076055
 30
0.0
 11
56.03647249
 21
-127.49076055
 31
0.0
  0
LINE
  5
391
  8
LE_ALL
  6
STRICHPUNKT2
 62
     1
 10
60.78647249
 20
-127.49076055
 30
0.0
 11
60.78647249
 21
-122.74076055
 31
0.0
  0
LINE
  5
392
  8
LE_ALL
  6
STRICHPUNKT2
 62
     1
 10
60.78647249
 20
-127.49076055
 30
0.0
 11
60.78647249
 21
-132.24076055
 31
0.0
  0
LINE
  5
393
  8
LE_ALL
  6
STRICHPUNKT2
 62
     1
 10
60.78647249
 20
-127.49076055
 30
0.0
 11
65.53647249
 21
-127.49076055
 31
0.0
  0
LINE
  5
394
  8
LE_ALL
  6
STRICHPUNKT2
 62
     1
 10
60.78647249
 20
-127.49076055
 30
0.0
 11
56.03647249
 21
-127.49076055
 31
0.0
  0
LINE
  5
395
  8
LE_ALL
  6
STRICHPUNKT2
 62
     1
 10
60.78647249
 20
-127.49076055
 30
0.0
 11
60.78647249
 21
-122.74076055
 31
0.0
  0
LINE
  5
396
  8
LE_ALL
  6
STRICHPUNKT2
 62
     1
 10
60.78647249
 20
-127.49076055
 30
0.0
 11
60.78647249
 21
-132.24076055
 31
0.0
  0
ENDBLK
  8
0
  0
BLOCK
  8
0
  2
_ANS0006_00067
 70
     0
 10
0.0
 20
0.0
 30
0.0
  0
INSERT
  5
399
  8
0
  2
_A3D0006_00068
 10
0.0
 20
0.0
 30
0.0
  0
ENDBLK
  8
0
  0
BLOCK
  8
0
  2
_A3D0006_00068
 70
     0
 10
0.0
 20
0.0
 30
0.0
  0
INSERT
  5
39C
  8
0
  2
PLAATWERK__D___8MM_00069
 10
0.0
 20
0.0
 30
0.0
  0
ENDBLK
  8
0
  0
BLOCK
  8
0
  2
PLAATWERK__D___8MM_00069
 70
     0
 10
0.0
 20
0.0
 30
0.0
  0
INSERT
  5
39F
  8
0
  2
SHEET_FLANGE_00070
 10
0.0
 20
0.0
 30
0.0
  0
INSERT
  5
3A0
  8
0
  2
BEND_ZONE_00074
 10
0.0
 20
0.0
 30
0.0
  0
INSERT
  5
3A1
  8
0
  2
SHEET_FLANGE_00076
 10
0.0
 20
0.0
 30
0.0
  0
INSERT
  5
3A2
  8
0
  2
BEND_ZONE_00078
 10
0.0
 20
0.0
 30
0.0
  0
INSERT
  5
3A3
  8
0
  2
SHEET_FLANGE_00080
 10
0.0
 20
0.0
 30
0.0
  0
ENDBLK
  8
0
  0
BLOCK
  8
0
  2
SHEET_FLANGE_00070
 70
     0
 10
0.0
 20
0.0
 30
0.0
  0
INSERT
  5
3A6
  8
0
  2
SHEET_FLANGE_00071
 10
355.24859395
 20
-120.7411103
 30
0.0
  0
INSERT
  5
3A7
  8
0
  2
_00072
 10
0.0
 20
0.0
 30
0.0
  0
ENDBLK
  8
0
  0
BLOCK
  8
0
  2
SHEET_FLANGE_00071
 70
     0
 10
355.24859395
 20
-120.7411103
 30
0.0
  0
POLYLINE
  5
3AA
  8
LE_ALL
 66
     1
 10
0.0
 20
0.0
 30
0.0
  0
VERTEX
  5
5EE
  8
LE_ALL
 10
353.14764246
 20
-119.7277447561111
 30
0.0
  0
VERTEX
  5
5EF
  8
LE_ALL
 10
353.2134447139335
 20
-119.9446381555958
 30
0.0
  0
VERTEX
  5
5F0
  8
LE_ALL
 10
353.4081869039281
 20
-120.152748739819
 30
0.0
  0
VERTEX
  5
5F1
  8
LE_ALL
 10
353.7239831989112
 20
-120.3436493420141
 30
0.0
  0
VERTEX
  5
5F2
  8
LE_ALL
 10
354.1480458396638
 20
-120.509609691198
 30
0.0
  0
VERTEX
  5
5F3
  8
LE_ALL
 10
354.6632029624557
 20
-120.6439094394153
 30
0.0
  0
VERTEX
  5
5F4
  8
LE_ALL
 10
355.2485939512791
 20
-120.7411102934666
 30
0.0
  0
SEQEND
  5
714
  8
LE_ALL
  0
POLYLINE
  5
3AB
  8
LE_ALL
 66
     1
 10
0.0
 20
0.0
 30
0.0
  0
VERTEX
  5
5F5
  8
LE_ALL
 10
357.5466909882085
 20
-118.7143792289886
 30
0.0
  0
VERTEX
  5
5F6
  8
LE_ALL
 10
356.9415608335165
 20
-118.6596908393044
 30
0.0
  0
VERTEX
  5
5F7
  8
LE_ALL
 10
356.3161879096195
 20
-118.6447517393441
 30
0.0
  0
VERTEX
  5
5F8
  8
LE_ALL
 10
355.6938464436478
 20
-118.6701179109741
 30
0.0
  0
VERTEX
  5
5F9
  8
LE_ALL
 10
355.0976978423042
 20
-118.7348453126198
 30
0.0
  0
VERTEX
  5
5FA
  8
LE_ALL
 10
354.5499287040499
 20
-118.8365250132419
 30
0.0
  0
VERTEX
  5
5FB
  8
LE_ALL
 10
354.0709251102955
 20
-118.9713728444565
 30
0.0
  0
VERTEX
  5
5FC
  8
LE_ALL
 10
353.6785139256384
 20
-119.1343702342535
 30
0.0
  0
VERTEX
  5
5FD
  8
LE_ALL
 10
353.3872993433382
 20
-119.3194509809688
 30
0.0
  0
VERTEX
  5
5FE
  8
LE_ALL
 10
353.2081193675252
 20
-119.5197270164243
 30
0.0
  0
VERTEX
  5
5FF
  8
LE_ALL
 10
353.14764246
 20
-119.7277447561111
 30
0.0
  0
SEQEND
  5
715
  8
LE_ALL
  0
POLYLINE
  5
3AC
  8
LE_ALL
 66
     1
 10
0.0
 20
0.0
 30
0.0
  0
VERTEX
  5
3AD
  8
LE_ALL
 10
357.54669098
 20
-118.71437922
 30
0.0
  0
VERTEX
  5
3AE
  8
LE_ALL
 10
370.17478466
 20
-120.30536947
 30
0.0
  0
SEQEND
  5
3AF
  8
LE_ALL
  0
POLYLINE
  5
3B0
  8
LE_ALL
 66
     1
 10
0.0
 20
0.0
 30
0.0
  0
VERTEX
  5
600
  8
LE_ALL
 10
372.27573614
 20
-121.31873501
 30
0.0
  0
VERTEX
  5
601
  8
LE_ALL
 10
372.2099338848151
 20
-121.101841612363
 30
0.0
  0
VERTEX
  5
602
  8
LE_ALL
 10
372.0151916957449
 20
-120.8937310299255
 30
0.0
  0
VERTEX
  5
603
  8
LE_ALL
 10
371.6993954036944
 20
-120.7028304292427
 30
0.0
  0
VERTEX
  5
604
  8
LE_ALL
 10
371.2753327675533
 20
-120.5368700811092
 30
0.0
  0
VERTEX
  5
605
  8
LE_ALL
 10
370.7601756505819
 20
-120.4025703333271
 30
0.0
  0
VERTEX
  5
606
  8
LE_ALL
 10
370.1747846682085
 20
-120.3053694789886
 30
0.0
  0
SEQEND
  5
716
  8
LE_ALL
  0
POLYLINE
  5
3B1
  8
LE_ALL
 66
     1
 10
0.0
 20
0.0
 30
0.0
  0
VERTEX
  5
607
  8
LE_ALL
 10
367.8766876312791
 20
-122.3321005434666
 30
0.0
  0
VERTEX
  5
608
  8
LE_ALL
 10
368.4818177861192
 20
-122.3867889318066
 30
0.0
  0
VERTEX
  5
609
  8
LE_ALL
 10
369.1071907093744
 20
-122.4017280304972
 30
0.0
  0
VERTEX
  5
60A
  8
LE_ALL
 10
369.7295321740064
 20
-122.3763618577205
 30
0.0
  0
VERTEX
  5
60B
  8
LE_ALL
 10
370.3256807734294
 20
-122.3116344550914
 30
0.0
  0
VERTEX
  5
60C
  8
LE_ALL
 10
370.8734499093183
 20
-122.2099547536786
 30
0.0
  0
VERTEX
  5
60D
  8
LE_ALL
 10
371.35245350041
 20
-122.0751069218844
 30
0.0
  0
VERTEX
  5
60E
  8
LE_ALL
 10
371.7448646822581
 20
-121.9121095317258
 30
0.0
  0
VERTEX
  5
60F
  8
LE_ALL
 10
372.0360792617498
 20
-121.727028784863
 30
0.0
  0
VERTEX
  5
610
  8
LE_ALL
 10
372.2152592348911
 20
-121.5267527494593
 30
0.0
  0
VERTEX
  5
611
  8
LE_ALL
 10
372.27573614
 20
-121.31873501
 30
0.0
  0
SEQEND
  5
717
  8
LE_ALL
  0
LINE
  5
3B2
  8
LE_ALL
 10
367.87668763
 20
-122.33210056
 30
0.0
 11
355.24859395
 21
-120.7411103
 31
0.0
  0
LINE
  5
3B3
  8
LE_ALL
 10
357.54669098
 20
-121.03064331
 30
0.0
 11
357.54669098
 21
-118.71437922
 31
0.0
  0
LINE
  5
3B4
  8
LE_ALL
 10
370.17478466
 20
-122.33210056
 30
0.0
 11
370.17478466
 21
-120.30536947
 31
0.0
  0
POLYLINE
  5
3B5
  8
LE_ALL
 66
     1
 10
0.0
 20
0.0
 30
0.0
  0
VERTEX
  5
612
  8
LE_ALL
 10
330.8836513
 20
-116.1038225
 30
0.0
  0
VERTEX
  5
613
  8
LE_ALL
 10
330.8212034614527
 20
-115.8924746535011
 30
0.0
  0
VERTEX
  5
614
  8
LE_ALL
 10
330.6362597812198
 20
-115.6892487861993
 30
0.0
  0
VERTEX
  5
615
  8
LE_ALL
 10
330.3359275411986
 20
-115.5019547541871
 30
0.0
  0
VERTEX
  5
616
  8
LE_ALL
 10
329.9317483409187
 20
-115.3377901620624
 30
0.0
  0
VERTEX
  5
617
  8
LE_ALL
 10
329.4392545603451
 20
-115.2030637630217
 30
0.0
  0
VERTEX
  5
618
  8
LE_ALL
 10
328.8773724592286
 20
-115.1029530170129
 30
0.0
  0
VERTEX
  5
619
  8
LE_ALL
 10
328.2676948515586
 20
-115.0413051238536
 30
0.0
  0
VERTEX
  5
61A
  8
LE_ALL
 10
327.6336513058334
 20
-115.0204891775
 30
0.0
  0
VERTEX
  5
61B
  8
LE_ALL
 10
326.9996077598841
 20
-115.0413051230949
 30
0.0
  0
VERTEX
  5
61C
  8
LE_ALL
 10
326.3899301515502
 20
-115.1029530155247
 30
0.0
  0
VERTEX
  5
61D
  8
LE_ALL
 10
325.8280480493555
 20
-115.2030637608611
 30
0.0
  0
VERTEX
  5
61E
  8
LE_ALL
 10
325.335554267331
 20
-115.3377901593125
 30
0.0
  0
VERTEX
  5
61F
  8
LE_ALL
 10
324.9313750652831
 20
-115.5019547509535
 30
0.0
  0
VERTEX
  5
620
  8
LE_ALL
 10
324.6310428232449
 20
-115.6892487826064
 30
0.0
  0
VERTEX
  5
621
  8
LE_ALL
 10
324.4460991408233
 20
-115.8924746496868
 30
0.0
  0
VERTEX
  5
622
  8
LE_ALL
 10
324.3836513
 20
-116.1038224961111
 30
0.0
  0
SEQEND
  5
718
  8
LE_ALL
  0
POLYLINE
  5
3B6
  8
LE_ALL
 66
     1
 10
0.0
 20
0.0
 30
0.0
  0
VERTEX
  5
623
  8
LE_ALL
 10
324.3836513
 20
-116.1038224961111
 30
0.0
  0
VERTEX
  5
624
  8
LE_ALL
 10
324.4460991365557
 20
-116.3151703431615
 30
0.0
  0
VERTEX
  5
625
  8
LE_ALL
 10
324.6310428154317
 20
-116.518396211106
 30
0.0
  0
VERTEX
  5
626
  8
LE_ALL
 10
324.9313750547503
 20
-116.705690243792
 30
0.0
  0
VERTEX
  5
627
  8
LE_ALL
 10
325.3355542549564
 20
-116.8698548365627
 30
0.0
  0
VERTEX
  5
628
  8
LE_ALL
 10
325.8280480360171
 20
-117.0045812361681
 30
0.0
  0
VERTEX
  5
629
  8
LE_ALL
 10
326.3899301380767
 20
-117.1046919826151
 30
0.0
  0
VERTEX
  5
62A
  8
LE_ALL
 10
326.9996077470111
 20
-117.1663398760516
 30
0.0
  0
VERTEX
  5
62B
  8
LE_ALL
 10
327.6336512941666
 20
-117.1871558225
 30
0.0
  0
VERTEX
  5
62C
  8
LE_ALL
 10
328.2676948415462
 20
-117.1663398768103
 30
0.0
  0
VERTEX
  5
62D
  8
LE_ALL
 10
328.8773724511445
 20
-117.1046919841033
 30
0.0
  0
VERTEX
  5
62E
  8
LE_ALL
 10
329.4392545542823
 20
-117.0045812383287
 30
0.0
  0
VERTEX
  5
62F
  8
LE_ALL
 10
329.9317483367939
 20
-116.8698548393126
 30
0.0
  0
VERTEX
  5
630
  8
LE_ALL
 10
330.3359275387679
 20
-116.7056902470255
 30
0.0
  0
VERTEX
  5
631
  8
LE_ALL
 10
330.6362597801036
 20
-116.5183962146989
 30
0.0
  0
VERTEX
  5
632
  8
LE_ALL
 10
330.8212034611682
 20
-116.3151703469757
 30
0.0
  0
VERTEX
  5
633
  8
LE_ALL
 10
330.8836513
 20
-116.1038225
 30
0.0
  0
SEQEND
  5
719
  8
LE_ALL
  0
LINE
  5
3B7
  8
LE_ALL
 10
376.11667538
 20
-127.55733422
 30
0.0
 11
286.3168981
 21
-116.24362572
 31
0.0
  0
LINE
  5
3B8
  8
LE_ALL
 10
376.11667538
 20
-131.32857039
 30
0.0
 11
376.11667538
 21
-127.55733422
 31
0.0
  0
POLYLINE
  5
3B9
  8
LE_ALL
 66
     1
 10
0.0
 20
0.0
 30
0.0
  0
VERTEX
  5
3BA
  8
LE_ALL
 10
286.3168981
 20
-120.01486189
 30
0.0
  0
VERTEX
  5
3BB
  8
LE_ALL
 10
376.11667538
 20
-131.32857039
 30
0.0
  0
VERTEX
  5
3BC
  8
LE_ALL
 10
386.7232771
 20
-121.97442692
 30
0.0
  0
VERTEX
  5
3BD
  8
LE_ALL
 10
386.7232771
 20
-118.20319076
 30
0.0
  0
VERTEX
  5
3BE
  8
LE_ALL
 10
376.11667538
 20
-127.55733422
 30
0.0
  0
SEQEND
  5
3BF
  8
LE_ALL
  0
LINE
  5
3C0
  8
LE_ALL
 10
296.92349981
 20
-106.88948226
 30
0.0
 11
386.7232771
 21
-118.20319076
 31
0.0
  0
LINE
  5
3C1
  8
LE_ALL
 10
286.3168981
 20
-116.24362572
 30
0.0
 11
296.92349981
 21
-106.88948226
 31
0.0
  0
ENDBLK
  8
0
  0
BLOCK
  8
0
  2
_00072
 70
     0
 10
0.0
 20
0.0
 30
0.0
  0
INSERT
  5
3C4
  8
0
  2
_00073
 10
327.6336513
 20
-114.68960894
 30
0.0
  0
ENDBLK
  8
0
  0
BLOCK
  8
0
  2
_00073
 70
     0
 10
327.6336513
 20
-114.68960894
 30
0.0
  0
LINE
  5
3C7
  8
LE_ALL
  6
STRICHPUNKT2
 62
     1
 10
327.6336513
 20
-114.68960894
 30
0.0
 11
327.6336513
 21
-117.18715584
 31
0.0
  0
LINE
  5
3C8
  8
LE_ALL
  6
STRICHPUNKT2
 62
     1
 10
327.6336513
 20
-116.1038225
 30
0.0
 11
332.07686945
 21
-116.66361537
 31
0.0
  0
LINE
  5
3C9
  8
LE_ALL
  6
STRICHPUNKT2
 62
     1
 10
327.6336513
 20
-116.1038225
 30
0.0
 11
323.19043316
 21
-115.54402964
 31
0.0
  0
LINE
  5
3CA
  8
LE_ALL
  6
STRICHPUNKT2
 62
     1
 10
327.6336513
 20
-116.1038225
 30
0.0
 11
329.31302991
 21
-114.62274979
 31
0.0
  0
LINE
  5
3CB
  8
LE_ALL
  6
STRICHPUNKT2
 62
     1
 10
327.6336513
 20
-116.1038225
 30
0.0
 11
325.9542727
 21
-117.58489522
 31
0.0
  0
LINE
  5
3CC
  8
LE_ALL
  6
STRICHPUNKT2
 62
     1
 10
356.39764246
 20
-118.31353119
 30
0.0
 11
356.39764246
 21
-120.88587681
 31
0.0
  0
LINE
  5
3CD
  8
LE_ALL
  6
STRICHPUNKT2
 62
     1
 10
369.02573614
 20
-119.90452145
 30
0.0
 11
369.02573614
 21
-122.40206835
 31
0.0
  0
LINE
  5
3CE
  8
LE_ALL
  6
STRICHPUNKT2
 62
     1
 10
351.95442432
 20
-119.16795189
 30
0.0
 11
373.46895429
 21
-121.87852788
 31
0.0
  0
LINE
  5
3CF
  8
LE_ALL
  6
STRICHPUNKT2
 62
     1
 10
354.71826386
 20
-121.20881747
 30
0.0
 11
358.07702107
 21
-118.24667204
 31
0.0
  0
LINE
  5
3D0
  8
LE_ALL
  6
STRICHPUNKT2
 62
     1
 10
367.34635754
 20
-122.79980773
 30
0.0
 11
370.70511475
 21
-119.8376623
 31
0.0
  0
ENDBLK
  8
0
  0
BLOCK
  8
0
  2
BEND_ZONE_00074
 70
     0
 10
0.0
 20
0.0
 30
0.0
  0
INSERT
  5
3D3
  8
0
  2
BEND_ZONE_00075
 10
282.57524071
 20
-112.00098504
 30
0.0
  0
ENDBLK
  8
0
  0
BLOCK
  8
0
  2
BEND_ZONE_00075
 70
     0
 10
282.57524071
 20
-112.00098504
 30
0.0
  0
LINE
  5
3D6
  8
LE_ALL
 10
282.57524071
 20
-112.00098504
 30
0.0
 11
293.18184243
 21
-102.64684157
 31
0.0
  0
POLYLINE
  5
3D7
  8
LE_ALL
 66
     1
 10
0.0
 20
0.0
 30
0.0
  0
VERTEX
  5
634
  8
LE_ALL
 10
278.8335833436054
 20
-111.5295805260138
 30
0.0
  0
VERTEX
  5
635
  8
LE_ALL
 10
278.9773731442212
 20
-113.0191596845743
 30
0.0
  0
VERTEX
  5
636
  8
LE_ALL
 10
279.4032167704023
 20
-114.4877267740608
 30
0.0
  0
VERTEX
  5
637
  8
LE_ALL
 10
280.0947492905515
 20
-115.878845585293
 30
0.0
  0
VERTEX
  5
638
  8
LE_ALL
 10
281.0253954979644
 20
-117.1390562029647
 30
0.0
  0
VERTEX
  5
639
  8
LE_ALL
 10
282.1593911811111
 20
-118.2199294401905
 30
0.0
  0
VERTEX
  5
63A
  8
LE_ALL
 10
283.4531575222161
 20
-119.0799279449829
 30
0.0
  0
VERTEX
  5
63B
  8
LE_ALL
 10
284.8569758067721
 20
-119.6860024573804
 30
0.0
  0
VERTEX
  5
63C
  8
LE_ALL
 10
286.3168980858392
 20
-120.0148618739629
 30
0.0
  0
SEQEND
  5
71A
  8
LE_ALL
  0
POLYLINE
  5
3D8
  8
LE_ALL
 66
     1
 10
0.0
 20
0.0
 30
0.0
  0
VERTEX
  5
63D
  8
LE_ALL
 10
282.5752407218027
 20
-112.0009850430069
 30
0.0
  0
VERTEX
  5
63E
  8
LE_ALL
 10
282.6471356221106
 20
-112.7457746222872
 30
0.0
  0
VERTEX
  5
63F
  8
LE_ALL
 10
282.8600574352012
 20
-113.4800581670304
 30
0.0
  0
VERTEX
  5
640
  8
LE_ALL
 10
283.2058236952757
 20
-114.1756175726465
 30
0.0
  0
VERTEX
  5
641
  8
LE_ALL
 10
283.6711467989822
 20
-114.8057228814823
 30
0.0
  0
VERTEX
  5
642
  8
LE_ALL
 10
284.2381446405556
 20
-115.3461595000953
 30
0.0
  0
VERTEX
  5
643
  8
LE_ALL
 10
284.885027811108
 20
-115.7761587524915
 30
0.0
  0
VERTEX
  5
644
  8
LE_ALL
 10
285.5869369533861
 20
-116.0791960086902
 30
0.0
  0
VERTEX
  5
645
  8
LE_ALL
 10
286.3168980929196
 20
-116.2436257169815
 30
0.0
  0
SEQEND
  5
71B
  8
LE_ALL
  0
POLYLINE
  5
3D9
  8
LE_ALL
 66
     1
 10
0.0
 20
0.0
 30
0.0
  0
VERTEX
  5
3DA
  8
LE_ALL
 10
286.3168981
 20
-116.24362572
 30
0.0
  0
VERTEX
  5
3DB
  8
LE_ALL
 10
296.92349981
 20
-106.88948226
 30
0.0
  0
SEQEND
  5
3DC
  8
LE_ALL
  0
POLYLINE
  5
3DD
  8
LE_ALL
 66
     1
 10
0.0
 20
0.0
 30
0.0
  0
VERTEX
  5
646
  8
LE_ALL
 10
293.1818424318027
 20
-102.6468415730069
 30
0.0
  0
VERTEX
  5
647
  8
LE_ALL
 10
293.2537373321106
 20
-103.3916311522872
 30
0.0
  0
VERTEX
  5
648
  8
LE_ALL
 10
293.4666591452012
 20
-104.1259146970304
 30
0.0
  0
VERTEX
  5
649
  8
LE_ALL
 10
293.8124254052757
 20
-104.8214741026465
 30
0.0
  0
VERTEX
  5
64A
  8
LE_ALL
 10
294.2777485089823
 20
-105.4515794114823
 30
0.0
  0
VERTEX
  5
64B
  8
LE_ALL
 10
294.8447463505556
 20
-105.9920160300953
 30
0.0
  0
VERTEX
  5
64C
  8
LE_ALL
 10
295.4916295211081
 20
-106.4220152824915
 30
0.0
  0
VERTEX
  5
64D
  8
LE_ALL
 10
296.1935386633861
 20
-106.7250525386902
 30
0.0
  0
VERTEX
  5
64E
  8
LE_ALL
 10
296.9234998029197
 20
-106.8894822469815
 30
0.0
  0
SEQEND
  5
71C
  8
LE_ALL
  0
ENDBLK
  8
0
  0
BLOCK
  8
0
  2
SHEET_FLANGE_00076
 70
     0
 10
0.0
 20
0.0
 30
0.0
  0
INSERT
  5
3E0
  8
0
  2
SHEET_FLANGE_00077
 10
282.57524071
 20
-95.03042229
 30
0.0
  0
ENDBLK
  8
0
  0
BLOCK
  8
0
  2
SHEET_FLANGE_00077
 70
     0
 10
282.57524071
 20
-95.03042229
 30
0.0
  0
LINE
  5
3E3
  8
LE_ALL
 10
282.57524071
 20
-95.03042229
 30
0.0
 11
282.57524071
 21
-112.00098504
 31
0.0
  0
LINE
  5
3E4
  8
LE_ALL
 10
278.83358332
 20
-111.52958052
 30
0.0
 11
278.83358332
 21
-94.55901777
 31
0.0
  0
LINE
  5
3E5
  8
LE_ALL
 10
293.18184243
 20
-85.67627882
 30
0.0
 11
282.57524071
 21
-95.03042229
 31
0.0
  0
LINE
  5
3E6
  8
LE_ALL
 10
293.18184243
 20
-102.64684157
 30
0.0
 11
293.18184243
 21
-85.67627882
 31
0.0
  0
LINE
  5
3E7
  8
LE_ALL
 10
282.57524071
 20
-112.00098504
 30
0.0
 11
293.18184243
 21
-102.64684157
 31
0.0
  0
ENDBLK
  8
0
  0
BLOCK
  8
0
  2
BEND_ZONE_00078
 70
     0
 10
0.0
 20
0.0
 30
0.0
  0
INSERT
  5
3EA
  8
0
  2
BEND_ZONE_00079
 10
293.18184243
 20
-85.67627882
 30
0.0
  0
ENDBLK
  8
0
  0
BLOCK
  8
0
  2
BEND_ZONE_00079
 70
     0
 10
293.18184243
 20
-85.67627882
 30
0.0
  0
POLYLINE
  5
3ED
  8
LE_ALL
 66
     1
 10
0.0
 20
0.0
 30
0.0
  0
VERTEX
  5
3EE
  8
LE_ALL
 10
293.18184243
 20
-85.67627882
 30
0.0
  0
VERTEX
  5
3EF
  8
LE_ALL
 10
282.57524071
 20
-95.03042229
 30
0.0
  0
SEQEND
  5
3F0
  8
LE_ALL
  0
POLYLINE
  5
3F1
  8
LE_ALL
 66
     1
 10
0.0
 20
0.0
 30
0.0
  0
VERTEX
  5
64F
  8
LE_ALL
 10
282.5752406963946
 20
-95.03042233233496
 30
0.0
  0
VERTEX
  5
650
  8
LE_ALL
 10
282.4314509033123
 20
-93.54084316454767
 30
0.0
  0
VERTEX
  5
651
  8
LE_ALL
 10
282.0056072807955
 20
-92.07227606459759
 30
0.0
  0
VERTEX
  5
652
  8
LE_ALL
 10
281.3140747605084
 20
-90.68115724278343
 30
0.0
  0
VERTEX
  5
653
  8
LE_ALL
 10
280.3834285494977
 20
-89.42094661549659
 30
0.0
  0
VERTEX
  5
654
  8
LE_ALL
 10
279.2494328598858
 20
-88.34007337060639
 30
0.0
  0
VERTEX
  5
655
  8
LE_ALL
 10
277.9556665102494
 20
-87.48007486092227
 30
0.0
  0
VERTEX
  5
656
  8
LE_ALL
 10
276.5518482160549
 20
-86.87400034701307
 30
0.0
  0
VERTEX
  5
657
  8
LE_ALL
 10
275.0919259272972
 20
-86.54514093265259
 30
0.0
  0
SEQEND
  5
71D
  8
LE_ALL
  0
LINE
  5
3F2
  8
LE_ALL
 10
285.69852765
 20
-77.19099745
 30
0.0
 11
275.09192594
 21
-86.54514091
 31
0.0
  0
POLYLINE
  5
3F3
  8
LE_ALL
 66
     1
 10
0.0
 20
0.0
 30
0.0
  0
VERTEX
  5
658
  8
LE_ALL
 10
293.1818424063947
 20
-85.67627886233495
 30
0.0
  0
VERTEX
  5
659
  8
LE_ALL
 10
293.0380526133123
 20
-84.18669969454766
 30
0.0
  0
VERTEX
  5
65A
  8
LE_ALL
 10
292.6122089907955
 20
-82.71813259459756
 30
0.0
  0
VERTEX
  5
65B
  8
LE_ALL
 10
291.9206764705084
 20
-81.32701377278342
 30
0.0
  0
VERTEX
  5
65C
  8
LE_ALL
 10
290.9900302594977
 20
-80.06680314549658
 30
0.0
  0
VERTEX
  5
65D
  8
LE_ALL
 10
289.8560345698858
 20
-78.98592990060638
 30
0.0
  0
VERTEX
  5
65E
  8
LE_ALL
 10
288.5622682202494
 20
-78.12593139092226
 30
0.0
  0
VERTEX
  5
65F
  8
LE_ALL
 10
287.1584499260549
 20
-77.51985687701305
 30
0.0
  0
VERTEX
  5
660
  8
LE_ALL
 10
285.6985276372972
 20
-77.19099746265258
 30
0.0
  0
SEQEND
  5
71E
  8
LE_ALL
  0
POLYLINE
  5
3F4
  8
LE_ALL
 66
     1
 10
0.0
 20
0.0
 30
0.0
  0
VERTEX
  5
661
  8
LE_ALL
 10
278.8335833181973
 20
-94.55901779116749
 30
0.0
  0
VERTEX
  5
662
  8
LE_ALL
 10
278.7616884216561
 20
-93.81422820727384
 30
0.0
  0
VERTEX
  5
663
  8
LE_ALL
 10
278.5487666103978
 20
-93.0799446572988
 30
0.0
  0
VERTEX
  5
664
  8
LE_ALL
 10
278.2030003502542
 20
-92.38438524639172
 30
0.0
  0
VERTEX
  5
665
  8
LE_ALL
 10
277.7376772447489
 20
-91.75427993274829
 30
0.0
  0
VERTEX
  5
666
  8
LE_ALL
 10
277.1706793999429
 20
-91.2138433103032
 30
0.0
  0
VERTEX
  5
667
  8
LE_ALL
 10
276.5237962251247
 20
-90.78384405546113
 30
0.0
  0
VERTEX
  5
668
  8
LE_ALL
 10
275.8218870780274
 20
-90.48080679850655
 30
0.0
  0
VERTEX
  5
669
  8
LE_ALL
 10
275.0919259336486
 20
-90.31637709132629
 30
0.0
  0
SEQEND
  5
71F
  8
LE_ALL
  0
ENDBLK
  8
0
  0
BLOCK
  8
0
  2
SHEET_FLANGE_00080
 70
     0
 10
0.0
 20
0.0
 30
0.0
  0
INSERT
  5
3F7
  8
0
  2
SHEET_FLANGE_00081
 10
253.7119677
 20
-78.09683301
 30
0.0
  0
INSERT
  5
3F8
  8
0
  2
_00082
 10
0.0
 20
0.0
 30
0.0
  0
ENDBLK
  8
0
  0
BLOCK
  8
0
  2
SHEET_FLANGE_00081
 70
     0
 10
253.7119677
 20
-78.09683301
 30
0.0
  0
POLYLINE
  5
3FB
  8
LE_ALL
 66
     1
 10
0.0
 20
0.0
 30
0.0
  0
VERTEX
  5
66A
  8
LE_ALL
 10
253.7119677
 20
-78.09683301
 30
0.0
  0
VERTEX
  5
66B
  8
LE_ALL
 10
253.6495198614527
 20
-77.88548516350106
 30
0.0
  0
VERTEX
  5
66C
  8
LE_ALL
 10
253.4645761812198
 20
-77.68225929619933
 30
0.0
  0
VERTEX
  5
66D
  8
LE_ALL
 10
253.1642439411986
 20
-77.49496526418706
 30
0.0
  0
VERTEX
  5
66E
  8
LE_ALL
 10
252.7600647409187
 20
-77.33080067206237
 30
0.0
  0
VERTEX
  5
66F
  8
LE_ALL
 10
252.2675709603452
 20
-77.19607427302168
 30
0.0
  0
VERTEX
  5
670
  8
LE_ALL
 10
251.7056888592286
 20
-77.09596352701288
 30
0.0
  0
VERTEX
  5
671
  8
LE_ALL
 10
251.0960112515586
 20
-77.0343156338536
 30
0.0
  0
VERTEX
  5
672
  8
LE_ALL
 10
250.4619677058334
 20
-77.0134996875
 30
0.0
  0
VERTEX
  5
673
  8
LE_ALL
 10
249.8279241598841
 20
-77.0343156330949
 30
0.0
  0
VERTEX
  5
674
  8
LE_ALL
 10
249.2182465515502
 20
-77.09596352552465
 30
0.0
  0
VERTEX
  5
675
  8
LE_ALL
 10
248.6563644493555
 20
-77.19607427086109
 30
0.0
  0
VERTEX
  5
676
  8
LE_ALL
 10
248.163870667331
 20
-77.33080066931247
 30
0.0
  0
VERTEX
  5
677
  8
LE_ALL
 10
247.7596914652831
 20
-77.49496526095352
 30
0.0
  0
VERTEX
  5
678
  8
LE_ALL
 10
247.4593592232449
 20
-77.68225929260642
 30
0.0
  0
VERTEX
  5
679
  8
LE_ALL
 10
247.2744155408233
 20
-77.88548515968684
 30
0.0
  0
VERTEX
  5
67A
  8
LE_ALL
 10
247.2119677
 20
-78.09683300611105
 30
0.0
  0
SEQEND
  5
720
  8
LE_ALL
  0
POLYLINE
  5
3FC
  8
LE_ALL
 66
     1
 10
0.0
 20
0.0
 30
0.0
  0
VERTEX
  5
67B
  8
LE_ALL
 10
247.2119677
 20
-78.09683300611105
 30
0.0
  0
VERTEX
  5
67C
  8
LE_ALL
 10
247.2744155365557
 20
-78.3081808531615
 30
0.0
  0
VERTEX
  5
67D
  8
LE_ALL
 10
247.4593592154317
 20
-78.51140672110597
 30
0.0
  0
VERTEX
  5
67E
  8
LE_ALL
 10
247.7596914547503
 20
-78.69870075379197
 30
0.0
  0
VERTEX
  5
67F
  8
LE_ALL
 10
248.1638706549564
 20
-78.86286534656267
 30
0.0
  0
VERTEX
  5
680
  8
LE_ALL
 10
248.6563644360171
 20
-78.9975917461681
 30
0.0
  0
VERTEX
  5
681
  8
LE_ALL
 10
249.2182465380768
 20
-79.09770249261506
 30
0.0
  0
VERTEX
  5
682
  8
LE_ALL
 10
249.8279241470111
 20
-79.15935038605156
 30
0.0
  0
VERTEX
  5
683
  8
LE_ALL
 10
250.4619676941666
 20
-79.1801663325
 30
0.0
  0
VERTEX
  5
684
  8
LE_ALL
 10
251.0960112415463
 20
-79.15935038681025
 30
0.0
  0
VERTEX
  5
685
  8
LE_ALL
 10
251.7056888511445
 20
-79.09770249410329
 30
0.0
  0
VERTEX
  5
686
  8
LE_ALL
 10
252.2675709542823
 20
-78.99759174832869
 30
0.0
  0
VERTEX
  5
687
  8
LE_ALL
 10
252.7600647367939
 20
-78.86286534931257
 30
0.0
  0
VERTEX
  5
688
  8
LE_ALL
 10
253.164243938768
 20
-78.6987007570255
 30
0.0
  0
VERTEX
  5
689
  8
LE_ALL
 10
253.4645761801036
 20
-78.51140672469889
 30
0.0
  0
VERTEX
  5
68A
  8
LE_ALL
 10
253.6495198611682
 20
-78.30818085697571
 30
0.0
  0
VERTEX
  5
68B
  8
LE_ALL
 10
253.7119677
 20
-78.09683301
 30
0.0
  0
SEQEND
  5
721
  8
LE_ALL
  0
POLYLINE
  5
3FD
  8
LE_ALL
 66
     1
 10
0.0
 20
0.0
 30
0.0
  0
VERTEX
  5
68C
  8
LE_ALL
 10
247.07975386
 20
-74.12251583
 30
0.0
  0
VERTEX
  5
68D
  8
LE_ALL
 10
247.041324420894
 20
-73.99245561676989
 30
0.0
  0
VERTEX
  5
68E
  8
LE_ALL
 10
246.927512925366
 20
-73.8673935445842
 30
0.0
  0
VERTEX
  5
68F
  8
LE_ALL
 10
246.742693085353
 20
-73.7521356787305
 30
0.0
  0
VERTEX
  5
690
  8
LE_ALL
 10
246.4939674236423
 20
-73.65111131434607
 30
0.0
  0
VERTEX
  5
691
  8
LE_ALL
 10
246.1908943279047
 20
-73.56820276109026
 30
0.0
  0
VERTEX
  5
692
  8
LE_ALL
 10
245.8451207272176
 20
-73.50659614816178
 30
0.0
  0
VERTEX
  5
693
  8
LE_ALL
 10
245.469934507113
 20
-73.46865898314067
 30
0.0
  0
VERTEX
  5
694
  8
LE_ALL
 10
245.0797538635898
 20
-73.45584917
 30
0.0
  0
VERTEX
  5
695
  8
LE_ALL
 10
244.6895732199287
 20
-73.46865898267379
 30
0.0
  0
VERTEX
  5
696
  8
LE_ALL
 10
244.3143869994155
 20
-73.50659614724594
 30
0.0
  0
VERTEX
  5
697
  8
LE_ALL
 10
243.9686133980649
 20
-73.56820275976067
 30
0.0
  0
VERTEX
  5
698
  8
LE_ALL
 10
243.6655403014345
 20
-73.65111131265382
 30
0.0
  0
VERTEX
  5
699
  8
LE_ALL
 10
243.4168146386358
 20
-73.75213567674064
 30
0.0
  0
VERTEX
  5
69A
  8
LE_ALL
 10
243.2319947973815
 20
-73.86739354237318
 30
0.0
  0
VERTEX
  5
69B
  8
LE_ALL
 10
243.1181833005067
 20
-73.99245561442267
 30
0.0
  0
VERTEX
  5
69C
  8
LE_ALL
 10
243.07975386
 20
-74.1225158276068
 30
0.0
  0
SEQEND
  5
722
  8
LE_ALL
  0
POLYLINE
  5
3FE
  8
LE_ALL
 66
     1
 10
0.0
 20
0.0
 30
0.0
  0
VERTEX
  5
69D
  8
LE_ALL
 10
243.07975386
 20
-74.1225158276068
 30
0.0
  0
VERTEX
  5
69E
  8
LE_ALL
 10
243.1181832978804
 20
-74.2525760411763
 30
0.0
  0
VERTEX
  5
69F
  8
LE_ALL
 10
243.2319947925734
 20
-74.37763811375753
 30
0.0
  0
VERTEX
  5
6A0
  8
LE_ALL
 10
243.4168146321541
 20
-74.49289598002584
 30
0.0
  0
VERTEX
  5
6A1
  8
LE_ALL
 10
243.6655402938194
 20
-74.5939203448078
 30
0.0
  0
VERTEX
  5
6A2
  8
LE_ALL
 10
243.9686133898567
 20
-74.67682889841115
 30
0.0
  0
VERTEX
  5
6A3
  8
LE_ALL
 10
244.3143869911242
 20
-74.73843551160927
 30
0.0
  0
VERTEX
  5
6A4
  8
LE_ALL
 10
244.6895732120068
 20
-74.77637267680096
 30
0.0
  0
VERTEX
  5
6A5
  8
LE_ALL
 10
245.0797538564102
 20
-74.78918249
 30
0.0
  0
VERTEX
  5
6A6
  8
LE_ALL
 10
245.4699345009516
 20
-74.77637267726784
 30
0.0
  0
VERTEX
  5
6A7
  8
LE_ALL
 10
245.8451207222428
 20
-74.7384355125251
 30
0.0
  0
VERTEX
  5
6A8
  8
LE_ALL
 10
246.1908943241737
 20
-74.67682889974073
 30
0.0
  0
VERTEX
  5
6A9
  8
LE_ALL
 10
246.4939674211039
 20
-74.59392034650004
 30
0.0
  0
VERTEX
  5
6AA
  8
LE_ALL
 10
246.7426930838572
 20
-74.4928959820157
 30
0.0
  0
VERTEX
  5
6AB
  8
LE_ALL
 10
246.9275129246791
 20
-74.37763811596855
 30
0.0
  0
VERTEX
  5
6AC
  8
LE_ALL
 10
247.0413244207189
 20
-74.25257604352352
 30
0.0
  0
VERTEX
  5
6AD
  8
LE_ALL
 10
247.07975386
 20
-74.12251583
 30
0.0
  0
SEQEND
  5
723
  8
LE_ALL
  0
POLYLINE
  5
3FF
  8
LE_ALL
 66
     1
 10
0.0
 20
0.0
 30
0.0
  0
VERTEX
  5
6AE
  8
LE_ALL
 10
240.53901613
 20
-79.8909043
 30
0.0
  0
VERTEX
  5
6AF
  8
LE_ALL
 10
240.500586690894
 20
-79.7608440867699
 30
0.0
  0
VERTEX
  5
6B0
  8
LE_ALL
 10
240.386775195366
 20
-79.63578201458421
 30
0.0
  0
VERTEX
  5
6B1
  8
LE_ALL
 10
240.201955355353
 20
-79.5205241487305
 30
0.0
  0
VERTEX
  5
6B2
  8
LE_ALL
 10
239.9532296936423
 20
-79.41949978434607
 30
0.0
  0
VERTEX
  5
6B3
  8
LE_ALL
 10
239.6501565979047
 20
-79.33659123109027
 30
0.0
  0
VERTEX
  5
6B4
  8
LE_ALL
 10
239.3043829972176
 20
-79.27498461816178
 30
0.0
  0
VERTEX
  5
6B5
  8
LE_ALL
 10
238.929196777113
 20
-79.23704745314068
 30
0.0
  0
VERTEX
  5
6B6
  8
LE_ALL
 10
238.5390161335898
 20
-79.22423764
 30
0.0
  0
VERTEX
  5
6B7
  8
LE_ALL
 10
238.1488354899286
 20
-79.23704745267379
 30
0.0
  0
VERTEX
  5
6B8
  8
LE_ALL
 10
237.7736492694155
 20
-79.27498461724595
 30
0.0
  0
VERTEX
  5
6B9
  8
LE_ALL
 10
237.4278756680649
 20
-79.33659122976067
 30
0.0
  0
VERTEX
  5
6BA
  8
LE_ALL
 10
237.1248025714345
 20
-79.41949978265383
 30
0.0
  0
VERTEX
  5
6BB
  8
LE_ALL
 10
236.8760769086358
 20
-79.52052414674064
 30
0.0
  0
VERTEX
  5
6BC
  8
LE_ALL
 10
236.6912570673815
 20
-79.63578201237318
 30
0.0
  0
VERTEX
  5
6BD
  8
LE_ALL
 10
236.5774455705067
 20
-79.76084408442267
 30
0.0
  0
VERTEX
  5
6BE
  8
LE_ALL
 10
236.53901613
 20
-79.89090429760681
 30
0.0
  0
SEQEND
  5
724
  8
LE_ALL
  0
POLYLINE
  5
400
  8
LE_ALL
 66
     1
 10
0.0
 20
0.0
 30
0.0
  0
VERTEX
  5
6BF
  8
LE_ALL
 10
236.53901613
 20
-79.89090429760681
 30
0.0
  0
VERTEX
  5
6C0
  8
LE_ALL
 10
236.5774455678804
 20
-80.0209645111763
 30
0.0
  0
VERTEX
  5
6C1
  8
LE_ALL
 10
236.6912570625734
 20
-80.14602658375753
 30
0.0
  0
VERTEX
  5
6C2
  8
LE_ALL
 10
236.876076902154
 20
-80.26128445002584
 30
0.0
  0
VERTEX
  5
6C3
  8
LE_ALL
 10
237.1248025638193
 20
-80.3623088148078
 30
0.0
  0
VERTEX
  5
6C4
  8
LE_ALL
 10
237.4278756598567
 20
-80.44521736841115
 30
0.0
  0
VERTEX
  5
6C5
  8
LE_ALL
 10
237.7736492611241
 20
-80.50682398160927
 30
0.0
  0
VERTEX
  5
6C6
  8
LE_ALL
 10
238.1488354820068
 20
-80.54476114680097
 30
0.0
  0
VERTEX
  5
6C7
  8
LE_ALL
 10
238.5390161264102
 20
-80.55757096
 30
0.0
  0
VERTEX
  5
6C8
  8
LE_ALL
 10
238.9291967709515
 20
-80.54476114726785
 30
0.0
  0
VERTEX
  5
6C9
  8
LE_ALL
 10
239.3043829922428
 20
-80.5068239825251
 30
0.0
  0
VERTEX
  5
6CA
  8
LE_ALL
 10
239.6501565941737
 20
-80.44521736974073
 30
0.0
  0
VERTEX
  5
6CB
  8
LE_ALL
 10
239.9532296911039
 20
-80.36230881650005
 30
0.0
  0
VERTEX
  5
6CC
  8
LE_ALL
 10
240.2019553538572
 20
-80.2612844520157
 30
0.0
  0
VERTEX
  5
6CD
  8
LE_ALL
 10
240.3867751946791
 20
-80.14602658596856
 30
0.0
  0
VERTEX
  5
6CE
  8
LE_ALL
 10
240.5005866907189
 20
-80.02096451352352
 30
0.0
  0
VERTEX
  5
6CF
  8
LE_ALL
 10
240.53901613
 20
-79.8909043
 30
0.0
  0
SEQEND
  5
725
  8
LE_ALL
  0
POLYLINE
  5
401
  8
LE_ALL
 66
     1
 10
0.0
 20
0.0
 30
0.0
  0
VERTEX
  5
6D0
  8
LE_ALL
 10
264.38491927
 20
-76.30276173
 30
0.0
  0
VERTEX
  5
6D1
  8
LE_ALL
 10
264.346489830894
 20
-76.17270151676989
 30
0.0
  0
VERTEX
  5
6D2
  8
LE_ALL
 10
264.232678335366
 20
-76.0476394445842
 30
0.0
  0
VERTEX
  5
6D3
  8
LE_ALL
 10
264.047858495353
 20
-75.9323815787305
 30
0.0
  0
VERTEX
  5
6D4
  8
LE_ALL
 10
263.7991328336423
 20
-75.83135721434607
 30
0.0
  0
VERTEX
  5
6D5
  8
LE_ALL
 10
263.4960597379047
 20
-75.74844866109026
 30
0.0
  0
VERTEX
  5
6D6
  8
LE_ALL
 10
263.1502861372176
 20
-75.68684204816178
 30
0.0
  0
VERTEX
  5
6D7
  8
LE_ALL
 10
262.775099917113
 20
-75.64890488314067
 30
0.0
  0
VERTEX
  5
6D8
  8
LE_ALL
 10
262.3849192735898
 20
-75.63609507
 30
0.0
  0
VERTEX
  5
6D9
  8
LE_ALL
 10
261.9947386299287
 20
-75.64890488267379
 30
0.0
  0
VERTEX
  5
6DA
  8
LE_ALL
 10
261.6195524094155
 20
-75.68684204724595
 30
0.0
  0
VERTEX
  5
6DB
  8
LE_ALL
 10
261.2737788080649
 20
-75.74844865976067
 30
0.0
  0
VERTEX
  5
6DC
  8
LE_ALL
 10
260.9707057114344
 20
-75.83135721265383
 30
0.0
  0
VERTEX
  5
6DD
  8
LE_ALL
 10
260.7219800486358
 20
-75.93238157674064
 30
0.0
  0
VERTEX
  5
6DE
  8
LE_ALL
 10
260.5371602073815
 20
-76.04763944237318
 30
0.0
  0
VERTEX
  5
6DF
  8
LE_ALL
 10
260.4233487105067
 20
-76.17270151442267
 30
0.0
  0
VERTEX
  5
6E0
  8
LE_ALL
 10
260.38491927
 20
-76.3027617276068
 30
0.0
  0
SEQEND
  5
726
  8
LE_ALL
  0
POLYLINE
  5
402
  8
LE_ALL
 66
     1
 10
0.0
 20
0.0
 30
0.0
  0
VERTEX
  5
6E1
  8
LE_ALL
 10
260.38491927
 20
-76.3027617276068
 30
0.0
  0
VERTEX
  5
6E2
  8
LE_ALL
 10
260.4233487078805
 20
-76.4328219411763
 30
0.0
  0
VERTEX
  5
6E3
  8
LE_ALL
 10
260.5371602025734
 20
-76.55788401375753
 30
0.0
  0
VERTEX
  5
6E4
  8
LE_ALL
 10
260.721980042154
 20
-76.67314188002584
 30
0.0
  0
VERTEX
  5
6E5
  8
LE_ALL
 10
260.9707057038194
 20
-76.7741662448078
 30
0.0
  0
VERTEX
  5
6E6
  8
LE_ALL
 10
261.2737787998567
 20
-76.85707479841115
 30
0.0
  0
VERTEX
  5
6E7
  8
LE_ALL
 10
261.6195524011242
 20
-76.91868141160927
 30
0.0
  0
VERTEX
  5
6E8
  8
LE_ALL
 10
261.9947386220068
 20
-76.95661857680096
 30
0.0
  0
VERTEX
  5
6E9
  8
LE_ALL
 10
262.3849192664102
 20
-76.96942839
 30
0.0
  0
VERTEX
  5
6EA
  8
LE_ALL
 10
262.7750999109516
 20
-76.95661857726785
 30
0.0
  0
VERTEX
  5
6EB
  8
LE_ALL
 10
263.1502861322428
 20
-76.9186814125251
 30
0.0
  0
VERTEX
  5
6EC
  8
LE_ALL
 10
263.4960597341737
 20
-76.85707479974073
 30
0.0
  0
VERTEX
  5
6ED
  8
LE_ALL
 10
263.7991328311039
 20
-76.77416624650004
 30
0.0
  0
VERTEX
  5
6EE
  8
LE_ALL
 10
264.0478584938572
 20
-76.6731418820157
 30
0.0
  0
VERTEX
  5
6EF
  8
LE_ALL
 10
264.2326783346791
 20
-76.55788401596855
 30
0.0
  0
VERTEX
  5
6F0
  8
LE_ALL
 10
264.346489830719
 20
-76.43282194352352
 30
0.0
  0
VERTEX
  5
6F1
  8
LE_ALL
 10
264.38491927
 20
-76.30276173
 30
0.0
  0
SEQEND
  5
727
  8
LE_ALL
  0
POLYLINE
  5
403
  8
LE_ALL
 66
     1
 10
0.0
 20
0.0
 30
0.0
  0
VERTEX
  5
6F2
  8
LE_ALL
 10
257.84418155
 20
-82.0711502
 30
0.0
  0
VERTEX
  5
6F3
  8
LE_ALL
 10
257.805752110894
 20
-81.9410899867699
 30
0.0
  0
VERTEX
  5
6F4
  8
LE_ALL
 10
257.691940615366
 20
-81.81602791458421
 30
0.0
  0
VERTEX
  5
6F5
  8
LE_ALL
 10
257.507120775353
 20
-81.7007700487305
 30
0.0
  0
VERTEX
  5
6F6
  8
LE_ALL
 10
257.2583951136423
 20
-81.59974568434608
 30
0.0
  0
VERTEX
  5
6F7
  8
LE_ALL
 10
256.9553220179047
 20
-81.51683713109027
 30
0.0
  0
VERTEX
  5
6F8
  8
LE_ALL
 10
256.6095484172176
 20
-81.45523051816178
 30
0.0
  0
VERTEX
  5
6F9
  8
LE_ALL
 10
256.234362197113
 20
-81.41729335314068
 30
0.0
  0
VERTEX
  5
6FA
  8
LE_ALL
 10
255.8441815535898
 20
-81.40448354
 30
0.0
  0
VERTEX
  5
6FB
  8
LE_ALL
 10
255.4540009099287
 20
-81.4172933526738
 30
0.0
  0
VERTEX
  5
6FC
  8
LE_ALL
 10
255.0788146894155
 20
-81.45523051724595
 30
0.0
  0
VERTEX
  5
6FD
  8
LE_ALL
 10
254.7330410880649
 20
-81.51683712976067
 30
0.0
  0
VERTEX
  5
6FE
  8
LE_ALL
 10
254.4299679914345
 20
-81.59974568265383
 30
0.0
  0
VERTEX
  5
6FF
  8
LE_ALL
 10
254.1812423286358
 20
-81.70077004674064
 30
0.0
  0
VERTEX
  5
700
  8
LE_ALL
 10
253.9964224873815
 20
-81.81602791237319
 30
0.0
  0
VERTEX
  5
701
  8
LE_ALL
 10
253.8826109905067
 20
-81.94108998442267
 30
0.0
  0
VERTEX
  5
702
  8
LE_ALL
 10
253.84418155
 20
-82.07115019760681
 30
0.0
  0
SEQEND
  5
728
  8
LE_ALL
  0
POLYLINE
  5
404
  8
LE_ALL
 66
     1
 10
0.0
 20
0.0
 30
0.0
  0
VERTEX
  5
703
  8
LE_ALL
 10
253.84418155
 20
-82.07115019760681
 30
0.0
  0
VERTEX
  5
704
  8
LE_ALL
 10
253.8826109878804
 20
-82.2012104111763
 30
0.0
  0
VERTEX
  5
705
  8
LE_ALL
 10
253.9964224825734
 20
-82.32627248375753
 30
0.0
  0
VERTEX
  5
706
  8
LE_ALL
 10
254.181242322154
 20
-82.44153035002584
 30
0.0
  0
VERTEX
  5
707
  8
LE_ALL
 10
254.4299679838194
 20
-82.5425547148078
 30
0.0
  0
VERTEX
  5
708
  8
LE_ALL
 10
254.7330410798567
 20
-82.62546326841115
 30
0.0
  0
VERTEX
  5
709
  8
LE_ALL
 10
255.0788146811242
 20
-82.68706988160928
 30
0.0
  0
VERTEX
  5
70A
  8
LE_ALL
 10
255.4540009020068
 20
-82.72500704680097
 30
0.0
  0
VERTEX
  5
70B
  8
LE_ALL
 10
255.8441815464102
 20
-82.73781686000001
 30
0.0
  0
VERTEX
  5
70C
  8
LE_ALL
 10
256.2343621909516
 20
-82.72500704726785
 30
0.0
  0
VERTEX
  5
70D
  8
LE_ALL
 10
256.6095484122428
 20
-82.68706988252511
 30
0.0
  0
VERTEX
  5
70E
  8
LE_ALL
 10
256.9553220141737
 20
-82.62546326974073
 30
0.0
  0
VERTEX
  5
70F
  8
LE_ALL
 10
257.2583951111039
 20
-82.54255471650005
 30
0.0
  0
VERTEX
  5
710
  8
LE_ALL
 10
257.5071207738572
 20
-82.4415303520157
 30
0.0
  0
VERTEX
  5
711
  8
LE_ALL
 10
257.6919406146791
 20
-82.32627248596856
 30
0.0
  0
VERTEX
  5
712
  8
LE_ALL
 10
257.8057521107189
 20
-82.20121041352353
 30
0.0
  0
VERTEX
  5
713
  8
LE_ALL
 10
257.84418155
 20
-82.0711502
 30
0.0
  0
SEQEND
  5
729
  8
LE_ALL
  0
LINE
  5
405
  8
LE_ALL
 10
275.09192594
 20
-90.31637708
 30
0.0
 11
231.12745164
 21
-84.77737396
 31
0.0
  0
LINE
  5
406
  8
LE_ALL
 10
231.12745164
 20
-81.0061378
 30
0.0
 11
231.12745164
 21
-84.77737396
 31
0.0
  0
POLYLINE
  5
407
  8
LE_ALL
 66
     1
 10
0.0
 20
0.0
 30
0.0
 70
     1
  0
VERTEX
  5
408
  8
LE_ALL
 10
231.12745164
 20
-81.0061378
 30
0.0
  0
VERTEX
  5
409
  8
LE_ALL
 10
275.09192594
 20
-86.54514091
 30
0.0
  0
VERTEX
  5
40A
  8
LE_ALL
 10
285.69852765
 20
-77.19099745
 30
0.0
  0
VERTEX
  5
40B
  8
LE_ALL
 10
241.73405336
 20
-71.65199433
 30
0.0
  0
SEQEND
  5
40C
  8
LE_ALL
  0
ENDBLK
  8
0
  0
BLOCK
  8
0
  2
_00082
 70
     0
 10
0.0
 20
0.0
 30
0.0
  0
INSERT
  5
40F
  8
0
  2
_00083
 10
255.84418155
 20
-82.73781687
 30
0.0
  0
ENDBLK
  8
0
  0
BLOCK
  8
0
  2
_00083
 70
     0
 10
255.84418155
 20
-82.73781687
 30
0.0
  0
LINE
  5
412
  8
LE_ALL
  6
STRICHPUNKT2
 62
     1
 10
255.84418155
 20
-82.73781687
 30
0.0
 11
255.84418155
 21
-81.12834116
 31
0.0
  0
LINE
  5
413
  8
LE_ALL
  6
STRICHPUNKT2
 62
     1
 10
255.84418155
 20
-82.0711502
 30
0.0
 11
256.90484172
 21
-81.13573586
 31
0.0
  0
LINE
  5
414
  8
LE_ALL
  6
STRICHPUNKT2
 62
     1
 10
255.84418155
 20
-82.0711502
 30
0.0
 11
254.78352137
 21
-83.00656455
 31
0.0
  0
LINE
  5
415
  8
LE_ALL
  6
STRICHPUNKT2
 62
     1
 10
255.84418155
 20
-82.0711502
 30
0.0
 11
253.03793851
 21
-81.71759681
 31
0.0
  0
LINE
  5
416
  8
LE_ALL
  6
STRICHPUNKT2
 62
     1
 10
255.84418155
 20
-82.0711502
 30
0.0
 11
258.65042459
 21
-82.4247036
 31
0.0
  0
LINE
  5
417
  8
LE_ALL
  6
STRICHPUNKT2
 62
     1
 10
262.38491927
 20
-76.9694284
 30
0.0
 11
262.38491927
 21
-75.35995269
 31
0.0
  0
LINE
  5
418
  8
LE_ALL
  6
STRICHPUNKT2
 62
     1
 10
262.38491927
 20
-76.30276173
 30
0.0
 11
263.44557944
 21
-75.36734739
 31
0.0
  0
LINE
  5
419
  8
LE_ALL
  6
STRICHPUNKT2
 62
     1
 10
262.38491927
 20
-76.30276173
 30
0.0
 11
261.3242591
 21
-77.23817608
 31
0.0
  0
LINE
  5
41A
  8
LE_ALL
  6
STRICHPUNKT2
 62
     1
 10
262.38491927
 20
-76.30276173
 30
0.0
 11
259.57867623
 21
-75.94920834
 31
0.0
  0
LINE
  5
41B
  8
LE_ALL
  6
STRICHPUNKT2
 62
     1
 10
262.38491927
 20
-76.30276173
 30
0.0
 11
265.19116231
 21
-76.65631512
 31
0.0
  0
LINE
  5
41C
  8
LE_ALL
  6
STRICHPUNKT2
 62
     1
 10
238.53901613
 20
-80.55757096
 30
0.0
 11
238.53901613
 21
-78.94809525
 31
0.0
  0
LINE
  5
41D
  8
LE_ALL
  6
STRICHPUNKT2
 62
     1
 10
238.53901613
 20
-79.8909043
 30
0.0
 11
239.5996763
 21
-78.95548995
 31
0.0
  0
LINE
  5
41E
  8
LE_ALL
  6
STRICHPUNKT2
 62
     1
 10
238.53901613
 20
-79.8909043
 30
0.0
 11
237.47835596
 21
-80.82631864
 31
0.0
  0
LINE
  5
41F
  8
LE_ALL
  6
STRICHPUNKT2
 62
     1
 10
238.53901613
 20
-79.8909043
 30
0.0
 11
235.73277309
 21
-79.53735091
 31
0.0
  0
LINE
  5
420
  8
LE_ALL
  6
STRICHPUNKT2
 62
     1
 10
238.53901613
 20
-79.8909043
 30
0.0
 11
241.34525917
 21
-80.24445769
 31
0.0
  0
LINE
  5
421
  8
LE_ALL
  6
STRICHPUNKT2
 62
     1
 10
245.07975386
 20
-74.78918249
 30
0.0
 11
245.07975386
 21
-73.17970678
 31
0.0
  0
LINE
  5
422
  8
LE_ALL
  6
STRICHPUNKT2
 62
     1
 10
245.07975386
 20
-74.12251583
 30
0.0
 11
246.14041403
 21
-73.18710148
 31
0.0
  0
LINE
  5
423
  8
LE_ALL
  6
STRICHPUNKT2
 62
     1
 10
245.07975386
 20
-74.12251583
 30
0.0
 11
244.01909369
 21
-75.05793017
 31
0.0
  0
LINE
  5
424
  8
LE_ALL
  6
STRICHPUNKT2
 62
     1
 10
245.07975386
 20
-74.12251583
 30
0.0
 11
242.27351082
 21
-73.76896243
 31
0.0
  0
LINE
  5
425
  8
LE_ALL
  6
STRICHPUNKT2
 62
     1
 10
245.07975386
 20
-74.12251583
 30
0.0
 11
247.8859969
 21
-74.47606922
 31
0.0
  0
LINE
  5
426
  8
LE_ALL
  6
STRICHPUNKT2
 62
     1
 10
250.4619677
 20
-76.68261945
 30
0.0
 11
250.4619677
 21
-79.18016635
 31
0.0
  0
LINE
  5
427
  8
LE_ALL
  6
STRICHPUNKT2
 62
     1
 10
250.4619677
 20
-78.09683301
 30
0.0
 11
254.90518585
 21
-78.65662588
 31
0.0
  0
LINE
  5
428
  8
LE_ALL
  6
STRICHPUNKT2
 62
     1
 10
250.4619677
 20
-78.09683301
 30
0.0
 11
246.01874955
 21
-77.53704015
 31
0.0
  0
LINE
  5
429
  8
LE_ALL
  6
STRICHPUNKT2
 62
     1
 10
250.4619677
 20
-78.09683301
 30
0.0
 11
252.14134631
 21
-76.6157603
 31
0.0
  0
LINE
  5
42A
  8
LE_ALL
  6
STRICHPUNKT2
 62
     1
 10
250.4619677
 20
-78.09683301
 30
0.0
 11
248.7825891
 21
-79.57790573
 31
0.0
  0
ENDBLK
  8
0
  0
BLOCK
  8
0
  2
DVI_FIGURE_00084
 70
     0
 10
0.0
 20
0.0
 30
0.0
  0
INSERT
  5
42D
  8
0
  2
VIEW_3_00085
 10
0.0
 20
0.0
 30
0.0
  0
INSERT
  5
42E
  8
0
  2
VIEW_4_00093
 10
0.0
 20
0.0
 30
0.0
  0
INSERT
  5
42F
  8
0
  2
VIEW_5_00096
 10
0.0
 20
0.0
 30
0.0
  0
ENDBLK
  8
0
  0
BLOCK
  8
0
  2
VIEW_3_00085
 70
     0
 10
0.0
 20
0.0
 30
0.0
  0
INSERT
  5
432
  8
0
  2
PART_2_00086
 10
0.0
 20
0.0
 30
0.0
  0
ENDBLK
  8
0
  0
BLOCK
  8
0
  2
PART_2_00086
 70
     0
 10
0.0
 20
0.0
 30
0.0
  0
INSERT
  5
435
  8
0
  2
_D1
 10
120.40671938
 20
-179.04687796
 30
0.0
  0
INSERT
  5
436
  8
0
  2
_D2
 10
145.90671938
 20
-236.17084518
 30
0.0
  0
INSERT
  5
437
  8
0
  2
_D3
 10
70.40671938
 20
-186.34634888
 30
0.0
  0
INSERT
  5
438
  8
0
  2
_D4
 10
37.36505197
 20
-214.59068063
 30
0.0
  0
INSERT
  5
439
  8
0
  2
_D5
 10
37.36505197
 20
-196.63076291
 30
0.0
  0
INSERT
  5
43A
  8
0
  2
_D6
 10
27.36505197
 20
-212.59068063
 30
0.0
  0
ENDBLK
  8
0
  0
BLOCK
  8
0
  2
VIEW_4_00093
 70
     0
 10
0.0
 20
0.0
 30
0.0
  0
INSERT
  5
46D
  8
0
  2
PART_2_00094
 10
0.0
 20
0.0
 30
0.0
  0
ENDBLK
  8
0
  0
BLOCK
  8
0
  2
PART_2_00094
 70
     0
 10
0.0
 20
0.0
 30
0.0
  0
INSERT
  5
470
  8
0
  2
_D7
 10
262.5508014
 20
-184.98068545
 30
0.0
  0
ENDBLK
  8
0
  0
BLOCK
  8
0
  2
VIEW_5_00096
 70
     0
 10
0.0
 20
0.0
 30
0.0
  0
INSERT
  5
47B
  8
0
  2
PART_2_00097
 10
0.0
 20
0.0
 30
0.0
  0
ENDBLK
  8
0
  0
BLOCK
  8
0
  2
PART_2_00097
 70
     0
 10
0.0
 20
0.0
 30
0.0
  0
INSERT
  5
47E
  8
0
  2
_D8
 10
215.24954748
 20
-129.41059599
 30
0.0
  0
INSERT
  5
47F
  8
0
  2
_D9
 10
161.68062375
 20
-131.25313256
 30
0.0
  0
INSERT
  5
480
  8
0
  2
_D10
 10
139.52410047
 20
-118.62544632
 30
0.0
  0
INSERT
  5
481
  8
0
  2
_D11
 10
48.73401826
 20
-106.74076055
 30
0.0
  0
INSERT
  5
482
  8
0
  2
_D12
 10
57.02410047
 20
-117.85993707
 30
0.0
  0
INSERT
  5
483
  8
0
  2
_D13
 10
34.28647249
 20
-111.61113892
 30
0.0
  0
INSERT
  5
484
  8
0
  2
_D14
 10
41.58244341
 20
-126.22505138
 30
0.0
  0
INSERT
  5
485
  8
0
  2
_D15
 10
34.28647249
 20
-135.47505138
 30
0.0
  0
INSERT
  5
486
  8
0
  2
_D16
 10
34.28647249
 20
-150.43431209
 30
0.0
  0
INSERT
  5
487
  8
0
  2
_D17
 10
38.02246087
 20
-149.72788177
 30
0.0
  0
INSERT
  5
488
  8
0
  2
_D18
 10
52.80218165
 20
-149.72788177
 30
0.0
  0
INSERT
  5
489
  8
0
  2
_D19
 10
71.43203931
 20
-149.72788177
 30
0.0
  0
INSERT
  5
48A
  8
0
  2
_D20
 10
206.18934401
 20
-136.91059599
 30
0.0
  0
INSERT
  5
48B
  8
0
  2
_D21
 10
206.18934401
 20
-121.91059599
 30
0.0
  0
INSERT
  5
48C
  8
0
  2
_D22
 10
193.86663704
 20
-147.49322547
 30
0.0
  0
INSERT
  5
48D
  8
0
  2
_D23
 10
178.86663705
 20
-147.49322547
 30
0.0
  0
INSERT
  5
48E
  8
0
  2
_D24
 10
155.11663705
 20
-147.49322547
 30
0.0
  0
ENDBLK
  8
0
  0
ENDSEC
  0
SECTION
  2
ENTITIES
  0
INSERT
  5
51D
  8
0
  2
_ZBL0002_00001
 10
0.0
 20
0.0
 30
0.0
  0
INSERT
  5
51E
  8
0
  2
_ANS0003_00016
 10
0.0
 20
0.0
 30
0.0
  0
INSERT
  5
51F
  8
0
  2
_ANS0004_00033
 10
0.0
 20
0.0
 30
0.0
  0
INSERT
  5
520
  8
0
  2
_ANS0005_00050
 10
0.0
 20
0.0
 30
0.0
  0
INSERT
  5
521
  8
0
  2
_ANS0006_00067
 10
0.0
 20
0.0
 30
0.0
  0
INSERT
  5
522
  8
0
  2
DVI_FIGURE_00084
 10
0.0
 20
0.0
 30
0.0
  0
ENDSEC
  0
EOF
