  0
SECTION
  2
HEADER
  9
$ACADVER
  1
AC1006
  9
$DWGCODEPAGE
  3
ansi_1252
  9
$INSBASE
 10
0.0
 20
0.0
 30
0.0
  9
$EXTMIN
 10
-20.68598743
 20
-357.07818365
  9
$EXTMAX
 10
407.71401257
 20
-43.3889774
  9
$LIMMIN
 10
-20.68598743
 20
-357.07818365
  9
$LIMMAX
 10
407.71401257
 20
-43.3889774
  9
$ORTHOMODE
 70
     0
  9
$REGENMODE
 70
     1
  9
$FILLMODE
 70
     1
  9
$QTEXTMODE
 70
     0
  9
$MIRRTEXT
 70
     1
  9
$DRAGMODE
 70
     2
  9
$LTSCALE
 40
1.0
  9
$OSMODE
 70
    37
  9
$ATTMODE
 70
     1
  9
$TEXTSIZE
 40
1.0
  9
$TRACEWID
 40
0.05
  9
$TEXTSTYLE
  7
STANDARD
  9
$CLAYER
  8
0
  9
$CELTYPE
  6
BYBLOCK
  9
$CECOLOR
 62
   256
  9
$DIMSCALE
 40
1.0
  9
$DIMASZ
 40
0.18
  9
$DIMEXO
 40
0.0625
  9
$DIMDLI
 40
0.38
  9
$DIMRND
 40
0.0
  9
$DIMDLE
 40
0.0
  9
$DIMEXE
 40
0.18
  9
$DIMTP
 40
0.0
  9
$DIMTM
 40
0.0
  9
$DIMTXT
 40
0.18
  9
$DIMCEN
 40
0.09
  9
$DIMTSZ
 40
0.0
  9
$DIMTOL
 70
     0
  9
$DIMLIM
 70
     0
  9
$DIMTIH
 70
     1
  9
$DIMTOH
 70
     1
  9
$DIMSE1
 70
     0
  9
$DIMSE2
 70
     0
  9
$DIMTAD
 70
     0
  9
$DIMZIN
 70
     0
  9
$DIMBLK
  1

  9
$DIMASO
 70
     1
  9
$DIMSHO
 70
     1
  9
$DIMPOST
  1

  9
$DIMAPOST
  1

  9
$DIMALT
 70
     0
  9
$DIMALTD
 70
     2
  9
$DIMALTF
 40
25.4
  9
$DIMLFAC
 40
1.0
  9
$DIMTOFL
 70
     0
  9
$DIMTVP
 40
0.0
  9
$DIMTIX
 70
     0
  9
$DIMSOXD
 70
     0
  9
$DIMSAH
 70
     0
  9
$DIMBLK1
  1

  9
$DIMBLK2
  1

  9
$LUNITS
 70
     2
  9
$LUPREC
 70
     4
  9
$SKETCHINC
 40
0.1
  9
$FILLETRAD
 40
0.5
  9
$AUNITS
 70
     0
  9
$AUPREC
 70
     0
  9
$MENU
  1
.
  9
$ELEVATION
 40
0.0
  9
$THICKNESS
 40
0.0
  9
$LIMCHECK
 70
     0
  9
$CHAMFERA
 40
0.0
  9
$CHAMFERB
 40
0.0
  9
$SKPOLY
 70
     0
  9
$TDCREATE
 40
2447893.125
  9
$TDUPDATE
 40
2460791.51560309
  9
$TDINDWG
 40
0.0
  9
$TDUSRTIMER
 40
0.0
  9
$USRTIMER
 70
     1
  9
$ANGBASE
 50
0.0
  9
$ANGDIR
 70
     0
  9
$PDMODE
 70
     0
  9
$PDSIZE
 40
0.0
  9
$PLINEWID
 40
0.0
  9
$COORDS
 70
     1
  9
$SPLFRAME
 70
     0
  9
$SPLINETYPE
 70
     6
  9
$SPLINESEGS
 70
     8
  9
$ATTDIA
 70
     0
  9
$ATTREQ
 70
     1
  9
$HANDLING
 70
     1
  9
$HANDSEED
  5
73C
  9
$SURFTAB1
 70
     6
  9
$SURFTAB2
 70
     6
  9
$SURFTYPE
 70
     6
  9
$SURFU
 70
     6
  9
$SURFV
 70
     6
  9
$UCSNAME
  2

  9
$UCSORG
 10
0.0
 20
0.0
 30
0.0
  9
$UCSXDIR
 10
1.0
 20
0.0
 30
0.0
  9
$UCSYDIR
 10
0.0
 20
1.0
 30
0.0
  9
$USERI1
 70
     0
  9
$USERI2
 70
     0
  9
$USERI3
 70
     0
  9
$USERI4
 70
     0
  9
$USERI5
 70
     0
  9
$USERR1
 40
0.0
  9
$USERR2
 40
0.0
  9
$USERR3
 40
0.0
  9
$USERR4
 40
0.0
  9
$USERR5
 40
0.0
  9
$WORLDVIEW
 70
     1
  0
ENDSEC
  0
SECTION
  2
TABLES
  0
TABLE
  2
VPORT
 70
     1
  0
VPORT
  2
*ACTIVE
 70
     0
 10
0.0
 20
0.0
 11
1.0
 21
1.0
 12
193.51401257
 22
-200.23358052
 13
0.0
 23
0.0
 14
1.0
 24
1.0
 15
0.0
 25
0.0
 16
0.0
 26
0.0
 36
1.0
 17
0.0
 27
0.0
 37
0.0
 40
313.68920625
 41
1.365682948
 42
50.0
 43
0.0
 44
0.0
 50
0.0
 51
0.0
 71
     0
 72
   100
 73
     1
 74
     1
 75
     0
 76
     0
 77
     0
 78
     0
  0
ENDTAB
  0
TABLE
  2
LTYPE
 70
    19
  0
LTYPE
  2
CONTINUOUS
 70
     0
  3
Solid line
 72
    65
 73
     0
 40
0.0
  0
LTYPE
  2
DOT
 70
     0
  3
..............
 72
    65
 73
     2
 40
2.0
 49
0.5
 49
-1.5
  0
LTYPE
  2
HIDDEN
 70
     0
  3
-- -- -- -- --
 72
    65
 73
     2
 40
7.0
 49
4.0
 49
-3.0
  0
LTYPE
  2
DASHDOT
 70
     0
  3
--.--.--.--.--
 72
    65
 73
     4
 40
8.5
 49
4.0
 49
-2.0
 49
0.5
 49
-2.0
  0
LTYPE
  2
STRICHPUNKT2
 70
     0
  3
--.--.--.--.--
 72
    65
 73
     4
 40
18.5
 49
10.0
 49
-4.0
 49
0.5
 49
-4.0
  0
LTYPE
  2
STRICHPUNKT3
 70
     0
  3
--.--.--.--.--
 72
    65
 73
     4
 40
35.5
 49
25.0
 49
-5.0
 49
0.5
 49
-5.0
  0
LTYPE
  2
PHANTOM
 70
     0
  3
--..--..--..--
 72
    65
 73
     6
 40
23.0
 49
10.0
 49
-4.0
 49
0.5
 49
-4.0
 49
0.5
 49
-4.0
  0
LTYPE
  2
PHANTOM2
 70
     0
  3
--..--..--..--
 72
    65
 73
     6
 40
33.0
 49
20.0
 49
-4.0
 49
0.5
 49
-4.0
 49
0.5
 49
-4.0
  0
LTYPE
  2
PHANTOM3
 70
     0
  3
--..--..--..--
 72
    65
 73
     6
 40
50.0
 49
37.0
 49
-4.0
 49
0.5
 49
-4.0
 49
0.5
 49
-4.0
  0
LTYPE
  2
STR3PKT
 70
     0
  3
--...--...--...
 72
    65
 73
     8
 40
31.5
 49
20.0
 49
-2.5
 49
0.5
 49
-2.5
 49
0.5
 49
-2.5
 49
0.5
 49
-2.5
  0
LTYPE
  2
2STRPKT
 70
     0
  3
--.--.--.--.--
 72
    65
 73
     6
 40
28.0
 49
10.0
 49
-2.5
 49
10.0
 49
-2.5
 49
0.5
 49
-2.5
  0
LTYPE
  2
GESTRICHELT2
 70
     0
  3
-- -- -- -- --
 72
    65
 73
     2
 40
25.0
 49
10.0
 49
-15.0
  0
LTYPE
  2
2STR2PKT
 70
     0
  3
--..--..--..--
 72
    65
 73
     8
 40
31.0
 49
10.0
 49
-2.5
 49
10.0
 49
-2.5
 49
0.5
 49
-2.5
 49
0.5
 49
-2.5
  0
LTYPE
  2
STR3PKT2
 70
     0
  3
--...--...--...
 72
    65
 73
     8
 40
21.0
 49
10.0
 49
-2.5
 49
0.5
 49
-2.5
 49
0.5
 49
-2.5
 49
0.5
 49
-2.0
  0
LTYPE
  2
2STR3PKT
 70
     0
  3
--...--...--...
 72
    65
 73
    10
 40
34.0
 49
10.0
 49
-2.5
 49
10.0
 49
-2.5
 49
0.5
 49
-2.5
 49
0.5
 49
-2.5
 49
0.5
 49
-2.5
  0
LTYPE
  2
STRKSTR
 70
     0
  3
-- - -- - -- -
 72
    65
 73
     4
 40
30.0
 49
20.0
 49
-2.5
 49
5.0
 49
-2.5
  0
LTYPE
  2
STRKSTR2
 70
     0
  3
-- - -- - -- -
 72
    65
 73
     6
 40
37.5
 49
20.0
 49
-2.5
 49
5.0
 49
-2.5
 49
5.0
 49
-2.5
  0
LTYPE
  2
STRKSTR3
 70
     0
  3
-- - -- - -- -
 72
    65
 73
     8
 40
45.0
 49
20.0
 49
-2.5
 49
5.0
 49
-2.5
 49
5.0
 49
-2.5
 49
5.0
 49
-2.5
  0
LTYPE
  2
PUNKT2
 70
     0
  3
..............
 72
    65
 73
     2
 40
3.5
 49
0.5
 49
-3.0
  0
ENDTAB
  0
TABLE
  2
LAYER
 70
    16
  0
LAYER
  2
0
 70
     0
 62
     7
  6
CONTINUOUS
  0
LAYER
  2
LE_GREEN
 70
     0
 62
     3
  6
CONTINUOUS
  0
LAYER
  2
LE_RED
 70
     0
 62
     1
  6
CONTINUOUS
  0
LAYER
  2
LE_ALL
 70
     0
 62
     7
  6
CONTINUOUS
  0
LAYER
  2
LE_HIDDEN1
 70
     0
 62
     3
  6
HIDDEN
  0
LAYER
  2
LE_HIDDEN
 70
     0
 62
     7
  6
CONTINUOUS
  0
LAYER
  2
LE_MIDDLE
 70
     0
 62
     7
  6
CONTINUOUS
  0
LAYER
  2
TXT_YELLOW
 70
     0
 62
     2
  6
CONTINUOUS
  0
LAYER
  2
TXT_DIM49
 70
     0
 62
     2
  6
CONTINUOUS
  0
LAYER
  2
TXT_ALL
 70
     0
 62
     7
  6
CONTINUOUS
  0
LAYER
  2
DIM49
 70
     0
 62
     4
  6
CONTINUOUS
  0
LAYER
  2
HATCH
 70
     0
 62
     3
  6
CONTINUOUS
  0
LAYER
  2
APPLE
 70
     0
 62
     7
  6
CONTINUOUS
  0
LAYER
  2
10
 70
     0
 62
     7
  6
CONTINUOUS
  0
LAYER
  2
20
 70
     0
 62
     7
  6
CONTINUOUS
  0
LAYER
  2
49
 70
     0
 62
     7
  6
CONTINUOUS
  0
ENDTAB
  0
TABLE
  2
STYLE
 70
     5
  0
STYLE
  2
MONOTXT
 70
     0
 40
0.0
 41
1.0
 50
0.0
 71
     0
 42
1.0
  3
monotxt.shx
  4

  0
STYLE
  2
STANDARD
 70
     0
 40
0.0
 41
1.0
 50
0.0
 71
     0
 42
1.0
  3
txt
  4

  0
STYLE
  2
ARIAL
 70
     0
 40
0.0
 41
1.0
 50
0.0
 71
     0
 42
1.0
  3
arial.ttf
  4

  0
STYLE
  2
ARIAL_NARROW
 70
     0
 40
0.0
 41
1.0
 50
0.0
 71
     0
 42
1.0
  3
ArialN.ttf
  4

  0
STYLE
  2
ISOCPEUR
 70
     0
 40
0.0
 41
1.0
 50
0.0
 71
     0
 42
1.0
  3
ISOCPEUR.ttf
  4

  0
ENDTAB
  0
TABLE
  2
VIEW
 70
     0
  0
ENDTAB
  0
TABLE
  2
UCS
 70
     0
  0
ENDTAB
  0
ENDSEC
  0
SECTION
  2
BLOCKS
  0
BLOCK
  8
0
  2
_D1
 70
     0
 10
280.681649
 20
-267.95777887
 30
0.0
  0
TEXT
  5
450
  8
TXT_DIM49
 10
280.681649
 20
-267.95777887
 30
0.0
 40
2.5
  1
68
 50
90.00020741
  7
ARIAL
  0
LINE
  5
451
  8
DIM49
 10
281.181649
 20
-295.8430627
 30
0.0
 11
283.181649
 21
-297.8430627
 31
0.0
  0
LINE
  5
452
  8
DIM49
 10
282.931649
 20
-229.5930627
 30
0.0
 11
281.431649
 21
-228.0930627
 31
0.0
  0
LINE
  5
453
  8
DIM49
 10
282.181649
 20
-296.8430627
 30
0.0
 11
282.181649
 21
-228.8430627
 31
0.0
  0
LINE
  5
454
  8
DIM49
 10
280.181649
 20
-296.8430627
 30
0.0
 11
284.181649
 21
-296.8430627
 31
0.0
  0
LINE
  5
455
  8
DIM49
 10
280.181649
 20
-228.8430627
 30
0.0
 11
284.181649
 21
-228.8430627
 31
0.0
  0
ENDBLK
  8
0
  0
BLOCK
  8
0
  2
_D2
 70
     0
 10
65.16399168
 20
-302.66376596
 30
0.0
  0
TEXT
  5
458
  8
TXT_DIM49
 10
65.16399168
 20
-302.66376596
 30
0.0
 40
2.5
  1
80
  7
ARIAL
  0
LINE
  5
459
  8
DIM49
 10
28.08382713
 20
-303.16376596
 30
0.0
 11
26.08382713
 21
-305.16376596
 31
0.0
  0
LINE
  5
45A
  8
DIM49
 10
106.33382713
 20
-304.91376596
 30
0.0
 11
107.83382713
 21
-303.41376596
 31
0.0
  0
LINE
  5
45B
  8
DIM49
 10
27.08382713
 20
-304.16376596
 30
0.0
 11
107.08382713
 21
-304.16376596
 31
0.0
  0
LINE
  5
45C
  8
DIM49
 10
27.08382713
 20
-302.16376596
 30
0.0
 11
27.08382713
 21
-306.16376596
 31
0.0
  0
LINE
  5
45D
  8
DIM49
 10
107.08382713
 20
-302.16376596
 30
0.0
 11
107.08382713
 21
-306.16376596
 31
0.0
  0
ENDBLK
  8
0
  0
BLOCK
  8
0
  2
_D3
 70
     0
 10
145.20407402
 20
-212.60886165
 30
0.0
  0
TEXT
  5
460
  8
TXT_DIM49
 10
145.20407402
 20
-212.60886165
 30
0.0
 40
2.5
  1
242
  7
ARIAL
  0
LINE
  5
461
  8
DIM49
 10
268.08382713
 20
-215.10886165
 30
0.0
 11
270.08382713
 21
-213.10886165
 31
0.0
  0
LINE
  5
462
  8
DIM49
 10
27.83382713
 20
-213.35886165
 30
0.0
 11
26.33382713
 21
-214.85886165
 31
0.0
  0
LINE
  5
463
  8
DIM49
 10
269.08382713
 20
-214.10886165
 30
0.0
 11
27.08382713
 21
-214.10886165
 31
0.0
  0
LINE
  5
464
  8
DIM49
 10
269.08382713
 20
-216.10886165
 30
0.0
 11
269.08382713
 21
-212.10886165
 31
0.0
  0
LINE
  5
465
  8
DIM49
 10
27.08382713
 20
-216.10886165
 30
0.0
 11
27.08382713
 21
-212.10886165
 31
0.0
  0
ENDBLK
  8
0
  0
BLOCK
  8
0
  2
_D4
 70
     0
 10
181.20407402
 20
-220.74278096
 30
0.0
  0
TEXT
  5
468
  8
TXT_DIM49
 10
181.20407402
 20
-220.74278096
 30
0.0
 40
2.5
  1
170
  7
ARIAL
  0
LINE
  5
469
  8
DIM49
 10
268.08382713
 20
-223.24278096
 30
0.0
 11
270.08382713
 21
-221.24278096
 31
0.0
  0
LINE
  5
46A
  8
DIM49
 10
99.83382713
 20
-221.49278096
 30
0.0
 11
98.33382713
 21
-222.99278096
 31
0.0
  0
LINE
  5
46B
  8
DIM49
 10
269.08382713
 20
-222.24278096
 30
0.0
 11
99.08382713
 21
-222.24278096
 31
0.0
  0
LINE
  5
46C
  8
DIM49
 10
269.08382713
 20
-224.24278096
 30
0.0
 11
269.08382713
 21
-220.24278096
 31
0.0
  0
LINE
  5
46D
  8
DIM49
 10
99.08382713
 20
-224.24278096
 30
0.0
 11
99.08382713
 21
-220.24278096
 31
0.0
  0
ENDBLK
  8
0
  0
BLOCK
  8
0
  2
_D5
 70
     0
 10
273.67443809
 20
-268.76289815
 30
0.0
  0
TEXT
  5
470
  8
TXT_DIM49
 10
273.67443809
 20
-268.76289815
 30
0.0
 40
2.5
  1
60
 50
90.00020741
  7
ARIAL
  0
LINE
  5
471
  8
DIM49
 10
274.17443809
 20
-295.8430627
 30
0.0
 11
276.17443809
 21
-297.8430627
 31
0.0
  0
LINE
  5
472
  8
DIM49
 10
275.92443809
 20
-237.5930627
 30
0.0
 11
274.42443809
 21
-236.0930627
 31
0.0
  0
LINE
  5
473
  8
DIM49
 10
275.17443809
 20
-296.8430627
 30
0.0
 11
275.17443809
 21
-236.8430627
 31
0.0
  0
LINE
  5
474
  8
DIM49
 10
273.17443809
 20
-296.8430627
 30
0.0
 11
277.17443809
 21
-296.8430627
 31
0.0
  0
LINE
  5
475
  8
DIM49
 10
273.17443809
 20
-236.8430627
 30
0.0
 11
277.17443809
 21
-236.8430627
 31
0.0
  0
ENDBLK
  8
0
  0
BLOCK
  8
0
  2
_D6
 70
     0
 10
273.67443809
 20
-233.80298042
 30
0.0
  0
TEXT
  5
478
  8
TXT_DIM49
 10
273.67443809
 20
-233.80298042
 30
0.0
 40
2.5
  1
8
 50
90.00020741
  7
ARIAL
  0
LINE
  5
479
  8
DIM49
 10
274.17443809
 20
-235.8430627
 30
0.0
 11
276.17443809
 21
-237.8430627
 31
0.0
  0
LINE
  5
47A
  8
DIM49
 10
275.92443809
 20
-229.5930627
 30
0.0
 11
274.42443809
 21
-228.0930627
 31
0.0
  0
LINE
  5
47B
  8
DIM49
 10
275.17443809
 20
-236.8430627
 30
0.0
 11
275.17443809
 21
-228.8430627
 31
0.0
  0
LINE
  5
47C
  8
DIM49
 10
273.17443809
 20
-236.8430627
 30
0.0
 11
277.17443809
 21
-236.8430627
 31
0.0
  0
LINE
  5
47D
  8
DIM49
 10
273.17443809
 20
-228.8430627
 30
0.0
 11
277.17443809
 21
-228.8430627
 31
0.0
  0
ENDBLK
  8
0
  0
BLOCK
  8
0
  2
_D7
 70
     0
 10
332.19981972
 20
-220.15290296
 30
0.0
  0
TEXT
  5
486
  8
TXT_DIM49
 10
332.19981972
 20
-220.15290296
 30
0.0
 40
2.5
  1
60
  7
ARIAL
  0
LINE
  5
487
  8
DIM49
 10
305.11965517
 20
-220.65290296
 30
0.0
 11
303.11965517
 21
-222.65290296
 31
0.0
  0
LINE
  5
488
  8
DIM49
 10
363.36965517
 20
-222.40290296
 30
0.0
 11
364.86965517
 21
-220.90290296
 31
0.0
  0
LINE
  5
489
  8
DIM49
 10
304.11965517
 20
-221.65290296
 30
0.0
 11
364.11965517
 21
-221.65290296
 31
0.0
  0
LINE
  5
48A
  8
DIM49
 10
304.11965517
 20
-223.65290296
 30
0.0
 11
304.11965517
 21
-219.65290296
 31
0.0
  0
LINE
  5
48B
  8
DIM49
 10
364.11965517
 20
-223.65290296
 30
0.0
 11
364.11965517
 21
-219.65290296
 31
0.0
  0
ENDBLK
  8
0
  0
BLOCK
  8
0
  2
_D8
 70
     0
 10
150.32145512
 20
-139.77526796
 30
0.0
  0
TEXT
  5
4A4
  8
TXT_DIM49
 10
150.32145512
 20
-139.77526796
 30
0.0
 40
2.5
  1
Ø
  7
ARIAL
  0
TEXT
  5
4A5
  8
TXT_DIM49
 10
154.00652801
 20
-139.77526796
 30
0.0
 40
2.5
  1
13
  7
ARIAL
  0
LINE
  5
4A6
  8
DIM49
 10
148.58382713
 20
-140.27526796
 30
0.0
 11
146.58382713
 21
-142.27526796
 31
0.0
  0
LINE
  5
4A7
  8
DIM49
 10
159.83382713
 20
-142.02526796
 30
0.0
 11
161.33382713
 21
-140.52526796
 31
0.0
  0
LINE
  5
4A8
  8
DIM49
 10
147.58382713
 20
-141.27526796
 30
0.0
 11
160.58382713
 21
-141.27526796
 31
0.0
  0
LINE
  5
4A9
  8
DIM49
 10
147.58382713
 20
-143.27526796
 30
0.0
 11
147.58382713
 21
-139.27526796
 31
0.0
  0
LINE
  5
4AA
  8
DIM49
 10
160.58382713
 20
-143.27526796
 30
0.0
 11
160.58382713
 21
-139.27526796
 31
0.0
  0
ENDBLK
  8
0
  0
BLOCK
  8
0
  2
_D9
 70
     0
 10
17.4712219
 20
-180.36031597
 30
0.0
  0
TEXT
  5
4AD
  8
TXT_DIM49
 10
17.4712219
 20
-180.36031597
 30
0.0
 40
2.5
  1
11,5
 50
90.00020741
  7
ARIAL
  0
LINE
  5
4AE
  8
DIM49
 10
17.9712219
 20
-181.75102513
 30
0.0
 11
19.9712219
 21
-183.75102513
 31
0.0
  0
LINE
  5
4AF
  8
DIM49
 10
19.7212219
 20
-172.00102513
 30
0.0
 11
18.2212219
 21
-170.50102513
 31
0.0
  0
LINE
  5
4B0
  8
DIM49
 10
18.9712219
 20
-182.75102513
 30
0.0
 11
18.9712219
 21
-171.25102513
 31
0.0
  0
LINE
  5
4B1
  8
DIM49
 10
20.9712219
 20
-182.75102513
 30
0.0
 11
16.9712219
 21
-182.75102513
 31
0.0
  0
LINE
  5
4B2
  8
DIM49
 10
20.9712219
 20
-171.25102513
 30
0.0
 11
16.9712219
 21
-171.25102513
 31
0.0
  0
ENDBLK
  8
0
  0
BLOCK
  8
0
  2
_D10
 70
     0
 10
17.4712219
 20
-165.36031597
 30
0.0
  0
TEXT
  5
4B5
  8
TXT_DIM49
 10
17.4712219
 20
-165.36031597
 30
0.0
 40
2.5
  1
18,5
 50
90.00020741
  7
ARIAL
  0
LINE
  5
4B6
  8
DIM49
 10
17.9712219
 20
-170.25102513
 30
0.0
 11
19.9712219
 21
-172.25102513
 31
0.0
  0
LINE
  5
4B7
  8
DIM49
 10
19.7212219
 20
-153.50102513
 30
0.0
 11
18.2212219
 21
-152.00102513
 31
0.0
  0
LINE
  5
4B8
  8
DIM49
 10
18.9712219
 20
-171.25102513
 30
0.0
 11
18.9712219
 21
-152.75102513
 31
0.0
  0
LINE
  5
4B9
  8
DIM49
 10
20.9712219
 20
-171.25102513
 30
0.0
 11
16.9712219
 21
-171.25102513
 31
0.0
  0
LINE
  5
4BA
  8
DIM49
 10
20.9712219
 20
-152.75102513
 30
0.0
 11
16.9712219
 21
-152.75102513
 31
0.0
  0
ENDBLK
  8
0
  0
BLOCK
  8
0
  2
_D11
 70
     0
 10
17.4712219
 20
-146.86031597
 30
0.0
  0
TEXT
  5
4BD
  8
TXT_DIM49
 10
17.4712219
 20
-146.86031597
 30
0.0
 40
2.5
  1
18,5
 50
90.00020741
  7
ARIAL
  0
LINE
  5
4BE
  8
DIM49
 10
17.9712219
 20
-151.75102513
 30
0.0
 11
19.9712219
 21
-153.75102513
 31
0.0
  0
LINE
  5
4BF
  8
DIM49
 10
19.7212219
 20
-135.00102513
 30
0.0
 11
18.2212219
 21
-133.50102513
 31
0.0
  0
LINE
  5
4C0
  8
DIM49
 10
18.9712219
 20
-152.75102513
 30
0.0
 11
18.9712219
 21
-134.25102513
 31
0.0
  0
LINE
  5
4C1
  8
DIM49
 10
20.9712219
 20
-152.75102513
 30
0.0
 11
16.9712219
 21
-152.75102513
 31
0.0
  0
LINE
  5
4C2
  8
DIM49
 10
20.9712219
 20
-134.25102513
 30
0.0
 11
16.9712219
 21
-134.25102513
 31
0.0
  0
ENDBLK
  8
0
  0
BLOCK
  8
0
  2
_D12
 70
     0
 10
17.4712219
 20
-131.86031597
 30
0.0
  0
TEXT
  5
4C5
  8
TXT_DIM49
 10
17.4712219
 20
-131.86031597
 30
0.0
 40
2.5
  1
11,5
 50
90.00020741
  7
ARIAL
  0
LINE
  5
4C6
  8
DIM49
 10
17.9712219
 20
-133.25102513
 30
0.0
 11
19.9712219
 21
-135.25102513
 31
0.0
  0
LINE
  5
4C7
  8
DIM49
 10
19.7212219
 20
-123.50102513
 30
0.0
 11
18.2212219
 21
-122.00102513
 31
0.0
  0
LINE
  5
4C8
  8
DIM49
 10
18.9712219
 20
-134.25102513
 30
0.0
 11
18.9712219
 21
-122.75102513
 31
0.0
  0
LINE
  5
4C9
  8
DIM49
 10
20.9712219
 20
-134.25102513
 30
0.0
 11
16.9712219
 21
-134.25102513
 31
0.0
  0
LINE
  5
4CA
  8
DIM49
 10
20.9712219
 20
-122.75102513
 30
0.0
 11
16.9712219
 21
-122.75102513
 31
0.0
  0
ENDBLK
  8
0
  0
BLOCK
  8
0
  2
_D13
 70
     0
 10
29.47453629
 20
-190.10038727
 30
0.0
  0
TEXT
  5
4CD
  8
TXT_DIM49
 10
29.47453629
 20
-190.10038727
 30
0.0
 40
2.5
  1
11,5
  7
ARIAL
  0
LINE
  5
4CE
  8
DIM49
 10
28.08382713
 20
-190.60038727
 30
0.0
 11
26.08382713
 21
-192.60038727
 31
0.0
  0
LINE
  5
4CF
  8
DIM49
 10
37.83382713
 20
-192.35038727
 30
0.0
 11
39.33382713
 21
-190.85038727
 31
0.0
  0
LINE
  5
4D0
  8
DIM49
 10
27.08382713
 20
-191.60038727
 30
0.0
 11
38.58382713
 21
-191.60038727
 31
0.0
  0
LINE
  5
4D1
  8
DIM49
 10
27.08382713
 20
-189.60038727
 30
0.0
 11
27.08382713
 21
-193.60038727
 31
0.0
  0
LINE
  5
4D2
  8
DIM49
 10
38.58382713
 20
-189.60038727
 30
0.0
 11
38.58382713
 21
-193.60038727
 31
0.0
  0
ENDBLK
  8
0
  0
BLOCK
  8
0
  2
_D14
 70
     0
 10
44.47453629
 20
-190.10038727
 30
0.0
  0
TEXT
  5
4D5
  8
TXT_DIM49
 10
44.47453629
 20
-190.10038727
 30
0.0
 40
2.5
  1
18,5
  7
ARIAL
  0
LINE
  5
4D6
  8
DIM49
 10
39.58382713
 20
-190.60038727
 30
0.0
 11
37.58382713
 21
-192.60038727
 31
0.0
  0
LINE
  5
4D7
  8
DIM49
 10
56.33382713
 20
-192.35038727
 30
0.0
 11
57.83382713
 21
-190.85038727
 31
0.0
  0
LINE
  5
4D8
  8
DIM49
 10
38.58382713
 20
-191.60038727
 30
0.0
 11
57.08382713
 21
-191.60038727
 31
0.0
  0
LINE
  5
4D9
  8
DIM49
 10
38.58382713
 20
-189.60038727
 30
0.0
 11
38.58382713
 21
-193.60038727
 31
0.0
  0
LINE
  5
4DA
  8
DIM49
 10
57.08382713
 20
-189.60038727
 30
0.0
 11
57.08382713
 21
-193.60038727
 31
0.0
  0
ENDBLK
  8
0
  0
BLOCK
  8
0
  2
_D15
 70
     0
 10
62.97453629
 20
-190.10038727
 30
0.0
  0
TEXT
  5
4DD
  8
TXT_DIM49
 10
62.97453629
 20
-190.10038727
 30
0.0
 40
2.5
  1
18,5
  7
ARIAL
  0
LINE
  5
4DE
  8
DIM49
 10
58.08382713
 20
-190.60038727
 30
0.0
 11
56.08382713
 21
-192.60038727
 31
0.0
  0
LINE
  5
4DF
  8
DIM49
 10
74.83382713
 20
-192.35038727
 30
0.0
 11
76.33382713
 21
-190.85038727
 31
0.0
  0
LINE
  5
4E0
  8
DIM49
 10
57.08382713
 20
-191.60038727
 30
0.0
 11
75.58382713
 21
-191.60038727
 31
0.0
  0
LINE
  5
4E1
  8
DIM49
 10
57.08382713
 20
-189.60038727
 30
0.0
 11
57.08382713
 21
-193.60038727
 31
0.0
  0
LINE
  5
4E2
  8
DIM49
 10
75.58382713
 20
-189.60038727
 30
0.0
 11
75.58382713
 21
-193.60038727
 31
0.0
  0
ENDBLK
  8
0
  0
BLOCK
  8
0
  2
_D16
 70
     0
 10
255.95114867
 20
-156.51339714
 30
0.0
  0
TEXT
  5
4E5
  8
TXT_DIM49
 10
255.95114867
 20
-156.51339714
 30
0.0
 40
2.5
  1
Ø
 50
90.00020741
  7
ARIAL
  0
TEXT
  5
4E6
  8
TXT_DIM49
 10
255.95114867
 20
-152.82832425
 30
0.0
 40
2.5
  1
13
 50
90.00020741
  7
ARIAL
  0
LINE
  5
4E7
  8
DIM49
 10
258.45114867
 20
-147.25102513
 30
0.0
 11
256.45114867
 21
-145.25102513
 31
0.0
  0
LINE
  5
4E8
  8
DIM49
 10
256.70114867
 20
-158.50102513
 30
0.0
 11
258.20114867
 21
-160.00102513
 31
0.0
  0
LINE
  5
4E9
  8
DIM49
 10
257.45114867
 20
-146.25102513
 30
0.0
 11
257.45114867
 21
-159.25102513
 31
0.0
  0
LINE
  5
4EA
  8
DIM49
 10
255.45114867
 20
-146.25102513
 30
0.0
 11
259.45114867
 21
-146.25102513
 31
0.0
  0
LINE
  5
4EB
  8
DIM49
 10
255.45114867
 20
-159.25102513
 30
0.0
 11
259.45114867
 21
-159.25102513
 31
0.0
  0
ENDBLK
  8
0
  0
BLOCK
  8
0
  2
_D17
 70
     0
 10
257.16399168
 20
-190.5478109
 30
0.0
  0
TEXT
  5
4EE
  8
TXT_DIM49
 10
257.16399168
 20
-190.5478109
 30
0.0
 40
2.5
  1
20
  7
ARIAL
  0
LINE
  5
4EF
  8
DIM49
 10
268.08382713
 20
-193.0478109
 30
0.0
 11
270.08382713
 21
-191.0478109
 31
0.0
  0
LINE
  5
4F0
  8
DIM49
 10
249.83382713
 20
-191.2978109
 30
0.0
 11
248.33382713
 21
-192.7978109
 31
0.0
  0
LINE
  5
4F1
  8
DIM49
 10
269.08382713
 20
-192.0478109
 30
0.0
 11
249.08382713
 21
-192.0478109
 31
0.0
  0
LINE
  5
4F2
  8
DIM49
 10
269.08382713
 20
-190.0478109
 30
0.0
 11
269.08382713
 21
-194.0478109
 31
0.0
  0
LINE
  5
4F3
  8
DIM49
 10
249.08382713
 20
-190.0478109
 30
0.0
 11
249.08382713
 21
-194.0478109
 31
0.0
  0
ENDBLK
  8
0
  0
BLOCK
  8
0
  2
_D18
 70
     0
 10
227.16399168
 20
-190.5478109
 30
0.0
  0
TEXT
  5
4F6
  8
TXT_DIM49
 10
227.16399168
 20
-190.5478109
 30
0.0
 40
2.5
  1
40
  7
ARIAL
  0
LINE
  5
4F7
  8
DIM49
 10
248.08382713
 20
-193.0478109
 30
0.0
 11
250.08382713
 21
-191.0478109
 31
0.0
  0
LINE
  5
4F8
  8
DIM49
 10
209.83382713
 20
-191.2978109
 30
0.0
 11
208.33382713
 21
-192.7978109
 31
0.0
  0
LINE
  5
4F9
  8
DIM49
 10
249.08382713
 20
-192.0478109
 30
0.0
 11
209.08382713
 21
-192.0478109
 31
0.0
  0
LINE
  5
4FA
  8
DIM49
 10
249.08382713
 20
-190.0478109
 30
0.0
 11
249.08382713
 21
-194.0478109
 31
0.0
  0
LINE
  5
4FB
  8
DIM49
 10
209.08382713
 20
-190.0478109
 30
0.0
 11
209.08382713
 21
-194.0478109
 31
0.0
  0
ENDBLK
  8
0
  0
BLOCK
  8
0
  2
_D19
 70
     0
 10
179.66399168
 20
-190.5478109
 30
0.0
  0
TEXT
  5
4FE
  8
TXT_DIM49
 10
179.66399168
 20
-190.5478109
 30
0.0
 40
2.5
  1
55
  7
ARIAL
  0
LINE
  5
4FF
  8
DIM49
 10
208.08382713
 20
-193.0478109
 30
0.0
 11
210.08382713
 21
-191.0478109
 31
0.0
  0
LINE
  5
500
  8
DIM49
 10
154.83382713
 20
-191.2978109
 30
0.0
 11
153.33382713
 21
-192.7978109
 31
0.0
  0
LINE
  5
501
  8
DIM49
 10
209.08382713
 20
-192.0478109
 30
0.0
 11
154.08382713
 21
-192.0478109
 31
0.0
  0
LINE
  5
502
  8
DIM49
 10
209.08382713
 20
-190.0478109
 30
0.0
 11
209.08382713
 21
-194.0478109
 31
0.0
  0
LINE
  5
503
  8
DIM49
 10
154.08382713
 20
-190.0478109
 30
0.0
 11
154.08382713
 21
-194.0478109
 31
0.0
  0
ENDBLK
  8
0
  0
BLOCK
  8
0
  2
_D20
 70
     0
 10
275.65342068
 20
-169.67086058
 30
0.0
  0
TEXT
  5
506
  8
TXT_DIM49
 10
275.65342068
 20
-169.67086058
 30
0.0
 40
2.5
  1
30
 50
90.00020741
  7
ARIAL
  0
LINE
  5
507
  8
DIM49
 10
276.15342068
 20
-181.75102513
 30
0.0
 11
278.15342068
 21
-183.75102513
 31
0.0
  0
LINE
  5
508
  8
DIM49
 10
277.90342068
 20
-153.50102513
 30
0.0
 11
276.40342068
 21
-152.00102513
 31
0.0
  0
LINE
  5
509
  8
DIM49
 10
277.15342068
 20
-182.75102513
 30
0.0
 11
277.15342068
 21
-152.75102513
 31
0.0
  0
LINE
  5
50A
  8
DIM49
 10
275.15342068
 20
-182.75102513
 30
0.0
 11
279.15342068
 21
-182.75102513
 31
0.0
  0
LINE
  5
50B
  8
DIM49
 10
275.15342068
 20
-152.75102513
 30
0.0
 11
279.15342068
 21
-152.75102513
 31
0.0
  0
ENDBLK
  8
0
  0
BLOCK
  8
0
  2
_D21
 70
     0
 10
275.65342068
 20
-139.67086058
 30
0.0
  0
TEXT
  5
50E
  8
TXT_DIM49
 10
275.65342068
 20
-139.67086058
 30
0.0
 40
2.5
  1
30
 50
90.00020741
  7
ARIAL
  0
LINE
  5
50F
  8
DIM49
 10
276.15342068
 20
-151.75102513
 30
0.0
 11
278.15342068
 21
-153.75102513
 31
0.0
  0
LINE
  5
510
  8
DIM49
 10
277.90342068
 20
-123.50102513
 30
0.0
 11
276.40342068
 21
-122.00102513
 31
0.0
  0
LINE
  5
511
  8
DIM49
 10
277.15342068
 20
-152.75102513
 30
0.0
 11
277.15342068
 21
-122.75102513
 31
0.0
  0
LINE
  5
512
  8
DIM49
 10
275.15342068
 20
-152.75102513
 30
0.0
 11
279.15342068
 21
-152.75102513
 31
0.0
  0
LINE
  5
513
  8
DIM49
 10
275.15342068
 20
-122.75102513
 30
0.0
 11
279.15342068
 21
-122.75102513
 31
0.0
  0
ENDBLK
  8
0
  0
BLOCK
  8
0
  2
_D22
 70
     0
 10
283.81581026
 20
-154.67086058
 30
0.0
  0
TEXT
  5
516
  8
TXT_DIM49
 10
283.81581026
 20
-154.67086058
 30
0.0
 40
2.5
  1
60
 50
90.00020741
  7
ARIAL
  0
LINE
  5
517
  8
DIM49
 10
286.31581026
 20
-123.75102513
 30
0.0
 11
284.31581026
 21
-121.75102513
 31
0.0
  0
LINE
  5
518
  8
DIM49
 10
284.56581026
 20
-182.00102513
 30
0.0
 11
286.06581026
 21
-183.50102513
 31
0.0
  0
LINE
  5
519
  8
DIM49
 10
285.31581026
 20
-122.75102513
 30
0.0
 11
285.31581026
 21
-182.75102513
 31
0.0
  0
LINE
  5
51A
  8
DIM49
 10
283.31581026
 20
-122.75102513
 30
0.0
 11
287.31581026
 21
-122.75102513
 31
0.0
  0
LINE
  5
51B
  8
DIM49
 10
283.31581026
 20
-182.75102513
 30
0.0
 11
287.31581026
 21
-182.75102513
 31
0.0
  0
ENDBLK
  8
0
  0
BLOCK
  8
0
  2
_D23
 70
     0
 10
53.32145512
 20
-139.20408558
 30
0.0
  0
TEXT
  5
51E
  8
TXT_DIM49
 10
53.32145512
 20
-139.20408558
 30
0.0
 40
2.5
  1
Ø
  7
ARIAL
  0
TEXT
  5
51F
  8
TXT_DIM49
 10
57.00652801
 20
-139.20408558
 30
0.0
 40
2.5
  1
13
  7
ARIAL
  0
LINE
  5
520
  8
DIM49
 10
51.58382713
 20
-139.70408558
 30
0.0
 11
49.58382713
 21
-141.70408558
 31
0.0
  0
LINE
  5
521
  8
DIM49
 10
62.83382713
 20
-141.45408558
 30
0.0
 11
64.33382713
 21
-139.95408558
 31
0.0
  0
LINE
  5
522
  8
DIM49
 10
50.58382713
 20
-140.70408558
 30
0.0
 11
63.58382713
 21
-140.70408558
 31
0.0
  0
LINE
  5
523
  8
DIM49
 10
50.58382713
 20
-142.70408558
 30
0.0
 11
50.58382713
 21
-138.70408558
 31
0.0
  0
LINE
  5
524
  8
DIM49
 10
63.58382713
 20
-142.70408558
 30
0.0
 11
63.58382713
 21
-138.70408558
 31
0.0
  0
ENDBLK
  8
0
  0
BLOCK
  8
0
  2
_D24
 70
     0
 10
35.7813729
 20
-145.89853581
 30
0.0
  0
TEXT
  5
527
  8
TXT_DIM49
 10
35.7813729
 20
-145.89853581
 30
0.0
 40
2.5
  1
Ø
  7
ARIAL
  0
TEXT
  5
528
  8
TXT_DIM49
 10
39.4664458
 20
-145.89853581
 30
0.0
 40
2.5
  1
8
  7
ARIAL
  0
LINE
  5
529
  8
DIM49
 10
41.58382713
 20
-148.39853581
 30
0.0
 11
43.58382713
 21
-146.39853581
 31
0.0
  0
LINE
  5
52A
  8
DIM49
 10
35.33382713
 20
-146.64853581
 30
0.0
 11
33.83382713
 21
-148.14853581
 31
0.0
  0
LINE
  5
52B
  8
DIM49
 10
42.58382713
 20
-147.39853581
 30
0.0
 11
34.58382713
 21
-147.39853581
 31
0.0
  0
LINE
  5
52C
  8
DIM49
 10
42.58382713
 20
-145.39853581
 30
0.0
 11
42.58382713
 21
-149.39853581
 31
0.0
  0
LINE
  5
52D
  8
DIM49
 10
34.58382713
 20
-145.39853581
 30
0.0
 11
34.58382713
 21
-149.39853581
 31
0.0
  0
ENDBLK
  8
0
  0
BLOCK
  8
0
  2
_ZBL0002_00001
 70
     0
 10
0.0
 20
0.0
 30
0.0
  0
INSERT
  5
1C8
  8
0
  2
DINA3_00002
 10
-16.48598743
 20
-348.73358052
 30
0.0
  0
ENDBLK
  8
0
  0
BLOCK
  8
0
  2
DINA3_00002
 70
     0
 10
-16.48598743
 20
-348.73358052
 30
0.0
  0
POLYLINE
  5
1CB
  8
0
 66
     1
 10
0.0
 20
0.0
 30
0.0
 70
     1
  0
VERTEX
  5
1CC
  8
0
 10
-16.48598743
 20
-348.73358052
 30
0.0
  0
VERTEX
  5
1CD
  8
0
 10
403.51401257
 20
-348.73358052
 30
0.0
  0
VERTEX
  5
1CE
  8
0
 10
403.51401257
 20
-51.73358052
 30
0.0
  0
VERTEX
  5
1CF
  8
0
 10
-16.48598743
 20
-51.73358052
 30
0.0
  0
SEQEND
  5
1D0
  8
0
  0
POLYLINE
  5
1D1
  8
0
 66
     1
 10
0.0
 20
0.0
 30
0.0
 70
     1
  0
VERTEX
  5
1D2
  8
0
 10
-11.48598743
 20
-343.73358052
 30
0.0
  0
VERTEX
  5
1D3
  8
0
 10
398.51401257
 20
-343.73358052
 30
0.0
  0
VERTEX
  5
1D4
  8
0
 10
398.51401257
 20
-56.73358052
 30
0.0
  0
VERTEX
  5
1D5
  8
0
 10
-11.48598743
 20
-56.73358052
 30
0.0
  0
SEQEND
  5
1D6
  8
0
  0
LINE
  5
1D7
  8
0
 10
213.51401257
 20
-343.73358052
 30
0.0
 11
213.51401257
 21
-348.73358052
 31
0.0
  0
LINE
  5
1D8
  8
0
 10
213.51401257
 20
-56.73358052
 30
0.0
 11
213.51401257
 21
-51.73358052
 31
0.0
  0
LINE
  5
1D9
  8
0
 10
3.51401257
 20
-343.73358052
 30
0.0
 11
3.51401257
 21
-348.73358052
 31
0.0
  0
LINE
  5
1DA
  8
0
 10
3.51401257
 20
-56.73358052
 30
0.0
 11
3.51401257
 21
-51.73358052
 31
0.0
  0
TEXT
  5
1DB
  8
TXT_ALL
 62
     4
 10
402.51401257
 20
-347.73358052
 30
0.0
 40
2.5
  1

 50
90.00020741
  0
POLYLINE
  5
1DC
  8
0
 66
     1
 10
0.0
 20
0.0
 30
0.0
  0
VERTEX
  5
1DD
  8
0
 10
398.51401257
 20
-66.73358052
 30
0.0
  0
VERTEX
  5
1DE
  8
0
 10
329.52071257
 20
-66.73358052
 30
0.0
  0
VERTEX
  5
1DF
  8
0
 10
329.52071257
 20
-56.73358052
 30
0.0
  0
SEQEND
  5
1E0
  8
0
  0
LINE
  5
1E1
  8
0
 10
331.42401257
 20
-324.23358052
 30
0.0
 11
191.53401257
 21
-324.23358052
 31
0.0
  0
LINE
  5
1E2
  8
0
 10
191.53401257
 20
-333.98358052
 30
0.0
 11
331.42401257
 21
-333.98358052
 31
0.0
  0
POLYLINE
  5
1E3
  8
0
 66
     1
 10
0.0
 20
0.0
 30
0.0
  0
VERTEX
  5
1E4
  8
0
 10
191.53401257
 20
-324.23358052
 30
0.0
  0
VERTEX
  5
1E5
  8
0
 10
191.53401257
 20
-333.98358052
 30
0.0
  0
VERTEX
  5
1E6
  8
0
 10
191.53401257
 20
-343.73358052
 30
0.0
  0
SEQEND
  5
1E7
  8
0
  0
POLYLINE
  5
1E8
  8
0
 66
     1
 10
0.0
 20
0.0
 30
0.0
  0
VERTEX
  5
1E9
  8
0
 10
261.47901257
 20
-324.23358052
 30
0.0
  0
VERTEX
  5
1EA
  8
0
 10
261.47901257
 20
-333.98358052
 30
0.0
  0
VERTEX
  5
1EB
  8
0
 10
261.47901257
 20
-343.73358052
 30
0.0
  0
SEQEND
  5
1EC
  8
0
  0
INSERT
  5
1ED
  8
0
  2
FLEX_00003
 10
193.53401257
 20
-329.10858052
 30
0.0
  0
INSERT
  5
1EE
  8
0
  2
FLEX_00005
 10
193.53401257
 20
-338.85858052
 30
0.0
  0
INSERT
  5
1EF
  8
0
  2
FLEX_00007
 10
263.47901257
 20
-338.85858052
 30
0.0
  0
INSERT
  5
1F0
  8
0
  2
FLEX_00009
 10
263.47901257
 20
-329.10858052
 30
0.0
  0
INSERT
  5
1F1
  8
0
  2
SCHRIFE_00011
 10
-8.04402718
 20
-61.73358052
 30
0.0
  0
INSERT
  5
1F2
  8
0
  2
_B_M_P___00015
 10
380.35643865
 20
-348.62358052
 30
0.0
  0
ENDBLK
  8
0
  0
BLOCK
  8
0
  2
FLEX_00003
 70
     0
 10
193.53401257
 20
-329.10858052
 30
0.0
  0
INSERT
  5
1F5
  8
0
  2
TFIELD_00004
 10
193.53401257
 20
-329.10858052
 30
0.0
  0
ENDBLK
  8
0
  0
BLOCK
  8
0
  2
TFIELD_00004
 70
     0
 10
193.53401257
 20
-329.10858052
 30
0.0
  0
TEXT
  5
1F8
  8
TXT_ALL
 10
193.53401257
 20
-330.40858048
 30
0.0
 40
2.5999999
  1
E-mail: verkoop@jonkers-bouwmetaal.nl
  7
ARIAL
  0
ENDBLK
  8
0
  0
BLOCK
  8
0
  2
FLEX_00005
 70
     0
 10
193.53401257
 20
-338.85858052
 30
0.0
  0
INSERT
  5
1FB
  8
0
  2
TFIELD_00006
 10
193.53401257
 20
-338.85858052
 30
0.0
  0
ENDBLK
  8
0
  0
BLOCK
  8
0
  2
TFIELD_00006
 70
     0
 10
193.53401257
 20
-338.85858052
 30
0.0
  0
TEXT
  5
1FE
  8
TXT_ALL
 10
193.53401257
 20
-340.15858048
 30
0.0
 40
2.5999999
  1
Telefoon: 0527-685156
  7
ARIAL
  0
ENDBLK
  8
0
  0
BLOCK
  8
0
  2
FLEX_00007
 70
     0
 10
263.47901257
 20
-338.85858052
 30
0.0
  0
INSERT
  5
201
  8
0
  2
TFIELD_00008
 10
263.47901257
 20
-338.85858052
 30
0.0
  0
ENDBLK
  8
0
  0
BLOCK
  8
0
  2
TFIELD_00008
 70
     0
 10
263.47901257
 20
-338.85858052
 30
0.0
  0
TEXT
  5
204
  8
TXT_ALL
 10
263.47901257
 20
-340.15858048
 30
0.0
 40
2.5999999
  1
Website: www.jonkers-bouwmetaal.nl
  7
ARIAL
  0
ENDBLK
  8
0
  0
BLOCK
  8
0
  2
FLEX_00009
 70
     0
 10
263.47901257
 20
-329.10858052
 30
0.0
  0
INSERT
  5
207
  8
0
  2
TFIELD_00010
 10
263.47901257
 20
-329.10858052
 30
0.0
  0
ENDBLK
  8
0
  0
BLOCK
  8
0
  2
TFIELD_00010
 70
     0
 10
263.47901257
 20
-329.10858052
 30
0.0
  0
TEXT
  5
20A
  8
TXT_ALL
 10
263.47901257
 20
-330.40858048
 30
0.0
 40
2.5999999
  1
Adres: Hoornse Hop 10, 8321 WX Urk
  7
ARIAL
  0
ENDBLK
  8
0
  0
BLOCK
  8
0
  2
SCHRIFE_00011
 70
     0
 10
-8.04402718
 20
-61.73358052
 30
0.0
  0
TEXT
  5
20D
  8
TXT_ALL
 10
-8.04402718
 20
-62.98358052
 30
0.0
 40
2.5
  1
Art. nr. 91017457
  7
ARIAL
  0
TEXT
  5
20E
  8
TXT_ALL
 10
34.69400964
 20
-62.98358052
 30
0.0
 40
2.5
  1
Omschrijving: Z07-anker 170x68x80 60x8 (sprong 60mm)
  7
ARIAL
  0
LINE
  5
20F
  8
0
 10
398.51401257
 20
-66.73358052
 30
0.0
 11
-11.48598743
 21
-66.73358052
 31
0.0
  0
LINE
  5
210
  8
0
 10
31.53401257
 20
-66.73358052
 30
0.0
 11
31.53401257
 21
-56.73358052
 31
0.0
  0
LINE
  5
211
  8
0
 10
191.53401257
 20
-66.73358052
 30
0.0
 11
191.53401257
 21
-56.73358052
 31
0.0
  0
TEXT
  5
212
  8
TXT_ALL
 10
262.52771257
 20
-62.98358052
 30
0.0
 40
2.5
  1
Behandeling: Thermisch verzinkt
  7
ARIAL
  0
LINE
  5
213
  8
0
 10
331.42401257
 20
-324.23358052
 30
0.0
 11
398.51401257
 21
-324.23358052
 31
0.0
  0
LINE
  5
214
  8
0
 10
331.42401257
 20
-343.73358052
 30
0.0
 11
331.42401257
 21
-324.23358052
 31
0.0
  0
LINE
  5
215
  8
0
 10
331.42401257
 20
-343.73358052
 30
0.0
 11
331.42401257
 21
-324.23358052
 31
0.0
  0
TEXT
  5
216
  8
TXT_ALL
 10
125.87921066
 20
-342.57904711
 30
0.0
 40
2.5
  1

  0
TEXT
  5
217
  8
TXT_ALL
 10
247.01439363
 20
-332.48358052
 30
0.0
 40
2.5
  1

  0
POLYLINE
  5
218
  8
0
 66
     1
 10
0.0
 20
0.0
 30
0.0
  0
VERTEX
  5
219
  8
0
 10
329.52071257
 20
-66.73358052
 30
0.0
  0
VERTEX
  5
21A
  8
0
 10
260.52771257
 20
-66.73358052
 30
0.0
  0
VERTEX
  5
21B
  8
0
 10
260.52771257
 20
-56.73358052
 30
0.0
  0
SEQEND
  5
21C
  8
0
  0
TEXT
  5
21D
  8
TXT_ALL
 10
331.52071257
 20
-62.98358052
 30
0.0
 40
2.5
  1
Verpakkingshoeveelheid: 1 st.
  7
ARIAL
  0
TEXT
  5
21E
  8
TXT_ALL
 10
193.53401257
 20
-62.98358052
 30
0.0
 40
2.5
  1
Materiaal: S355
  7
ARIAL
  0
INSERT
  5
21F
  8
0
  2
FLEX_00012
 10
373.08924798
 20
-347.73309037
 30
0.0
  0
INSERT
  5
220
  8
0
  2
_B_M_P___00014
 10
332.18337989
 20
-342.94089847
 30
0.0
  0
ENDBLK
  8
0
  0
BLOCK
  8
0
  2
FLEX_00012
 70
     0
 10
373.08924798
 20
-347.73309037
 30
0.0
  0
INSERT
  5
223
  8
0
  2
TFIELD_00013
 10
366.2956598
 20
-346.23309037
 30
0.0
  0
ENDBLK
  8
0
  0
BLOCK
  8
0
  2
TFIELD_00013
 70
     0
 10
366.2956598
 20
-346.23309037
 30
0.0
  0
TEXT
  5
226
  8
TXT_ALL
 10
366.2956598
 20
-346.98309037
 30
0.0
 40
1.5
  1
Onderdeel van
  7
ARIAL
  0
ENDBLK
  8
0
  0
BLOCK
  8
0
  2
_B_M_P___00014
 70
     0
 10
332.18337989
 20
-342.94089847
 30
0.0
  0
ENDBLK
  8
0
  0
BLOCK
  8
0
  2
_B_M_P___00015
 70
     0
 10
380.35643865
 20
-348.62358052
 30
0.0
  0
ENDBLK
  8
0
  0
BLOCK
  8
0
  2
_ANS0003_00016
 70
     0
 10
0.0
 20
0.0
 30
0.0
  0
INSERT
  5
22D
  8
0
  2
_A3D0003_00017
 10
0.0
 20
0.0
 30
0.0
  0
ENDBLK
  8
0
  0
BLOCK
  8
0
  2
_A3D0003_00017
 70
     0
 10
0.0
 20
0.0
 30
0.0
  0
INSERT
  5
230
  8
0
  2
PLAATWERK__D___8MM_00018
 10
0.0
 20
0.0
 30
0.0
  0
ENDBLK
  8
0
  0
BLOCK
  8
0
  2
PLAATWERK__D___8MM_00018
 70
     0
 10
0.0
 20
0.0
 30
0.0
  0
INSERT
  5
233
  8
0
  2
SHEET_FLANGE_00019
 10
0.0
 20
0.0
 30
0.0
  0
INSERT
  5
234
  8
0
  2
BEND_ZONE_00023
 10
0.0
 20
0.0
 30
0.0
  0
INSERT
  5
235
  8
0
  2
SHEET_FLANGE_00025
 10
0.0
 20
0.0
 30
0.0
  0
INSERT
  5
236
  8
0
  2
BEND_ZONE_00027
 10
0.0
 20
0.0
 30
0.0
  0
INSERT
  5
237
  8
0
  2
SHEET_FLANGE_00029
 10
0.0
 20
0.0
 30
0.0
  0
ENDBLK
  8
0
  0
BLOCK
  8
0
  2
SHEET_FLANGE_00019
 70
     0
 10
0.0
 20
0.0
 30
0.0
  0
INSERT
  5
23A
  8
0
  2
SHEET_FLANGE_00020
 10
27.08382713
 20
-296.8430627
 30
0.0
  0
INSERT
  5
23B
  8
0
  2
_00021
 10
0.0
 20
0.0
 30
0.0
  0
ENDBLK
  8
0
  0
BLOCK
  8
0
  2
SHEET_FLANGE_00020
 70
     0
 10
27.08382713
 20
-296.8430627
 30
0.0
  0
LINE
  5
23E
  8
LE_ALL
  6
DOT
 62
     3
 10
27.08382713
 20
-296.8430627
 30
0.0
 11
27.08382713
 21
-296.8430627
 31
0.0
  0
LINE
  5
23F
  8
LE_ALL
  6
DOT
 62
     3
 10
27.08382713
 20
-288.8430627
 30
0.0
 11
27.08382713
 21
-288.8430627
 31
0.0
  0
LINE
  5
240
  8
LE_ALL
  6
DOT
 62
     3
 10
91.08382713
 20
-296.8430627
 30
0.0
 11
91.08382713
 21
-296.8430627
 31
0.0
  0
LINE
  5
241
  8
LE_ALL
  6
DOT
 62
     3
 10
91.08382713
 20
-288.8430627
 30
0.0
 11
91.08382713
 21
-288.8430627
 31
0.0
  0
LINE
  5
242
  8
LE_ALL
  6
DOT
 62
     3
 10
71.58382713
 20
-288.8430627
 30
0.0
 11
71.58382713
 21
-296.8430627
 31
0.0
  0
LINE
  5
243
  8
LE_ALL
  6
DOT
 62
     3
 10
79.58382713
 20
-288.8430627
 30
0.0
 11
79.58382713
 21
-296.8430627
 31
0.0
  0
LINE
  5
244
  8
LE_ALL
  6
DOT
 62
     3
 10
34.58382713
 20
-288.8430627
 30
0.0
 11
34.58382713
 21
-296.8430627
 31
0.0
  0
LINE
  5
245
  8
LE_ALL
  6
DOT
 62
     3
 10
42.58382713
 20
-288.8430627
 30
0.0
 11
42.58382713
 21
-296.8430627
 31
0.0
  0
LINE
  5
246
  8
LE_ALL
  6
DOT
 62
     3
 10
50.58382713
 20
-288.8430627
 30
0.0
 11
50.58382713
 21
-296.8430627
 31
0.0
  0
LINE
  5
247
  8
LE_ALL
  6
DOT
 62
     3
 10
63.58382713
 20
-288.8430627
 30
0.0
 11
63.58382713
 21
-296.8430627
 31
0.0
  0
LINE
  5
248
  8
LE_ALL
 10
27.08382713
 20
-296.8430627
 30
0.0
 11
27.08382713
 21
-288.8430627
 31
0.0
  0
LINE
  5
249
  8
LE_ALL
 10
91.08382713
 20
-288.8430627
 30
0.0
 11
27.08382713
 21
-288.8430627
 31
0.0
  0
LINE
  5
24A
  8
LE_ALL
 10
27.08382713
 20
-296.8430627
 30
0.0
 11
91.08382713
 21
-296.8430627
 31
0.0
  0
ENDBLK
  8
0
  0
BLOCK
  8
0
  2
_00021
 70
     0
 10
0.0
 20
0.0
 30
0.0
  0
INSERT
  5
24D
  8
0
  2
_00022
 10
75.58382713
 20
-286.8430627
 30
0.0
  0
ENDBLK
  8
0
  0
BLOCK
  8
0
  2
_00022
 70
     0
 10
75.58382713
 20
-286.8430627
 30
0.0
  0
LINE
  5
250
  8
LE_ALL
  6
STRICHPUNKT2
 62
     1
 10
75.58382713
 20
-286.8430627
 30
0.0
 11
75.58382713
 21
-298.8430627
 31
0.0
  0
LINE
  5
251
  8
LE_ALL
  6
STRICHPUNKT2
 62
     1
 10
38.58382713
 20
-286.8430627
 30
0.0
 11
38.58382713
 21
-298.8430627
 31
0.0
  0
LINE
  5
252
  8
LE_ALL
  6
STRICHPUNKT2
 62
     1
 10
38.58382713
 20
-286.8430627
 30
0.0
 11
38.58382713
 21
-298.8430627
 31
0.0
  0
LINE
  5
253
  8
LE_ALL
  6
STRICHPUNKT2
 62
     1
 10
57.08382713
 20
-285.8430627
 30
0.0
 11
57.08382713
 21
-299.8430627
 31
0.0
  0
LINE
  5
254
  8
LE_ALL
  6
STRICHPUNKT2
 62
     1
 10
75.58382713
 20
-286.8430627
 30
0.0
 11
75.58382713
 21
-298.8430627
 31
0.0
  0
ENDBLK
  8
0
  0
BLOCK
  8
0
  2
BEND_ZONE_00023
 70
     0
 10
0.0
 20
0.0
 30
0.0
  0
INSERT
  5
257
  8
0
  2
BEND_ZONE_00024
 10
107.08382713
 20
-280.8430627
 30
0.0
  0
ENDBLK
  8
0
  0
BLOCK
  8
0
  2
BEND_ZONE_00024
 70
     0
 10
107.08382713
 20
-280.8430627
 30
0.0
  0
LINE
  5
25A
  8
LE_ALL
  6
DOT
 62
     3
 10
107.08382713
 20
-280.8430627
 30
0.0
 11
107.08382713
 21
-280.8430627
 31
0.0
  0
LINE
  5
25B
  8
LE_ALL
  6
DOT
 62
     3
 10
99.08382713
 20
-280.8430627
 30
0.0
 11
99.08382713
 21
-280.8430627
 31
0.0
  0
LINE
  5
25C
  8
LE_ALL
  6
DOT
 62
     3
 10
91.08382713
 20
-296.8430627
 30
0.0
 11
91.08382713
 21
-296.8430627
 31
0.0
  0
LINE
  5
25D
  8
LE_ALL
  6
DOT
 62
     3
 10
91.08382713
 20
-288.8430627
 30
0.0
 11
91.08382713
 21
-288.8430627
 31
0.0
  0
ARC
  5
25E
  8
LE_ALL
 10
91.08382713
 20
-280.8430627
 30
0.0
 40
16.0
 50
-90.0
 51
0.0
  0
ARC
  5
25F
  8
LE_ALL
 10
91.08382713
 20
-280.8430627
 30
0.0
 40
8.0
 50
-90.0
 51
0.0
  0
ENDBLK
  8
0
  0
BLOCK
  8
0
  2
SHEET_FLANGE_00025
 70
     0
 10
0.0
 20
0.0
 30
0.0
  0
INSERT
  5
262
  8
0
  2
SHEET_FLANGE_00026
 10
107.08382713
 20
-280.8430627
 30
0.0
  0
ENDBLK
  8
0
  0
BLOCK
  8
0
  2
SHEET_FLANGE_00026
 70
     0
 10
107.08382713
 20
-280.8430627
 30
0.0
  0
LINE
  5
265
  8
LE_ALL
  6
DOT
 62
     3
 10
107.08382713
 20
-280.8430627
 30
0.0
 11
107.08382713
 21
-280.8430627
 31
0.0
  0
LINE
  5
266
  8
LE_ALL
  6
DOT
 62
     3
 10
99.08382713
 20
-280.8430627
 30
0.0
 11
99.08382713
 21
-280.8430627
 31
0.0
  0
LINE
  5
267
  8
LE_ALL
  6
DOT
 62
     3
 10
107.08382713
 20
-244.8430627
 30
0.0
 11
107.08382713
 21
-244.8430627
 31
0.0
  0
LINE
  5
268
  8
LE_ALL
  6
DOT
 62
     3
 10
99.08382713
 20
-244.8430627
 30
0.0
 11
99.08382713
 21
-244.8430627
 31
0.0
  0
LINE
  5
269
  8
LE_ALL
 10
99.08382713
 20
-280.8430627
 30
0.0
 11
99.08382713
 21
-244.8430627
 31
0.0
  0
LINE
  5
26A
  8
LE_ALL
 10
107.08382713
 20
-244.8430627
 30
0.0
 11
107.08382713
 21
-280.8430627
 31
0.0
  0
ENDBLK
  8
0
  0
BLOCK
  8
0
  2
BEND_ZONE_00027
 70
     0
 10
0.0
 20
0.0
 30
0.0
  0
INSERT
  5
26D
  8
0
  2
BEND_ZONE_00028
 10
115.08382713
 20
-228.8430627
 30
0.0
  0
ENDBLK
  8
0
  0
BLOCK
  8
0
  2
BEND_ZONE_00028
 70
     0
 10
115.08382713
 20
-228.8430627
 30
0.0
  0
LINE
  5
270
  8
LE_ALL
  6
DOT
 62
     3
 10
115.08382713
 20
-228.8430627
 30
0.0
 11
115.08382713
 21
-228.8430627
 31
0.0
  0
LINE
  5
271
  8
LE_ALL
  6
DOT
 62
     3
 10
115.08382713
 20
-236.8430627
 30
0.0
 11
115.08382713
 21
-236.8430627
 31
0.0
  0
LINE
  5
272
  8
LE_ALL
  6
DOT
 62
     3
 10
99.08382713
 20
-244.8430627
 30
0.0
 11
99.08382713
 21
-244.8430627
 31
0.0
  0
LINE
  5
273
  8
LE_ALL
  6
DOT
 62
     3
 10
107.08382713
 20
-244.8430627
 30
0.0
 11
107.08382713
 21
-244.8430627
 31
0.0
  0
ARC
  5
274
  8
LE_ALL
 10
115.08382713
 20
-244.8430627
 30
0.0
 40
16.0
 50
90.0
 51
180.0
  0
ARC
  5
275
  8
LE_ALL
 10
115.08382713
 20
-244.8430627
 30
0.0
 40
8.0
 50
90.0
 51
180.0
  0
ENDBLK
  8
0
  0
BLOCK
  8
0
  2
SHEET_FLANGE_00029
 70
     0
 10
0.0
 20
0.0
 30
0.0
  0
INSERT
  5
278
  8
0
  2
SHEET_FLANGE_00030
 10
115.08382713
 20
-228.8430627
 30
0.0
  0
INSERT
  5
279
  8
0
  2
_00031
 10
0.0
 20
0.0
 30
0.0
  0
ENDBLK
  8
0
  0
BLOCK
  8
0
  2
SHEET_FLANGE_00030
 70
     0
 10
115.08382713
 20
-228.8430627
 30
0.0
  0
LINE
  5
27C
  8
LE_ALL
  6
DOT
 62
     3
 10
115.08382713
 20
-228.8430627
 30
0.0
 11
115.08382713
 21
-228.8430627
 31
0.0
  0
LINE
  5
27D
  8
LE_ALL
  6
DOT
 62
     3
 10
115.08382713
 20
-236.8430627
 30
0.0
 11
115.08382713
 21
-236.8430627
 31
0.0
  0
LINE
  5
27E
  8
LE_ALL
  6
DOT
 62
     3
 10
269.08382713
 20
-228.8430627
 30
0.0
 11
269.08382713
 21
-228.8430627
 31
0.0
  0
LINE
  5
27F
  8
LE_ALL
  6
DOT
 62
     3
 10
269.08382713
 20
-236.8430627
 30
0.0
 11
269.08382713
 21
-236.8430627
 31
0.0
  0
LINE
  5
280
  8
LE_ALL
  6
DOT
 62
     3
 10
242.58382713
 20
-236.8430627
 30
0.0
 11
242.58382713
 21
-228.8430627
 31
0.0
  0
LINE
  5
281
  8
LE_ALL
  6
DOT
 62
     3
 10
215.58382713
 20
-236.8430627
 30
0.0
 11
215.58382713
 21
-228.8430627
 31
0.0
  0
LINE
  5
282
  8
LE_ALL
  6
DOT
 62
     3
 10
160.58382713
 20
-236.8430627
 30
0.0
 11
160.58382713
 21
-228.8430627
 31
0.0
  0
LINE
  5
283
  8
LE_ALL
  6
DOT
 62
     3
 10
147.58382713
 20
-236.8430627
 30
0.0
 11
147.58382713
 21
-228.8430627
 31
0.0
  0
LINE
  5
284
  8
LE_ALL
  6
DOT
 62
     3
 10
209.08382713
 20
-236.8430627
 30
0.0
 11
209.08382713
 21
-228.8430627
 31
0.0
  0
LINE
  5
285
  8
LE_ALL
  6
DOT
 62
     3
 10
249.08382713
 20
-236.8430627
 30
0.0
 11
249.08382713
 21
-228.8430627
 31
0.0
  0
POLYLINE
  5
286
  8
LE_ALL
 66
     1
 10
0.0
 20
0.0
 30
0.0
  0
VERTEX
  5
287
  8
LE_ALL
 10
269.08382713
 20
-228.8430627
 30
0.0
  0
VERTEX
  5
288
  8
LE_ALL
 10
269.08382713
 20
-236.8430627
 30
0.0
  0
VERTEX
  5
289
  8
LE_ALL
 10
115.08382713
 20
-236.8430627
 30
0.0
  0
SEQEND
  5
28A
  8
LE_ALL
  0
LINE
  5
28B
  8
LE_ALL
 10
115.08382713
 20
-228.8430627
 30
0.0
 11
269.08382713
 21
-228.8430627
 31
0.0
  0
ENDBLK
  8
0
  0
BLOCK
  8
0
  2
_00031
 70
     0
 10
0.0
 20
0.0
 30
0.0
  0
INSERT
  5
28E
  8
0
  2
_00032
 10
154.08382713
 20
-239.8430627
 30
0.0
  0
ENDBLK
  8
0
  0
BLOCK
  8
0
  2
_00032
 70
     0
 10
154.08382713
 20
-239.8430627
 30
0.0
  0
LINE
  5
291
  8
LE_ALL
  6
STRICHPUNKT2
 62
     1
 10
154.08382713
 20
-239.8430627
 30
0.0
 11
154.08382713
 21
-225.8430627
 31
0.0
  0
LINE
  5
292
  8
LE_ALL
  6
STRICHPUNKT2
 62
     1
 10
242.58382713
 20
-239.8430627
 30
0.0
 11
242.58382713
 21
-225.8430627
 31
0.0
  0
LINE
  5
293
  8
LE_ALL
  6
STRICHPUNKT2
 62
     1
 10
215.58382713
 20
-239.8430627
 30
0.0
 11
215.58382713
 21
-225.8430627
 31
0.0
  0
ENDBLK
  8
0
  0
BLOCK
  8
0
  2
_ANS0004_00033
 70
     0
 10
0.0
 20
0.0
 30
0.0
  0
INSERT
  5
296
  8
0
  2
_A3D0004_00034
 10
0.0
 20
0.0
 30
0.0
  0
ENDBLK
  8
0
  0
BLOCK
  8
0
  2
_A3D0004_00034
 70
     0
 10
0.0
 20
0.0
 30
0.0
  0
INSERT
  5
299
  8
0
  2
PLAATWERK__D___8MM_00035
 10
0.0
 20
0.0
 30
0.0
  0
ENDBLK
  8
0
  0
BLOCK
  8
0
  2
PLAATWERK__D___8MM_00035
 70
     0
 10
0.0
 20
0.0
 30
0.0
  0
INSERT
  5
29C
  8
0
  2
SHEET_FLANGE_00036
 10
0.0
 20
0.0
 30
0.0
  0
INSERT
  5
29D
  8
0
  2
BEND_ZONE_00040
 10
0.0
 20
0.0
 30
0.0
  0
INSERT
  5
29E
  8
0
  2
SHEET_FLANGE_00042
 10
0.0
 20
0.0
 30
0.0
  0
INSERT
  5
29F
  8
0
  2
BEND_ZONE_00044
 10
0.0
 20
0.0
 30
0.0
  0
INSERT
  5
2A0
  8
0
  2
SHEET_FLANGE_00046
 10
0.0
 20
0.0
 30
0.0
  0
ENDBLK
  8
0
  0
BLOCK
  8
0
  2
SHEET_FLANGE_00036
 70
     0
 10
0.0
 20
0.0
 30
0.0
  0
INSERT
  5
2A3
  8
0
  2
SHEET_FLANGE_00037
 10
304.11965517
 20
-296.8430627
 30
0.0
  0
INSERT
  5
2A4
  8
0
  2
_00038
 10
0.0
 20
0.0
 30
0.0
  0
ENDBLK
  8
0
  0
BLOCK
  8
0
  2
SHEET_FLANGE_00037
 70
     0
 10
304.11965517
 20
-296.8430627
 30
0.0
  0
LINE
  5
2A7
  8
LE_ALL
  6
DOT
 62
     3
 10
304.11965517
 20
-296.8430627
 30
0.0
 11
304.11965517
 21
-296.8430627
 31
0.0
  0
LINE
  5
2A8
  8
LE_ALL
  6
DOT
 62
     3
 10
304.11965517
 20
-288.8430627
 30
0.0
 11
304.11965517
 21
-288.8430627
 31
0.0
  0
LINE
  5
2A9
  8
LE_ALL
  6
DOT
 62
     3
 10
364.11965517
 20
-296.8430627
 30
0.0
 11
364.11965517
 21
-296.8430627
 31
0.0
  0
LINE
  5
2AA
  8
LE_ALL
  6
DOT
 62
     3
 10
364.11965517
 20
-288.8430627
 30
0.0
 11
364.11965517
 21
-288.8430627
 31
0.0
  0
LINE
  5
2AB
  8
LE_ALL
  6
DOT
 62
     3
 10
311.61965517
 20
-288.8430627
 30
0.0
 11
311.61965517
 21
-296.8430627
 31
0.0
  0
LINE
  5
2AC
  8
LE_ALL
  6
DOT
 62
     3
 10
319.61965517
 20
-288.8430627
 30
0.0
 11
319.61965517
 21
-296.8430627
 31
0.0
  0
LINE
  5
2AD
  8
LE_ALL
  6
DOT
 62
     3
 10
348.61965517
 20
-288.8430627
 30
0.0
 11
348.61965517
 21
-296.8430627
 31
0.0
  0
LINE
  5
2AE
  8
LE_ALL
  6
DOT
 62
     3
 10
356.61965517
 20
-288.8430627
 30
0.0
 11
356.61965517
 21
-296.8430627
 31
0.0
  0
LINE
  5
2AF
  8
LE_ALL
  6
DOT
 62
     3
 10
327.61965517
 20
-288.8430627
 30
0.0
 11
327.61965517
 21
-296.8430627
 31
0.0
  0
LINE
  5
2B0
  8
LE_ALL
  6
DOT
 62
     3
 10
340.61965517
 20
-288.8430627
 30
0.0
 11
340.61965517
 21
-296.8430627
 31
0.0
  0
LINE
  5
2B1
  8
LE_ALL
  6
DOT
 62
     3
 10
364.11965517
 20
-288.8430627
 30
0.0
 11
304.11965517
 21
-288.8430627
 31
0.0
  0
LINE
  5
2B2
  8
LE_ALL
 10
304.11965517
 20
-296.8430627
 30
0.0
 11
364.11965517
 21
-296.8430627
 31
0.0
  0
ENDBLK
  8
0
  0
BLOCK
  8
0
  2
_00038
 70
     0
 10
0.0
 20
0.0
 30
0.0
  0
INSERT
  5
2B5
  8
0
  2
_00039
 10
315.61965517
 20
-286.8430627
 30
0.0
  0
ENDBLK
  8
0
  0
BLOCK
  8
0
  2
_00039
 70
     0
 10
315.61965517
 20
-286.8430627
 30
0.0
  0
LINE
  5
2B8
  8
LE_ALL
  6
STRICHPUNKT2
 62
     1
 10
315.61965517
 20
-286.8430627
 30
0.0
 11
315.61965517
 21
-298.8430627
 31
0.0
  0
LINE
  5
2B9
  8
LE_ALL
  6
STRICHPUNKT2
 62
     1
 10
315.61965517
 20
-286.8430627
 30
0.0
 11
315.61965517
 21
-298.8430627
 31
0.0
  0
LINE
  5
2BA
  8
LE_ALL
  6
STRICHPUNKT2
 62
     1
 10
352.61965517
 20
-286.8430627
 30
0.0
 11
352.61965517
 21
-298.8430627
 31
0.0
  0
LINE
  5
2BB
  8
LE_ALL
  6
STRICHPUNKT2
 62
     1
 10
334.11965517
 20
-285.8430627
 30
0.0
 11
334.11965517
 21
-299.8430627
 31
0.0
  0
LINE
  5
2BC
  8
LE_ALL
  6
STRICHPUNKT2
 62
     1
 10
352.61965517
 20
-286.8430627
 30
0.0
 11
352.61965517
 21
-298.8430627
 31
0.0
  0
ENDBLK
  8
0
  0
BLOCK
  8
0
  2
BEND_ZONE_00040
 70
     0
 10
0.0
 20
0.0
 30
0.0
  0
INSERT
  5
2BF
  8
0
  2
BEND_ZONE_00041
 10
364.11965517
 20
-288.8430627
 30
0.0
  0
ENDBLK
  8
0
  0
BLOCK
  8
0
  2
BEND_ZONE_00041
 70
     0
 10
364.11965517
 20
-288.8430627
 30
0.0
  0
LINE
  5
2C2
  8
LE_ALL
  6
DOT
 62
     3
 10
364.11965517
 20
-288.8430627
 30
0.0
 11
304.11965517
 21
-288.8430627
 31
0.0
  0
POLYLINE
  5
2C3
  8
LE_ALL
 66
     1
 10
0.0
 20
0.0
 30
0.0
  0
VERTEX
  5
2C4
  8
LE_ALL
 10
364.11965517
 20
-296.8430627
 30
0.0
  0
VERTEX
  5
2C5
  8
LE_ALL
 10
304.11965517
 20
-296.8430627
 30
0.0
  0
VERTEX
  5
2C6
  8
LE_ALL
 10
304.11965517
 20
-280.8430627
 30
0.0
  0
SEQEND
  5
2C7
  8
LE_ALL
  0
LINE
  5
2C8
  8
LE_ALL
 10
364.11965517
 20
-280.8430627
 30
0.0
 11
304.11965517
 21
-280.8430627
 31
0.0
  0
LINE
  5
2C9
  8
LE_ALL
 10
364.11965517
 20
-280.8430627
 30
0.0
 11
364.11965517
 21
-296.8430627
 31
0.0
  0
ENDBLK
  8
0
  0
BLOCK
  8
0
  2
SHEET_FLANGE_00042
 70
     0
 10
0.0
 20
0.0
 30
0.0
  0
INSERT
  5
2CC
  8
0
  2
SHEET_FLANGE_00043
 10
304.11965517
 20
-280.8430627
 30
0.0
  0
ENDBLK
  8
0
  0
BLOCK
  8
0
  2
SHEET_FLANGE_00043
 70
     0
 10
304.11965517
 20
-280.8430627
 30
0.0
  0
POLYLINE
  5
2CF
  8
LE_ALL
 66
     1
 10
0.0
 20
0.0
 30
0.0
 70
     1
  0
VERTEX
  5
2D0
  8
LE_ALL
 10
304.11965517
 20
-280.8430627
 30
0.0
  0
VERTEX
  5
2D1
  8
LE_ALL
 10
364.11965517
 20
-280.8430627
 30
0.0
  0
VERTEX
  5
2D2
  8
LE_ALL
 10
364.11965517
 20
-244.8430627
 30
0.0
  0
VERTEX
  5
2D3
  8
LE_ALL
 10
304.11965517
 20
-244.8430627
 30
0.0
  0
SEQEND
  5
2D4
  8
LE_ALL
  0
ENDBLK
  8
0
  0
BLOCK
  8
0
  2
BEND_ZONE_00044
 70
     0
 10
0.0
 20
0.0
 30
0.0
  0
INSERT
  5
2D7
  8
0
  2
BEND_ZONE_00045
 10
304.11965517
 20
-236.8430627
 30
0.0
  0
ENDBLK
  8
0
  0
BLOCK
  8
0
  2
BEND_ZONE_00045
 70
     0
 10
304.11965517
 20
-236.8430627
 30
0.0
  0
LINE
  5
2DA
  8
LE_ALL
  6
DOT
 62
     3
 10
304.11965517
 20
-236.8430627
 30
0.0
 11
364.11965517
 21
-236.8430627
 31
0.0
  0
POLYLINE
  5
2DB
  8
LE_ALL
 66
     1
 10
0.0
 20
0.0
 30
0.0
  0
VERTEX
  5
2DC
  8
LE_ALL
 10
304.11965517
 20
-236.8430627
 30
0.0
  0
VERTEX
  5
2DD
  8
LE_ALL
 10
304.11965517
 20
-244.8430627
 30
0.0
  0
VERTEX
  5
2DE
  8
LE_ALL
 10
364.11965517
 20
-244.8430627
 30
0.0
  0
VERTEX
  5
2DF
  8
LE_ALL
 10
364.11965517
 20
-236.8430627
 30
0.0
  0
SEQEND
  5
2E0
  8
LE_ALL
  0
ENDBLK
  8
0
  0
BLOCK
  8
0
  2
SHEET_FLANGE_00046
 70
     0
 10
0.0
 20
0.0
 30
0.0
  0
INSERT
  5
2E3
  8
0
  2
SHEET_FLANGE_00047
 10
364.11965517
 20
-228.8430627
 30
0.0
  0
INSERT
  5
2E4
  8
0
  2
_00048
 10
0.0
 20
0.0
 30
0.0
  0
ENDBLK
  8
0
  0
BLOCK
  8
0
  2
SHEET_FLANGE_00047
 70
     0
 10
364.11965517
 20
-228.8430627
 30
0.0
  0
LINE
  5
2E7
  8
LE_ALL
  6
DOT
 62
     3
 10
364.11965517
 20
-228.8430627
 30
0.0
 11
364.11965517
 21
-228.8430627
 31
0.0
  0
LINE
  5
2E8
  8
LE_ALL
  6
DOT
 62
     3
 10
364.11965517
 20
-236.8430627
 30
0.0
 11
364.11965517
 21
-236.8430627
 31
0.0
  0
LINE
  5
2E9
  8
LE_ALL
  6
DOT
 62
     3
 10
304.11965517
 20
-228.8430627
 30
0.0
 11
304.11965517
 21
-228.8430627
 31
0.0
  0
LINE
  5
2EA
  8
LE_ALL
  6
DOT
 62
     3
 10
304.11965517
 20
-236.8430627
 30
0.0
 11
304.11965517
 21
-236.8430627
 31
0.0
  0
LINE
  5
2EB
  8
LE_ALL
  6
DOT
 62
     3
 10
340.61965517
 20
-228.8430627
 30
0.0
 11
340.61965517
 21
-228.8430627
 31
0.0
  0
LINE
  5
2EC
  8
LE_ALL
  6
DOT
 62
     3
 10
327.61965517
 20
-228.8430627
 30
0.0
 11
327.61965517
 21
-228.8430627
 31
0.0
  0
LINE
  5
2ED
  8
LE_ALL
  6
DOT
 62
     3
 10
327.61965517
 20
-236.8430627
 30
0.0
 11
327.61965517
 21
-236.8430627
 31
0.0
  0
LINE
  5
2EE
  8
LE_ALL
  6
DOT
 62
     3
 10
340.61965517
 20
-236.8430627
 30
0.0
 11
340.61965517
 21
-236.8430627
 31
0.0
  0
LINE
  5
2EF
  8
LE_ALL
  6
DOT
 62
     3
 10
327.61965517
 20
-236.8430627
 30
0.0
 11
327.61965517
 21
-228.8430627
 31
0.0
  0
LINE
  5
2F0
  8
LE_ALL
  6
DOT
 62
     3
 10
340.61965517
 20
-236.8430627
 30
0.0
 11
340.61965517
 21
-228.8430627
 31
0.0
  0
POLYLINE
  5
2F1
  8
LE_ALL
 66
     1
 10
0.0
 20
0.0
 30
0.0
  0
VERTEX
  5
2F2
  8
LE_ALL
 10
364.11965517
 20
-228.8430627
 30
0.0
  0
VERTEX
  5
2F3
  8
LE_ALL
 10
364.11965517
 20
-236.8430627
 30
0.0
  0
VERTEX
  5
2F4
  8
LE_ALL
 10
304.11965517
 20
-236.8430627
 30
0.0
  0
SEQEND
  5
2F5
  8
LE_ALL
  0
LINE
  5
2F6
  8
LE_ALL
 10
304.11965517
 20
-228.8430627
 30
0.0
 11
304.11965517
 21
-236.8430627
 31
0.0
  0
LINE
  5
2F7
  8
LE_ALL
 10
304.11965517
 20
-228.8430627
 30
0.0
 11
364.11965517
 21
-228.8430627
 31
0.0
  0
ENDBLK
  8
0
  0
BLOCK
  8
0
  2
_00048
 70
     0
 10
0.0
 20
0.0
 30
0.0
  0
INSERT
  5
2FA
  8
0
  2
_00049
 10
334.11965517
 20
-239.8430627
 30
0.0
  0
ENDBLK
  8
0
  0
BLOCK
  8
0
  2
_00049
 70
     0
 10
334.11965517
 20
-239.8430627
 30
0.0
  0
LINE
  5
2FD
  8
LE_ALL
  6
STRICHPUNKT2
 62
     1
 10
334.11965517
 20
-239.8430627
 30
0.0
 11
334.11965517
 21
-225.8430627
 31
0.0
  0
LINE
  5
2FE
  8
LE_ALL
  6
STRICHPUNKT2
 62
     1
 10
334.11965517
 20
-239.8430627
 30
0.0
 11
334.11965517
 21
-225.8430627
 31
0.0
  0
LINE
  5
2FF
  8
LE_ALL
  6
STRICHPUNKT2
 62
     1
 10
334.11965517
 20
-239.8430627
 30
0.0
 11
334.11965517
 21
-225.8430627
 31
0.0
  0
ENDBLK
  8
0
  0
BLOCK
  8
0
  2
_ANS0005_00050
 70
     0
 10
0.0
 20
0.0
 30
0.0
  0
INSERT
  5
302
  8
0
  2
_A3D0005_00051
 10
0.0
 20
0.0
 30
0.0
  0
ENDBLK
  8
0
  0
BLOCK
  8
0
  2
_A3D0005_00051
 70
     0
 10
0.0
 20
0.0
 30
0.0
  0
INSERT
  5
305
  8
0
  2
PLAATWERK__D___8MM_00052
 10
0.0
 20
0.0
 30
0.0
  0
ENDBLK
  8
0
  0
BLOCK
  8
0
  2
PLAATWERK__D___8MM_00052
 70
     0
 10
0.0
 20
0.0
 30
0.0
  0
INSERT
  5
308
  8
0
  2
SHEET_FLANGE_00053
 10
0.0
 20
0.0
 30
0.0
  0
INSERT
  5
309
  8
0
  2
BEND_ZONE_00057
 10
0.0
 20
0.0
 30
0.0
  0
INSERT
  5
30A
  8
0
  2
SHEET_FLANGE_00059
 10
0.0
 20
0.0
 30
0.0
  0
INSERT
  5
30B
  8
0
  2
BEND_ZONE_00061
 10
0.0
 20
0.0
 30
0.0
  0
INSERT
  5
30C
  8
0
  2
SHEET_FLANGE_00063
 10
0.0
 20
0.0
 30
0.0
  0
ENDBLK
  8
0
  0
BLOCK
  8
0
  2
SHEET_FLANGE_00053
 70
     0
 10
0.0
 20
0.0
 30
0.0
  0
INSERT
  5
30F
  8
0
  2
SHEET_FLANGE_00054
 10
27.08382713
 20
-182.75102513
 30
0.0
  0
INSERT
  5
310
  8
0
  2
_00055
 10
0.0
 20
0.0
 30
0.0
  0
ENDBLK
  8
0
  0
BLOCK
  8
0
  2
SHEET_FLANGE_00054
 70
     0
 10
27.08382713
 20
-182.75102513
 30
0.0
  0
LINE
  5
313
  8
LE_ALL
  6
DOT
 62
     3
 10
27.08382713
 20
-182.75102513
 30
0.0
 11
27.08382713
 21
-182.75102513
 31
0.0
  0
LINE
  5
314
  8
LE_ALL
  6
DOT
 62
     3
 10
27.08382713
 20
-122.75102513
 30
0.0
 11
27.08382713
 21
-122.75102513
 31
0.0
  0
CIRCLE
  5
315
  8
LE_ALL
 10
57.08382713
 20
-152.75102513
 30
0.0
 40
6.5
  0
CIRCLE
  5
316
  8
LE_ALL
 10
38.58382713
 20
-134.25102513
 30
0.0
 40
4.0
  0
CIRCLE
  5
317
  8
LE_ALL
 10
38.58382713
 20
-171.25102513
 30
0.0
 40
4.0
  0
CIRCLE
  5
318
  8
LE_ALL
 10
75.58382713
 20
-134.25102513
 30
0.0
 40
4.0
  0
CIRCLE
  5
319
  8
LE_ALL
 10
75.58382713
 20
-171.25102513
 30
0.0
 40
4.0
  0
POLYLINE
  5
31A
  8
LE_ALL
 66
     1
 10
0.0
 20
0.0
 30
0.0
 70
     1
  0
VERTEX
  5
31B
  8
LE_ALL
 10
91.08382713
 20
-182.75102513
 30
0.0
  0
VERTEX
  5
31C
  8
LE_ALL
 10
27.08382713
 20
-182.75102513
 30
0.0
  0
VERTEX
  5
31D
  8
LE_ALL
 10
27.08382713
 20
-122.75102513
 30
0.0
  0
VERTEX
  5
31E
  8
LE_ALL
 10
91.08382713
 20
-122.75102513
 30
0.0
  0
SEQEND
  5
31F
  8
LE_ALL
  0
ENDBLK
  8
0
  0
BLOCK
  8
0
  2
_00055
 70
     0
 10
0.0
 20
0.0
 30
0.0
  0
INSERT
  5
322
  8
0
  2
_00056
 10
75.58382713
 20
-171.25102513
 30
0.0
  0
ENDBLK
  8
0
  0
BLOCK
  8
0
  2
_00056
 70
     0
 10
75.58382713
 20
-171.25102513
 30
0.0
  0
LINE
  5
325
  8
LE_ALL
  6
STRICHPUNKT2
 62
     1
 10
75.58382713
 20
-171.25102513
 30
0.0
 11
75.58382713
 21
-165.25102513
 31
0.0
  0
LINE
  5
326
  8
LE_ALL
  6
STRICHPUNKT2
 62
     1
 10
75.58382713
 20
-171.25102513
 30
0.0
 11
75.58382713
 21
-177.25102513
 31
0.0
  0
LINE
  5
327
  8
LE_ALL
  6
STRICHPUNKT2
 62
     1
 10
75.58382713
 20
-171.25102513
 30
0.0
 11
69.58382713
 21
-171.25102513
 31
0.0
  0
LINE
  5
328
  8
LE_ALL
  6
STRICHPUNKT2
 62
     1
 10
75.58382713
 20
-171.25102513
 30
0.0
 11
81.58382713
 21
-171.25102513
 31
0.0
  0
LINE
  5
329
  8
LE_ALL
  6
STRICHPUNKT2
 62
     1
 10
75.58382713
 20
-171.25102513
 30
0.0
 11
75.58382713
 21
-165.25102513
 31
0.0
  0
LINE
  5
32A
  8
LE_ALL
  6
STRICHPUNKT2
 62
     1
 10
75.58382713
 20
-171.25102513
 30
0.0
 11
75.58382713
 21
-177.25102513
 31
0.0
  0
LINE
  5
32B
  8
LE_ALL
  6
STRICHPUNKT2
 62
     1
 10
75.58382713
 20
-171.25102513
 30
0.0
 11
69.58382713
 21
-171.25102513
 31
0.0
  0
LINE
  5
32C
  8
LE_ALL
  6
STRICHPUNKT2
 62
     1
 10
75.58382713
 20
-171.25102513
 30
0.0
 11
81.58382713
 21
-171.25102513
 31
0.0
  0
LINE
  5
32D
  8
LE_ALL
  6
STRICHPUNKT2
 62
     1
 10
75.58382713
 20
-134.25102513
 30
0.0
 11
75.58382713
 21
-128.25102513
 31
0.0
  0
LINE
  5
32E
  8
LE_ALL
  6
STRICHPUNKT2
 62
     1
 10
75.58382713
 20
-134.25102513
 30
0.0
 11
75.58382713
 21
-140.25102513
 31
0.0
  0
LINE
  5
32F
  8
LE_ALL
  6
STRICHPUNKT2
 62
     1
 10
75.58382713
 20
-134.25102513
 30
0.0
 11
69.58382713
 21
-134.25102513
 31
0.0
  0
LINE
  5
330
  8
LE_ALL
  6
STRICHPUNKT2
 62
     1
 10
75.58382713
 20
-134.25102513
 30
0.0
 11
81.58382713
 21
-134.25102513
 31
0.0
  0
LINE
  5
331
  8
LE_ALL
  6
STRICHPUNKT2
 62
     1
 10
75.58382713
 20
-134.25102513
 30
0.0
 11
75.58382713
 21
-128.25102513
 31
0.0
  0
LINE
  5
332
  8
LE_ALL
  6
STRICHPUNKT2
 62
     1
 10
75.58382713
 20
-134.25102513
 30
0.0
 11
75.58382713
 21
-140.25102513
 31
0.0
  0
LINE
  5
333
  8
LE_ALL
  6
STRICHPUNKT2
 62
     1
 10
75.58382713
 20
-134.25102513
 30
0.0
 11
69.58382713
 21
-134.25102513
 31
0.0
  0
LINE
  5
334
  8
LE_ALL
  6
STRICHPUNKT2
 62
     1
 10
75.58382713
 20
-134.25102513
 30
0.0
 11
81.58382713
 21
-134.25102513
 31
0.0
  0
LINE
  5
335
  8
LE_ALL
  6
STRICHPUNKT2
 62
     1
 10
38.58382713
 20
-171.25102513
 30
0.0
 11
38.58382713
 21
-165.25102513
 31
0.0
  0
LINE
  5
336
  8
LE_ALL
  6
STRICHPUNKT2
 62
     1
 10
38.58382713
 20
-171.25102513
 30
0.0
 11
38.58382713
 21
-177.25102513
 31
0.0
  0
LINE
  5
337
  8
LE_ALL
  6
STRICHPUNKT2
 62
     1
 10
38.58382713
 20
-171.25102513
 30
0.0
 11
32.58382713
 21
-171.25102513
 31
0.0
  0
LINE
  5
338
  8
LE_ALL
  6
STRICHPUNKT2
 62
     1
 10
38.58382713
 20
-171.25102513
 30
0.0
 11
44.58382713
 21
-171.25102513
 31
0.0
  0
LINE
  5
339
  8
LE_ALL
  6
STRICHPUNKT2
 62
     1
 10
38.58382713
 20
-171.25102513
 30
0.0
 11
38.58382713
 21
-165.25102513
 31
0.0
  0
LINE
  5
33A
  8
LE_ALL
  6
STRICHPUNKT2
 62
     1
 10
38.58382713
 20
-171.25102513
 30
0.0
 11
38.58382713
 21
-177.25102513
 31
0.0
  0
LINE
  5
33B
  8
LE_ALL
  6
STRICHPUNKT2
 62
     1
 10
38.58382713
 20
-171.25102513
 30
0.0
 11
32.58382713
 21
-171.25102513
 31
0.0
  0
LINE
  5
33C
  8
LE_ALL
  6
STRICHPUNKT2
 62
     1
 10
38.58382713
 20
-171.25102513
 30
0.0
 11
44.58382713
 21
-171.25102513
 31
0.0
  0
LINE
  5
33D
  8
LE_ALL
  6
STRICHPUNKT2
 62
     1
 10
38.58382713
 20
-134.25102513
 30
0.0
 11
38.58382713
 21
-128.25102513
 31
0.0
  0
LINE
  5
33E
  8
LE_ALL
  6
STRICHPUNKT2
 62
     1
 10
38.58382713
 20
-134.25102513
 30
0.0
 11
38.58382713
 21
-140.25102513
 31
0.0
  0
LINE
  5
33F
  8
LE_ALL
  6
STRICHPUNKT2
 62
     1
 10
38.58382713
 20
-134.25102513
 30
0.0
 11
32.58382713
 21
-134.25102513
 31
0.0
  0
LINE
  5
340
  8
LE_ALL
  6
STRICHPUNKT2
 62
     1
 10
38.58382713
 20
-134.25102513
 30
0.0
 11
44.58382713
 21
-134.25102513
 31
0.0
  0
LINE
  5
341
  8
LE_ALL
  6
STRICHPUNKT2
 62
     1
 10
38.58382713
 20
-134.25102513
 30
0.0
 11
38.58382713
 21
-128.25102513
 31
0.0
  0
LINE
  5
342
  8
LE_ALL
  6
STRICHPUNKT2
 62
     1
 10
38.58382713
 20
-134.25102513
 30
0.0
 11
38.58382713
 21
-140.25102513
 31
0.0
  0
LINE
  5
343
  8
LE_ALL
  6
STRICHPUNKT2
 62
     1
 10
38.58382713
 20
-134.25102513
 30
0.0
 11
32.58382713
 21
-134.25102513
 31
0.0
  0
LINE
  5
344
  8
LE_ALL
  6
STRICHPUNKT2
 62
     1
 10
38.58382713
 20
-134.25102513
 30
0.0
 11
44.58382713
 21
-134.25102513
 31
0.0
  0
LINE
  5
345
  8
LE_ALL
  6
STRICHPUNKT2
 62
     1
 10
57.08382713
 20
-152.75102513
 30
0.0
 11
66.58382713
 21
-152.75102513
 31
0.0
  0
LINE
  5
346
  8
LE_ALL
  6
STRICHPUNKT2
 62
     1
 10
57.08382713
 20
-152.75102513
 30
0.0
 11
47.58382713
 21
-152.75102513
 31
0.0
  0
LINE
  5
347
  8
LE_ALL
  6
STRICHPUNKT2
 62
     1
 10
57.08382713
 20
-152.75102513
 30
0.0
 11
57.08382713
 21
-143.25102513
 31
0.0
  0
LINE
  5
348
  8
LE_ALL
  6
STRICHPUNKT2
 62
     1
 10
57.08382713
 20
-152.75102513
 30
0.0
 11
57.08382713
 21
-162.25102513
 31
0.0
  0
LINE
  5
349
  8
LE_ALL
  6
STRICHPUNKT2
 62
     1
 10
57.08382713
 20
-152.75102513
 30
0.0
 11
66.58382713
 21
-152.75102513
 31
0.0
  0
LINE
  5
34A
  8
LE_ALL
  6
STRICHPUNKT2
 62
     1
 10
57.08382713
 20
-152.75102513
 30
0.0
 11
47.58382713
 21
-152.75102513
 31
0.0
  0
LINE
  5
34B
  8
LE_ALL
  6
STRICHPUNKT2
 62
     1
 10
57.08382713
 20
-152.75102513
 30
0.0
 11
57.08382713
 21
-143.25102513
 31
0.0
  0
LINE
  5
34C
  8
LE_ALL
  6
STRICHPUNKT2
 62
     1
 10
57.08382713
 20
-152.75102513
 30
0.0
 11
57.08382713
 21
-162.25102513
 31
0.0
  0
ENDBLK
  8
0
  0
BLOCK
  8
0
  2
BEND_ZONE_00057
 70
     0
 10
0.0
 20
0.0
 30
0.0
  0
INSERT
  5
34F
  8
0
  2
BEND_ZONE_00058
 10
99.08382713
 20
-122.75102513
 30
0.0
  0
ENDBLK
  8
0
  0
BLOCK
  8
0
  2
BEND_ZONE_00058
 70
     0
 10
99.08382713
 20
-122.75102513
 30
0.0
  0
LINE
  5
352
  8
LE_ALL
  6
DOT
 62
     3
 10
99.08382713
 20
-122.75102513
 30
0.0
 11
99.08382713
 21
-182.75102513
 31
0.0
  0
POLYLINE
  5
353
  8
LE_ALL
 66
     1
 10
0.0
 20
0.0
 30
0.0
  0
VERTEX
  5
354
  8
LE_ALL
 10
99.08382713
 20
-122.75102513
 30
0.0
  0
VERTEX
  5
355
  8
LE_ALL
 10
91.08382713
 20
-122.75102513
 30
0.0
  0
VERTEX
  5
356
  8
LE_ALL
 10
91.08382713
 20
-182.75102513
 30
0.0
  0
VERTEX
  5
357
  8
LE_ALL
 10
99.08382713
 20
-182.75102513
 30
0.0
  0
SEQEND
  5
358
  8
LE_ALL
  0
ENDBLK
  8
0
  0
BLOCK
  8
0
  2
SHEET_FLANGE_00059
 70
     0
 10
0.0
 20
0.0
 30
0.0
  0
INSERT
  5
35B
  8
0
  2
SHEET_FLANGE_00060
 10
107.08382713
 20
-182.75102513
 30
0.0
  0
ENDBLK
  8
0
  0
BLOCK
  8
0
  2
SHEET_FLANGE_00060
 70
     0
 10
107.08382713
 20
-182.75102513
 30
0.0
  0
LINE
  5
35E
  8
LE_ALL
  6
DOT
 62
     3
 10
107.08382713
 20
-182.75102513
 30
0.0
 11
107.08382713
 21
-182.75102513
 31
0.0
  0
LINE
  5
35F
  8
LE_ALL
  6
DOT
 62
     3
 10
99.08382713
 20
-182.75102513
 30
0.0
 11
99.08382713
 21
-182.75102513
 31
0.0
  0
LINE
  5
360
  8
LE_ALL
  6
DOT
 62
     3
 10
107.08382713
 20
-122.75102513
 30
0.0
 11
107.08382713
 21
-122.75102513
 31
0.0
  0
LINE
  5
361
  8
LE_ALL
  6
DOT
 62
     3
 10
99.08382713
 20
-122.75102513
 30
0.0
 11
99.08382713
 21
-122.75102513
 31
0.0
  0
LINE
  5
362
  8
LE_ALL
 10
99.08382713
 20
-182.75102513
 30
0.0
 11
99.08382713
 21
-122.75102513
 31
0.0
  0
LINE
  5
363
  8
LE_ALL
  6
DOT
 62
     3
 10
107.08382713
 20
-122.75102513
 30
0.0
 11
107.08382713
 21
-182.75102513
 31
0.0
  0
ENDBLK
  8
0
  0
BLOCK
  8
0
  2
BEND_ZONE_00061
 70
     0
 10
0.0
 20
0.0
 30
0.0
  0
INSERT
  5
366
  8
0
  2
BEND_ZONE_00062
 10
107.08382713
 20
-182.75102513
 30
0.0
  0
ENDBLK
  8
0
  0
BLOCK
  8
0
  2
BEND_ZONE_00062
 70
     0
 10
107.08382713
 20
-182.75102513
 30
0.0
  0
LINE
  5
369
  8
LE_ALL
  6
DOT
 62
     3
 10
107.08382713
 20
-182.75102513
 30
0.0
 11
107.08382713
 21
-122.75102513
 31
0.0
  0
POLYLINE
  5
36A
  8
LE_ALL
 66
     1
 10
0.0
 20
0.0
 30
0.0
  0
VERTEX
  5
36B
  8
LE_ALL
 10
99.08382713
 20
-182.75102513
 30
0.0
  0
VERTEX
  5
36C
  8
LE_ALL
 10
99.08382713
 20
-122.75102513
 30
0.0
  0
VERTEX
  5
36D
  8
LE_ALL
 10
115.08382713
 20
-122.75102513
 30
0.0
  0
SEQEND
  5
36E
  8
LE_ALL
  0
LINE
  5
36F
  8
LE_ALL
 10
115.08382713
 20
-182.75102513
 30
0.0
 11
115.08382713
 21
-122.75102513
 31
0.0
  0
LINE
  5
370
  8
LE_ALL
 10
115.08382713
 20
-182.75102513
 30
0.0
 11
99.08382713
 21
-182.75102513
 31
0.0
  0
ENDBLK
  8
0
  0
BLOCK
  8
0
  2
SHEET_FLANGE_00063
 70
     0
 10
0.0
 20
0.0
 30
0.0
  0
INSERT
  5
373
  8
0
  2
SHEET_FLANGE_00064
 10
269.08382713
 20
-122.75102513
 30
0.0
  0
INSERT
  5
374
  8
0
  2
_00065
 10
0.0
 20
0.0
 30
0.0
  0
ENDBLK
  8
0
  0
BLOCK
  8
0
  2
SHEET_FLANGE_00064
 70
     0
 10
269.08382713
 20
-122.75102513
 30
0.0
  0
LINE
  5
377
  8
LE_ALL
  6
DOT
 62
     3
 10
269.08382713
 20
-122.75102513
 30
0.0
 11
269.08382713
 21
-122.75102513
 31
0.0
  0
LINE
  5
378
  8
LE_ALL
  6
DOT
 62
     3
 10
269.08382713
 20
-182.75102513
 30
0.0
 11
269.08382713
 21
-182.75102513
 31
0.0
  0
LINE
  5
379
  8
LE_ALL
  6
DOT
 62
     3
 10
242.58382713
 20
-159.25102513
 30
0.0
 11
242.58382713
 21
-159.25102513
 31
0.0
  0
LINE
  5
37A
  8
LE_ALL
  6
DOT
 62
     3
 10
215.58382713
 20
-159.25102513
 30
0.0
 11
215.58382713
 21
-159.25102513
 31
0.0
  0
LINE
  5
37B
  8
LE_ALL
  6
DOT
 62
     3
 10
242.58382713
 20
-146.25102513
 30
0.0
 11
242.58382713
 21
-146.25102513
 31
0.0
  0
LINE
  5
37C
  8
LE_ALL
  6
DOT
 62
     3
 10
215.58382713
 20
-146.25102513
 30
0.0
 11
215.58382713
 21
-146.25102513
 31
0.0
  0
POLYLINE
  5
37D
  8
LE_ALL
 66
     1
 10
0.0
 20
0.0
 30
0.0
 70
     1
  0
VERTEX
  5
37E
  8
LE_ALL
 10
215.58382713
 20
-159.25102513
 30
0.0
 42
-1.0
  0
VERTEX
  5
37F
  8
LE_ALL
 10
215.58382713
 20
-146.25102513
 30
0.0
  0
VERTEX
  5
380
  8
LE_ALL
 10
242.58382713
 20
-146.25102513
 30
0.0
 42
-1.0
  0
VERTEX
  5
381
  8
LE_ALL
 10
242.58382713
 20
-159.25102513
 30
0.0
  0
SEQEND
  5
382
  8
LE_ALL
  0
CIRCLE
  5
383
  8
LE_ALL
 10
154.08382713
 20
-152.75102513
 30
0.0
 40
6.5
  0
POLYLINE
  5
384
  8
LE_ALL
 66
     1
 10
0.0
 20
0.0
 30
0.0
 70
     1
  0
VERTEX
  5
385
  8
LE_ALL
 10
115.08382713
 20
-122.75102513
 30
0.0
  0
VERTEX
  5
386
  8
LE_ALL
 10
115.08382713
 20
-182.75102513
 30
0.0
  0
VERTEX
  5
387
  8
LE_ALL
 10
269.08382713
 20
-182.75102513
 30
0.0
  0
VERTEX
  5
388
  8
LE_ALL
 10
269.08382713
 20
-122.75102513
 30
0.0
  0
SEQEND
  5
389
  8
LE_ALL
  0
ENDBLK
  8
0
  0
BLOCK
  8
0
  2
_00065
 70
     0
 10
0.0
 20
0.0
 30
0.0
  0
INSERT
  5
38C
  8
0
  2
_00066
 10
154.08382713
 20
-152.75102513
 30
0.0
  0
ENDBLK
  8
0
  0
BLOCK
  8
0
  2
_00066
 70
     0
 10
154.08382713
 20
-152.75102513
 30
0.0
  0
LINE
  5
38F
  8
LE_ALL
  6
STRICHPUNKT2
 62
     1
 10
154.08382713
 20
-152.75102513
 30
0.0
 11
163.58382713
 21
-152.75102513
 31
0.0
  0
LINE
  5
390
  8
LE_ALL
  6
STRICHPUNKT2
 62
     1
 10
154.08382713
 20
-152.75102513
 30
0.0
 11
144.58382713
 21
-152.75102513
 31
0.0
  0
LINE
  5
391
  8
LE_ALL
  6
STRICHPUNKT2
 62
     1
 10
154.08382713
 20
-152.75102513
 30
0.0
 11
154.08382713
 21
-143.25102513
 31
0.0
  0
LINE
  5
392
  8
LE_ALL
  6
STRICHPUNKT2
 62
     1
 10
154.08382713
 20
-152.75102513
 30
0.0
 11
154.08382713
 21
-162.25102513
 31
0.0
  0
LINE
  5
393
  8
LE_ALL
  6
STRICHPUNKT2
 62
     1
 10
154.08382713
 20
-152.75102513
 30
0.0
 11
163.58382713
 21
-152.75102513
 31
0.0
  0
LINE
  5
394
  8
LE_ALL
  6
STRICHPUNKT2
 62
     1
 10
154.08382713
 20
-152.75102513
 30
0.0
 11
144.58382713
 21
-152.75102513
 31
0.0
  0
LINE
  5
395
  8
LE_ALL
  6
STRICHPUNKT2
 62
     1
 10
154.08382713
 20
-152.75102513
 30
0.0
 11
154.08382713
 21
-143.25102513
 31
0.0
  0
LINE
  5
396
  8
LE_ALL
  6
STRICHPUNKT2
 62
     1
 10
154.08382713
 20
-152.75102513
 30
0.0
 11
154.08382713
 21
-162.25102513
 31
0.0
  0
LINE
  5
397
  8
LE_ALL
  6
STRICHPUNKT2
 62
     1
 10
206.08382713
 20
-152.75102513
 30
0.0
 11
252.08382713
 21
-152.75102513
 31
0.0
  0
LINE
  5
398
  8
LE_ALL
  6
STRICHPUNKT2
 62
     1
 10
215.58382713
 20
-162.25102513
 30
0.0
 11
215.58382713
 21
-143.25102513
 31
0.0
  0
LINE
  5
399
  8
LE_ALL
  6
STRICHPUNKT2
 62
     1
 10
242.58382713
 20
-162.25102513
 30
0.0
 11
242.58382713
 21
-143.25102513
 31
0.0
  0
LINE
  5
39A
  8
LE_ALL
  6
STRICHPUNKT2
 62
     1
 10
206.08382713
 20
-152.75102513
 30
0.0
 11
252.08382713
 21
-152.75102513
 31
0.0
  0
LINE
  5
39B
  8
LE_ALL
  6
STRICHPUNKT2
 62
     1
 10
215.58382713
 20
-162.25102513
 30
0.0
 11
215.58382713
 21
-143.25102513
 31
0.0
  0
LINE
  5
39C
  8
LE_ALL
  6
STRICHPUNKT2
 62
     1
 10
242.58382713
 20
-162.25102513
 30
0.0
 11
242.58382713
 21
-143.25102513
 31
0.0
  0
ENDBLK
  8
0
  0
BLOCK
  8
0
  2
_ANS0006_00067
 70
     0
 10
0.0
 20
0.0
 30
0.0
  0
INSERT
  5
39F
  8
0
  2
_A3D0006_00068
 10
0.0
 20
0.0
 30
0.0
  0
ENDBLK
  8
0
  0
BLOCK
  8
0
  2
_A3D0006_00068
 70
     0
 10
0.0
 20
0.0
 30
0.0
  0
INSERT
  5
3A2
  8
0
  2
PLAATWERK__D___8MM_00069
 10
0.0
 20
0.0
 30
0.0
  0
ENDBLK
  8
0
  0
BLOCK
  8
0
  2
PLAATWERK__D___8MM_00069
 70
     0
 10
0.0
 20
0.0
 30
0.0
  0
INSERT
  5
3A5
  8
0
  2
SHEET_FLANGE_00070
 10
0.0
 20
0.0
 30
0.0
  0
INSERT
  5
3A6
  8
0
  2
BEND_ZONE_00074
 10
0.0
 20
0.0
 30
0.0
  0
INSERT
  5
3A7
  8
0
  2
SHEET_FLANGE_00076
 10
0.0
 20
0.0
 30
0.0
  0
INSERT
  5
3A8
  8
0
  2
BEND_ZONE_00078
 10
0.0
 20
0.0
 30
0.0
  0
INSERT
  5
3A9
  8
0
  2
SHEET_FLANGE_00080
 10
0.0
 20
0.0
 30
0.0
  0
ENDBLK
  8
0
  0
BLOCK
  8
0
  2
SHEET_FLANGE_00070
 70
     0
 10
0.0
 20
0.0
 30
0.0
  0
INSERT
  5
3AC
  8
0
  2
SHEET_FLANGE_00071
 10
287.93092581
 20
-106.31602945
 30
0.0
  0
INSERT
  5
3AD
  8
0
  2
_00072
 10
0.0
 20
0.0
 30
0.0
  0
ENDBLK
  8
0
  0
BLOCK
  8
0
  2
SHEET_FLANGE_00071
 70
     0
 10
287.93092581
 20
-106.31602945
 30
0.0
  0
POLYLINE
  5
3B0
  8
LE_ALL
 66
     1
 10
0.0
 20
0.0
 30
0.0
  0
VERTEX
  5
600
  8
LE_ALL
 10
287.93092581
 20
-106.31602945
 30
0.0
  0
VERTEX
  5
601
  8
LE_ALL
 10
287.8684779714528
 20
-106.1046816035011
 30
0.0
  0
VERTEX
  5
602
  8
LE_ALL
 10
287.6835342912198
 20
-105.9014557361993
 30
0.0
  0
VERTEX
  5
603
  8
LE_ALL
 10
287.3832020511986
 20
-105.7141617041871
 30
0.0
  0
VERTEX
  5
604
  8
LE_ALL
 10
286.9790228509187
 20
-105.5499971120624
 30
0.0
  0
VERTEX
  5
605
  8
LE_ALL
 10
286.4865290703452
 20
-105.4152707130217
 30
0.0
  0
VERTEX
  5
606
  8
LE_ALL
 10
285.9246469692286
 20
-105.3151599670129
 30
0.0
  0
VERTEX
  5
607
  8
LE_ALL
 10
285.3149693615586
 20
-105.2535120738536
 30
0.0
  0
VERTEX
  5
608
  8
LE_ALL
 10
284.6809258158334
 20
-105.2326961275
 30
0.0
  0
VERTEX
  5
609
  8
LE_ALL
 10
284.0468822698841
 20
-105.2535120730949
 30
0.0
  0
VERTEX
  5
60A
  8
LE_ALL
 10
283.4372046615502
 20
-105.3151599655247
 30
0.0
  0
VERTEX
  5
60B
  8
LE_ALL
 10
282.8753225593555
 20
-105.4152707108611
 30
0.0
  0
VERTEX
  5
60C
  8
LE_ALL
 10
282.382828777331
 20
-105.5499971093125
 30
0.0
  0
VERTEX
  5
60D
  8
LE_ALL
 10
281.9786495752832
 20
-105.7141617009535
 30
0.0
  0
VERTEX
  5
60E
  8
LE_ALL
 10
281.6783173332449
 20
-105.9014557326064
 30
0.0
  0
VERTEX
  5
60F
  8
LE_ALL
 10
281.4933736508233
 20
-106.1046815996868
 30
0.0
  0
VERTEX
  5
610
  8
LE_ALL
 10
281.43092581
 20
-106.3160294461111
 30
0.0
  0
SEQEND
  5
722
  8
LE_ALL
  0
POLYLINE
  5
3B1
  8
LE_ALL
 66
     1
 10
0.0
 20
0.0
 30
0.0
  0
VERTEX
  5
611
  8
LE_ALL
 10
281.43092581
 20
-106.3160294461111
 30
0.0
  0
VERTEX
  5
612
  8
LE_ALL
 10
281.4933736465557
 20
-106.5273772931615
 30
0.0
  0
VERTEX
  5
613
  8
LE_ALL
 10
281.6783173254317
 20
-106.730603161106
 30
0.0
  0
VERTEX
  5
614
  8
LE_ALL
 10
281.9786495647504
 20
-106.917897193792
 30
0.0
  0
VERTEX
  5
615
  8
LE_ALL
 10
282.3828287649565
 20
-107.0820617865627
 30
0.0
  0
VERTEX
  5
616
  8
LE_ALL
 10
282.8753225460171
 20
-107.2167881861681
 30
0.0
  0
VERTEX
  5
617
  8
LE_ALL
 10
283.4372046480768
 20
-107.3168989326151
 30
0.0
  0
VERTEX
  5
618
  8
LE_ALL
 10
284.0468822570111
 20
-107.3785468260516
 30
0.0
  0
VERTEX
  5
619
  8
LE_ALL
 10
284.6809258041666
 20
-107.3993627725
 30
0.0
  0
VERTEX
  5
61A
  8
LE_ALL
 10
285.3149693515463
 20
-107.3785468268103
 30
0.0
  0
VERTEX
  5
61B
  8
LE_ALL
 10
285.9246469611445
 20
-107.3168989341033
 30
0.0
  0
VERTEX
  5
61C
  8
LE_ALL
 10
286.4865290642823
 20
-107.2167881883287
 30
0.0
  0
VERTEX
  5
61D
  8
LE_ALL
 10
286.9790228467939
 20
-107.0820617893126
 30
0.0
  0
VERTEX
  5
61E
  8
LE_ALL
 10
287.3832020487679
 20
-106.9178971970255
 30
0.0
  0
VERTEX
  5
61F
  8
LE_ALL
 10
287.6835342901036
 20
-106.7306031646989
 30
0.0
  0
VERTEX
  5
620
  8
LE_ALL
 10
287.8684779711683
 20
-106.5273772969757
 30
0.0
  0
VERTEX
  5
621
  8
LE_ALL
 10
287.93092581
 20
-106.31602945
 30
0.0
  0
SEQEND
  5
723
  8
LE_ALL
  0
POLYLINE
  5
3B2
  8
LE_ALL
 66
     1
 10
0.0
 20
0.0
 30
0.0
  0
VERTEX
  5
622
  8
LE_ALL
 10
281.29871197
 20
-102.34171226
 30
0.0
  0
VERTEX
  5
623
  8
LE_ALL
 10
281.260282530894
 20
-102.2116520467699
 30
0.0
  0
VERTEX
  5
624
  8
LE_ALL
 10
281.146471035366
 20
-102.0865899745842
 30
0.0
  0
VERTEX
  5
625
  8
LE_ALL
 10
280.961651195353
 20
-101.9713321087305
 30
0.0
  0
VERTEX
  5
626
  8
LE_ALL
 10
280.7129255336423
 20
-101.8703077443461
 30
0.0
  0
VERTEX
  5
627
  8
LE_ALL
 10
280.4098524379047
 20
-101.7873991910903
 30
0.0
  0
VERTEX
  5
628
  8
LE_ALL
 10
280.0640788372176
 20
-101.7257925781618
 30
0.0
  0
VERTEX
  5
629
  8
LE_ALL
 10
279.688892617113
 20
-101.6878554131407
 30
0.0
  0
VERTEX
  5
62A
  8
LE_ALL
 10
279.2987119735898
 20
-101.6750456
 30
0.0
  0
VERTEX
  5
62B
  8
LE_ALL
 10
278.9085313299287
 20
-101.6878554126738
 30
0.0
  0
VERTEX
  5
62C
  8
LE_ALL
 10
278.5333451094155
 20
-101.7257925772459
 30
0.0
  0
VERTEX
  5
62D
  8
LE_ALL
 10
278.1875715080649
 20
-101.7873991897607
 30
0.0
  0
VERTEX
  5
62E
  8
LE_ALL
 10
277.8844984114344
 20
-101.8703077426538
 30
0.0
  0
VERTEX
  5
62F
  8
LE_ALL
 10
277.6357727486358
 20
-101.9713321067406
 30
0.0
  0
VERTEX
  5
630
  8
LE_ALL
 10
277.4509529073815
 20
-102.0865899723732
 30
0.0
  0
VERTEX
  5
631
  8
LE_ALL
 10
277.3371414105067
 20
-102.2116520444227
 30
0.0
  0
VERTEX
  5
632
  8
LE_ALL
 10
277.29871197
 20
-102.3417122576068
 30
0.0
  0
SEQEND
  5
724
  8
LE_ALL
  0
POLYLINE
  5
3B3
  8
LE_ALL
 66
     1
 10
0.0
 20
0.0
 30
0.0
  0
VERTEX
  5
633
  8
LE_ALL
 10
277.29871197
 20
-102.3417122576068
 30
0.0
  0
VERTEX
  5
634
  8
LE_ALL
 10
277.3371414078804
 20
-102.4717724711763
 30
0.0
  0
VERTEX
  5
635
  8
LE_ALL
 10
277.4509529025734
 20
-102.5968345437575
 30
0.0
  0
VERTEX
  5
636
  8
LE_ALL
 10
277.635772742154
 20
-102.7120924100258
 30
0.0
  0
VERTEX
  5
637
  8
LE_ALL
 10
277.8844984038194
 20
-102.8131167748078
 30
0.0
  0
VERTEX
  5
638
  8
LE_ALL
 10
278.1875714998567
 20
-102.8960253284111
 30
0.0
  0
VERTEX
  5
639
  8
LE_ALL
 10
278.5333451011242
 20
-102.9576319416093
 30
0.0
  0
VERTEX
  5
63A
  8
LE_ALL
 10
278.9085313220068
 20
-102.995569106801
 30
0.0
  0
VERTEX
  5
63B
  8
LE_ALL
 10
279.2987119664102
 20
-103.00837892
 30
0.0
  0
VERTEX
  5
63C
  8
LE_ALL
 10
279.6888926109515
 20
-102.9955691072678
 30
0.0
  0
VERTEX
  5
63D
  8
LE_ALL
 10
280.0640788322428
 20
-102.9576319425251
 30
0.0
  0
VERTEX
  5
63E
  8
LE_ALL
 10
280.4098524341737
 20
-102.8960253297407
 30
0.0
  0
VERTEX
  5
63F
  8
LE_ALL
 10
280.7129255311039
 20
-102.8131167765
 30
0.0
  0
VERTEX
  5
640
  8
LE_ALL
 10
280.9616511938572
 20
-102.7120924120157
 30
0.0
  0
VERTEX
  5
641
  8
LE_ALL
 10
281.1464710346791
 20
-102.5968345459685
 30
0.0
  0
VERTEX
  5
642
  8
LE_ALL
 10
281.2602825307189
 20
-102.4717724735235
 30
0.0
  0
VERTEX
  5
643
  8
LE_ALL
 10
281.29871197
 20
-102.34171226
 30
0.0
  0
SEQEND
  5
725
  8
LE_ALL
  0
POLYLINE
  5
3B4
  8
LE_ALL
 66
     1
 10
0.0
 20
0.0
 30
0.0
  0
VERTEX
  5
644
  8
LE_ALL
 10
274.75797424
 20
-108.11010073
 30
0.0
  0
VERTEX
  5
645
  8
LE_ALL
 10
274.719544800894
 20
-107.9800405167699
 30
0.0
  0
VERTEX
  5
646
  8
LE_ALL
 10
274.605733305366
 20
-107.8549784445842
 30
0.0
  0
VERTEX
  5
647
  8
LE_ALL
 10
274.420913465353
 20
-107.7397205787305
 30
0.0
  0
VERTEX
  5
648
  8
LE_ALL
 10
274.1721878036423
 20
-107.6386962143461
 30
0.0
  0
VERTEX
  5
649
  8
LE_ALL
 10
273.8691147079047
 20
-107.5557876610903
 30
0.0
  0
VERTEX
  5
64A
  8
LE_ALL
 10
273.5233411072176
 20
-107.4941810481618
 30
0.0
  0
VERTEX
  5
64B
  8
LE_ALL
 10
273.148154887113
 20
-107.4562438831407
 30
0.0
  0
VERTEX
  5
64C
  8
LE_ALL
 10
272.7579742435898
 20
-107.44343407
 30
0.0
  0
VERTEX
  5
64D
  8
LE_ALL
 10
272.3677935999287
 20
-107.4562438826738
 30
0.0
  0
VERTEX
  5
64E
  8
LE_ALL
 10
271.9926073794155
 20
-107.4941810472459
 30
0.0
  0
VERTEX
  5
64F
  8
LE_ALL
 10
271.6468337780649
 20
-107.5557876597607
 30
0.0
  0
VERTEX
  5
650
  8
LE_ALL
 10
271.3437606814344
 20
-107.6386962126538
 30
0.0
  0
VERTEX
  5
651
  8
LE_ALL
 10
271.0950350186358
 20
-107.7397205767406
 30
0.0
  0
VERTEX
  5
652
  8
LE_ALL
 10
270.9102151773815
 20
-107.8549784423732
 30
0.0
  0
VERTEX
  5
653
  8
LE_ALL
 10
270.7964036805067
 20
-107.9800405144227
 30
0.0
  0
VERTEX
  5
654
  8
LE_ALL
 10
270.75797424
 20
-108.1101007276068
 30
0.0
  0
SEQEND
  5
726
  8
LE_ALL
  0
POLYLINE
  5
3B5
  8
LE_ALL
 66
     1
 10
0.0
 20
0.0
 30
0.0
  0
VERTEX
  5
655
  8
LE_ALL
 10
270.75797424
 20
-108.1101007276068
 30
0.0
  0
VERTEX
  5
656
  8
LE_ALL
 10
270.7964036778804
 20
-108.2401609411763
 30
0.0
  0
VERTEX
  5
657
  8
LE_ALL
 10
270.9102151725734
 20
-108.3652230137575
 30
0.0
  0
VERTEX
  5
658
  8
LE_ALL
 10
271.095035012154
 20
-108.4804808800258
 30
0.0
  0
VERTEX
  5
659
  8
LE_ALL
 10
271.3437606738194
 20
-108.5815052448078
 30
0.0
  0
VERTEX
  5
65A
  8
LE_ALL
 10
271.6468337698567
 20
-108.6644137984111
 30
0.0
  0
VERTEX
  5
65B
  8
LE_ALL
 10
271.9926073711242
 20
-108.7260204116093
 30
0.0
  0
VERTEX
  5
65C
  8
LE_ALL
 10
272.3677935920068
 20
-108.763957576801
 30
0.0
  0
VERTEX
  5
65D
  8
LE_ALL
 10
272.7579742364102
 20
-108.77676739
 30
0.0
  0
VERTEX
  5
65E
  8
LE_ALL
 10
273.1481548809516
 20
-108.7639575772678
 30
0.0
  0
VERTEX
  5
65F
  8
LE_ALL
 10
273.5233411022428
 20
-108.7260204125251
 30
0.0
  0
VERTEX
  5
660
  8
LE_ALL
 10
273.8691147041737
 20
-108.6644137997407
 30
0.0
  0
VERTEX
  5
661
  8
LE_ALL
 10
274.1721878011039
 20
-108.5815052465
 30
0.0
  0
VERTEX
  5
662
  8
LE_ALL
 10
274.4209134638572
 20
-108.4804808820157
 30
0.0
  0
VERTEX
  5
663
  8
LE_ALL
 10
274.6057333046791
 20
-108.3652230159686
 30
0.0
  0
VERTEX
  5
664
  8
LE_ALL
 10
274.7195448007189
 20
-108.2401609435235
 30
0.0
  0
VERTEX
  5
665
  8
LE_ALL
 10
274.75797424
 20
-108.11010073
 30
0.0
  0
SEQEND
  5
727
  8
LE_ALL
  0
POLYLINE
  5
3B6
  8
LE_ALL
 66
     1
 10
0.0
 20
0.0
 30
0.0
  0
VERTEX
  5
666
  8
LE_ALL
 10
298.60387738
 20
-104.52195817
 30
0.0
  0
VERTEX
  5
667
  8
LE_ALL
 10
298.565447940894
 20
-104.3918979567699
 30
0.0
  0
VERTEX
  5
668
  8
LE_ALL
 10
298.451636445366
 20
-104.2668358845842
 30
0.0
  0
VERTEX
  5
669
  8
LE_ALL
 10
298.266816605353
 20
-104.1515780187305
 30
0.0
  0
VERTEX
  5
66A
  8
LE_ALL
 10
298.0180909436423
 20
-104.0505536543461
 30
0.0
  0
VERTEX
  5
66B
  8
LE_ALL
 10
297.7150178479047
 20
-103.9676451010903
 30
0.0
  0
VERTEX
  5
66C
  8
LE_ALL
 10
297.3692442472176
 20
-103.9060384881618
 30
0.0
  0
VERTEX
  5
66D
  8
LE_ALL
 10
296.9940580271129
 20
-103.8681013231407
 30
0.0
  0
VERTEX
  5
66E
  8
LE_ALL
 10
296.6038773835897
 20
-103.85529151
 30
0.0
  0
VERTEX
  5
66F
  8
LE_ALL
 10
296.2136967399287
 20
-103.8681013226738
 30
0.0
  0
VERTEX
  5
670
  8
LE_ALL
 10
295.8385105194155
 20
-103.906038487246
 30
0.0
  0
VERTEX
  5
671
  8
LE_ALL
 10
295.4927369180648
 20
-103.9676450997607
 30
0.0
  0
VERTEX
  5
672
  8
LE_ALL
 10
295.1896638214344
 20
-104.0505536526538
 30
0.0
  0
VERTEX
  5
673
  8
LE_ALL
 10
294.9409381586357
 20
-104.1515780167406
 30
0.0
  0
VERTEX
  5
674
  8
LE_ALL
 10
294.7561183173815
 20
-104.2668358823732
 30
0.0
  0
VERTEX
  5
675
  8
LE_ALL
 10
294.6423068205066
 20
-104.3918979544227
 30
0.0
  0
VERTEX
  5
676
  8
LE_ALL
 10
294.60387738
 20
-104.5219581676068
 30
0.0
  0
SEQEND
  5
728
  8
LE_ALL
  0
POLYLINE
  5
3B7
  8
LE_ALL
 66
     1
 10
0.0
 20
0.0
 30
0.0
  0
VERTEX
  5
677
  8
LE_ALL
 10
294.60387738
 20
-104.5219581676068
 30
0.0
  0
VERTEX
  5
678
  8
LE_ALL
 10
294.6423068178804
 20
-104.6520183811763
 30
0.0
  0
VERTEX
  5
679
  8
LE_ALL
 10
294.7561183125733
 20
-104.7770804537575
 30
0.0
  0
VERTEX
  5
67A
  8
LE_ALL
 10
294.940938152154
 20
-104.8923383200258
 30
0.0
  0
VERTEX
  5
67B
  8
LE_ALL
 10
295.1896638138193
 20
-104.9933626848078
 30
0.0
  0
VERTEX
  5
67C
  8
LE_ALL
 10
295.4927369098567
 20
-105.0762712384112
 30
0.0
  0
VERTEX
  5
67D
  8
LE_ALL
 10
295.8385105111241
 20
-105.1378778516093
 30
0.0
  0
VERTEX
  5
67E
  8
LE_ALL
 10
296.2136967320068
 20
-105.175815016801
 30
0.0
  0
VERTEX
  5
67F
  8
LE_ALL
 10
296.6038773764102
 20
-105.18862483
 30
0.0
  0
VERTEX
  5
680
  8
LE_ALL
 10
296.9940580209515
 20
-105.1758150172679
 30
0.0
  0
VERTEX
  5
681
  8
LE_ALL
 10
297.3692442422428
 20
-105.1378778525251
 30
0.0
  0
VERTEX
  5
682
  8
LE_ALL
 10
297.7150178441737
 20
-105.0762712397407
 30
0.0
  0
VERTEX
  5
683
  8
LE_ALL
 10
298.0180909411039
 20
-104.9933626865
 30
0.0
  0
VERTEX
  5
684
  8
LE_ALL
 10
298.2668166038572
 20
-104.8923383220157
 30
0.0
  0
VERTEX
  5
685
  8
LE_ALL
 10
298.4516364446791
 20
-104.7770804559686
 30
0.0
  0
VERTEX
  5
686
  8
LE_ALL
 10
298.5654479407189
 20
-104.6520183835235
 30
0.0
  0
VERTEX
  5
687
  8
LE_ALL
 10
298.60387738
 20
-104.52195817
 30
0.0
  0
SEQEND
  5
729
  8
LE_ALL
  0
POLYLINE
  5
3B8
  8
LE_ALL
 66
     1
 10
0.0
 20
0.0
 30
0.0
  0
VERTEX
  5
688
  8
LE_ALL
 10
292.06313966
 20
-110.29034664
 30
0.0
  0
VERTEX
  5
689
  8
LE_ALL
 10
292.024710220894
 20
-110.1602864267699
 30
0.0
  0
VERTEX
  5
68A
  8
LE_ALL
 10
291.910898725366
 20
-110.0352243545842
 30
0.0
  0
VERTEX
  5
68B
  8
LE_ALL
 10
291.726078885353
 20
-109.9199664887305
 30
0.0
  0
VERTEX
  5
68C
  8
LE_ALL
 10
291.4773532236423
 20
-109.8189421243461
 30
0.0
  0
VERTEX
  5
68D
  8
LE_ALL
 10
291.1742801279047
 20
-109.7360335710903
 30
0.0
  0
VERTEX
  5
68E
  8
LE_ALL
 10
290.8285065272176
 20
-109.6744269581618
 30
0.0
  0
VERTEX
  5
68F
  8
LE_ALL
 10
290.453320307113
 20
-109.6364897931407
 30
0.0
  0
VERTEX
  5
690
  8
LE_ALL
 10
290.0631396635898
 20
-109.62367998
 30
0.0
  0
VERTEX
  5
691
  8
LE_ALL
 10
289.6729590199287
 20
-109.6364897926738
 30
0.0
  0
VERTEX
  5
692
  8
LE_ALL
 10
289.2977727994155
 20
-109.6744269572459
 30
0.0
  0
VERTEX
  5
693
  8
LE_ALL
 10
288.9519991980649
 20
-109.7360335697607
 30
0.0
  0
VERTEX
  5
694
  8
LE_ALL
 10
288.6489261014344
 20
-109.8189421226538
 30
0.0
  0
VERTEX
  5
695
  8
LE_ALL
 10
288.4002004386357
 20
-109.9199664867406
 30
0.0
  0
VERTEX
  5
696
  8
LE_ALL
 10
288.2153805973815
 20
-110.0352243523732
 30
0.0
  0
VERTEX
  5
697
  8
LE_ALL
 10
288.1015691005067
 20
-110.1602864244227
 30
0.0
  0
VERTEX
  5
698
  8
LE_ALL
 10
288.06313966
 20
-110.2903466376068
 30
0.0
  0
SEQEND
  5
72A
  8
LE_ALL
  0
POLYLINE
  5
3B9
  8
LE_ALL
 66
     1
 10
0.0
 20
0.0
 30
0.0
  0
VERTEX
  5
699
  8
LE_ALL
 10
288.06313966
 20
-110.2903466376068
 30
0.0
  0
VERTEX
  5
69A
  8
LE_ALL
 10
288.1015690978804
 20
-110.4204068511763
 30
0.0
  0
VERTEX
  5
69B
  8
LE_ALL
 10
288.2153805925734
 20
-110.5454689237575
 30
0.0
  0
VERTEX
  5
69C
  8
LE_ALL
 10
288.400200432154
 20
-110.6607267900258
 30
0.0
  0
VERTEX
  5
69D
  8
LE_ALL
 10
288.6489260938193
 20
-110.7617511548078
 30
0.0
  0
VERTEX
  5
69E
  8
LE_ALL
 10
288.9519991898567
 20
-110.8446597084111
 30
0.0
  0
VERTEX
  5
69F
  8
LE_ALL
 10
289.2977727911241
 20
-110.9062663216093
 30
0.0
  0
VERTEX
  5
6A0
  8
LE_ALL
 10
289.6729590120068
 20
-110.944203486801
 30
0.0
  0
VERTEX
  5
6A1
  8
LE_ALL
 10
290.0631396564102
 20
-110.9570133
 30
0.0
  0
VERTEX
  5
6A2
  8
LE_ALL
 10
290.4533203009515
 20
-110.9442034872678
 30
0.0
  0
VERTEX
  5
6A3
  8
LE_ALL
 10
290.8285065222428
 20
-110.9062663225251
 30
0.0
  0
VERTEX
  5
6A4
  8
LE_ALL
 10
291.1742801241737
 20
-110.8446597097407
 30
0.0
  0
VERTEX
  5
6A5
  8
LE_ALL
 10
291.4773532211039
 20
-110.7617511565
 30
0.0
  0
VERTEX
  5
6A6
  8
LE_ALL
 10
291.7260788838572
 20
-110.6607267920157
 30
0.0
  0
VERTEX
  5
6A7
  8
LE_ALL
 10
291.9108987246791
 20
-110.5454689259685
 30
0.0
  0
VERTEX
  5
6A8
  8
LE_ALL
 10
292.0247102207189
 20
-110.4204068535235
 30
0.0
  0
VERTEX
  5
6A9
  8
LE_ALL
 10
292.06313966
 20
-110.29034664
 30
0.0
  0
SEQEND
  5
72B
  8
LE_ALL
  0
LINE
  5
3BA
  8
LE_ALL
 10
265.34640975
 20
-112.99657039
 30
0.0
 11
265.34640975
 21
-109.22533423
 31
0.0
  0
LINE
  5
3BB
  8
LE_ALL
 10
295.27966885
 20
-112.99657039
 30
0.0
 11
265.34640975
 21
-109.22533423
 31
0.0
  0
LINE
  5
3BC
  8
LE_ALL
 10
265.34640975
 20
-112.99657039
 30
0.0
 11
295.27966885
 21
-116.76780656
 31
0.0
  0
LINE
  5
3BD
  8
LE_ALL
 10
299.02132623
 20
-109.69673875
 30
0.0
 11
295.27966885
 21
-112.99657039
 31
0.0
  0
LINE
  5
3BE
  8
LE_ALL
 10
275.95301147
 20
-99.87119076
 30
0.0
 11
299.02132623
 21
-102.77752524
 31
0.0
  0
LINE
  5
3BF
  8
LE_ALL
 10
265.34640975
 20
-109.22533423
 30
0.0
 11
275.95301147
 21
-99.87119076
 31
0.0
  0
ENDBLK
  8
0
  0
BLOCK
  8
0
  2
_00072
 70
     0
 10
0.0
 20
0.0
 30
0.0
  0
INSERT
  5
3C2
  8
0
  2
_00073
 10
290.06313966
 20
-109.3475376
 30
0.0
  0
ENDBLK
  8
0
  0
BLOCK
  8
0
  2
_00073
 70
     0
 10
290.06313966
 20
-109.3475376
 30
0.0
  0
LINE
  5
3C5
  8
LE_ALL
  6
STRICHPUNKT2
 62
     1
 10
290.06313966
 20
-109.3475376
 30
0.0
 11
290.06313966
 21
-110.9570133
 31
0.0
  0
LINE
  5
3C6
  8
LE_ALL
  6
STRICHPUNKT2
 62
     1
 10
290.06313966
 20
-110.29034664
 30
0.0
 11
291.12379983
 21
-109.35493229
 31
0.0
  0
LINE
  5
3C7
  8
LE_ALL
  6
STRICHPUNKT2
 62
     1
 10
290.06313966
 20
-110.29034664
 30
0.0
 11
289.00247948
 21
-111.22576098
 31
0.0
  0
LINE
  5
3C8
  8
LE_ALL
  6
STRICHPUNKT2
 62
     1
 10
290.06313966
 20
-110.29034664
 30
0.0
 11
287.25689662
 21
-109.93679325
 31
0.0
  0
LINE
  5
3C9
  8
LE_ALL
  6
STRICHPUNKT2
 62
     1
 10
290.06313966
 20
-110.29034664
 30
0.0
 11
292.8693827
 21
-110.64390003
 31
0.0
  0
LINE
  5
3CA
  8
LE_ALL
  6
STRICHPUNKT2
 62
     1
 10
296.60387738
 20
-103.57914912
 30
0.0
 11
296.60387738
 21
-105.18862483
 31
0.0
  0
LINE
  5
3CB
  8
LE_ALL
  6
STRICHPUNKT2
 62
     1
 10
296.60387738
 20
-104.52195817
 30
0.0
 11
297.66453755
 21
-103.58654382
 31
0.0
  0
LINE
  5
3CC
  8
LE_ALL
  6
STRICHPUNKT2
 62
     1
 10
296.60387738
 20
-104.52195817
 30
0.0
 11
295.54321721
 21
-105.45737251
 31
0.0
  0
LINE
  5
3CD
  8
LE_ALL
  6
STRICHPUNKT2
 62
     1
 10
296.60387738
 20
-104.52195817
 30
0.0
 11
293.79763434
 21
-104.16840478
 31
0.0
  0
LINE
  5
3CE
  8
LE_ALL
  6
STRICHPUNKT2
 62
     1
 10
296.60387738
 20
-104.52195817
 30
0.0
 11
299.02132623
 21
-104.82652809
 31
0.0
  0
LINE
  5
3CF
  8
LE_ALL
  6
STRICHPUNKT2
 62
     1
 10
272.75797424
 20
-107.16729169
 30
0.0
 11
272.75797424
 21
-108.77676739
 31
0.0
  0
LINE
  5
3D0
  8
LE_ALL
  6
STRICHPUNKT2
 62
     1
 10
272.75797424
 20
-108.11010073
 30
0.0
 11
273.81863441
 21
-107.17468638
 31
0.0
  0
LINE
  5
3D1
  8
LE_ALL
  6
STRICHPUNKT2
 62
     1
 10
272.75797424
 20
-108.11010073
 30
0.0
 11
271.69731407
 21
-109.04551507
 31
0.0
  0
LINE
  5
3D2
  8
LE_ALL
  6
STRICHPUNKT2
 62
     1
 10
272.75797424
 20
-108.11010073
 30
0.0
 11
269.9517312
 21
-107.75654734
 31
0.0
  0
LINE
  5
3D3
  8
LE_ALL
  6
STRICHPUNKT2
 62
     1
 10
272.75797424
 20
-108.11010073
 30
0.0
 11
275.56421728
 21
-108.46365412
 31
0.0
  0
LINE
  5
3D4
  8
LE_ALL
  6
STRICHPUNKT2
 62
     1
 10
279.29871197
 20
-101.39890322
 30
0.0
 11
279.29871197
 21
-103.00837892
 31
0.0
  0
LINE
  5
3D5
  8
LE_ALL
  6
STRICHPUNKT2
 62
     1
 10
279.29871197
 20
-102.34171226
 30
0.0
 11
280.35937214
 21
-101.40629791
 31
0.0
  0
LINE
  5
3D6
  8
LE_ALL
  6
STRICHPUNKT2
 62
     1
 10
279.29871197
 20
-102.34171226
 30
0.0
 11
278.2380518
 21
-103.2771266
 31
0.0
  0
LINE
  5
3D7
  8
LE_ALL
  6
STRICHPUNKT2
 62
     1
 10
279.29871197
 20
-102.34171226
 30
0.0
 11
276.49246893
 21
-101.98815887
 31
0.0
  0
LINE
  5
3D8
  8
LE_ALL
  6
STRICHPUNKT2
 62
     1
 10
279.29871197
 20
-102.34171226
 30
0.0
 11
282.10495501
 21
-102.69526565
 31
0.0
  0
LINE
  5
3D9
  8
LE_ALL
  6
STRICHPUNKT2
 62
     1
 10
284.68092581
 20
-104.90181588
 30
0.0
 11
284.68092581
 21
-107.39936278
 31
0.0
  0
LINE
  5
3DA
  8
LE_ALL
  6
STRICHPUNKT2
 62
     1
 10
284.68092581
 20
-106.31602945
 30
0.0
 11
289.12414396
 21
-106.87582232
 31
0.0
  0
LINE
  5
3DB
  8
LE_ALL
  6
STRICHPUNKT2
 62
     1
 10
284.68092581
 20
-106.31602945
 30
0.0
 11
280.23770767
 21
-105.75623658
 31
0.0
  0
LINE
  5
3DC
  8
LE_ALL
  6
STRICHPUNKT2
 62
     1
 10
284.68092581
 20
-106.31602945
 30
0.0
 11
286.36030442
 21
-104.83495673
 31
0.0
  0
LINE
  5
3DD
  8
LE_ALL
  6
STRICHPUNKT2
 62
     1
 10
284.68092581
 20
-106.31602945
 30
0.0
 11
283.00154721
 21
-107.79710216
 31
0.0
  0
ENDBLK
  8
0
  0
BLOCK
  8
0
  2
BEND_ZONE_00074
 70
     0
 10
0.0
 20
0.0
 30
0.0
  0
INSERT
  5
3E0
  8
0
  2
BEND_ZONE_00075
 10
313.36958534
 20
-100.8139998
 30
0.0
  0
ENDBLK
  8
0
  0
BLOCK
  8
0
  2
BEND_ZONE_00075
 70
     0
 10
313.36958534
 20
-100.8139998
 30
0.0
  0
LINE
  5
3E3
  8
LE_ALL
 10
313.36958534
 20
-100.8139998
 30
0.0
 11
302.76298362
 21
-110.16814327
 31
0.0
  0
POLYLINE
  5
3E4
  8
LE_ALL
 66
     1
 10
0.0
 20
0.0
 30
0.0
  0
VERTEX
  5
6AA
  8
LE_ALL
 10
311.17777319
 20
-105.87119076
 30
0.0
  0
VERTEX
  5
6AB
  8
LE_ALL
 10
312.1084193935631
 20
-104.8454809487329
 30
0.0
  0
VERTEX
  5
6AC
  8
LE_ALL
 10
312.79995190932
 20
-103.6286119567754
 30
0.0
  0
VERTEX
  5
6AD
  8
LE_ALL
 10
313.2257955307352
 20
-102.2673473766572
 30
0.0
  0
VERTEX
  5
6AE
  8
LE_ALL
 10
313.3695853263947
 20
-100.813999842335
 30
0.0
  0
SEQEND
  5
72C
  8
LE_ALL
  0
POLYLINE
  5
3E5
  8
LE_ALL
 66
     1
 10
0.0
 20
0.0
 30
0.0
  0
VERTEX
  5
3E6
  8
LE_ALL
 10
311.17777319
 20
-105.87119076
 30
0.0
  0
VERTEX
  5
3E7
  8
LE_ALL
 10
300.57117147
 20
-115.22533423
 30
0.0
  0
SEQEND
  5
3E8
  8
LE_ALL
  0
POLYLINE
  5
3E9
  8
LE_ALL
 66
     1
 10
0.0
 20
0.0
 30
0.0
  0
VERTEX
  5
6AF
  8
LE_ALL
 10
300.5711714849243
 20
-115.2253342168381
 30
0.0
  0
VERTEX
  5
6B0
  8
LE_ALL
 10
301.5018176823575
 20
-114.1996244065751
 30
0.0
  0
VERTEX
  5
6B1
  8
LE_ALL
 10
302.1933501933584
 20
-112.9827554174574
 30
0.0
  0
VERTEX
  5
6B2
  8
LE_ALL
 10
302.6191938117645
 20
-111.6214908415708
 30
0.0
  0
VERTEX
  5
6B3
  8
LE_ALL
 10
302.7629836063946
 20
-110.168143312335
 30
0.0
  0
SEQEND
  5
72D
  8
LE_ALL
  0
POLYLINE
  5
3EA
  8
LE_ALL
 66
     1
 10
0.0
 20
0.0
 30
0.0
  0
VERTEX
  5
6B4
  8
LE_ALL
 10
295.2796688358392
 20
-116.7678065439629
 30
0.0
  0
VERTEX
  5
6B5
  8
LE_ALL
 10
296.7395911286242
 20
-116.8068129809052
 30
0.0
  0
VERTEX
  5
6B6
  8
LE_ALL
 10
298.1434094264368
 20
-116.5544674383955
 30
0.0
  0
VERTEX
  5
6B7
  8
LE_ALL
 10
299.4371757788447
 20
-116.0204674142085
 30
0.0
  0
VERTEX
  5
6B8
  8
LE_ALL
 10
300.57117147
 20
-115.22533423
 30
0.0
  0
SEQEND
  5
72E
  8
LE_ALL
  0
POLYLINE
  5
3EB
  8
LE_ALL
 66
     1
 10
0.0
 20
0.0
 30
0.0
  0
VERTEX
  5
6B9
  8
LE_ALL
 10
295.2796688429196
 20
-112.9965703869815
 30
0.0
  0
VERTEX
  5
6BA
  8
LE_ALL
 10
296.0096299918997
 20
-113.0160736052599
 30
0.0
  0
VERTEX
  5
6BB
  8
LE_ALL
 10
296.7115391430933
 20
-112.8899008327767
 30
0.0
  0
VERTEX
  5
6BC
  8
LE_ALL
 10
297.3584223210032
 20
-112.6229008185014
 30
0.0
  0
VERTEX
  5
6BD
  8
LE_ALL
 10
297.9254201674621
 20
-112.225334223419
 30
0.0
  0
SEQEND
  5
72F
  8
LE_ALL
  0
POLYLINE
  5
3EC
  8
LE_ALL
 66
     1
 10
0.0
 20
0.0
 30
0.0
  0
VERTEX
  5
6BE
  8
LE_ALL
 10
297.9254201674621
 20
-112.225334223419
 30
0.0
  0
VERTEX
  5
6BF
  8
LE_ALL
 10
298.3907432661788
 20
-111.7124793182875
 30
0.0
  0
VERTEX
  5
6C0
  8
LE_ALL
 10
298.7365095216792
 20
-111.1040448237287
 30
0.0
  0
VERTEX
  5
6C1
  8
LE_ALL
 10
298.9494313308822
 20
-110.4234125357854
 30
0.0
  0
VERTEX
  5
6C2
  8
LE_ALL
 10
299.0213262281973
 20
-109.6967387711675
 30
0.0
  0
SEQEND
  5
730
  8
LE_ALL
  0
LINE
  5
3ED
  8
LE_ALL
 10
299.02132623
 20
-109.69673875
 30
0.0
 11
295.27966885
 21
-112.99657039
 31
0.0
  0
ENDBLK
  8
0
  0
BLOCK
  8
0
  2
SHEET_FLANGE_00076
 70
     0
 10
0.0
 20
0.0
 30
0.0
  0
INSERT
  5
3F0
  8
0
  2
SHEET_FLANGE_00077
 10
299.02132623
 20
-109.69673875
 30
0.0
  0
ENDBLK
  8
0
  0
BLOCK
  8
0
  2
SHEET_FLANGE_00077
 70
     0
 10
299.02132623
 20
-109.69673875
 30
0.0
  0
LINE
  5
3F3
  8
LE_ALL
 10
299.02132623
 20
-109.69673875
 30
0.0
 11
299.02132623
 21
-92.726176
 31
0.0
  0
POLYLINE
  5
3F4
  8
LE_ALL
 66
     1
 10
0.0
 20
0.0
 30
0.0
  0
VERTEX
  5
3F5
  8
LE_ALL
 10
302.76298362
 20
-93.19758052
 30
0.0
  0
VERTEX
  5
3F6
  8
LE_ALL
 10
302.76298362
 20
-110.16814327
 30
0.0
  0
VERTEX
  5
3F7
  8
LE_ALL
 10
313.36958534
 20
-100.8139998
 30
0.0
  0
VERTEX
  5
3F8
  8
LE_ALL
 10
313.36958534
 20
-90.76265056
 30
0.0
  0
SEQEND
  5
3F9
  8
LE_ALL
  0
LINE
  5
3FA
  8
LE_ALL
 10
306.50464101
 20
-89.89774887
 30
0.0
 11
302.76298362
 21
-93.19758052
 31
0.0
  0
ENDBLK
  8
0
  0
BLOCK
  8
0
  2
BEND_ZONE_00078
 70
     0
 10
0.0
 20
0.0
 30
0.0
  0
INSERT
  5
3FD
  8
0
  2
BEND_ZONE_00079
 10
306.50464101
 20
-86.12651271
 30
0.0
  0
ENDBLK
  8
0
  0
BLOCK
  8
0
  2
BEND_ZONE_00079
 70
     0
 10
306.50464101
 20
-86.12651271
 30
0.0
  0
LINE
  5
400
  8
LE_ALL
 10
306.50464101
 20
-86.12651271
 30
0.0
 11
317.11124273
 21
-76.77236924
 31
0.0
  0
POLYLINE
  5
401
  8
LE_ALL
 66
     1
 10
0.0
 20
0.0
 30
0.0
  0
VERTEX
  5
6C3
  8
LE_ALL
 10
306.5046409972972
 20
-86.12651272265258
 30
0.0
  0
VERTEX
  5
6C4
  8
LE_ALL
 10
305.0447187182022
 20
-86.08750629007613
 30
0.0
  0
VERTEX
  5
6C5
  8
LE_ALL
 10
303.6409004335632
 20
-86.33985183160446
 30
0.0
  0
VERTEX
  5
6C6
  8
LE_ALL
 10
302.3471340923235
 20
-86.87385184967727
 30
0.0
  0
VERTEX
  5
6C7
  8
LE_ALL
 10
301.2131384089954
 20
-87.66898502324763
 30
0.0
  0
SEQEND
  5
731
  8
LE_ALL
  0
POLYLINE
  5
402
  8
LE_ALL
 66
     1
 10
0.0
 20
0.0
 30
0.0
  0
VERTEX
  5
403
  8
LE_ALL
 10
301.21313839
 20
-87.66898504
 30
0.0
  0
VERTEX
  5
404
  8
LE_ALL
 10
311.8197401
 20
-78.31484157
 30
0.0
  0
SEQEND
  5
405
  8
LE_ALL
  0
POLYLINE
  5
406
  8
LE_ALL
 66
     1
 10
0.0
 20
0.0
 30
0.0
  0
VERTEX
  5
6C8
  8
LE_ALL
 10
317.1112427172972
 20
-76.77236925265258
 30
0.0
  0
VERTEX
  5
6C9
  8
LE_ALL
 10
315.6513204382022
 20
-76.73336282007614
 30
0.0
  0
VERTEX
  5
6CA
  8
LE_ALL
 10
314.2475021535632
 20
-76.98570836160447
 30
0.0
  0
VERTEX
  5
6CB
  8
LE_ALL
 10
312.9537358123235
 20
-77.51970837967727
 30
0.0
  0
VERTEX
  5
6CC
  8
LE_ALL
 10
311.8197401289954
 20
-78.31484155324763
 30
0.0
  0
SEQEND
  5
732
  8
LE_ALL
  0
POLYLINE
  5
407
  8
LE_ALL
 66
     1
 10
0.0
 20
0.0
 30
0.0
  0
VERTEX
  5
6CD
  8
LE_ALL
 10
301.2131384089954
 20
-87.66898502324763
 30
0.0
  0
VERTEX
  5
6CE
  8
LE_ALL
 10
300.2824921909678
 20
-88.69469484500343
 30
0.0
  0
VERTEX
  5
6CF
  8
LE_ALL
 10
299.5909596666416
 20
-89.91156385254256
 30
0.0
  0
VERTEX
  5
6D0
  8
LE_ALL
 10
299.1651160435563
 20
-91.27282845154954
 30
0.0
  0
VERTEX
  5
6D1
  8
LE_ALL
 10
299.0213262536054
 20
-92.72617600601383
 30
0.0
  0
SEQEND
  5
733
  8
LE_ALL
  0
POLYLINE
  5
408
  8
LE_ALL
 66
     1
 10
0.0
 20
0.0
 30
0.0
  0
VERTEX
  5
6D2
  8
LE_ALL
 10
303.8588897094977
 20
-90.6689850316238
 30
0.0
  0
VERTEX
  5
6D3
  8
LE_ALL
 10
303.3935666004839
 20
-91.18183994250171
 30
0.0
  0
VERTEX
  5
6D4
  8
LE_ALL
 10
303.0478003383208
 20
-91.79027444627128
 30
0.0
  0
VERTEX
  5
6D5
  8
LE_ALL
 10
302.8348785267781
 20
-92.47090674577478
 30
0.0
  0
VERTEX
  5
6D6
  8
LE_ALL
 10
302.7629836318027
 20
-93.19758052300692
 30
0.0
  0
SEQEND
  5
734
  8
LE_ALL
  0
POLYLINE
  5
409
  8
LE_ALL
 66
     1
 10
0.0
 20
0.0
 30
0.0
  0
VERTEX
  5
6D7
  8
LE_ALL
 10
306.5046410036486
 20
-89.89774888132628
 30
0.0
  0
VERTEX
  5
6D8
  8
LE_ALL
 10
305.7746798641011
 20
-89.87824566503807
 30
0.0
  0
VERTEX
  5
6D9
  8
LE_ALL
 10
305.0727707217816
 20
-90.00441843580222
 30
0.0
  0
VERTEX
  5
6DA
  8
LE_ALL
 10
304.4258875511617
 20
-90.27141844483863
 30
0.0
  0
VERTEX
  5
6DB
  8
LE_ALL
 10
303.8588897094977
 20
-90.6689850316238
 30
0.0
  0
SEQEND
  5
735
  8
LE_ALL
  0
LINE
  5
40A
  8
LE_ALL
 10
302.76298362
 20
-93.19758052
 30
0.0
 11
306.50464101
 21
-89.89774887
 31
0.0
  0
ENDBLK
  8
0
  0
BLOCK
  8
0
  2
SHEET_FLANGE_00080
 70
     0
 10
0.0
 20
0.0
 30
0.0
  0
INSERT
  5
40D
  8
0
  2
SHEET_FLANGE_00081
 10
357.66346427
 20
-88.38482581
 30
0.0
  0
INSERT
  5
40E
  8
0
  2
_00082
 10
0.0
 20
0.0
 30
0.0
  0
ENDBLK
  8
0
  0
BLOCK
  8
0
  2
SHEET_FLANGE_00081
 70
     0
 10
357.66346427
 20
-88.38482581
 30
0.0
  0
POLYLINE
  5
411
  8
LE_ALL
 66
     1
 10
0.0
 20
0.0
 30
0.0
  0
VERTEX
  5
6DC
  8
LE_ALL
 10
355.56251279
 20
-87.37146026611106
 30
0.0
  0
VERTEX
  5
6DD
  8
LE_ALL
 10
355.6283150439336
 20
-87.58835366559582
 30
0.0
  0
VERTEX
  5
6DE
  8
LE_ALL
 10
355.8230572339281
 20
-87.79646424981897
 30
0.0
  0
VERTEX
  5
6DF
  8
LE_ALL
 10
356.1388535289113
 20
-87.98736485201408
 30
0.0
  0
VERTEX
  5
6E0
  8
LE_ALL
 10
356.5629161696638
 20
-88.15332520119802
 30
0.0
  0
VERTEX
  5
6E1
  8
LE_ALL
 10
357.0780732924558
 20
-88.28762494941535
 30
0.0
  0
VERTEX
  5
6E2
  8
LE_ALL
 10
357.6634642812792
 20
-88.38482580346661
 30
0.0
  0
SEQEND
  5
736
  8
LE_ALL
  0
POLYLINE
  5
412
  8
LE_ALL
 66
     1
 10
0.0
 20
0.0
 30
0.0
  0
VERTEX
  5
6E3
  8
LE_ALL
 10
359.9615613182086
 20
-86.3580947389886
 30
0.0
  0
VERTEX
  5
6E4
  8
LE_ALL
 10
359.3564311635165
 20
-86.30340634930445
 30
0.0
  0
VERTEX
  5
6E5
  8
LE_ALL
 10
358.7310582396195
 20
-86.28846724934408
 30
0.0
  0
VERTEX
  5
6E6
  8
LE_ALL
 10
358.1087167736478
 20
-86.31383342097413
 30
0.0
  0
VERTEX
  5
6E7
  8
LE_ALL
 10
357.5125681723043
 20
-86.37856082261982
 30
0.0
  0
VERTEX
  5
6E8
  8
LE_ALL
 10
356.96479903405
 20
-86.48024052324192
 30
0.0
  0
VERTEX
  5
6E9
  8
LE_ALL
 10
356.4857954402956
 20
-86.61508835445649
 30
0.0
  0
VERTEX
  5
6EA
  8
LE_ALL
 10
356.0933842556384
 20
-86.77808574425354
 30
0.0
  0
VERTEX
  5
6EB
  8
LE_ALL
 10
355.8021696733383
 20
-86.96316649096879
 30
0.0
  0
VERTEX
  5
6EC
  8
LE_ALL
 10
355.6229896975252
 20
-87.16344252642429
 30
0.0
  0
VERTEX
  5
6ED
  8
LE_ALL
 10
355.56251279
 20
-87.37146026611106
 30
0.0
  0
SEQEND
  5
737
  8
LE_ALL
  0
POLYLINE
  5
413
  8
LE_ALL
 66
     1
 10
0.0
 20
0.0
 30
0.0
  0
VERTEX
  5
414
  8
LE_ALL
 10
359.96156131
 20
-86.35809473
 30
0.0
  0
VERTEX
  5
415
  8
LE_ALL
 10
372.58965499
 20
-87.94908498
 30
0.0
  0
SEQEND
  5
416
  8
LE_ALL
  0
POLYLINE
  5
417
  8
LE_ALL
 66
     1
 10
0.0
 20
0.0
 30
0.0
  0
VERTEX
  5
6EE
  8
LE_ALL
 10
374.69060647
 20
-88.96245053
 30
0.0
  0
VERTEX
  5
6EF
  8
LE_ALL
 10
374.6248042148151
 20
-88.74555713236296
 30
0.0
  0
VERTEX
  5
6F0
  8
LE_ALL
 10
374.4300620257449
 20
-88.53744654992546
 30
0.0
  0
VERTEX
  5
6F1
  8
LE_ALL
 10
374.1142657336944
 20
-88.34654594924271
 30
0.0
  0
VERTEX
  5
6F2
  8
LE_ALL
 10
373.6902030975533
 20
-88.18058560110923
 30
0.0
  0
VERTEX
  5
6F3
  8
LE_ALL
 10
373.1750459805818
 20
-88.04628585332712
 30
0.0
  0
VERTEX
  5
6F4
  8
LE_ALL
 10
372.5896549982085
 20
-87.9490849989886
 30
0.0
  0
SEQEND
  5
738
  8
LE_ALL
  0
POLYLINE
  5
418
  8
LE_ALL
 66
     1
 10
0.0
 20
0.0
 30
0.0
  0
VERTEX
  5
6F5
  8
LE_ALL
 10
370.2915579612791
 20
-89.97581606346661
 30
0.0
  0
VERTEX
  5
6F6
  8
LE_ALL
 10
370.8966881161192
 20
-90.03050445180662
 30
0.0
  0
VERTEX
  5
6F7
  8
LE_ALL
 10
371.5220610393744
 20
-90.0454435504972
 30
0.0
  0
VERTEX
  5
6F8
  8
LE_ALL
 10
372.1444025040064
 20
-90.02007737772053
 30
0.0
  0
VERTEX
  5
6F9
  8
LE_ALL
 10
372.7405511034294
 20
-89.9553499750914
 30
0.0
  0
VERTEX
  5
6FA
  8
LE_ALL
 10
373.2883202393183
 20
-89.85367027367856
 30
0.0
  0
VERTEX
  5
6FB
  8
LE_ALL
 10
373.76732383041
 20
-89.71882244188438
 30
0.0
  0
VERTEX
  5
6FC
  8
LE_ALL
 10
374.1597350122581
 20
-89.55582505172585
 30
0.0
  0
VERTEX
  5
6FD
  8
LE_ALL
 10
374.4509495917497
 20
-89.37074430486301
 30
0.0
  0
VERTEX
  5
6FE
  8
LE_ALL
 10
374.630129564891
 20
-89.17046826945928
 30
0.0
  0
VERTEX
  5
6FF
  8
LE_ALL
 10
374.69060647
 20
-88.96245053
 30
0.0
  0
SEQEND
  5
739
  8
LE_ALL
  0
LINE
  5
419
  8
LE_ALL
 10
370.29155795
 20
-89.97581607
 30
0.0
 11
357.66346427
 21
-88.38482581
 31
0.0
  0
LINE
  5
41A
  8
LE_ALL
 10
359.96156131
 20
-88.67435882
 30
0.0
 11
359.96156131
 21
-86.35809473
 31
0.0
  0
LINE
  5
41B
  8
LE_ALL
 10
372.58965499
 20
-89.97581607
 30
0.0
 11
372.58965499
 21
-87.94908498
 31
0.0
  0
POLYLINE
  5
41C
  8
LE_ALL
 66
     1
 10
0.0
 20
0.0
 30
0.0
  0
VERTEX
  5
700
  8
LE_ALL
 10
326.79852163
 20
-83.74753800611106
 30
0.0
  0
VERTEX
  5
701
  8
LE_ALL
 10
326.8609694665557
 20
-83.9588858531615
 30
0.0
  0
VERTEX
  5
702
  8
LE_ALL
 10
327.0459131454317
 20
-84.16211172110597
 30
0.0
  0
VERTEX
  5
703
  8
LE_ALL
 10
327.3462453847503
 20
-84.34940575379197
 30
0.0
  0
VERTEX
  5
704
  8
LE_ALL
 10
327.7504245849564
 20
-84.51357034656267
 30
0.0
  0
VERTEX
  5
705
  8
LE_ALL
 10
328.2429183660171
 20
-84.6482967461681
 30
0.0
  0
VERTEX
  5
706
  8
LE_ALL
 10
328.8048004680767
 20
-84.74840749261506
 30
0.0
  0
VERTEX
  5
707
  8
LE_ALL
 10
329.4144780770111
 20
-84.81005538605156
 30
0.0
  0
VERTEX
  5
708
  8
LE_ALL
 10
330.0485216241665
 20
-84.8308713325
 30
0.0
  0
VERTEX
  5
709
  8
LE_ALL
 10
330.6825651715462
 20
-84.81005538681025
 30
0.0
  0
VERTEX
  5
70A
  8
LE_ALL
 10
331.2922427811445
 20
-84.74840749410329
 30
0.0
  0
VERTEX
  5
70B
  8
LE_ALL
 10
331.8541248842823
 20
-84.64829674832869
 30
0.0
  0
VERTEX
  5
70C
  8
LE_ALL
 10
332.3466186667939
 20
-84.51357034931257
 30
0.0
  0
VERTEX
  5
70D
  8
LE_ALL
 10
332.7507978687679
 20
-84.34940575702551
 30
0.0
  0
VERTEX
  5
70E
  8
LE_ALL
 10
333.0511301101036
 20
-84.16211172469889
 30
0.0
  0
VERTEX
  5
70F
  8
LE_ALL
 10
333.2360737911682
 20
-83.95888585697571
 30
0.0
  0
VERTEX
  5
710
  8
LE_ALL
 10
333.29852163
 20
-83.74753801
 30
0.0
  0
SEQEND
  5
73A
  8
LE_ALL
  0
POLYLINE
  5
41D
  8
LE_ALL
 66
     1
 10
0.0
 20
0.0
 30
0.0
  0
VERTEX
  5
711
  8
LE_ALL
 10
333.29852163
 20
-83.74753801
 30
0.0
  0
VERTEX
  5
712
  8
LE_ALL
 10
333.2360737914527
 20
-83.53619016350106
 30
0.0
  0
VERTEX
  5
713
  8
LE_ALL
 10
333.0511301112198
 20
-83.33296429619934
 30
0.0
  0
VERTEX
  5
714
  8
LE_ALL
 10
332.7507978711986
 20
-83.14567026418706
 30
0.0
  0
VERTEX
  5
715
  8
LE_ALL
 10
332.3466186709187
 20
-82.98150567206237
 30
0.0
  0
VERTEX
  5
716
  8
LE_ALL
 10
331.8541248903451
 20
-82.84677927302168
 30
0.0
  0
VERTEX
  5
717
  8
LE_ALL
 10
331.2922427892286
 20
-82.74666852701289
 30
0.0
  0
VERTEX
  5
718
  8
LE_ALL
 10
330.6825651815586
 20
-82.6850206338536
 30
0.0
  0
VERTEX
  5
719
  8
LE_ALL
 10
330.0485216358334
 20
-82.6642046875
 30
0.0
  0
VERTEX
  5
71A
  8
LE_ALL
 10
329.4144780898841
 20
-82.68502063309491
 30
0.0
  0
VERTEX
  5
71B
  8
LE_ALL
 10
328.8048004815502
 20
-82.74666852552465
 30
0.0
  0
VERTEX
  5
71C
  8
LE_ALL
 10
328.2429183793554
 20
-82.84677927086109
 30
0.0
  0
VERTEX
  5
71D
  8
LE_ALL
 10
327.7504245973309
 20
-82.98150566931247
 30
0.0
  0
VERTEX
  5
71E
  8
LE_ALL
 10
327.3462453952831
 20
-83.14567026095352
 30
0.0
  0
VERTEX
  5
71F
  8
LE_ALL
 10
327.0459131532449
 20
-83.33296429260642
 30
0.0
  0
VERTEX
  5
720
  8
LE_ALL
 10
326.8609694708233
 20
-83.53619015968684
 30
0.0
  0
VERTEX
  5
721
  8
LE_ALL
 10
326.79852163
 20
-83.74753800611106
 30
0.0
  0
SEQEND
  5
73B
  8
LE_ALL
  0
POLYLINE
  5
41E
  8
LE_ALL
 66
     1
 10
0.0
 20
0.0
 30
0.0
  0
VERTEX
  5
41F
  8
LE_ALL
 10
378.5315457
 20
-95.20104973
 30
0.0
  0
VERTEX
  5
420
  8
LE_ALL
 10
378.5315457
 20
-98.9722859
 30
0.0
  0
VERTEX
  5
421
  8
LE_ALL
 10
306.50464101
 20
-89.89774887
 30
0.0
  0
SEQEND
  5
422
  8
LE_ALL
  0
POLYLINE
  5
423
  8
LE_ALL
 66
     1
 10
0.0
 20
0.0
 30
0.0
  0
VERTEX
  5
424
  8
LE_ALL
 10
306.50464101
 20
-86.12651271
 30
0.0
  0
VERTEX
  5
425
  8
LE_ALL
 10
378.5315457
 20
-95.20104973
 30
0.0
  0
VERTEX
  5
426
  8
LE_ALL
 10
389.13814742
 20
-85.84690627
 30
0.0
  0
VERTEX
  5
427
  8
LE_ALL
 10
389.13814742
 20
-89.61814243
 30
0.0
  0
VERTEX
  5
428
  8
LE_ALL
 10
378.5315457
 20
-98.9722859
 30
0.0
  0
SEQEND
  5
429
  8
LE_ALL
  0
POLYLINE
  5
42A
  8
LE_ALL
 66
     1
 10
0.0
 20
0.0
 30
0.0
  0
VERTEX
  5
42B
  8
LE_ALL
 10
389.13814742
 20
-85.84690627
 30
0.0
  0
VERTEX
  5
42C
  8
LE_ALL
 10
317.11124273
 20
-76.77236924
 30
0.0
  0
VERTEX
  5
42D
  8
LE_ALL
 10
306.50464101
 20
-86.12651271
 30
0.0
  0
SEQEND
  5
42E
  8
LE_ALL
  0
ENDBLK
  8
0
  0
BLOCK
  8
0
  2
_00082
 70
     0
 10
0.0
 20
0.0
 30
0.0
  0
INSERT
  5
431
  8
0
  2
_00083
 10
330.04852163
 20
-84.83087135
 30
0.0
  0
ENDBLK
  8
0
  0
BLOCK
  8
0
  2
_00083
 70
     0
 10
330.04852163
 20
-84.83087135
 30
0.0
  0
LINE
  5
434
  8
LE_ALL
  6
STRICHPUNKT2
 62
     1
 10
330.04852163
 20
-84.83087135
 30
0.0
 11
330.04852163
 21
-82.33332445
 31
0.0
  0
LINE
  5
435
  8
LE_ALL
  6
STRICHPUNKT2
 62
     1
 10
330.04852163
 20
-83.74753801
 30
0.0
 11
334.49173977
 21
-84.30733088
 31
0.0
  0
LINE
  5
436
  8
LE_ALL
  6
STRICHPUNKT2
 62
     1
 10
330.04852163
 20
-83.74753801
 30
0.0
 11
325.60530348
 21
-83.18774515
 31
0.0
  0
LINE
  5
437
  8
LE_ALL
  6
STRICHPUNKT2
 62
     1
 10
330.04852163
 20
-83.74753801
 30
0.0
 11
331.72790023
 21
-82.2664653
 31
0.0
  0
LINE
  5
438
  8
LE_ALL
  6
STRICHPUNKT2
 62
     1
 10
330.04852163
 20
-83.74753801
 30
0.0
 11
328.36914302
 21
-85.22861073
 31
0.0
  0
LINE
  5
439
  8
LE_ALL
  6
STRICHPUNKT2
 62
     1
 10
358.81251279
 20
-88.52959232
 30
0.0
 11
358.81251279
 21
-85.95724671
 31
0.0
  0
LINE
  5
43A
  8
LE_ALL
  6
STRICHPUNKT2
 62
     1
 10
371.44060647
 20
-90.04578386
 30
0.0
 11
371.44060647
 21
-87.54823696
 31
0.0
  0
LINE
  5
43B
  8
LE_ALL
  6
STRICHPUNKT2
 62
     1
 10
354.36929464
 20
-86.8116674
 30
0.0
 11
375.88382462
 21
-89.52224339
 31
0.0
  0
LINE
  5
43C
  8
LE_ALL
  6
STRICHPUNKT2
 62
     1
 10
357.13313418
 20
-88.85253298
 30
0.0
 11
360.49189139
 21
-85.89038755
 31
0.0
  0
LINE
  5
43D
  8
LE_ALL
  6
STRICHPUNKT2
 62
     1
 10
369.76122786
 20
-90.44352324
 30
0.0
 11
373.11998507
 21
-87.48137781
 31
0.0
  0
ENDBLK
  8
0
  0
BLOCK
  8
0
  2
DVI_FIGURE_00084
 70
     0
 10
0.0
 20
0.0
 30
0.0
  0
INSERT
  5
440
  8
0
  2
VIEW_3_00085
 10
0.0
 20
0.0
 30
0.0
  0
INSERT
  5
441
  8
0
  2
VIEW_4_00093
 10
0.0
 20
0.0
 30
0.0
  0
INSERT
  5
442
  8
0
  2
VIEW_5_00096
 10
0.0
 20
0.0
 30
0.0
  0
ENDBLK
  8
0
  0
BLOCK
  8
0
  2
VIEW_3_00085
 70
     0
 10
0.0
 20
0.0
 30
0.0
  0
INSERT
  5
445
  8
0
  2
PART_2_00086
 10
0.0
 20
0.0
 30
0.0
  0
ENDBLK
  8
0
  0
BLOCK
  8
0
  2
PART_2_00086
 70
     0
 10
0.0
 20
0.0
 30
0.0
  0
INSERT
  5
448
  8
0
  2
_D1
 10
280.681649
 20
-267.95777887
 30
0.0
  0
INSERT
  5
449
  8
0
  2
_D2
 10
65.16399168
 20
-302.66376596
 30
0.0
  0
INSERT
  5
44A
  8
0
  2
_D3
 10
145.20407402
 20
-212.60886165
 30
0.0
  0
INSERT
  5
44B
  8
0
  2
_D4
 10
181.20407402
 20
-220.74278096
 30
0.0
  0
INSERT
  5
44C
  8
0
  2
_D5
 10
273.67443809
 20
-268.76289815
 30
0.0
  0
INSERT
  5
44D
  8
0
  2
_D6
 10
273.67443809
 20
-233.80298042
 30
0.0
  0
ENDBLK
  8
0
  0
BLOCK
  8
0
  2
VIEW_4_00093
 70
     0
 10
0.0
 20
0.0
 30
0.0
  0
INSERT
  5
480
  8
0
  2
PART_2_00094
 10
0.0
 20
0.0
 30
0.0
  0
ENDBLK
  8
0
  0
BLOCK
  8
0
  2
PART_2_00094
 70
     0
 10
0.0
 20
0.0
 30
0.0
  0
INSERT
  5
483
  8
0
  2
_D7
 10
332.19981972
 20
-220.15290296
 30
0.0
  0
ENDBLK
  8
0
  0
BLOCK
  8
0
  2
VIEW_5_00096
 70
     0
 10
0.0
 20
0.0
 30
0.0
  0
INSERT
  5
48E
  8
0
  2
PART_2_00097
 10
0.0
 20
0.0
 30
0.0
  0
ENDBLK
  8
0
  0
BLOCK
  8
0
  2
PART_2_00097
 70
     0
 10
0.0
 20
0.0
 30
0.0
  0
INSERT
  5
491
  8
0
  2
_D8
 10
150.32145512
 20
-139.77526796
 30
0.0
  0
INSERT
  5
492
  8
0
  2
_D9
 10
17.4712219
 20
-180.36031597
 30
0.0
  0
INSERT
  5
493
  8
0
  2
_D10
 10
17.4712219
 20
-165.36031597
 30
0.0
  0
INSERT
  5
494
  8
0
  2
_D11
 10
17.4712219
 20
-146.86031597
 30
0.0
  0
INSERT
  5
495
  8
0
  2
_D12
 10
17.4712219
 20
-131.86031597
 30
0.0
  0
INSERT
  5
496
  8
0
  2
_D13
 10
29.47453629
 20
-190.10038727
 30
0.0
  0
INSERT
  5
497
  8
0
  2
_D14
 10
44.47453629
 20
-190.10038727
 30
0.0
  0
INSERT
  5
498
  8
0
  2
_D15
 10
62.97453629
 20
-190.10038727
 30
0.0
  0
INSERT
  5
499
  8
0
  2
_D16
 10
255.95114867
 20
-156.51339714
 30
0.0
  0
INSERT
  5
49A
  8
0
  2
_D17
 10
257.16399168
 20
-190.5478109
 30
0.0
  0
INSERT
  5
49B
  8
0
  2
_D18
 10
227.16399168
 20
-190.5478109
 30
0.0
  0
INSERT
  5
49C
  8
0
  2
_D19
 10
179.66399168
 20
-190.5478109
 30
0.0
  0
INSERT
  5
49D
  8
0
  2
_D20
 10
275.65342068
 20
-169.67086058
 30
0.0
  0
INSERT
  5
49E
  8
0
  2
_D21
 10
275.65342068
 20
-139.67086058
 30
0.0
  0
INSERT
  5
49F
  8
0
  2
_D22
 10
283.81581026
 20
-154.67086058
 30
0.0
  0
INSERT
  5
4A0
  8
0
  2
_D23
 10
53.32145512
 20
-139.20408558
 30
0.0
  0
INSERT
  5
4A1
  8
0
  2
_D24
 10
35.7813729
 20
-145.89853581
 30
0.0
  0
ENDBLK
  8
0
  0
ENDSEC
  0
SECTION
  2
ENTITIES
  0
INSERT
  5
52F
  8
0
  2
_ZBL0002_00001
 10
0.0
 20
0.0
 30
0.0
  0
INSERT
  5
530
  8
0
  2
_ANS0003_00016
 10
0.0
 20
0.0
 30
0.0
  0
INSERT
  5
531
  8
0
  2
_ANS0004_00033
 10
0.0
 20
0.0
 30
0.0
  0
INSERT
  5
532
  8
0
  2
_ANS0005_00050
 10
0.0
 20
0.0
 30
0.0
  0
INSERT
  5
533
  8
0
  2
_ANS0006_00067
 10
0.0
 20
0.0
 30
0.0
  0
INSERT
  5
534
  8
0
  2
DVI_FIGURE_00084
 10
0.0
 20
0.0
 30
0.0
  0
ENDSEC
  0
EOF
