  0
SECTION
  2
HEADER
  9
$ACADVER
  1
AC1006
  9
$DWGCODEPAGE
  3
ansi_1252
  9
$INSBASE
 10
0.0
 20
0.0
 30
0.0
  9
$EXTMIN
 10
-11.30800247
 20
-345.02354302
  9
$EXTMAX
 10
417.09199753
 20
-31.33433677
  9
$LIMMIN
 10
-11.30800247
 20
-345.02354302
  9
$LIMMAX
 10
417.09199753
 20
-31.33433677
  9
$ORTHOMODE
 70
     0
  9
$REGENMODE
 70
     1
  9
$FILLMODE
 70
     1
  9
$QTEXTMODE
 70
     0
  9
$MIRRTEXT
 70
     1
  9
$DRAGMODE
 70
     2
  9
$LTSCALE
 40
1.0
  9
$OSMODE
 70
    37
  9
$ATTMODE
 70
     1
  9
$TEXTSIZE
 40
1.0
  9
$TRACEWID
 40
0.05
  9
$TEXTSTYLE
  7
STANDARD
  9
$CLAYER
  8
0
  9
$CELTYPE
  6
BYBLOCK
  9
$CECOLOR
 62
   256
  9
$DIMSCALE
 40
1.0
  9
$DIMASZ
 40
0.18
  9
$DIMEXO
 40
0.0625
  9
$DIMDLI
 40
0.38
  9
$DIMRND
 40
0.0
  9
$DIMDLE
 40
0.0
  9
$DIMEXE
 40
0.18
  9
$DIMTP
 40
0.0
  9
$DIMTM
 40
0.0
  9
$DIMTXT
 40
0.18
  9
$DIMCEN
 40
0.09
  9
$DIMTSZ
 40
0.0
  9
$DIMTOL
 70
     0
  9
$DIMLIM
 70
     0
  9
$DIMTIH
 70
     1
  9
$DIMTOH
 70
     1
  9
$DIMSE1
 70
     0
  9
$DIMSE2
 70
     0
  9
$DIMTAD
 70
     0
  9
$DIMZIN
 70
     0
  9
$DIMBLK
  1

  9
$DIMASO
 70
     1
  9
$DIMSHO
 70
     1
  9
$DIMPOST
  1

  9
$DIMAPOST
  1

  9
$DIMALT
 70
     0
  9
$DIMALTD
 70
     2
  9
$DIMALTF
 40
25.4
  9
$DIMLFAC
 40
1.0
  9
$DIMTOFL
 70
     0
  9
$DIMTVP
 40
0.0
  9
$DIMTIX
 70
     0
  9
$DIMSOXD
 70
     0
  9
$DIMSAH
 70
     0
  9
$DIMBLK1
  1

  9
$DIMBLK2
  1

  9
$LUNITS
 70
     2
  9
$LUPREC
 70
     4
  9
$SKETCHINC
 40
0.1
  9
$FILLETRAD
 40
0.5
  9
$AUNITS
 70
     0
  9
$AUPREC
 70
     0
  9
$MENU
  1
.
  9
$ELEVATION
 40
0.0
  9
$THICKNESS
 40
0.0
  9
$LIMCHECK
 70
     0
  9
$CHAMFERA
 40
0.0
  9
$CHAMFERB
 40
0.0
  9
$SKPOLY
 70
     0
  9
$TDCREATE
 40
2447893.125
  9
$TDUPDATE
 40
2460791.515504444
  9
$TDINDWG
 40
0.0
  9
$TDUSRTIMER
 40
0.0
  9
$USRTIMER
 70
     1
  9
$ANGBASE
 50
0.0
  9
$ANGDIR
 70
     0
  9
$PDMODE
 70
     0
  9
$PDSIZE
 40
0.0
  9
$PLINEWID
 40
0.0
  9
$COORDS
 70
     1
  9
$SPLFRAME
 70
     0
  9
$SPLINETYPE
 70
     6
  9
$SPLINESEGS
 70
     8
  9
$ATTDIA
 70
     0
  9
$ATTREQ
 70
     1
  9
$HANDLING
 70
     1
  9
$HANDSEED
  5
730
  9
$SURFTAB1
 70
     6
  9
$SURFTAB2
 70
     6
  9
$SURFTYPE
 70
     6
  9
$SURFU
 70
     6
  9
$SURFV
 70
     6
  9
$UCSNAME
  2

  9
$UCSORG
 10
0.0
 20
0.0
 30
0.0
  9
$UCSXDIR
 10
1.0
 20
0.0
 30
0.0
  9
$UCSYDIR
 10
0.0
 20
1.0
 30
0.0
  9
$USERI1
 70
     0
  9
$USERI2
 70
     0
  9
$USERI3
 70
     0
  9
$USERI4
 70
     0
  9
$USERI5
 70
     0
  9
$USERR1
 40
0.0
  9
$USERR2
 40
0.0
  9
$USERR3
 40
0.0
  9
$USERR4
 40
0.0
  9
$USERR5
 40
0.0
  9
$WORLDVIEW
 70
     1
  0
ENDSEC
  0
SECTION
  2
TABLES
  0
TABLE
  2
VPORT
 70
     1
  0
VPORT
  2
*ACTIVE
 70
     0
 10
0.0
 20
0.0
 11
1.0
 21
1.0
 12
202.89199753
 22
-188.17893989
 13
0.0
 23
0.0
 14
1.0
 24
1.0
 15
0.0
 25
0.0
 16
0.0
 26
0.0
 36
1.0
 17
0.0
 27
0.0
 37
0.0
 40
313.68920625
 41
1.365682948
 42
50.0
 43
0.0
 44
0.0
 50
0.0
 51
0.0
 71
     0
 72
   100
 73
     1
 74
     1
 75
     0
 76
     0
 77
     0
 78
     0
  0
ENDTAB
  0
TABLE
  2
LTYPE
 70
    19
  0
LTYPE
  2
CONTINUOUS
 70
     0
  3
Solid line
 72
    65
 73
     0
 40
0.0
  0
LTYPE
  2
DOT
 70
     0
  3
..............
 72
    65
 73
     2
 40
2.0
 49
0.5
 49
-1.5
  0
LTYPE
  2
HIDDEN
 70
     0
  3
-- -- -- -- --
 72
    65
 73
     2
 40
7.0
 49
4.0
 49
-3.0
  0
LTYPE
  2
DASHDOT
 70
     0
  3
--.--.--.--.--
 72
    65
 73
     4
 40
8.5
 49
4.0
 49
-2.0
 49
0.5
 49
-2.0
  0
LTYPE
  2
STRICHPUNKT2
 70
     0
  3
--.--.--.--.--
 72
    65
 73
     4
 40
18.5
 49
10.0
 49
-4.0
 49
0.5
 49
-4.0
  0
LTYPE
  2
STRICHPUNKT3
 70
     0
  3
--.--.--.--.--
 72
    65
 73
     4
 40
35.5
 49
25.0
 49
-5.0
 49
0.5
 49
-5.0
  0
LTYPE
  2
PHANTOM
 70
     0
  3
--..--..--..--
 72
    65
 73
     6
 40
23.0
 49
10.0
 49
-4.0
 49
0.5
 49
-4.0
 49
0.5
 49
-4.0
  0
LTYPE
  2
PHANTOM2
 70
     0
  3
--..--..--..--
 72
    65
 73
     6
 40
33.0
 49
20.0
 49
-4.0
 49
0.5
 49
-4.0
 49
0.5
 49
-4.0
  0
LTYPE
  2
PHANTOM3
 70
     0
  3
--..--..--..--
 72
    65
 73
     6
 40
50.0
 49
37.0
 49
-4.0
 49
0.5
 49
-4.0
 49
0.5
 49
-4.0
  0
LTYPE
  2
STR3PKT
 70
     0
  3
--...--...--...
 72
    65
 73
     8
 40
31.5
 49
20.0
 49
-2.5
 49
0.5
 49
-2.5
 49
0.5
 49
-2.5
 49
0.5
 49
-2.5
  0
LTYPE
  2
2STRPKT
 70
     0
  3
--.--.--.--.--
 72
    65
 73
     6
 40
28.0
 49
10.0
 49
-2.5
 49
10.0
 49
-2.5
 49
0.5
 49
-2.5
  0
LTYPE
  2
GESTRICHELT2
 70
     0
  3
-- -- -- -- --
 72
    65
 73
     2
 40
25.0
 49
10.0
 49
-15.0
  0
LTYPE
  2
2STR2PKT
 70
     0
  3
--..--..--..--
 72
    65
 73
     8
 40
31.0
 49
10.0
 49
-2.5
 49
10.0
 49
-2.5
 49
0.5
 49
-2.5
 49
0.5
 49
-2.5
  0
LTYPE
  2
STR3PKT2
 70
     0
  3
--...--...--...
 72
    65
 73
     8
 40
21.0
 49
10.0
 49
-2.5
 49
0.5
 49
-2.5
 49
0.5
 49
-2.5
 49
0.5
 49
-2.0
  0
LTYPE
  2
2STR3PKT
 70
     0
  3
--...--...--...
 72
    65
 73
    10
 40
34.0
 49
10.0
 49
-2.5
 49
10.0
 49
-2.5
 49
0.5
 49
-2.5
 49
0.5
 49
-2.5
 49
0.5
 49
-2.5
  0
LTYPE
  2
STRKSTR
 70
     0
  3
-- - -- - -- -
 72
    65
 73
     4
 40
30.0
 49
20.0
 49
-2.5
 49
5.0
 49
-2.5
  0
LTYPE
  2
STRKSTR2
 70
     0
  3
-- - -- - -- -
 72
    65
 73
     6
 40
37.5
 49
20.0
 49
-2.5
 49
5.0
 49
-2.5
 49
5.0
 49
-2.5
  0
LTYPE
  2
STRKSTR3
 70
     0
  3
-- - -- - -- -
 72
    65
 73
     8
 40
45.0
 49
20.0
 49
-2.5
 49
5.0
 49
-2.5
 49
5.0
 49
-2.5
 49
5.0
 49
-2.5
  0
LTYPE
  2
PUNKT2
 70
     0
  3
..............
 72
    65
 73
     2
 40
3.5
 49
0.5
 49
-3.0
  0
ENDTAB
  0
TABLE
  2
LAYER
 70
    16
  0
LAYER
  2
0
 70
     0
 62
     7
  6
CONTINUOUS
  0
LAYER
  2
LE_GREEN
 70
     0
 62
     3
  6
CONTINUOUS
  0
LAYER
  2
LE_RED
 70
     0
 62
     1
  6
CONTINUOUS
  0
LAYER
  2
LE_ALL
 70
     0
 62
     7
  6
CONTINUOUS
  0
LAYER
  2
LE_HIDDEN1
 70
     0
 62
     3
  6
HIDDEN
  0
LAYER
  2
LE_HIDDEN
 70
     0
 62
     7
  6
CONTINUOUS
  0
LAYER
  2
LE_MIDDLE
 70
     0
 62
     7
  6
CONTINUOUS
  0
LAYER
  2
TXT_YELLOW
 70
     0
 62
     2
  6
CONTINUOUS
  0
LAYER
  2
TXT_DIM49
 70
     0
 62
     2
  6
CONTINUOUS
  0
LAYER
  2
TXT_ALL
 70
     0
 62
     7
  6
CONTINUOUS
  0
LAYER
  2
DIM49
 70
     0
 62
     4
  6
CONTINUOUS
  0
LAYER
  2
HATCH
 70
     0
 62
     3
  6
CONTINUOUS
  0
LAYER
  2
APPLE
 70
     0
 62
     7
  6
CONTINUOUS
  0
LAYER
  2
10
 70
     0
 62
     7
  6
CONTINUOUS
  0
LAYER
  2
20
 70
     0
 62
     7
  6
CONTINUOUS
  0
LAYER
  2
49
 70
     0
 62
     7
  6
CONTINUOUS
  0
ENDTAB
  0
TABLE
  2
STYLE
 70
     5
  0
STYLE
  2
MONOTXT
 70
     0
 40
0.0
 41
1.0
 50
0.0
 71
     0
 42
1.0
  3
monotxt.shx
  4

  0
STYLE
  2
STANDARD
 70
     0
 40
0.0
 41
1.0
 50
0.0
 71
     0
 42
1.0
  3
txt
  4

  0
STYLE
  2
ARIAL
 70
     0
 40
0.0
 41
1.0
 50
0.0
 71
     0
 42
1.0
  3
arial.ttf
  4

  0
STYLE
  2
ARIAL_NARROW
 70
     0
 40
0.0
 41
1.0
 50
0.0
 71
     0
 42
1.0
  3
ArialN.ttf
  4

  0
STYLE
  2
ISOCPEUR
 70
     0
 40
0.0
 41
1.0
 50
0.0
 71
     0
 42
1.0
  3
ISOCPEUR.ttf
  4

  0
ENDTAB
  0
TABLE
  2
VIEW
 70
     0
  0
ENDTAB
  0
TABLE
  2
UCS
 70
     0
  0
ENDTAB
  0
ENDSEC
  0
SECTION
  2
BLOCKS
  0
BLOCK
  8
0
  2
_D1
 70
     0
 10
292.16269016
 20
-249.68724912
 30
0.0
  0
TEXT
  5
44F
  8
TXT_DIM49
 10
292.16269016
 20
-249.68724912
 30
0.0
 40
2.5
  1
43
 50
90.00020741
  7
ARIAL
  0
LINE
  5
450
  8
DIM49
 10
292.66269016
 20
-268.26741367
 30
0.0
 11
294.66269016
 21
-270.26741367
 31
0.0
  0
LINE
  5
451
  8
DIM49
 10
294.41269016
 20
-227.01741367
 30
0.0
 11
292.91269016
 21
-225.51741367
 31
0.0
  0
LINE
  5
452
  8
DIM49
 10
293.66269016
 20
-269.26741367
 30
0.0
 11
293.66269016
 21
-226.26741367
 31
0.0
  0
LINE
  5
453
  8
DIM49
 10
291.66269016
 20
-269.26741367
 30
0.0
 11
295.66269016
 21
-269.26741367
 31
0.0
  0
LINE
  5
454
  8
DIM49
 10
291.66269016
 20
-226.26741367
 30
0.0
 11
295.66269016
 21
-226.26741367
 31
0.0
  0
ENDBLK
  8
0
  0
BLOCK
  8
0
  2
_D2
 70
     0
 10
83.86951032
 20
-277.76741367
 30
0.0
  0
TEXT
  5
457
  8
TXT_DIM49
 10
83.86951032
 20
-277.76741367
 30
0.0
 40
2.5
  1
110
  7
ARIAL
  0
LINE
  5
458
  8
DIM49
 10
32.74926344
 20
-278.26741367
 30
0.0
 11
30.74926344
 21
-280.26741367
 31
0.0
  0
LINE
  5
459
  8
DIM49
 10
140.99926344
 20
-280.01741367
 30
0.0
 11
142.49926344
 21
-278.51741367
 31
0.0
  0
LINE
  5
45A
  8
DIM49
 10
31.74926344
 20
-279.26741367
 30
0.0
 11
141.74926344
 21
-279.26741367
 31
0.0
  0
LINE
  5
45B
  8
DIM49
 10
31.74926344
 20
-277.26741367
 30
0.0
 11
31.74926344
 21
-281.26741367
 31
0.0
  0
LINE
  5
45C
  8
DIM49
 10
141.74926344
 20
-277.26741367
 30
0.0
 11
141.74926344
 21
-281.26741367
 31
0.0
  0
ENDBLK
  8
0
  0
BLOCK
  8
0
  2
_D3
 70
     0
 10
152.36951032
 20
-207.92466366
 30
0.0
  0
TEXT
  5
45F
  8
TXT_DIM49
 10
152.36951032
 20
-207.92466366
 30
0.0
 40
2.5
  1
247
  7
ARIAL
  0
LINE
  5
460
  8
DIM49
 10
277.74926344
 20
-210.42466366
 30
0.0
 11
279.74926344
 21
-208.42466366
 31
0.0
  0
LINE
  5
461
  8
DIM49
 10
32.49926344
 20
-208.67466366
 30
0.0
 11
30.99926344
 21
-210.17466366
 31
0.0
  0
LINE
  5
462
  8
DIM49
 10
278.74926344
 20
-209.42466366
 30
0.0
 11
31.74926344
 21
-209.42466366
 31
0.0
  0
LINE
  5
463
  8
DIM49
 10
278.74926344
 20
-211.42466366
 30
0.0
 11
278.74926344
 21
-207.42466366
 31
0.0
  0
LINE
  5
464
  8
DIM49
 10
31.74926344
 20
-211.42466366
 30
0.0
 11
31.74926344
 21
-207.42466366
 31
0.0
  0
ENDBLK
  8
0
  0
BLOCK
  8
0
  2
_D4
 70
     0
 10
203.36951032
 20
-217.4863786
 30
0.0
  0
TEXT
  5
467
  8
TXT_DIM49
 10
203.36951032
 20
-217.4863786
 30
0.0
 40
2.5
  1
145
  7
ARIAL
  0
LINE
  5
468
  8
DIM49
 10
277.74926344
 20
-219.9863786
 30
0.0
 11
279.74926344
 21
-217.9863786
 31
0.0
  0
LINE
  5
469
  8
DIM49
 10
134.49926344
 20
-218.2363786
 30
0.0
 11
132.99926344
 21
-219.7363786
 31
0.0
  0
LINE
  5
46A
  8
DIM49
 10
278.74926344
 20
-218.9863786
 30
0.0
 11
133.74926344
 21
-218.9863786
 31
0.0
  0
LINE
  5
46B
  8
DIM49
 10
278.74926344
 20
-220.9863786
 30
0.0
 11
278.74926344
 21
-216.9863786
 31
0.0
  0
LINE
  5
46C
  8
DIM49
 10
133.74926344
 20
-220.9863786
 30
0.0
 11
133.74926344
 21
-216.9863786
 31
0.0
  0
ENDBLK
  8
0
  0
BLOCK
  8
0
  2
_D5
 70
     0
 10
283.49064047
 20
-253.68724912
 30
0.0
  0
TEXT
  5
46F
  8
TXT_DIM49
 10
283.49064047
 20
-253.68724912
 30
0.0
 40
2.5
  1
35
 50
90.00020741
  7
ARIAL
  0
LINE
  5
470
  8
DIM49
 10
283.99064047
 20
-268.26741367
 30
0.0
 11
285.99064047
 21
-270.26741367
 31
0.0
  0
LINE
  5
471
  8
DIM49
 10
285.74064047
 20
-235.01741367
 30
0.0
 11
284.24064047
 21
-233.51741367
 31
0.0
  0
LINE
  5
472
  8
DIM49
 10
284.99064047
 20
-269.26741367
 30
0.0
 11
284.99064047
 21
-234.26741367
 31
0.0
  0
LINE
  5
473
  8
DIM49
 10
282.99064047
 20
-269.26741367
 30
0.0
 11
286.99064047
 21
-269.26741367
 31
0.0
  0
LINE
  5
474
  8
DIM49
 10
282.99064047
 20
-234.26741367
 30
0.0
 11
286.99064047
 21
-234.26741367
 31
0.0
  0
ENDBLK
  8
0
  0
BLOCK
  8
0
  2
_D6
 70
     0
 10
283.49064047
 20
-231.2273314
 30
0.0
  0
TEXT
  5
477
  8
TXT_DIM49
 10
283.49064047
 20
-231.2273314
 30
0.0
 40
2.5
  1
8
 50
90.00020741
  7
ARIAL
  0
LINE
  5
478
  8
DIM49
 10
283.99064047
 20
-233.26741367
 30
0.0
 11
285.99064047
 21
-235.26741367
 31
0.0
  0
LINE
  5
479
  8
DIM49
 10
285.74064047
 20
-227.01741367
 30
0.0
 11
284.24064047
 21
-225.51741367
 31
0.0
  0
LINE
  5
47A
  8
DIM49
 10
284.99064047
 20
-234.26741367
 30
0.0
 11
284.99064047
 21
-226.26741367
 31
0.0
  0
LINE
  5
47B
  8
DIM49
 10
282.99064047
 20
-234.26741367
 30
0.0
 11
286.99064047
 21
-234.26741367
 31
0.0
  0
LINE
  5
47C
  8
DIM49
 10
282.99064047
 20
-226.26741367
 30
0.0
 11
286.99064047
 21
-226.26741367
 31
0.0
  0
ENDBLK
  8
0
  0
BLOCK
  8
0
  2
_D7
 70
     0
 10
351.6644378
 20
-214.5513667
 30
0.0
  0
TEXT
  5
485
  8
TXT_DIM49
 10
351.6644378
 20
-214.5513667
 30
0.0
 40
2.5
  1
60
  7
ARIAL
  0
LINE
  5
486
  8
DIM49
 10
324.58427325
 20
-215.0513667
 30
0.0
 11
322.58427325
 21
-217.0513667
 31
0.0
  0
LINE
  5
487
  8
DIM49
 10
382.83427325
 20
-216.8013667
 30
0.0
 11
384.33427325
 21
-215.3013667
 31
0.0
  0
LINE
  5
488
  8
DIM49
 10
323.58427325
 20
-216.0513667
 30
0.0
 11
383.58427325
 21
-216.0513667
 31
0.0
  0
LINE
  5
489
  8
DIM49
 10
323.58427325
 20
-218.0513667
 30
0.0
 11
323.58427325
 21
-214.0513667
 31
0.0
  0
LINE
  5
48A
  8
DIM49
 10
383.58427325
 20
-218.0513667
 30
0.0
 11
383.58427325
 21
-214.0513667
 31
0.0
  0
ENDBLK
  8
0
  0
BLOCK
  8
0
  2
_D8
 70
     0
 10
22.80889576
 20
-174.5583742
 30
0.0
  0
TEXT
  5
4A2
  8
TXT_DIM49
 10
22.80889576
 20
-174.5583742
 30
0.0
 40
2.5
  1
11,5
 50
90.00020741
  7
ARIAL
  0
LINE
  5
4A3
  8
DIM49
 10
23.30889576
 20
-175.94908336
 30
0.0
 11
25.30889576
 21
-177.94908336
 31
0.0
  0
LINE
  5
4A4
  8
DIM49
 10
25.05889576
 20
-166.19908336
 30
0.0
 11
23.55889576
 21
-164.69908336
 31
0.0
  0
LINE
  5
4A5
  8
DIM49
 10
24.30889576
 20
-176.94908336
 30
0.0
 11
24.30889576
 21
-165.44908336
 31
0.0
  0
LINE
  5
4A6
  8
DIM49
 10
26.30889576
 20
-176.94908336
 30
0.0
 11
22.30889576
 21
-176.94908336
 31
0.0
  0
LINE
  5
4A7
  8
DIM49
 10
26.30889576
 20
-165.44908336
 30
0.0
 11
22.30889576
 21
-165.44908336
 31
0.0
  0
ENDBLK
  8
0
  0
BLOCK
  8
0
  2
_D9
 70
     0
 10
22.80889576
 20
-159.5583742
 30
0.0
  0
TEXT
  5
4AA
  8
TXT_DIM49
 10
22.80889576
 20
-159.5583742
 30
0.0
 40
2.5
  1
18,5
 50
90.00020741
  7
ARIAL
  0
LINE
  5
4AB
  8
DIM49
 10
23.30889576
 20
-164.44908336
 30
0.0
 11
25.30889576
 21
-166.44908336
 31
0.0
  0
LINE
  5
4AC
  8
DIM49
 10
25.05889576
 20
-147.69908336
 30
0.0
 11
23.55889576
 21
-146.19908336
 31
0.0
  0
LINE
  5
4AD
  8
DIM49
 10
24.30889576
 20
-165.44908336
 30
0.0
 11
24.30889576
 21
-146.94908336
 31
0.0
  0
LINE
  5
4AE
  8
DIM49
 10
26.30889576
 20
-165.44908336
 30
0.0
 11
22.30889576
 21
-165.44908336
 31
0.0
  0
LINE
  5
4AF
  8
DIM49
 10
26.30889576
 20
-146.94908336
 30
0.0
 11
22.30889576
 21
-146.94908336
 31
0.0
  0
ENDBLK
  8
0
  0
BLOCK
  8
0
  2
_D10
 70
     0
 10
22.80889576
 20
-141.0583742
 30
0.0
  0
TEXT
  5
4B2
  8
TXT_DIM49
 10
22.80889576
 20
-141.0583742
 30
0.0
 40
2.5
  1
18,5
 50
90.00020741
  7
ARIAL
  0
LINE
  5
4B3
  8
DIM49
 10
23.30889576
 20
-145.94908336
 30
0.0
 11
25.30889576
 21
-147.94908336
 31
0.0
  0
LINE
  5
4B4
  8
DIM49
 10
25.05889576
 20
-129.19908336
 30
0.0
 11
23.55889576
 21
-127.69908336
 31
0.0
  0
LINE
  5
4B5
  8
DIM49
 10
24.30889576
 20
-146.94908336
 30
0.0
 11
24.30889576
 21
-128.44908336
 31
0.0
  0
LINE
  5
4B6
  8
DIM49
 10
26.30889576
 20
-146.94908336
 30
0.0
 11
22.30889576
 21
-146.94908336
 31
0.0
  0
LINE
  5
4B7
  8
DIM49
 10
26.30889576
 20
-128.44908336
 30
0.0
 11
22.30889576
 21
-128.44908336
 31
0.0
  0
ENDBLK
  8
0
  0
BLOCK
  8
0
  2
_D11
 70
     0
 10
22.80889576
 20
-126.0583742
 30
0.0
  0
TEXT
  5
4BA
  8
TXT_DIM49
 10
22.80889576
 20
-126.0583742
 30
0.0
 40
2.5
  1
11,5
 50
90.00020741
  7
ARIAL
  0
LINE
  5
4BB
  8
DIM49
 10
23.30889576
 20
-127.44908336
 30
0.0
 11
25.30889576
 21
-129.44908336
 31
0.0
  0
LINE
  5
4BC
  8
DIM49
 10
25.05889576
 20
-117.69908336
 30
0.0
 11
23.55889576
 21
-116.19908336
 31
0.0
  0
LINE
  5
4BD
  8
DIM49
 10
24.30889576
 20
-128.44908336
 30
0.0
 11
24.30889576
 21
-116.94908336
 31
0.0
  0
LINE
  5
4BE
  8
DIM49
 10
26.30889576
 20
-128.44908336
 30
0.0
 11
22.30889576
 21
-128.44908336
 31
0.0
  0
LINE
  5
4BF
  8
DIM49
 10
26.30889576
 20
-116.94908336
 30
0.0
 11
22.30889576
 21
-116.94908336
 31
0.0
  0
ENDBLK
  8
0
  0
BLOCK
  8
0
  2
_D12
 70
     0
 10
34.1399726
 20
-184.2984455
 30
0.0
  0
TEXT
  5
4C2
  8
TXT_DIM49
 10
34.1399726
 20
-184.2984455
 30
0.0
 40
2.5
  1
11,5
  7
ARIAL
  0
LINE
  5
4C3
  8
DIM49
 10
32.74926344
 20
-184.7984455
 30
0.0
 11
30.74926344
 21
-186.7984455
 31
0.0
  0
LINE
  5
4C4
  8
DIM49
 10
42.49926344
 20
-186.5484455
 30
0.0
 11
43.99926344
 21
-185.0484455
 31
0.0
  0
LINE
  5
4C5
  8
DIM49
 10
31.74926344
 20
-185.7984455
 30
0.0
 11
43.24926344
 21
-185.7984455
 31
0.0
  0
LINE
  5
4C6
  8
DIM49
 10
31.74926344
 20
-183.7984455
 30
0.0
 11
31.74926344
 21
-187.7984455
 31
0.0
  0
LINE
  5
4C7
  8
DIM49
 10
43.24926344
 20
-183.7984455
 30
0.0
 11
43.24926344
 21
-187.7984455
 31
0.0
  0
ENDBLK
  8
0
  0
BLOCK
  8
0
  2
_D13
 70
     0
 10
49.1399726
 20
-184.2984455
 30
0.0
  0
TEXT
  5
4CA
  8
TXT_DIM49
 10
49.1399726
 20
-184.2984455
 30
0.0
 40
2.5
  1
18,5
  7
ARIAL
  0
LINE
  5
4CB
  8
DIM49
 10
44.24926344
 20
-184.7984455
 30
0.0
 11
42.24926344
 21
-186.7984455
 31
0.0
  0
LINE
  5
4CC
  8
DIM49
 10
60.99926344
 20
-186.5484455
 30
0.0
 11
62.49926344
 21
-185.0484455
 31
0.0
  0
LINE
  5
4CD
  8
DIM49
 10
43.24926344
 20
-185.7984455
 30
0.0
 11
61.74926344
 21
-185.7984455
 31
0.0
  0
LINE
  5
4CE
  8
DIM49
 10
43.24926344
 20
-183.7984455
 30
0.0
 11
43.24926344
 21
-187.7984455
 31
0.0
  0
LINE
  5
4CF
  8
DIM49
 10
61.74926344
 20
-183.7984455
 30
0.0
 11
61.74926344
 21
-187.7984455
 31
0.0
  0
ENDBLK
  8
0
  0
BLOCK
  8
0
  2
_D14
 70
     0
 10
67.6399726
 20
-184.2984455
 30
0.0
  0
TEXT
  5
4D2
  8
TXT_DIM49
 10
67.6399726
 20
-184.2984455
 30
0.0
 40
2.5
  1
18,5
  7
ARIAL
  0
LINE
  5
4D3
  8
DIM49
 10
62.74926344
 20
-184.7984455
 30
0.0
 11
60.74926344
 21
-186.7984455
 31
0.0
  0
LINE
  5
4D4
  8
DIM49
 10
79.49926344
 20
-186.5484455
 30
0.0
 11
80.99926344
 21
-185.0484455
 31
0.0
  0
LINE
  5
4D5
  8
DIM49
 10
61.74926344
 20
-185.7984455
 30
0.0
 11
80.24926344
 21
-185.7984455
 31
0.0
  0
LINE
  5
4D6
  8
DIM49
 10
61.74926344
 20
-183.7984455
 30
0.0
 11
61.74926344
 21
-187.7984455
 31
0.0
  0
LINE
  5
4D7
  8
DIM49
 10
80.24926344
 20
-183.7984455
 30
0.0
 11
80.24926344
 21
-187.7984455
 31
0.0
  0
ENDBLK
  8
0
  0
BLOCK
  8
0
  2
_D15
 70
     0
 10
266.82942799
 20
-182.14760161
 30
0.0
  0
TEXT
  5
4DA
  8
TXT_DIM49
 10
266.82942799
 20
-182.14760161
 30
0.0
 40
2.5
  1
20
  7
ARIAL
  0
LINE
  5
4DB
  8
DIM49
 10
277.74926344
 20
-184.64760161
 30
0.0
 11
279.74926344
 21
-182.64760161
 31
0.0
  0
LINE
  5
4DC
  8
DIM49
 10
259.49926344
 20
-182.89760161
 30
0.0
 11
257.99926344
 21
-184.39760161
 31
0.0
  0
LINE
  5
4DD
  8
DIM49
 10
278.74926344
 20
-183.64760161
 30
0.0
 11
258.74926344
 21
-183.64760161
 31
0.0
  0
LINE
  5
4DE
  8
DIM49
 10
278.74926344
 20
-181.64760161
 30
0.0
 11
278.74926344
 21
-185.64760161
 31
0.0
  0
LINE
  5
4DF
  8
DIM49
 10
258.74926344
 20
-181.64760161
 30
0.0
 11
258.74926344
 21
-185.64760161
 31
0.0
  0
ENDBLK
  8
0
  0
BLOCK
  8
0
  2
_D16
 70
     0
 10
236.82942799
 20
-182.14760161
 30
0.0
  0
TEXT
  5
4E2
  8
TXT_DIM49
 10
236.82942799
 20
-182.14760161
 30
0.0
 40
2.5
  1
40
  7
ARIAL
  0
LINE
  5
4E3
  8
DIM49
 10
257.74926344
 20
-184.64760161
 30
0.0
 11
259.74926344
 21
-182.64760161
 31
0.0
  0
LINE
  5
4E4
  8
DIM49
 10
219.49926344
 20
-182.89760161
 30
0.0
 11
217.99926344
 21
-184.39760161
 31
0.0
  0
LINE
  5
4E5
  8
DIM49
 10
258.74926344
 20
-183.64760161
 30
0.0
 11
218.74926344
 21
-183.64760161
 31
0.0
  0
LINE
  5
4E6
  8
DIM49
 10
258.74926344
 20
-181.64760161
 30
0.0
 11
258.74926344
 21
-185.64760161
 31
0.0
  0
LINE
  5
4E7
  8
DIM49
 10
218.74926344
 20
-181.64760161
 30
0.0
 11
218.74926344
 21
-185.64760161
 31
0.0
  0
ENDBLK
  8
0
  0
BLOCK
  8
0
  2
_D17
 70
     0
 10
189.32942799
 20
-182.14760161
 30
0.0
  0
TEXT
  5
4EA
  8
TXT_DIM49
 10
189.32942799
 20
-182.14760161
 30
0.0
 40
2.5
  1
55
  7
ARIAL
  0
LINE
  5
4EB
  8
DIM49
 10
217.74926344
 20
-184.64760161
 30
0.0
 11
219.74926344
 21
-182.64760161
 31
0.0
  0
LINE
  5
4EC
  8
DIM49
 10
164.49926344
 20
-182.89760161
 30
0.0
 11
162.99926344
 21
-184.39760161
 31
0.0
  0
LINE
  5
4ED
  8
DIM49
 10
218.74926344
 20
-183.64760161
 30
0.0
 11
163.74926344
 21
-183.64760161
 31
0.0
  0
LINE
  5
4EE
  8
DIM49
 10
218.74926344
 20
-181.64760161
 30
0.0
 11
218.74926344
 21
-185.64760161
 31
0.0
  0
LINE
  5
4EF
  8
DIM49
 10
163.74926344
 20
-181.64760161
 30
0.0
 11
163.74926344
 21
-185.64760161
 31
0.0
  0
ENDBLK
  8
0
  0
BLOCK
  8
0
  2
_D18
 70
     0
 10
266.24215593
 20
-150.71145538
 30
0.0
  0
TEXT
  5
4F2
  8
TXT_DIM49
 10
266.24215593
 20
-150.71145538
 30
0.0
 40
2.5
  1
Ø
 50
90.00020741
  7
ARIAL
  0
TEXT
  5
4F3
  8
TXT_DIM49
 10
266.24215593
 20
-147.02638248
 30
0.0
 40
2.5
  1
13
 50
90.00020741
  7
ARIAL
  0
LINE
  5
4F4
  8
DIM49
 10
268.74215593
 20
-141.44908336
 30
0.0
 11
266.74215593
 21
-139.44908336
 31
0.0
  0
LINE
  5
4F5
  8
DIM49
 10
266.99215593
 20
-152.69908336
 30
0.0
 11
268.49215593
 21
-154.19908336
 31
0.0
  0
LINE
  5
4F6
  8
DIM49
 10
267.74215593
 20
-140.44908336
 30
0.0
 11
267.74215593
 21
-153.44908336
 31
0.0
  0
LINE
  5
4F7
  8
DIM49
 10
265.74215593
 20
-140.44908336
 30
0.0
 11
269.74215593
 21
-140.44908336
 31
0.0
  0
LINE
  5
4F8
  8
DIM49
 10
265.74215593
 20
-153.44908336
 30
0.0
 11
269.74215593
 21
-153.44908336
 31
0.0
  0
ENDBLK
  8
0
  0
BLOCK
  8
0
  2
_D19
 70
     0
 10
285.31885698
 20
-163.86891881
 30
0.0
  0
TEXT
  5
4FB
  8
TXT_DIM49
 10
285.31885698
 20
-163.86891881
 30
0.0
 40
2.5
  1
30
 50
90.00020741
  7
ARIAL
  0
LINE
  5
4FC
  8
DIM49
 10
285.81885698
 20
-175.94908336
 30
0.0
 11
287.81885698
 21
-177.94908336
 31
0.0
  0
LINE
  5
4FD
  8
DIM49
 10
287.56885698
 20
-147.69908336
 30
0.0
 11
286.06885698
 21
-146.19908336
 31
0.0
  0
LINE
  5
4FE
  8
DIM49
 10
286.81885698
 20
-176.94908336
 30
0.0
 11
286.81885698
 21
-146.94908336
 31
0.0
  0
LINE
  5
4FF
  8
DIM49
 10
284.81885698
 20
-176.94908336
 30
0.0
 11
288.81885698
 21
-176.94908336
 31
0.0
  0
LINE
  5
500
  8
DIM49
 10
284.81885698
 20
-146.94908336
 30
0.0
 11
288.81885698
 21
-146.94908336
 31
0.0
  0
ENDBLK
  8
0
  0
BLOCK
  8
0
  2
_D20
 70
     0
 10
285.31885698
 20
-133.86891881
 30
0.0
  0
TEXT
  5
503
  8
TXT_DIM49
 10
285.31885698
 20
-133.86891881
 30
0.0
 40
2.5
  1
30
 50
90.00020741
  7
ARIAL
  0
LINE
  5
504
  8
DIM49
 10
285.81885698
 20
-145.94908336
 30
0.0
 11
287.81885698
 21
-147.94908336
 31
0.0
  0
LINE
  5
505
  8
DIM49
 10
287.56885698
 20
-117.69908336
 30
0.0
 11
286.06885698
 21
-116.19908336
 31
0.0
  0
LINE
  5
506
  8
DIM49
 10
286.81885698
 20
-146.94908336
 30
0.0
 11
286.81885698
 21
-116.94908336
 31
0.0
  0
LINE
  5
507
  8
DIM49
 10
284.81885698
 20
-146.94908336
 30
0.0
 11
288.81885698
 21
-146.94908336
 31
0.0
  0
LINE
  5
508
  8
DIM49
 10
284.81885698
 20
-116.94908336
 30
0.0
 11
288.81885698
 21
-116.94908336
 31
0.0
  0
ENDBLK
  8
0
  0
BLOCK
  8
0
  2
_D21
 70
     0
 10
159.98689142
 20
-135.23342261
 30
0.0
  0
TEXT
  5
50B
  8
TXT_DIM49
 10
159.98689142
 20
-135.23342261
 30
0.0
 40
2.5
  1
Ø
  7
ARIAL
  0
TEXT
  5
50C
  8
TXT_DIM49
 10
163.67196432
 20
-135.23342261
 30
0.0
 40
2.5
  1
13
  7
ARIAL
  0
LINE
  5
50D
  8
DIM49
 10
158.24926344
 20
-135.73342261
 30
0.0
 11
156.24926344
 21
-137.73342261
 31
0.0
  0
LINE
  5
50E
  8
DIM49
 10
169.49926344
 20
-137.48342261
 30
0.0
 11
170.99926344
 21
-135.98342261
 31
0.0
  0
LINE
  5
50F
  8
DIM49
 10
157.24926344
 20
-136.73342261
 30
0.0
 11
170.24926344
 21
-136.73342261
 31
0.0
  0
LINE
  5
510
  8
DIM49
 10
157.24926344
 20
-138.73342261
 30
0.0
 11
157.24926344
 21
-134.73342261
 31
0.0
  0
LINE
  5
511
  8
DIM49
 10
170.24926344
 20
-138.73342261
 30
0.0
 11
170.24926344
 21
-134.73342261
 31
0.0
  0
ENDBLK
  8
0
  0
BLOCK
  8
0
  2
_D22
 70
     0
 10
40.4468092
 20
-138.55659039
 30
0.0
  0
TEXT
  5
514
  8
TXT_DIM49
 10
40.4468092
 20
-138.55659039
 30
0.0
 40
2.5
  1
Ø
  7
ARIAL
  0
TEXT
  5
515
  8
TXT_DIM49
 10
44.1318821
 20
-138.55659039
 30
0.0
 40
2.5
  1
8
  7
ARIAL
  0
LINE
  5
516
  8
DIM49
 10
46.24926344
 20
-141.05659039
 30
0.0
 11
48.24926344
 21
-139.05659039
 31
0.0
  0
LINE
  5
517
  8
DIM49
 10
39.99926344
 20
-139.30659039
 30
0.0
 11
38.49926344
 21
-140.80659039
 31
0.0
  0
LINE
  5
518
  8
DIM49
 10
47.24926344
 20
-140.05659039
 30
0.0
 11
39.24926344
 21
-140.05659039
 31
0.0
  0
LINE
  5
519
  8
DIM49
 10
47.24926344
 20
-138.05659039
 30
0.0
 11
47.24926344
 21
-142.05659039
 31
0.0
  0
LINE
  5
51A
  8
DIM49
 10
39.24926344
 20
-138.05659039
 30
0.0
 11
39.24926344
 21
-142.05659039
 31
0.0
  0
ENDBLK
  8
0
  0
BLOCK
  8
0
  2
_D23
 70
     0
 10
57.98689142
 20
-135.19205392
 30
0.0
  0
TEXT
  5
51D
  8
TXT_DIM49
 10
57.98689142
 20
-135.19205392
 30
0.0
 40
2.5
  1
Ø
  7
ARIAL
  0
TEXT
  5
51E
  8
TXT_DIM49
 10
61.67196432
 20
-135.19205392
 30
0.0
 40
2.5
  1
13
  7
ARIAL
  0
LINE
  5
51F
  8
DIM49
 10
56.24926344
 20
-135.69205392
 30
0.0
 11
54.24926344
 21
-137.69205392
 31
0.0
  0
LINE
  5
520
  8
DIM49
 10
67.49926344
 20
-137.44205392
 30
0.0
 11
68.99926344
 21
-135.94205392
 31
0.0
  0
LINE
  5
521
  8
DIM49
 10
55.24926344
 20
-136.69205392
 30
0.0
 11
68.24926344
 21
-136.69205392
 31
0.0
  0
LINE
  5
522
  8
DIM49
 10
55.24926344
 20
-138.69205392
 30
0.0
 11
55.24926344
 21
-134.69205392
 31
0.0
  0
LINE
  5
523
  8
DIM49
 10
68.24926344
 20
-138.69205392
 30
0.0
 11
68.24926344
 21
-134.69205392
 31
0.0
  0
ENDBLK
  8
0
  0
BLOCK
  8
0
  2
_ZBL0002_00001
 70
     0
 10
0.0
 20
0.0
 30
0.0
  0
INSERT
  5
1C8
  8
0
  2
DINA3_00002
 10
-7.10800247
 20
-336.67893989
 30
0.0
  0
ENDBLK
  8
0
  0
BLOCK
  8
0
  2
DINA3_00002
 70
     0
 10
-7.10800247
 20
-336.67893989
 30
0.0
  0
POLYLINE
  5
1CB
  8
0
 66
     1
 10
0.0
 20
0.0
 30
0.0
 70
     1
  0
VERTEX
  5
1CC
  8
0
 10
-7.10800247
 20
-336.67893989
 30
0.0
  0
VERTEX
  5
1CD
  8
0
 10
412.89199753
 20
-336.67893989
 30
0.0
  0
VERTEX
  5
1CE
  8
0
 10
412.89199753
 20
-39.67893989
 30
0.0
  0
VERTEX
  5
1CF
  8
0
 10
-7.10800247
 20
-39.67893989
 30
0.0
  0
SEQEND
  5
1D0
  8
0
  0
POLYLINE
  5
1D1
  8
0
 66
     1
 10
0.0
 20
0.0
 30
0.0
 70
     1
  0
VERTEX
  5
1D2
  8
0
 10
-2.10800247
 20
-331.67893989
 30
0.0
  0
VERTEX
  5
1D3
  8
0
 10
407.89199753
 20
-331.67893989
 30
0.0
  0
VERTEX
  5
1D4
  8
0
 10
407.89199753
 20
-44.67893989
 30
0.0
  0
VERTEX
  5
1D5
  8
0
 10
-2.10800247
 20
-44.67893989
 30
0.0
  0
SEQEND
  5
1D6
  8
0
  0
LINE
  5
1D7
  8
0
 10
222.89199753
 20
-331.67893989
 30
0.0
 11
222.89199753
 21
-336.67893989
 31
0.0
  0
LINE
  5
1D8
  8
0
 10
222.89199753
 20
-44.67893989
 30
0.0
 11
222.89199753
 21
-39.67893989
 31
0.0
  0
LINE
  5
1D9
  8
0
 10
12.89199753
 20
-331.67893989
 30
0.0
 11
12.89199753
 21
-336.67893989
 31
0.0
  0
LINE
  5
1DA
  8
0
 10
12.89199753
 20
-44.67893989
 30
0.0
 11
12.89199753
 21
-39.67893989
 31
0.0
  0
TEXT
  5
1DB
  8
TXT_ALL
 62
     4
 10
411.89199753
 20
-335.67893989
 30
0.0
 40
2.5
  1

 50
90.00020741
  0
POLYLINE
  5
1DC
  8
0
 66
     1
 10
0.0
 20
0.0
 30
0.0
  0
VERTEX
  5
1DD
  8
0
 10
407.89199753
 20
-54.67893989
 30
0.0
  0
VERTEX
  5
1DE
  8
0
 10
338.89869753
 20
-54.67893989
 30
0.0
  0
VERTEX
  5
1DF
  8
0
 10
338.89869753
 20
-44.67893989
 30
0.0
  0
SEQEND
  5
1E0
  8
0
  0
LINE
  5
1E1
  8
0
 10
340.80199753
 20
-312.17893989
 30
0.0
 11
200.91199753
 21
-312.17893989
 31
0.0
  0
LINE
  5
1E2
  8
0
 10
200.91199753
 20
-321.92893989
 30
0.0
 11
340.80199753
 21
-321.92893989
 31
0.0
  0
POLYLINE
  5
1E3
  8
0
 66
     1
 10
0.0
 20
0.0
 30
0.0
  0
VERTEX
  5
1E4
  8
0
 10
200.91199753
 20
-312.17893989
 30
0.0
  0
VERTEX
  5
1E5
  8
0
 10
200.91199753
 20
-321.92893989
 30
0.0
  0
VERTEX
  5
1E6
  8
0
 10
200.91199753
 20
-331.67893989
 30
0.0
  0
SEQEND
  5
1E7
  8
0
  0
POLYLINE
  5
1E8
  8
0
 66
     1
 10
0.0
 20
0.0
 30
0.0
  0
VERTEX
  5
1E9
  8
0
 10
270.85699753
 20
-312.17893989
 30
0.0
  0
VERTEX
  5
1EA
  8
0
 10
270.85699753
 20
-321.92893989
 30
0.0
  0
VERTEX
  5
1EB
  8
0
 10
270.85699753
 20
-331.67893989
 30
0.0
  0
SEQEND
  5
1EC
  8
0
  0
INSERT
  5
1ED
  8
0
  2
FLEX_00003
 10
202.91199753
 20
-317.05393989
 30
0.0
  0
INSERT
  5
1EE
  8
0
  2
FLEX_00005
 10
202.91199753
 20
-326.80393989
 30
0.0
  0
INSERT
  5
1EF
  8
0
  2
FLEX_00007
 10
272.85699753
 20
-326.80393989
 30
0.0
  0
INSERT
  5
1F0
  8
0
  2
FLEX_00009
 10
272.85699753
 20
-317.05393989
 30
0.0
  0
INSERT
  5
1F1
  8
0
  2
SCHRIFE_00011
 10
1.33395779
 20
-49.67893989
 30
0.0
  0
INSERT
  5
1F2
  8
0
  2
_B_M_P___00015
 10
389.73442361
 20
-336.56893989
 30
0.0
  0
ENDBLK
  8
0
  0
BLOCK
  8
0
  2
FLEX_00003
 70
     0
 10
202.91199753
 20
-317.05393989
 30
0.0
  0
INSERT
  5
1F5
  8
0
  2
TFIELD_00004
 10
202.91199753
 20
-317.05393989
 30
0.0
  0
ENDBLK
  8
0
  0
BLOCK
  8
0
  2
TFIELD_00004
 70
     0
 10
202.91199753
 20
-317.05393989
 30
0.0
  0
TEXT
  5
1F8
  8
TXT_ALL
 10
202.91199753
 20
-318.35393985
 30
0.0
 40
2.5999999
  1
E-mail: verkoop@jonkers-bouwmetaal.nl
  7
ARIAL
  0
ENDBLK
  8
0
  0
BLOCK
  8
0
  2
FLEX_00005
 70
     0
 10
202.91199753
 20
-326.80393989
 30
0.0
  0
INSERT
  5
1FB
  8
0
  2
TFIELD_00006
 10
202.91199753
 20
-326.80393989
 30
0.0
  0
ENDBLK
  8
0
  0
BLOCK
  8
0
  2
TFIELD_00006
 70
     0
 10
202.91199753
 20
-326.80393989
 30
0.0
  0
TEXT
  5
1FE
  8
TXT_ALL
 10
202.91199753
 20
-328.10393985
 30
0.0
 40
2.5999999
  1
Telefoon: 0527-685156
  7
ARIAL
  0
ENDBLK
  8
0
  0
BLOCK
  8
0
  2
FLEX_00007
 70
     0
 10
272.85699753
 20
-326.80393989
 30
0.0
  0
INSERT
  5
201
  8
0
  2
TFIELD_00008
 10
272.85699753
 20
-326.80393989
 30
0.0
  0
ENDBLK
  8
0
  0
BLOCK
  8
0
  2
TFIELD_00008
 70
     0
 10
272.85699753
 20
-326.80393989
 30
0.0
  0
TEXT
  5
204
  8
TXT_ALL
 10
272.85699753
 20
-328.10393985
 30
0.0
 40
2.5999999
  1
Website: www.jonkers-bouwmetaal.nl
  7
ARIAL
  0
ENDBLK
  8
0
  0
BLOCK
  8
0
  2
FLEX_00009
 70
     0
 10
272.85699753
 20
-317.05393989
 30
0.0
  0
INSERT
  5
207
  8
0
  2
TFIELD_00010
 10
272.85699753
 20
-317.05393989
 30
0.0
  0
ENDBLK
  8
0
  0
BLOCK
  8
0
  2
TFIELD_00010
 70
     0
 10
272.85699753
 20
-317.05393989
 30
0.0
  0
TEXT
  5
20A
  8
TXT_ALL
 10
272.85699753
 20
-318.35393985
 30
0.0
 40
2.5999999
  1
Adres: Hoornse Hop 10, 8321 WX Urk
  7
ARIAL
  0
ENDBLK
  8
0
  0
BLOCK
  8
0
  2
SCHRIFE_00011
 70
     0
 10
1.33395779
 20
-49.67893989
 30
0.0
  0
TEXT
  5
20D
  8
TXT_ALL
 10
1.33395779
 20
-50.92893989
 30
0.0
 40
2.5
  1
Art. nr. 91017456
  7
ARIAL
  0
TEXT
  5
20E
  8
TXT_ALL
 10
44.0719946
 20
-50.92893989
 30
0.0
 40
2.5
  1
Omschrijving: Z06-anker 145x43x110 60x8 (sprong 35mm)
  7
ARIAL
  0
LINE
  5
20F
  8
0
 10
407.89199753
 20
-54.67893989
 30
0.0
 11
-2.10800247
 21
-54.67893989
 31
0.0
  0
LINE
  5
210
  8
0
 10
40.91199753
 20
-54.67893989
 30
0.0
 11
40.91199753
 21
-44.67893989
 31
0.0
  0
LINE
  5
211
  8
0
 10
200.91199753
 20
-54.67893989
 30
0.0
 11
200.91199753
 21
-44.67893989
 31
0.0
  0
TEXT
  5
212
  8
TXT_ALL
 10
271.90569753
 20
-50.92893989
 30
0.0
 40
2.5
  1
Behandeling: Thermisch verzinkt
  7
ARIAL
  0
LINE
  5
213
  8
0
 10
340.80199753
 20
-312.17893989
 30
0.0
 11
407.89199753
 21
-312.17893989
 31
0.0
  0
LINE
  5
214
  8
0
 10
340.80199753
 20
-331.67893989
 30
0.0
 11
340.80199753
 21
-312.17893989
 31
0.0
  0
LINE
  5
215
  8
0
 10
340.80199753
 20
-331.67893989
 30
0.0
 11
340.80199753
 21
-312.17893989
 31
0.0
  0
TEXT
  5
216
  8
TXT_ALL
 10
135.25719563
 20
-330.52440648
 30
0.0
 40
2.5
  1

  0
TEXT
  5
217
  8
TXT_ALL
 10
256.39237859
 20
-320.42893989
 30
0.0
 40
2.5
  1

  0
POLYLINE
  5
218
  8
0
 66
     1
 10
0.0
 20
0.0
 30
0.0
  0
VERTEX
  5
219
  8
0
 10
338.89869753
 20
-54.67893989
 30
0.0
  0
VERTEX
  5
21A
  8
0
 10
269.90569753
 20
-54.67893989
 30
0.0
  0
VERTEX
  5
21B
  8
0
 10
269.90569753
 20
-44.67893989
 30
0.0
  0
SEQEND
  5
21C
  8
0
  0
TEXT
  5
21D
  8
TXT_ALL
 10
340.89869753
 20
-50.92893989
 30
0.0
 40
2.5
  1
Verpakkingshoeveelheid: 1 st.
  7
ARIAL
  0
TEXT
  5
21E
  8
TXT_ALL
 10
202.91199753
 20
-50.92893989
 30
0.0
 40
2.5
  1
Materiaal: S355
  7
ARIAL
  0
INSERT
  5
21F
  8
0
  2
FLEX_00012
 10
382.46723295
 20
-335.67844974
 30
0.0
  0
INSERT
  5
220
  8
0
  2
_B_M_P___00014
 10
341.56136485
 20
-330.88625783
 30
0.0
  0
ENDBLK
  8
0
  0
BLOCK
  8
0
  2
FLEX_00012
 70
     0
 10
382.46723295
 20
-335.67844974
 30
0.0
  0
INSERT
  5
223
  8
0
  2
TFIELD_00013
 10
375.67364476
 20
-334.17844974
 30
0.0
  0
ENDBLK
  8
0
  0
BLOCK
  8
0
  2
TFIELD_00013
 70
     0
 10
375.67364476
 20
-334.17844974
 30
0.0
  0
TEXT
  5
226
  8
TXT_ALL
 10
375.67364476
 20
-334.92844974
 30
0.0
 40
1.5
  1
Onderdeel van
  7
ARIAL
  0
ENDBLK
  8
0
  0
BLOCK
  8
0
  2
_B_M_P___00014
 70
     0
 10
341.56136485
 20
-330.88625783
 30
0.0
  0
ENDBLK
  8
0
  0
BLOCK
  8
0
  2
_B_M_P___00015
 70
     0
 10
389.73442361
 20
-336.56893989
 30
0.0
  0
ENDBLK
  8
0
  0
BLOCK
  8
0
  2
_ANS0003_00016
 70
     0
 10
0.0
 20
0.0
 30
0.0
  0
INSERT
  5
22D
  8
0
  2
_A3D0003_00017
 10
0.0
 20
0.0
 30
0.0
  0
ENDBLK
  8
0
  0
BLOCK
  8
0
  2
_A3D0003_00017
 70
     0
 10
0.0
 20
0.0
 30
0.0
  0
INSERT
  5
230
  8
0
  2
PLAATWERK__D___8MM_00018
 10
0.0
 20
0.0
 30
0.0
  0
ENDBLK
  8
0
  0
BLOCK
  8
0
  2
PLAATWERK__D___8MM_00018
 70
     0
 10
0.0
 20
0.0
 30
0.0
  0
INSERT
  5
233
  8
0
  2
SHEET_FLANGE_00019
 10
0.0
 20
0.0
 30
0.0
  0
INSERT
  5
234
  8
0
  2
BEND_ZONE_00023
 10
0.0
 20
0.0
 30
0.0
  0
INSERT
  5
235
  8
0
  2
SHEET_FLANGE_00025
 10
0.0
 20
0.0
 30
0.0
  0
INSERT
  5
236
  8
0
  2
BEND_ZONE_00027
 10
0.0
 20
0.0
 30
0.0
  0
INSERT
  5
237
  8
0
  2
SHEET_FLANGE_00029
 10
0.0
 20
0.0
 30
0.0
  0
ENDBLK
  8
0
  0
BLOCK
  8
0
  2
SHEET_FLANGE_00019
 70
     0
 10
0.0
 20
0.0
 30
0.0
  0
INSERT
  5
23A
  8
0
  2
SHEET_FLANGE_00020
 10
31.74926344
 20
-269.26741367
 30
0.0
  0
INSERT
  5
23B
  8
0
  2
_00021
 10
0.0
 20
0.0
 30
0.0
  0
ENDBLK
  8
0
  0
BLOCK
  8
0
  2
SHEET_FLANGE_00020
 70
     0
 10
31.74926344
 20
-269.26741367
 30
0.0
  0
LINE
  5
23E
  8
LE_ALL
  6
DOT
 62
     3
 10
31.74926344
 20
-269.26741367
 30
0.0
 11
31.74926344
 21
-269.26741367
 31
0.0
  0
LINE
  5
23F
  8
LE_ALL
  6
DOT
 62
     3
 10
31.74926344
 20
-261.26741367
 30
0.0
 11
31.74926344
 21
-261.26741367
 31
0.0
  0
LINE
  5
240
  8
LE_ALL
  6
DOT
 62
     3
 10
125.74926344
 20
-269.26741367
 30
0.0
 11
125.74926344
 21
-269.26741367
 31
0.0
  0
LINE
  5
241
  8
LE_ALL
  6
DOT
 62
     3
 10
125.74926344
 20
-261.26741367
 30
0.0
 11
125.74926344
 21
-261.26741367
 31
0.0
  0
LINE
  5
242
  8
LE_ALL
  6
DOT
 62
     3
 10
76.24926344
 20
-261.26741367
 30
0.0
 11
76.24926344
 21
-269.26741367
 31
0.0
  0
LINE
  5
243
  8
LE_ALL
  6
DOT
 62
     3
 10
84.24926344
 20
-261.26741367
 30
0.0
 11
84.24926344
 21
-269.26741367
 31
0.0
  0
LINE
  5
244
  8
LE_ALL
  6
DOT
 62
     3
 10
39.24926344
 20
-261.26741367
 30
0.0
 11
39.24926344
 21
-269.26741367
 31
0.0
  0
LINE
  5
245
  8
LE_ALL
  6
DOT
 62
     3
 10
47.24926344
 20
-261.26741367
 30
0.0
 11
47.24926344
 21
-269.26741367
 31
0.0
  0
LINE
  5
246
  8
LE_ALL
  6
DOT
 62
     3
 10
55.24926344
 20
-261.26741367
 30
0.0
 11
55.24926344
 21
-269.26741367
 31
0.0
  0
LINE
  5
247
  8
LE_ALL
  6
DOT
 62
     3
 10
68.24926344
 20
-261.26741367
 30
0.0
 11
68.24926344
 21
-269.26741367
 31
0.0
  0
LINE
  5
248
  8
LE_ALL
 10
31.74926344
 20
-269.26741367
 30
0.0
 11
31.74926344
 21
-261.26741367
 31
0.0
  0
LINE
  5
249
  8
LE_ALL
 10
125.74926344
 20
-261.26741367
 30
0.0
 11
31.74926344
 21
-261.26741367
 31
0.0
  0
LINE
  5
24A
  8
LE_ALL
 10
31.74926344
 20
-269.26741367
 30
0.0
 11
125.74926344
 21
-269.26741367
 31
0.0
  0
ENDBLK
  8
0
  0
BLOCK
  8
0
  2
_00021
 70
     0
 10
0.0
 20
0.0
 30
0.0
  0
INSERT
  5
24D
  8
0
  2
_00022
 10
80.24926344
 20
-259.26741367
 30
0.0
  0
ENDBLK
  8
0
  0
BLOCK
  8
0
  2
_00022
 70
     0
 10
80.24926344
 20
-259.26741367
 30
0.0
  0
LINE
  5
250
  8
LE_ALL
  6
STRICHPUNKT2
 62
     1
 10
80.24926344
 20
-259.26741367
 30
0.0
 11
80.24926344
 21
-271.26741367
 31
0.0
  0
LINE
  5
251
  8
LE_ALL
  6
STRICHPUNKT2
 62
     1
 10
61.74926344
 20
-258.26741367
 30
0.0
 11
61.74926344
 21
-272.26741367
 31
0.0
  0
LINE
  5
252
  8
LE_ALL
  6
STRICHPUNKT2
 62
     1
 10
43.24926344
 20
-259.26741367
 30
0.0
 11
43.24926344
 21
-271.26741367
 31
0.0
  0
LINE
  5
253
  8
LE_ALL
  6
STRICHPUNKT2
 62
     1
 10
43.24926344
 20
-259.26741367
 30
0.0
 11
43.24926344
 21
-271.26741367
 31
0.0
  0
LINE
  5
254
  8
LE_ALL
  6
STRICHPUNKT2
 62
     1
 10
80.24926344
 20
-259.26741367
 30
0.0
 11
80.24926344
 21
-271.26741367
 31
0.0
  0
ENDBLK
  8
0
  0
BLOCK
  8
0
  2
BEND_ZONE_00023
 70
     0
 10
0.0
 20
0.0
 30
0.0
  0
INSERT
  5
257
  8
0
  2
BEND_ZONE_00024
 10
141.74926344
 20
-253.26741367
 30
0.0
  0
ENDBLK
  8
0
  0
BLOCK
  8
0
  2
BEND_ZONE_00024
 70
     0
 10
141.74926344
 20
-253.26741367
 30
0.0
  0
LINE
  5
25A
  8
LE_ALL
  6
DOT
 62
     3
 10
141.74926344
 20
-253.26741367
 30
0.0
 11
141.74926344
 21
-253.26741367
 31
0.0
  0
LINE
  5
25B
  8
LE_ALL
  6
DOT
 62
     3
 10
133.74926344
 20
-253.26741367
 30
0.0
 11
133.74926344
 21
-253.26741367
 31
0.0
  0
LINE
  5
25C
  8
LE_ALL
  6
DOT
 62
     3
 10
125.74926344
 20
-269.26741367
 30
0.0
 11
125.74926344
 21
-269.26741367
 31
0.0
  0
LINE
  5
25D
  8
LE_ALL
  6
DOT
 62
     3
 10
125.74926344
 20
-261.26741367
 30
0.0
 11
125.74926344
 21
-261.26741367
 31
0.0
  0
ARC
  5
25E
  8
LE_ALL
 10
125.74926344
 20
-253.26741367
 30
0.0
 40
16.0
 50
-90.0
 51
0.0
  0
ARC
  5
25F
  8
LE_ALL
 10
125.74926344
 20
-253.26741367
 30
0.0
 40
8.0
 50
-90.0
 51
0.0
  0
ENDBLK
  8
0
  0
BLOCK
  8
0
  2
SHEET_FLANGE_00025
 70
     0
 10
0.0
 20
0.0
 30
0.0
  0
INSERT
  5
262
  8
0
  2
SHEET_FLANGE_00026
 10
141.74926344
 20
-253.26741367
 30
0.0
  0
ENDBLK
  8
0
  0
BLOCK
  8
0
  2
SHEET_FLANGE_00026
 70
     0
 10
141.74926344
 20
-253.26741367
 30
0.0
  0
LINE
  5
265
  8
LE_ALL
  6
DOT
 62
     3
 10
141.74926344
 20
-253.26741367
 30
0.0
 11
141.74926344
 21
-253.26741367
 31
0.0
  0
LINE
  5
266
  8
LE_ALL
  6
DOT
 62
     3
 10
133.74926344
 20
-253.26741367
 30
0.0
 11
133.74926344
 21
-253.26741367
 31
0.0
  0
LINE
  5
267
  8
LE_ALL
  6
DOT
 62
     3
 10
141.74926344
 20
-242.26741367
 30
0.0
 11
141.74926344
 21
-242.26741367
 31
0.0
  0
LINE
  5
268
  8
LE_ALL
  6
DOT
 62
     3
 10
133.74926344
 20
-242.26741367
 30
0.0
 11
133.74926344
 21
-242.26741367
 31
0.0
  0
LINE
  5
269
  8
LE_ALL
 10
133.74926344
 20
-253.26741367
 30
0.0
 11
133.74926344
 21
-242.26741367
 31
0.0
  0
LINE
  5
26A
  8
LE_ALL
 10
141.74926344
 20
-242.26741367
 30
0.0
 11
141.74926344
 21
-253.26741367
 31
0.0
  0
ENDBLK
  8
0
  0
BLOCK
  8
0
  2
BEND_ZONE_00027
 70
     0
 10
0.0
 20
0.0
 30
0.0
  0
INSERT
  5
26D
  8
0
  2
BEND_ZONE_00028
 10
149.74926344
 20
-226.26741367
 30
0.0
  0
ENDBLK
  8
0
  0
BLOCK
  8
0
  2
BEND_ZONE_00028
 70
     0
 10
149.74926344
 20
-226.26741367
 30
0.0
  0
LINE
  5
270
  8
LE_ALL
  6
DOT
 62
     3
 10
149.74926344
 20
-226.26741367
 30
0.0
 11
149.74926344
 21
-226.26741367
 31
0.0
  0
LINE
  5
271
  8
LE_ALL
  6
DOT
 62
     3
 10
149.74926344
 20
-234.26741367
 30
0.0
 11
149.74926344
 21
-234.26741367
 31
0.0
  0
LINE
  5
272
  8
LE_ALL
  6
DOT
 62
     3
 10
133.74926344
 20
-242.26741367
 30
0.0
 11
133.74926344
 21
-242.26741367
 31
0.0
  0
LINE
  5
273
  8
LE_ALL
  6
DOT
 62
     3
 10
141.74926344
 20
-242.26741367
 30
0.0
 11
141.74926344
 21
-242.26741367
 31
0.0
  0
ARC
  5
274
  8
LE_ALL
 10
149.74926344
 20
-242.26741367
 30
0.0
 40
16.0
 50
90.0
 51
180.0
  0
ARC
  5
275
  8
LE_ALL
 10
149.74926344
 20
-242.26741367
 30
0.0
 40
8.0
 50
90.0
 51
180.0
  0
ENDBLK
  8
0
  0
BLOCK
  8
0
  2
SHEET_FLANGE_00029
 70
     0
 10
0.0
 20
0.0
 30
0.0
  0
INSERT
  5
278
  8
0
  2
SHEET_FLANGE_00030
 10
149.74926344
 20
-226.26741367
 30
0.0
  0
INSERT
  5
279
  8
0
  2
_00031
 10
0.0
 20
0.0
 30
0.0
  0
ENDBLK
  8
0
  0
BLOCK
  8
0
  2
SHEET_FLANGE_00030
 70
     0
 10
149.74926344
 20
-226.26741367
 30
0.0
  0
LINE
  5
27C
  8
LE_ALL
  6
DOT
 62
     3
 10
149.74926344
 20
-226.26741367
 30
0.0
 11
149.74926344
 21
-226.26741367
 31
0.0
  0
LINE
  5
27D
  8
LE_ALL
  6
DOT
 62
     3
 10
149.74926344
 20
-234.26741367
 30
0.0
 11
149.74926344
 21
-234.26741367
 31
0.0
  0
LINE
  5
27E
  8
LE_ALL
  6
DOT
 62
     3
 10
278.74926344
 20
-226.26741367
 30
0.0
 11
278.74926344
 21
-226.26741367
 31
0.0
  0
LINE
  5
27F
  8
LE_ALL
  6
DOT
 62
     3
 10
278.74926344
 20
-234.26741367
 30
0.0
 11
278.74926344
 21
-234.26741367
 31
0.0
  0
LINE
  5
280
  8
LE_ALL
  6
DOT
 62
     3
 10
252.24926344
 20
-234.26741367
 30
0.0
 11
252.24926344
 21
-226.26741367
 31
0.0
  0
LINE
  5
281
  8
LE_ALL
  6
DOT
 62
     3
 10
225.24926344
 20
-234.26741367
 30
0.0
 11
225.24926344
 21
-226.26741367
 31
0.0
  0
LINE
  5
282
  8
LE_ALL
  6
DOT
 62
     3
 10
170.24926344
 20
-234.26741367
 30
0.0
 11
170.24926344
 21
-226.26741367
 31
0.0
  0
LINE
  5
283
  8
LE_ALL
  6
DOT
 62
     3
 10
157.24926344
 20
-234.26741367
 30
0.0
 11
157.24926344
 21
-226.26741367
 31
0.0
  0
LINE
  5
284
  8
LE_ALL
  6
DOT
 62
     3
 10
218.74926344
 20
-234.26741367
 30
0.0
 11
218.74926344
 21
-226.26741367
 31
0.0
  0
LINE
  5
285
  8
LE_ALL
  6
DOT
 62
     3
 10
258.74926344
 20
-234.26741367
 30
0.0
 11
258.74926344
 21
-226.26741367
 31
0.0
  0
POLYLINE
  5
286
  8
LE_ALL
 66
     1
 10
0.0
 20
0.0
 30
0.0
  0
VERTEX
  5
287
  8
LE_ALL
 10
278.74926344
 20
-226.26741367
 30
0.0
  0
VERTEX
  5
288
  8
LE_ALL
 10
278.74926344
 20
-234.26741367
 30
0.0
  0
VERTEX
  5
289
  8
LE_ALL
 10
149.74926344
 20
-234.26741367
 30
0.0
  0
SEQEND
  5
28A
  8
LE_ALL
  0
LINE
  5
28B
  8
LE_ALL
 10
149.74926344
 20
-226.26741367
 30
0.0
 11
278.74926344
 21
-226.26741367
 31
0.0
  0
ENDBLK
  8
0
  0
BLOCK
  8
0
  2
_00031
 70
     0
 10
0.0
 20
0.0
 30
0.0
  0
INSERT
  5
28E
  8
0
  2
_00032
 10
163.74926344
 20
-237.26741367
 30
0.0
  0
ENDBLK
  8
0
  0
BLOCK
  8
0
  2
_00032
 70
     0
 10
163.74926344
 20
-237.26741367
 30
0.0
  0
LINE
  5
291
  8
LE_ALL
  6
STRICHPUNKT2
 62
     1
 10
163.74926344
 20
-237.26741367
 30
0.0
 11
163.74926344
 21
-223.26741367
 31
0.0
  0
LINE
  5
292
  8
LE_ALL
  6
STRICHPUNKT2
 62
     1
 10
225.24926344
 20
-237.26741367
 30
0.0
 11
225.24926344
 21
-223.26741367
 31
0.0
  0
LINE
  5
293
  8
LE_ALL
  6
STRICHPUNKT2
 62
     1
 10
252.24926344
 20
-237.26741367
 30
0.0
 11
252.24926344
 21
-223.26741367
 31
0.0
  0
ENDBLK
  8
0
  0
BLOCK
  8
0
  2
_ANS0004_00033
 70
     0
 10
0.0
 20
0.0
 30
0.0
  0
INSERT
  5
296
  8
0
  2
_A3D0004_00034
 10
0.0
 20
0.0
 30
0.0
  0
ENDBLK
  8
0
  0
BLOCK
  8
0
  2
_A3D0004_00034
 70
     0
 10
0.0
 20
0.0
 30
0.0
  0
INSERT
  5
299
  8
0
  2
PLAATWERK__D___8MM_00035
 10
0.0
 20
0.0
 30
0.0
  0
ENDBLK
  8
0
  0
BLOCK
  8
0
  2
PLAATWERK__D___8MM_00035
 70
     0
 10
0.0
 20
0.0
 30
0.0
  0
INSERT
  5
29C
  8
0
  2
SHEET_FLANGE_00036
 10
0.0
 20
0.0
 30
0.0
  0
INSERT
  5
29D
  8
0
  2
BEND_ZONE_00040
 10
0.0
 20
0.0
 30
0.0
  0
INSERT
  5
29E
  8
0
  2
SHEET_FLANGE_00042
 10
0.0
 20
0.0
 30
0.0
  0
INSERT
  5
29F
  8
0
  2
BEND_ZONE_00044
 10
0.0
 20
0.0
 30
0.0
  0
INSERT
  5
2A0
  8
0
  2
SHEET_FLANGE_00046
 10
0.0
 20
0.0
 30
0.0
  0
ENDBLK
  8
0
  0
BLOCK
  8
0
  2
SHEET_FLANGE_00036
 70
     0
 10
0.0
 20
0.0
 30
0.0
  0
INSERT
  5
2A3
  8
0
  2
SHEET_FLANGE_00037
 10
323.58427325
 20
-269.26741367
 30
0.0
  0
INSERT
  5
2A4
  8
0
  2
_00038
 10
0.0
 20
0.0
 30
0.0
  0
ENDBLK
  8
0
  0
BLOCK
  8
0
  2
SHEET_FLANGE_00037
 70
     0
 10
323.58427325
 20
-269.26741367
 30
0.0
  0
LINE
  5
2A7
  8
LE_ALL
  6
DOT
 62
     3
 10
323.58427325
 20
-269.26741367
 30
0.0
 11
323.58427325
 21
-269.26741367
 31
0.0
  0
LINE
  5
2A8
  8
LE_ALL
  6
DOT
 62
     3
 10
323.58427325
 20
-261.26741367
 30
0.0
 11
323.58427325
 21
-261.26741367
 31
0.0
  0
LINE
  5
2A9
  8
LE_ALL
  6
DOT
 62
     3
 10
383.58427325
 20
-269.26741367
 30
0.0
 11
383.58427325
 21
-269.26741367
 31
0.0
  0
LINE
  5
2AA
  8
LE_ALL
  6
DOT
 62
     3
 10
383.58427325
 20
-261.26741367
 30
0.0
 11
383.58427325
 21
-261.26741367
 31
0.0
  0
LINE
  5
2AB
  8
LE_ALL
  6
DOT
 62
     3
 10
331.08427325
 20
-261.26741367
 30
0.0
 11
331.08427325
 21
-269.26741367
 31
0.0
  0
LINE
  5
2AC
  8
LE_ALL
  6
DOT
 62
     3
 10
339.08427325
 20
-261.26741367
 30
0.0
 11
339.08427325
 21
-269.26741367
 31
0.0
  0
LINE
  5
2AD
  8
LE_ALL
  6
DOT
 62
     3
 10
368.08427325
 20
-261.26741367
 30
0.0
 11
368.08427325
 21
-269.26741367
 31
0.0
  0
LINE
  5
2AE
  8
LE_ALL
  6
DOT
 62
     3
 10
376.08427325
 20
-261.26741367
 30
0.0
 11
376.08427325
 21
-269.26741367
 31
0.0
  0
LINE
  5
2AF
  8
LE_ALL
  6
DOT
 62
     3
 10
347.08427325
 20
-261.26741367
 30
0.0
 11
347.08427325
 21
-269.26741367
 31
0.0
  0
LINE
  5
2B0
  8
LE_ALL
  6
DOT
 62
     3
 10
360.08427325
 20
-261.26741367
 30
0.0
 11
360.08427325
 21
-269.26741367
 31
0.0
  0
LINE
  5
2B1
  8
LE_ALL
  6
DOT
 62
     3
 10
383.58427325
 20
-261.26741367
 30
0.0
 11
323.58427325
 21
-261.26741367
 31
0.0
  0
LINE
  5
2B2
  8
LE_ALL
 10
323.58427325
 20
-269.26741367
 30
0.0
 11
383.58427325
 21
-269.26741367
 31
0.0
  0
ENDBLK
  8
0
  0
BLOCK
  8
0
  2
_00038
 70
     0
 10
0.0
 20
0.0
 30
0.0
  0
INSERT
  5
2B5
  8
0
  2
_00039
 10
335.08427325
 20
-259.26741367
 30
0.0
  0
ENDBLK
  8
0
  0
BLOCK
  8
0
  2
_00039
 70
     0
 10
335.08427325
 20
-259.26741367
 30
0.0
  0
LINE
  5
2B8
  8
LE_ALL
  6
STRICHPUNKT2
 62
     1
 10
335.08427325
 20
-259.26741367
 30
0.0
 11
335.08427325
 21
-271.26741367
 31
0.0
  0
LINE
  5
2B9
  8
LE_ALL
  6
STRICHPUNKT2
 62
     1
 10
335.08427325
 20
-259.26741367
 30
0.0
 11
335.08427325
 21
-271.26741367
 31
0.0
  0
LINE
  5
2BA
  8
LE_ALL
  6
STRICHPUNKT2
 62
     1
 10
372.08427325
 20
-259.26741367
 30
0.0
 11
372.08427325
 21
-271.26741367
 31
0.0
  0
LINE
  5
2BB
  8
LE_ALL
  6
STRICHPUNKT2
 62
     1
 10
353.58427325
 20
-258.26741367
 30
0.0
 11
353.58427325
 21
-272.26741367
 31
0.0
  0
LINE
  5
2BC
  8
LE_ALL
  6
STRICHPUNKT2
 62
     1
 10
372.08427325
 20
-259.26741367
 30
0.0
 11
372.08427325
 21
-271.26741367
 31
0.0
  0
ENDBLK
  8
0
  0
BLOCK
  8
0
  2
BEND_ZONE_00040
 70
     0
 10
0.0
 20
0.0
 30
0.0
  0
INSERT
  5
2BF
  8
0
  2
BEND_ZONE_00041
 10
383.58427325
 20
-261.26741367
 30
0.0
  0
ENDBLK
  8
0
  0
BLOCK
  8
0
  2
BEND_ZONE_00041
 70
     0
 10
383.58427325
 20
-261.26741367
 30
0.0
  0
LINE
  5
2C2
  8
LE_ALL
  6
DOT
 62
     3
 10
383.58427325
 20
-261.26741367
 30
0.0
 11
323.58427325
 21
-261.26741367
 31
0.0
  0
POLYLINE
  5
2C3
  8
LE_ALL
 66
     1
 10
0.0
 20
0.0
 30
0.0
  0
VERTEX
  5
2C4
  8
LE_ALL
 10
383.58427325
 20
-269.26741367
 30
0.0
  0
VERTEX
  5
2C5
  8
LE_ALL
 10
323.58427325
 20
-269.26741367
 30
0.0
  0
VERTEX
  5
2C6
  8
LE_ALL
 10
323.58427325
 20
-253.26741367
 30
0.0
  0
SEQEND
  5
2C7
  8
LE_ALL
  0
LINE
  5
2C8
  8
LE_ALL
 10
383.58427325
 20
-253.26741367
 30
0.0
 11
323.58427325
 21
-253.26741367
 31
0.0
  0
LINE
  5
2C9
  8
LE_ALL
 10
383.58427325
 20
-253.26741367
 30
0.0
 11
383.58427325
 21
-269.26741367
 31
0.0
  0
ENDBLK
  8
0
  0
BLOCK
  8
0
  2
SHEET_FLANGE_00042
 70
     0
 10
0.0
 20
0.0
 30
0.0
  0
INSERT
  5
2CC
  8
0
  2
SHEET_FLANGE_00043
 10
323.58427325
 20
-253.26741367
 30
0.0
  0
ENDBLK
  8
0
  0
BLOCK
  8
0
  2
SHEET_FLANGE_00043
 70
     0
 10
323.58427325
 20
-253.26741367
 30
0.0
  0
POLYLINE
  5
2CF
  8
LE_ALL
 66
     1
 10
0.0
 20
0.0
 30
0.0
 70
     1
  0
VERTEX
  5
2D0
  8
LE_ALL
 10
323.58427325
 20
-253.26741367
 30
0.0
  0
VERTEX
  5
2D1
  8
LE_ALL
 10
383.58427325
 20
-253.26741367
 30
0.0
  0
VERTEX
  5
2D2
  8
LE_ALL
 10
383.58427325
 20
-242.26741367
 30
0.0
  0
VERTEX
  5
2D3
  8
LE_ALL
 10
323.58427325
 20
-242.26741367
 30
0.0
  0
SEQEND
  5
2D4
  8
LE_ALL
  0
ENDBLK
  8
0
  0
BLOCK
  8
0
  2
BEND_ZONE_00044
 70
     0
 10
0.0
 20
0.0
 30
0.0
  0
INSERT
  5
2D7
  8
0
  2
BEND_ZONE_00045
 10
323.58427325
 20
-234.26741367
 30
0.0
  0
ENDBLK
  8
0
  0
BLOCK
  8
0
  2
BEND_ZONE_00045
 70
     0
 10
323.58427325
 20
-234.26741367
 30
0.0
  0
LINE
  5
2DA
  8
LE_ALL
  6
DOT
 62
     3
 10
323.58427325
 20
-234.26741367
 30
0.0
 11
383.58427325
 21
-234.26741367
 31
0.0
  0
POLYLINE
  5
2DB
  8
LE_ALL
 66
     1
 10
0.0
 20
0.0
 30
0.0
  0
VERTEX
  5
2DC
  8
LE_ALL
 10
323.58427325
 20
-234.26741367
 30
0.0
  0
VERTEX
  5
2DD
  8
LE_ALL
 10
323.58427325
 20
-242.26741367
 30
0.0
  0
VERTEX
  5
2DE
  8
LE_ALL
 10
383.58427325
 20
-242.26741367
 30
0.0
  0
VERTEX
  5
2DF
  8
LE_ALL
 10
383.58427325
 20
-234.26741367
 30
0.0
  0
SEQEND
  5
2E0
  8
LE_ALL
  0
ENDBLK
  8
0
  0
BLOCK
  8
0
  2
SHEET_FLANGE_00046
 70
     0
 10
0.0
 20
0.0
 30
0.0
  0
INSERT
  5
2E3
  8
0
  2
SHEET_FLANGE_00047
 10
383.58427325
 20
-226.26741367
 30
0.0
  0
INSERT
  5
2E4
  8
0
  2
_00048
 10
0.0
 20
0.0
 30
0.0
  0
ENDBLK
  8
0
  0
BLOCK
  8
0
  2
SHEET_FLANGE_00047
 70
     0
 10
383.58427325
 20
-226.26741367
 30
0.0
  0
LINE
  5
2E7
  8
LE_ALL
  6
DOT
 62
     3
 10
383.58427325
 20
-226.26741367
 30
0.0
 11
383.58427325
 21
-226.26741367
 31
0.0
  0
LINE
  5
2E8
  8
LE_ALL
  6
DOT
 62
     3
 10
383.58427325
 20
-234.26741367
 30
0.0
 11
383.58427325
 21
-234.26741367
 31
0.0
  0
LINE
  5
2E9
  8
LE_ALL
  6
DOT
 62
     3
 10
323.58427325
 20
-226.26741367
 30
0.0
 11
323.58427325
 21
-226.26741367
 31
0.0
  0
LINE
  5
2EA
  8
LE_ALL
  6
DOT
 62
     3
 10
323.58427325
 20
-234.26741367
 30
0.0
 11
323.58427325
 21
-234.26741367
 31
0.0
  0
LINE
  5
2EB
  8
LE_ALL
  6
DOT
 62
     3
 10
360.08427325
 20
-226.26741367
 30
0.0
 11
360.08427325
 21
-226.26741367
 31
0.0
  0
LINE
  5
2EC
  8
LE_ALL
  6
DOT
 62
     3
 10
347.08427325
 20
-226.26741367
 30
0.0
 11
347.08427325
 21
-226.26741367
 31
0.0
  0
LINE
  5
2ED
  8
LE_ALL
  6
DOT
 62
     3
 10
347.08427325
 20
-234.26741367
 30
0.0
 11
347.08427325
 21
-234.26741367
 31
0.0
  0
LINE
  5
2EE
  8
LE_ALL
  6
DOT
 62
     3
 10
360.08427325
 20
-234.26741367
 30
0.0
 11
360.08427325
 21
-234.26741367
 31
0.0
  0
LINE
  5
2EF
  8
LE_ALL
  6
DOT
 62
     3
 10
347.08427325
 20
-234.26741367
 30
0.0
 11
347.08427325
 21
-226.26741367
 31
0.0
  0
LINE
  5
2F0
  8
LE_ALL
  6
DOT
 62
     3
 10
360.08427325
 20
-234.26741367
 30
0.0
 11
360.08427325
 21
-226.26741367
 31
0.0
  0
POLYLINE
  5
2F1
  8
LE_ALL
 66
     1
 10
0.0
 20
0.0
 30
0.0
  0
VERTEX
  5
2F2
  8
LE_ALL
 10
383.58427325
 20
-226.26741367
 30
0.0
  0
VERTEX
  5
2F3
  8
LE_ALL
 10
383.58427325
 20
-234.26741367
 30
0.0
  0
VERTEX
  5
2F4
  8
LE_ALL
 10
323.58427325
 20
-234.26741367
 30
0.0
  0
SEQEND
  5
2F5
  8
LE_ALL
  0
LINE
  5
2F6
  8
LE_ALL
 10
323.58427325
 20
-226.26741367
 30
0.0
 11
323.58427325
 21
-234.26741367
 31
0.0
  0
LINE
  5
2F7
  8
LE_ALL
 10
323.58427325
 20
-226.26741367
 30
0.0
 11
383.58427325
 21
-226.26741367
 31
0.0
  0
ENDBLK
  8
0
  0
BLOCK
  8
0
  2
_00048
 70
     0
 10
0.0
 20
0.0
 30
0.0
  0
INSERT
  5
2FA
  8
0
  2
_00049
 10
353.58427325
 20
-237.26741367
 30
0.0
  0
ENDBLK
  8
0
  0
BLOCK
  8
0
  2
_00049
 70
     0
 10
353.58427325
 20
-237.26741367
 30
0.0
  0
LINE
  5
2FD
  8
LE_ALL
  6
STRICHPUNKT2
 62
     1
 10
353.58427325
 20
-237.26741367
 30
0.0
 11
353.58427325
 21
-223.26741367
 31
0.0
  0
LINE
  5
2FE
  8
LE_ALL
  6
STRICHPUNKT2
 62
     1
 10
353.58427325
 20
-237.26741367
 30
0.0
 11
353.58427325
 21
-223.26741367
 31
0.0
  0
LINE
  5
2FF
  8
LE_ALL
  6
STRICHPUNKT2
 62
     1
 10
353.58427325
 20
-237.26741367
 30
0.0
 11
353.58427325
 21
-223.26741367
 31
0.0
  0
ENDBLK
  8
0
  0
BLOCK
  8
0
  2
_ANS0005_00050
 70
     0
 10
0.0
 20
0.0
 30
0.0
  0
INSERT
  5
302
  8
0
  2
_A3D0005_00051
 10
0.0
 20
0.0
 30
0.0
  0
ENDBLK
  8
0
  0
BLOCK
  8
0
  2
_A3D0005_00051
 70
     0
 10
0.0
 20
0.0
 30
0.0
  0
INSERT
  5
305
  8
0
  2
PLAATWERK__D___8MM_00052
 10
0.0
 20
0.0
 30
0.0
  0
ENDBLK
  8
0
  0
BLOCK
  8
0
  2
PLAATWERK__D___8MM_00052
 70
     0
 10
0.0
 20
0.0
 30
0.0
  0
INSERT
  5
308
  8
0
  2
SHEET_FLANGE_00053
 10
0.0
 20
0.0
 30
0.0
  0
INSERT
  5
309
  8
0
  2
BEND_ZONE_00057
 10
0.0
 20
0.0
 30
0.0
  0
INSERT
  5
30A
  8
0
  2
SHEET_FLANGE_00059
 10
0.0
 20
0.0
 30
0.0
  0
INSERT
  5
30B
  8
0
  2
BEND_ZONE_00061
 10
0.0
 20
0.0
 30
0.0
  0
INSERT
  5
30C
  8
0
  2
SHEET_FLANGE_00063
 10
0.0
 20
0.0
 30
0.0
  0
ENDBLK
  8
0
  0
BLOCK
  8
0
  2
SHEET_FLANGE_00053
 70
     0
 10
0.0
 20
0.0
 30
0.0
  0
INSERT
  5
30F
  8
0
  2
SHEET_FLANGE_00054
 10
31.74926344
 20
-176.94908336
 30
0.0
  0
INSERT
  5
310
  8
0
  2
_00055
 10
0.0
 20
0.0
 30
0.0
  0
ENDBLK
  8
0
  0
BLOCK
  8
0
  2
SHEET_FLANGE_00054
 70
     0
 10
31.74926344
 20
-176.94908336
 30
0.0
  0
LINE
  5
313
  8
LE_ALL
  6
DOT
 62
     3
 10
31.74926344
 20
-176.94908336
 30
0.0
 11
31.74926344
 21
-176.94908336
 31
0.0
  0
LINE
  5
314
  8
LE_ALL
  6
DOT
 62
     3
 10
31.74926344
 20
-116.94908336
 30
0.0
 11
31.74926344
 21
-116.94908336
 31
0.0
  0
CIRCLE
  5
315
  8
LE_ALL
 10
61.74926344
 20
-146.94908336
 30
0.0
 40
6.5
  0
CIRCLE
  5
316
  8
LE_ALL
 10
43.24926344
 20
-128.44908336
 30
0.0
 40
4.0
  0
CIRCLE
  5
317
  8
LE_ALL
 10
43.24926344
 20
-165.44908336
 30
0.0
 40
4.0
  0
CIRCLE
  5
318
  8
LE_ALL
 10
80.24926344
 20
-128.44908336
 30
0.0
 40
4.0
  0
CIRCLE
  5
319
  8
LE_ALL
 10
80.24926344
 20
-165.44908336
 30
0.0
 40
4.0
  0
POLYLINE
  5
31A
  8
LE_ALL
 66
     1
 10
0.0
 20
0.0
 30
0.0
 70
     1
  0
VERTEX
  5
31B
  8
LE_ALL
 10
125.74926344
 20
-176.94908336
 30
0.0
  0
VERTEX
  5
31C
  8
LE_ALL
 10
31.74926344
 20
-176.94908336
 30
0.0
  0
VERTEX
  5
31D
  8
LE_ALL
 10
31.74926344
 20
-116.94908336
 30
0.0
  0
VERTEX
  5
31E
  8
LE_ALL
 10
125.74926344
 20
-116.94908336
 30
0.0
  0
SEQEND
  5
31F
  8
LE_ALL
  0
ENDBLK
  8
0
  0
BLOCK
  8
0
  2
_00055
 70
     0
 10
0.0
 20
0.0
 30
0.0
  0
INSERT
  5
322
  8
0
  2
_00056
 10
80.24926344
 20
-165.44908336
 30
0.0
  0
ENDBLK
  8
0
  0
BLOCK
  8
0
  2
_00056
 70
     0
 10
80.24926344
 20
-165.44908336
 30
0.0
  0
LINE
  5
325
  8
LE_ALL
  6
STRICHPUNKT2
 62
     1
 10
80.24926344
 20
-165.44908336
 30
0.0
 11
80.24926344
 21
-159.44908336
 31
0.0
  0
LINE
  5
326
  8
LE_ALL
  6
STRICHPUNKT2
 62
     1
 10
80.24926344
 20
-165.44908336
 30
0.0
 11
80.24926344
 21
-171.44908336
 31
0.0
  0
LINE
  5
327
  8
LE_ALL
  6
STRICHPUNKT2
 62
     1
 10
80.24926344
 20
-165.44908336
 30
0.0
 11
74.24926344
 21
-165.44908336
 31
0.0
  0
LINE
  5
328
  8
LE_ALL
  6
STRICHPUNKT2
 62
     1
 10
80.24926344
 20
-165.44908336
 30
0.0
 11
86.24926344
 21
-165.44908336
 31
0.0
  0
LINE
  5
329
  8
LE_ALL
  6
STRICHPUNKT2
 62
     1
 10
80.24926344
 20
-165.44908336
 30
0.0
 11
80.24926344
 21
-159.44908336
 31
0.0
  0
LINE
  5
32A
  8
LE_ALL
  6
STRICHPUNKT2
 62
     1
 10
80.24926344
 20
-165.44908336
 30
0.0
 11
80.24926344
 21
-171.44908336
 31
0.0
  0
LINE
  5
32B
  8
LE_ALL
  6
STRICHPUNKT2
 62
     1
 10
80.24926344
 20
-165.44908336
 30
0.0
 11
74.24926344
 21
-165.44908336
 31
0.0
  0
LINE
  5
32C
  8
LE_ALL
  6
STRICHPUNKT2
 62
     1
 10
80.24926344
 20
-165.44908336
 30
0.0
 11
86.24926344
 21
-165.44908336
 31
0.0
  0
LINE
  5
32D
  8
LE_ALL
  6
STRICHPUNKT2
 62
     1
 10
80.24926344
 20
-128.44908336
 30
0.0
 11
80.24926344
 21
-122.44908336
 31
0.0
  0
LINE
  5
32E
  8
LE_ALL
  6
STRICHPUNKT2
 62
     1
 10
80.24926344
 20
-128.44908336
 30
0.0
 11
80.24926344
 21
-134.44908336
 31
0.0
  0
LINE
  5
32F
  8
LE_ALL
  6
STRICHPUNKT2
 62
     1
 10
80.24926344
 20
-128.44908336
 30
0.0
 11
74.24926344
 21
-128.44908336
 31
0.0
  0
LINE
  5
330
  8
LE_ALL
  6
STRICHPUNKT2
 62
     1
 10
80.24926344
 20
-128.44908336
 30
0.0
 11
86.24926344
 21
-128.44908336
 31
0.0
  0
LINE
  5
331
  8
LE_ALL
  6
STRICHPUNKT2
 62
     1
 10
80.24926344
 20
-128.44908336
 30
0.0
 11
80.24926344
 21
-122.44908336
 31
0.0
  0
LINE
  5
332
  8
LE_ALL
  6
STRICHPUNKT2
 62
     1
 10
80.24926344
 20
-128.44908336
 30
0.0
 11
80.24926344
 21
-134.44908336
 31
0.0
  0
LINE
  5
333
  8
LE_ALL
  6
STRICHPUNKT2
 62
     1
 10
80.24926344
 20
-128.44908336
 30
0.0
 11
74.24926344
 21
-128.44908336
 31
0.0
  0
LINE
  5
334
  8
LE_ALL
  6
STRICHPUNKT2
 62
     1
 10
80.24926344
 20
-128.44908336
 30
0.0
 11
86.24926344
 21
-128.44908336
 31
0.0
  0
LINE
  5
335
  8
LE_ALL
  6
STRICHPUNKT2
 62
     1
 10
43.24926344
 20
-165.44908336
 30
0.0
 11
43.24926344
 21
-159.44908336
 31
0.0
  0
LINE
  5
336
  8
LE_ALL
  6
STRICHPUNKT2
 62
     1
 10
43.24926344
 20
-165.44908336
 30
0.0
 11
43.24926344
 21
-171.44908336
 31
0.0
  0
LINE
  5
337
  8
LE_ALL
  6
STRICHPUNKT2
 62
     1
 10
43.24926344
 20
-165.44908336
 30
0.0
 11
37.24926344
 21
-165.44908336
 31
0.0
  0
LINE
  5
338
  8
LE_ALL
  6
STRICHPUNKT2
 62
     1
 10
43.24926344
 20
-165.44908336
 30
0.0
 11
49.24926344
 21
-165.44908336
 31
0.0
  0
LINE
  5
339
  8
LE_ALL
  6
STRICHPUNKT2
 62
     1
 10
43.24926344
 20
-165.44908336
 30
0.0
 11
43.24926344
 21
-159.44908336
 31
0.0
  0
LINE
  5
33A
  8
LE_ALL
  6
STRICHPUNKT2
 62
     1
 10
43.24926344
 20
-165.44908336
 30
0.0
 11
43.24926344
 21
-171.44908336
 31
0.0
  0
LINE
  5
33B
  8
LE_ALL
  6
STRICHPUNKT2
 62
     1
 10
43.24926344
 20
-165.44908336
 30
0.0
 11
37.24926344
 21
-165.44908336
 31
0.0
  0
LINE
  5
33C
  8
LE_ALL
  6
STRICHPUNKT2
 62
     1
 10
43.24926344
 20
-165.44908336
 30
0.0
 11
49.24926344
 21
-165.44908336
 31
0.0
  0
LINE
  5
33D
  8
LE_ALL
  6
STRICHPUNKT2
 62
     1
 10
43.24926344
 20
-128.44908336
 30
0.0
 11
43.24926344
 21
-122.44908336
 31
0.0
  0
LINE
  5
33E
  8
LE_ALL
  6
STRICHPUNKT2
 62
     1
 10
43.24926344
 20
-128.44908336
 30
0.0
 11
43.24926344
 21
-134.44908336
 31
0.0
  0
LINE
  5
33F
  8
LE_ALL
  6
STRICHPUNKT2
 62
     1
 10
43.24926344
 20
-128.44908336
 30
0.0
 11
37.24926344
 21
-128.44908336
 31
0.0
  0
LINE
  5
340
  8
LE_ALL
  6
STRICHPUNKT2
 62
     1
 10
43.24926344
 20
-128.44908336
 30
0.0
 11
49.24926344
 21
-128.44908336
 31
0.0
  0
LINE
  5
341
  8
LE_ALL
  6
STRICHPUNKT2
 62
     1
 10
43.24926344
 20
-128.44908336
 30
0.0
 11
43.24926344
 21
-122.44908336
 31
0.0
  0
LINE
  5
342
  8
LE_ALL
  6
STRICHPUNKT2
 62
     1
 10
43.24926344
 20
-128.44908336
 30
0.0
 11
43.24926344
 21
-134.44908336
 31
0.0
  0
LINE
  5
343
  8
LE_ALL
  6
STRICHPUNKT2
 62
     1
 10
43.24926344
 20
-128.44908336
 30
0.0
 11
37.24926344
 21
-128.44908336
 31
0.0
  0
LINE
  5
344
  8
LE_ALL
  6
STRICHPUNKT2
 62
     1
 10
43.24926344
 20
-128.44908336
 30
0.0
 11
49.24926344
 21
-128.44908336
 31
0.0
  0
LINE
  5
345
  8
LE_ALL
  6
STRICHPUNKT2
 62
     1
 10
61.74926344
 20
-146.94908336
 30
0.0
 11
71.24926344
 21
-146.94908336
 31
0.0
  0
LINE
  5
346
  8
LE_ALL
  6
STRICHPUNKT2
 62
     1
 10
61.74926344
 20
-146.94908336
 30
0.0
 11
52.24926344
 21
-146.94908336
 31
0.0
  0
LINE
  5
347
  8
LE_ALL
  6
STRICHPUNKT2
 62
     1
 10
61.74926344
 20
-146.94908336
 30
0.0
 11
61.74926344
 21
-137.44908336
 31
0.0
  0
LINE
  5
348
  8
LE_ALL
  6
STRICHPUNKT2
 62
     1
 10
61.74926344
 20
-146.94908336
 30
0.0
 11
61.74926344
 21
-156.44908336
 31
0.0
  0
LINE
  5
349
  8
LE_ALL
  6
STRICHPUNKT2
 62
     1
 10
61.74926344
 20
-146.94908336
 30
0.0
 11
71.24926344
 21
-146.94908336
 31
0.0
  0
LINE
  5
34A
  8
LE_ALL
  6
STRICHPUNKT2
 62
     1
 10
61.74926344
 20
-146.94908336
 30
0.0
 11
52.24926344
 21
-146.94908336
 31
0.0
  0
LINE
  5
34B
  8
LE_ALL
  6
STRICHPUNKT2
 62
     1
 10
61.74926344
 20
-146.94908336
 30
0.0
 11
61.74926344
 21
-137.44908336
 31
0.0
  0
LINE
  5
34C
  8
LE_ALL
  6
STRICHPUNKT2
 62
     1
 10
61.74926344
 20
-146.94908336
 30
0.0
 11
61.74926344
 21
-156.44908336
 31
0.0
  0
ENDBLK
  8
0
  0
BLOCK
  8
0
  2
BEND_ZONE_00057
 70
     0
 10
0.0
 20
0.0
 30
0.0
  0
INSERT
  5
34F
  8
0
  2
BEND_ZONE_00058
 10
133.74926344
 20
-116.94908336
 30
0.0
  0
ENDBLK
  8
0
  0
BLOCK
  8
0
  2
BEND_ZONE_00058
 70
     0
 10
133.74926344
 20
-116.94908336
 30
0.0
  0
LINE
  5
352
  8
LE_ALL
  6
DOT
 62
     3
 10
133.74926344
 20
-116.94908336
 30
0.0
 11
133.74926344
 21
-176.94908336
 31
0.0
  0
POLYLINE
  5
353
  8
LE_ALL
 66
     1
 10
0.0
 20
0.0
 30
0.0
  0
VERTEX
  5
354
  8
LE_ALL
 10
133.74926344
 20
-116.94908336
 30
0.0
  0
VERTEX
  5
355
  8
LE_ALL
 10
125.74926344
 20
-116.94908336
 30
0.0
  0
VERTEX
  5
356
  8
LE_ALL
 10
125.74926344
 20
-176.94908336
 30
0.0
  0
VERTEX
  5
357
  8
LE_ALL
 10
133.74926344
 20
-176.94908336
 30
0.0
  0
SEQEND
  5
358
  8
LE_ALL
  0
ENDBLK
  8
0
  0
BLOCK
  8
0
  2
SHEET_FLANGE_00059
 70
     0
 10
0.0
 20
0.0
 30
0.0
  0
INSERT
  5
35B
  8
0
  2
SHEET_FLANGE_00060
 10
141.74926344
 20
-176.94908336
 30
0.0
  0
ENDBLK
  8
0
  0
BLOCK
  8
0
  2
SHEET_FLANGE_00060
 70
     0
 10
141.74926344
 20
-176.94908336
 30
0.0
  0
LINE
  5
35E
  8
LE_ALL
  6
DOT
 62
     3
 10
141.74926344
 20
-176.94908336
 30
0.0
 11
141.74926344
 21
-176.94908336
 31
0.0
  0
LINE
  5
35F
  8
LE_ALL
  6
DOT
 62
     3
 10
133.74926344
 20
-176.94908336
 30
0.0
 11
133.74926344
 21
-176.94908336
 31
0.0
  0
LINE
  5
360
  8
LE_ALL
  6
DOT
 62
     3
 10
141.74926344
 20
-116.94908336
 30
0.0
 11
141.74926344
 21
-116.94908336
 31
0.0
  0
LINE
  5
361
  8
LE_ALL
  6
DOT
 62
     3
 10
133.74926344
 20
-116.94908336
 30
0.0
 11
133.74926344
 21
-116.94908336
 31
0.0
  0
LINE
  5
362
  8
LE_ALL
 10
133.74926344
 20
-176.94908336
 30
0.0
 11
133.74926344
 21
-116.94908336
 31
0.0
  0
LINE
  5
363
  8
LE_ALL
  6
DOT
 62
     3
 10
141.74926344
 20
-116.94908336
 30
0.0
 11
141.74926344
 21
-176.94908336
 31
0.0
  0
ENDBLK
  8
0
  0
BLOCK
  8
0
  2
BEND_ZONE_00061
 70
     0
 10
0.0
 20
0.0
 30
0.0
  0
INSERT
  5
366
  8
0
  2
BEND_ZONE_00062
 10
141.74926344
 20
-176.94908336
 30
0.0
  0
ENDBLK
  8
0
  0
BLOCK
  8
0
  2
BEND_ZONE_00062
 70
     0
 10
141.74926344
 20
-176.94908336
 30
0.0
  0
LINE
  5
369
  8
LE_ALL
  6
DOT
 62
     3
 10
141.74926344
 20
-176.94908336
 30
0.0
 11
141.74926344
 21
-116.94908336
 31
0.0
  0
POLYLINE
  5
36A
  8
LE_ALL
 66
     1
 10
0.0
 20
0.0
 30
0.0
  0
VERTEX
  5
36B
  8
LE_ALL
 10
133.74926344
 20
-176.94908336
 30
0.0
  0
VERTEX
  5
36C
  8
LE_ALL
 10
133.74926344
 20
-116.94908336
 30
0.0
  0
VERTEX
  5
36D
  8
LE_ALL
 10
149.74926344
 20
-116.94908336
 30
0.0
  0
SEQEND
  5
36E
  8
LE_ALL
  0
LINE
  5
36F
  8
LE_ALL
 10
149.74926344
 20
-176.94908336
 30
0.0
 11
149.74926344
 21
-116.94908336
 31
0.0
  0
LINE
  5
370
  8
LE_ALL
 10
149.74926344
 20
-176.94908336
 30
0.0
 11
133.74926344
 21
-176.94908336
 31
0.0
  0
ENDBLK
  8
0
  0
BLOCK
  8
0
  2
SHEET_FLANGE_00063
 70
     0
 10
0.0
 20
0.0
 30
0.0
  0
INSERT
  5
373
  8
0
  2
SHEET_FLANGE_00064
 10
278.74926344
 20
-116.94908336
 30
0.0
  0
INSERT
  5
374
  8
0
  2
_00065
 10
0.0
 20
0.0
 30
0.0
  0
ENDBLK
  8
0
  0
BLOCK
  8
0
  2
SHEET_FLANGE_00064
 70
     0
 10
278.74926344
 20
-116.94908336
 30
0.0
  0
LINE
  5
377
  8
LE_ALL
  6
DOT
 62
     3
 10
278.74926344
 20
-116.94908336
 30
0.0
 11
278.74926344
 21
-116.94908336
 31
0.0
  0
LINE
  5
378
  8
LE_ALL
  6
DOT
 62
     3
 10
278.74926344
 20
-176.94908336
 30
0.0
 11
278.74926344
 21
-176.94908336
 31
0.0
  0
LINE
  5
379
  8
LE_ALL
  6
DOT
 62
     3
 10
252.24926344
 20
-153.44908336
 30
0.0
 11
252.24926344
 21
-153.44908336
 31
0.0
  0
LINE
  5
37A
  8
LE_ALL
  6
DOT
 62
     3
 10
225.24926344
 20
-153.44908336
 30
0.0
 11
225.24926344
 21
-153.44908336
 31
0.0
  0
LINE
  5
37B
  8
LE_ALL
  6
DOT
 62
     3
 10
252.24926344
 20
-140.44908336
 30
0.0
 11
252.24926344
 21
-140.44908336
 31
0.0
  0
LINE
  5
37C
  8
LE_ALL
  6
DOT
 62
     3
 10
225.24926344
 20
-140.44908336
 30
0.0
 11
225.24926344
 21
-140.44908336
 31
0.0
  0
POLYLINE
  5
37D
  8
LE_ALL
 66
     1
 10
0.0
 20
0.0
 30
0.0
 70
     1
  0
VERTEX
  5
37E
  8
LE_ALL
 10
225.24926344
 20
-153.44908336
 30
0.0
 42
-1.0
  0
VERTEX
  5
37F
  8
LE_ALL
 10
225.24926344
 20
-140.44908336
 30
0.0
  0
VERTEX
  5
380
  8
LE_ALL
 10
252.24926344
 20
-140.44908336
 30
0.0
 42
-1.0
  0
VERTEX
  5
381
  8
LE_ALL
 10
252.24926344
 20
-153.44908336
 30
0.0
  0
SEQEND
  5
382
  8
LE_ALL
  0
CIRCLE
  5
383
  8
LE_ALL
 10
163.74926344
 20
-146.94908336
 30
0.0
 40
6.5
  0
POLYLINE
  5
384
  8
LE_ALL
 66
     1
 10
0.0
 20
0.0
 30
0.0
 70
     1
  0
VERTEX
  5
385
  8
LE_ALL
 10
149.74926344
 20
-116.94908336
 30
0.0
  0
VERTEX
  5
386
  8
LE_ALL
 10
149.74926344
 20
-176.94908336
 30
0.0
  0
VERTEX
  5
387
  8
LE_ALL
 10
278.74926344
 20
-176.94908336
 30
0.0
  0
VERTEX
  5
388
  8
LE_ALL
 10
278.74926344
 20
-116.94908336
 30
0.0
  0
SEQEND
  5
389
  8
LE_ALL
  0
ENDBLK
  8
0
  0
BLOCK
  8
0
  2
_00065
 70
     0
 10
0.0
 20
0.0
 30
0.0
  0
INSERT
  5
38C
  8
0
  2
_00066
 10
163.74926344
 20
-146.94908336
 30
0.0
  0
ENDBLK
  8
0
  0
BLOCK
  8
0
  2
_00066
 70
     0
 10
163.74926344
 20
-146.94908336
 30
0.0
  0
LINE
  5
38F
  8
LE_ALL
  6
STRICHPUNKT2
 62
     1
 10
163.74926344
 20
-146.94908336
 30
0.0
 11
173.24926344
 21
-146.94908336
 31
0.0
  0
LINE
  5
390
  8
LE_ALL
  6
STRICHPUNKT2
 62
     1
 10
163.74926344
 20
-146.94908336
 30
0.0
 11
154.24926344
 21
-146.94908336
 31
0.0
  0
LINE
  5
391
  8
LE_ALL
  6
STRICHPUNKT2
 62
     1
 10
163.74926344
 20
-146.94908336
 30
0.0
 11
163.74926344
 21
-137.44908336
 31
0.0
  0
LINE
  5
392
  8
LE_ALL
  6
STRICHPUNKT2
 62
     1
 10
163.74926344
 20
-146.94908336
 30
0.0
 11
163.74926344
 21
-156.44908336
 31
0.0
  0
LINE
  5
393
  8
LE_ALL
  6
STRICHPUNKT2
 62
     1
 10
163.74926344
 20
-146.94908336
 30
0.0
 11
173.24926344
 21
-146.94908336
 31
0.0
  0
LINE
  5
394
  8
LE_ALL
  6
STRICHPUNKT2
 62
     1
 10
163.74926344
 20
-146.94908336
 30
0.0
 11
154.24926344
 21
-146.94908336
 31
0.0
  0
LINE
  5
395
  8
LE_ALL
  6
STRICHPUNKT2
 62
     1
 10
163.74926344
 20
-146.94908336
 30
0.0
 11
163.74926344
 21
-137.44908336
 31
0.0
  0
LINE
  5
396
  8
LE_ALL
  6
STRICHPUNKT2
 62
     1
 10
163.74926344
 20
-146.94908336
 30
0.0
 11
163.74926344
 21
-156.44908336
 31
0.0
  0
LINE
  5
397
  8
LE_ALL
  6
STRICHPUNKT2
 62
     1
 10
215.74926344
 20
-146.94908336
 30
0.0
 11
261.74926344
 21
-146.94908336
 31
0.0
  0
LINE
  5
398
  8
LE_ALL
  6
STRICHPUNKT2
 62
     1
 10
225.24926344
 20
-156.44908336
 30
0.0
 11
225.24926344
 21
-137.44908336
 31
0.0
  0
LINE
  5
399
  8
LE_ALL
  6
STRICHPUNKT2
 62
     1
 10
252.24926344
 20
-156.44908336
 30
0.0
 11
252.24926344
 21
-137.44908336
 31
0.0
  0
LINE
  5
39A
  8
LE_ALL
  6
STRICHPUNKT2
 62
     1
 10
215.74926344
 20
-146.94908336
 30
0.0
 11
261.74926344
 21
-146.94908336
 31
0.0
  0
LINE
  5
39B
  8
LE_ALL
  6
STRICHPUNKT2
 62
     1
 10
225.24926344
 20
-156.44908336
 30
0.0
 11
225.24926344
 21
-137.44908336
 31
0.0
  0
LINE
  5
39C
  8
LE_ALL
  6
STRICHPUNKT2
 62
     1
 10
252.24926344
 20
-156.44908336
 30
0.0
 11
252.24926344
 21
-137.44908336
 31
0.0
  0
ENDBLK
  8
0
  0
BLOCK
  8
0
  2
_ANS0006_00067
 70
     0
 10
0.0
 20
0.0
 30
0.0
  0
INSERT
  5
39F
  8
0
  2
_A3D0006_00068
 10
0.0
 20
0.0
 30
0.0
  0
ENDBLK
  8
0
  0
BLOCK
  8
0
  2
_A3D0006_00068
 70
     0
 10
0.0
 20
0.0
 30
0.0
  0
INSERT
  5
3A2
  8
0
  2
PLAATWERK__D___8MM_00069
 10
0.0
 20
0.0
 30
0.0
  0
ENDBLK
  8
0
  0
BLOCK
  8
0
  2
PLAATWERK__D___8MM_00069
 70
     0
 10
0.0
 20
0.0
 30
0.0
  0
INSERT
  5
3A5
  8
0
  2
SHEET_FLANGE_00070
 10
0.0
 20
0.0
 30
0.0
  0
INSERT
  5
3A6
  8
0
  2
BEND_ZONE_00074
 10
0.0
 20
0.0
 30
0.0
  0
INSERT
  5
3A7
  8
0
  2
SHEET_FLANGE_00076
 10
0.0
 20
0.0
 30
0.0
  0
INSERT
  5
3A8
  8
0
  2
BEND_ZONE_00078
 10
0.0
 20
0.0
 30
0.0
  0
INSERT
  5
3A9
  8
0
  2
SHEET_FLANGE_00080
 10
0.0
 20
0.0
 30
0.0
  0
ENDBLK
  8
0
  0
BLOCK
  8
0
  2
SHEET_FLANGE_00070
 70
     0
 10
0.0
 20
0.0
 30
0.0
  0
INSERT
  5
3AC
  8
0
  2
SHEET_FLANGE_00071
 10
285.51424302
 20
-84.16749142
 30
0.0
  0
INSERT
  5
3AD
  8
0
  2
_00072
 10
0.0
 20
0.0
 30
0.0
  0
ENDBLK
  8
0
  0
BLOCK
  8
0
  2
SHEET_FLANGE_00071
 70
     0
 10
285.51424302
 20
-84.16749142
 30
0.0
  0
POLYLINE
  5
3B0
  8
LE_ALL
 66
     1
 10
0.0
 20
0.0
 30
0.0
  0
VERTEX
  5
5F5
  8
LE_ALL
 10
285.51424302
 20
-84.16749142
 30
0.0
  0
VERTEX
  5
5F6
  8
LE_ALL
 10
285.4517951814527
 20
-83.95614357350107
 30
0.0
  0
VERTEX
  5
5F7
  8
LE_ALL
 10
285.2668515012198
 20
-83.75291770619934
 30
0.0
  0
VERTEX
  5
5F8
  8
LE_ALL
 10
284.9665192611986
 20
-83.56562367418707
 30
0.0
  0
VERTEX
  5
5F9
  8
LE_ALL
 10
284.5623400609187
 20
-83.40145908206237
 30
0.0
  0
VERTEX
  5
5FA
  8
LE_ALL
 10
284.0698462803451
 20
-83.26673268302169
 30
0.0
  0
VERTEX
  5
5FB
  8
LE_ALL
 10
283.5079641792286
 20
-83.16662193701289
 30
0.0
  0
VERTEX
  5
5FC
  8
LE_ALL
 10
282.8982865715586
 20
-83.1049740438536
 30
0.0
  0
VERTEX
  5
5FD
  8
LE_ALL
 10
282.2642430258334
 20
-83.08415809750001
 30
0.0
  0
VERTEX
  5
5FE
  8
LE_ALL
 10
281.6301994798841
 20
-83.10497404309491
 30
0.0
  0
VERTEX
  5
5FF
  8
LE_ALL
 10
281.0205218715502
 20
-83.16662193552466
 30
0.0
  0
VERTEX
  5
600
  8
LE_ALL
 10
280.4586397693554
 20
-83.2667326808611
 30
0.0
  0
VERTEX
  5
601
  8
LE_ALL
 10
279.9661459873309
 20
-83.40145907931247
 30
0.0
  0
VERTEX
  5
602
  8
LE_ALL
 10
279.5619667852831
 20
-83.56562367095353
 30
0.0
  0
VERTEX
  5
603
  8
LE_ALL
 10
279.2616345432449
 20
-83.75291770260642
 30
0.0
  0
VERTEX
  5
604
  8
LE_ALL
 10
279.0766908608233
 20
-83.95614356968684
 30
0.0
  0
VERTEX
  5
605
  8
LE_ALL
 10
279.01424302
 20
-84.16749141611106
 30
0.0
  0
SEQEND
  5
716
  8
LE_ALL
  0
POLYLINE
  5
3B1
  8
LE_ALL
 66
     1
 10
0.0
 20
0.0
 30
0.0
  0
VERTEX
  5
606
  8
LE_ALL
 10
279.01424302
 20
-84.16749141611106
 30
0.0
  0
VERTEX
  5
607
  8
LE_ALL
 10
279.0766908565557
 20
-84.37883926316151
 30
0.0
  0
VERTEX
  5
608
  8
LE_ALL
 10
279.2616345354317
 20
-84.58206513110598
 30
0.0
  0
VERTEX
  5
609
  8
LE_ALL
 10
279.5619667747503
 20
-84.76935916379198
 30
0.0
  0
VERTEX
  5
60A
  8
LE_ALL
 10
279.9661459749564
 20
-84.93352375656268
 30
0.0
  0
VERTEX
  5
60B
  8
LE_ALL
 10
280.4586397560171
 20
-85.0682501561681
 30
0.0
  0
VERTEX
  5
60C
  8
LE_ALL
 10
281.0205218580767
 20
-85.16836090261506
 30
0.0
  0
VERTEX
  5
60D
  8
LE_ALL
 10
281.6301994670111
 20
-85.23000879605156
 30
0.0
  0
VERTEX
  5
60E
  8
LE_ALL
 10
282.2642430141665
 20
-85.2508247425
 30
0.0
  0
VERTEX
  5
60F
  8
LE_ALL
 10
282.8982865615462
 20
-85.23000879681025
 30
0.0
  0
VERTEX
  5
610
  8
LE_ALL
 10
283.5079641711445
 20
-85.1683609041033
 30
0.0
  0
VERTEX
  5
611
  8
LE_ALL
 10
284.0698462742823
 20
-85.0682501583287
 30
0.0
  0
VERTEX
  5
612
  8
LE_ALL
 10
284.5623400567939
 20
-84.93352375931258
 30
0.0
  0
VERTEX
  5
613
  8
LE_ALL
 10
284.9665192587679
 20
-84.76935916702551
 30
0.0
  0
VERTEX
  5
614
  8
LE_ALL
 10
285.2668515001036
 20
-84.5820651346989
 30
0.0
  0
VERTEX
  5
615
  8
LE_ALL
 10
285.4517951811682
 20
-84.37883926697572
 30
0.0
  0
VERTEX
  5
616
  8
LE_ALL
 10
285.51424302
 20
-84.16749142
 30
0.0
  0
SEQEND
  5
717
  8
LE_ALL
  0
POLYLINE
  5
3B2
  8
LE_ALL
 66
     1
 10
0.0
 20
0.0
 30
0.0
  0
VERTEX
  5
617
  8
LE_ALL
 10
278.88202918
 20
-80.19317423
 30
0.0
  0
VERTEX
  5
618
  8
LE_ALL
 10
278.843599740894
 20
-80.06311401676989
 30
0.0
  0
VERTEX
  5
619
  8
LE_ALL
 10
278.729788245366
 20
-79.9380519445842
 30
0.0
  0
VERTEX
  5
61A
  8
LE_ALL
 10
278.544968405353
 20
-79.8227940787305
 30
0.0
  0
VERTEX
  5
61B
  8
LE_ALL
 10
278.2962427436423
 20
-79.72176971434607
 30
0.0
  0
VERTEX
  5
61C
  8
LE_ALL
 10
277.9931696479047
 20
-79.63886116109026
 30
0.0
  0
VERTEX
  5
61D
  8
LE_ALL
 10
277.6473960472176
 20
-79.57725454816178
 30
0.0
  0
VERTEX
  5
61E
  8
LE_ALL
 10
277.272209827113
 20
-79.53931738314067
 30
0.0
  0
VERTEX
  5
61F
  8
LE_ALL
 10
276.8820291835898
 20
-79.52650756999999
 30
0.0
  0
VERTEX
  5
620
  8
LE_ALL
 10
276.4918485399287
 20
-79.53931738267379
 30
0.0
  0
VERTEX
  5
621
  8
LE_ALL
 10
276.1166623194155
 20
-79.57725454724594
 30
0.0
  0
VERTEX
  5
622
  8
LE_ALL
 10
275.7708887180649
 20
-79.63886115976067
 30
0.0
  0
VERTEX
  5
623
  8
LE_ALL
 10
275.4678156214345
 20
-79.72176971265382
 30
0.0
  0
VERTEX
  5
624
  8
LE_ALL
 10
275.2190899586358
 20
-79.82279407674064
 30
0.0
  0
VERTEX
  5
625
  8
LE_ALL
 10
275.0342701173815
 20
-79.93805194237318
 30
0.0
  0
VERTEX
  5
626
  8
LE_ALL
 10
274.9204586205067
 20
-80.06311401442267
 30
0.0
  0
VERTEX
  5
627
  8
LE_ALL
 10
274.88202918
 20
-80.1931742276068
 30
0.0
  0
SEQEND
  5
718
  8
LE_ALL
  0
POLYLINE
  5
3B3
  8
LE_ALL
 66
     1
 10
0.0
 20
0.0
 30
0.0
  0
VERTEX
  5
628
  8
LE_ALL
 10
274.88202918
 20
-80.1931742276068
 30
0.0
  0
VERTEX
  5
629
  8
LE_ALL
 10
274.9204586178805
 20
-80.3232344411763
 30
0.0
  0
VERTEX
  5
62A
  8
LE_ALL
 10
275.0342701125734
 20
-80.44829651375753
 30
0.0
  0
VERTEX
  5
62B
  8
LE_ALL
 10
275.219089952154
 20
-80.56355438002583
 30
0.0
  0
VERTEX
  5
62C
  8
LE_ALL
 10
275.4678156138194
 20
-80.6645787448078
 30
0.0
  0
VERTEX
  5
62D
  8
LE_ALL
 10
275.7708887098567
 20
-80.74748729841114
 30
0.0
  0
VERTEX
  5
62E
  8
LE_ALL
 10
276.1166623111242
 20
-80.80909391160927
 30
0.0
  0
VERTEX
  5
62F
  8
LE_ALL
 10
276.4918485320068
 20
-80.84703107680096
 30
0.0
  0
VERTEX
  5
630
  8
LE_ALL
 10
276.8820291764102
 20
-80.85984089
 30
0.0
  0
VERTEX
  5
631
  8
LE_ALL
 10
277.2722098209516
 20
-80.84703107726784
 30
0.0
  0
VERTEX
  5
632
  8
LE_ALL
 10
277.6473960422428
 20
-80.8090939125251
 30
0.0
  0
VERTEX
  5
633
  8
LE_ALL
 10
277.9931696441737
 20
-80.74748729974073
 30
0.0
  0
VERTEX
  5
634
  8
LE_ALL
 10
278.2962427411039
 20
-80.66457874650004
 30
0.0
  0
VERTEX
  5
635
  8
LE_ALL
 10
278.5449684038572
 20
-80.5635543820157
 30
0.0
  0
VERTEX
  5
636
  8
LE_ALL
 10
278.7297882446791
 20
-80.44829651596855
 30
0.0
  0
VERTEX
  5
637
  8
LE_ALL
 10
278.843599740719
 20
-80.32323444352352
 30
0.0
  0
VERTEX
  5
638
  8
LE_ALL
 10
278.88202918
 20
-80.19317423
 30
0.0
  0
SEQEND
  5
719
  8
LE_ALL
  0
POLYLINE
  5
3B4
  8
LE_ALL
 66
     1
 10
0.0
 20
0.0
 30
0.0
  0
VERTEX
  5
639
  8
LE_ALL
 10
272.34129145
 20
-85.9615627
 30
0.0
  0
VERTEX
  5
63A
  8
LE_ALL
 10
272.302862010894
 20
-85.83150248676989
 30
0.0
  0
VERTEX
  5
63B
  8
LE_ALL
 10
272.189050515366
 20
-85.70644041458421
 30
0.0
  0
VERTEX
  5
63C
  8
LE_ALL
 10
272.004230675353
 20
-85.5911825487305
 30
0.0
  0
VERTEX
  5
63D
  8
LE_ALL
 10
271.7555050136423
 20
-85.49015818434607
 30
0.0
  0
VERTEX
  5
63E
  8
LE_ALL
 10
271.4524319179047
 20
-85.40724963109027
 30
0.0
  0
VERTEX
  5
63F
  8
LE_ALL
 10
271.1066583172176
 20
-85.34564301816178
 30
0.0
  0
VERTEX
  5
640
  8
LE_ALL
 10
270.731472097113
 20
-85.30770585314067
 30
0.0
  0
VERTEX
  5
641
  8
LE_ALL
 10
270.3412914535898
 20
-85.29489604
 30
0.0
  0
VERTEX
  5
642
  8
LE_ALL
 10
269.9511108099287
 20
-85.30770585267379
 30
0.0
  0
VERTEX
  5
643
  8
LE_ALL
 10
269.5759245894155
 20
-85.34564301724595
 30
0.0
  0
VERTEX
  5
644
  8
LE_ALL
 10
269.2301509880649
 20
-85.40724962976067
 30
0.0
  0
VERTEX
  5
645
  8
LE_ALL
 10
268.9270778914345
 20
-85.49015818265383
 30
0.0
  0
VERTEX
  5
646
  8
LE_ALL
 10
268.6783522286358
 20
-85.59118254674064
 30
0.0
  0
VERTEX
  5
647
  8
LE_ALL
 10
268.4935323873815
 20
-85.70644041237318
 30
0.0
  0
VERTEX
  5
648
  8
LE_ALL
 10
268.3797208905067
 20
-85.83150248442267
 30
0.0
  0
VERTEX
  5
649
  8
LE_ALL
 10
268.34129145
 20
-85.96156269760681
 30
0.0
  0
SEQEND
  5
71A
  8
LE_ALL
  0
POLYLINE
  5
3B5
  8
LE_ALL
 66
     1
 10
0.0
 20
0.0
 30
0.0
  0
VERTEX
  5
64A
  8
LE_ALL
 10
268.34129145
 20
-85.96156269760681
 30
0.0
  0
VERTEX
  5
64B
  8
LE_ALL
 10
268.3797208878805
 20
-86.0916229111763
 30
0.0
  0
VERTEX
  5
64C
  8
LE_ALL
 10
268.4935323825734
 20
-86.21668498375753
 30
0.0
  0
VERTEX
  5
64D
  8
LE_ALL
 10
268.678352222154
 20
-86.33194285002584
 30
0.0
  0
VERTEX
  5
64E
  8
LE_ALL
 10
268.9270778838194
 20
-86.4329672148078
 30
0.0
  0
VERTEX
  5
64F
  8
LE_ALL
 10
269.2301509798567
 20
-86.51587576841115
 30
0.0
  0
VERTEX
  5
650
  8
LE_ALL
 10
269.5759245811242
 20
-86.57748238160927
 30
0.0
  0
VERTEX
  5
651
  8
LE_ALL
 10
269.9511108020068
 20
-86.61541954680096
 30
0.0
  0
VERTEX
  5
652
  8
LE_ALL
 10
270.3412914464103
 20
-86.62822936
 30
0.0
  0
VERTEX
  5
653
  8
LE_ALL
 10
270.7314720909516
 20
-86.61541954726785
 30
0.0
  0
VERTEX
  5
654
  8
LE_ALL
 10
271.1066583122428
 20
-86.5774823825251
 30
0.0
  0
VERTEX
  5
655
  8
LE_ALL
 10
271.4524319141738
 20
-86.51587576974073
 30
0.0
  0
VERTEX
  5
656
  8
LE_ALL
 10
271.7555050111039
 20
-86.43296721650005
 30
0.0
  0
VERTEX
  5
657
  8
LE_ALL
 10
272.0042306738573
 20
-86.3319428520157
 30
0.0
  0
VERTEX
  5
658
  8
LE_ALL
 10
272.1890505146791
 20
-86.21668498596856
 30
0.0
  0
VERTEX
  5
659
  8
LE_ALL
 10
272.302862010719
 20
-86.09162291352352
 30
0.0
  0
VERTEX
  5
65A
  8
LE_ALL
 10
272.34129145
 20
-85.9615627
 30
0.0
  0
SEQEND
  5
71B
  8
LE_ALL
  0
POLYLINE
  5
3B6
  8
LE_ALL
 66
     1
 10
0.0
 20
0.0
 30
0.0
  0
VERTEX
  5
65B
  8
LE_ALL
 10
296.18719459
 20
-82.37342013
 30
0.0
  0
VERTEX
  5
65C
  8
LE_ALL
 10
296.148765150894
 20
-82.24335991676989
 30
0.0
  0
VERTEX
  5
65D
  8
LE_ALL
 10
296.034953655366
 20
-82.1182978445842
 30
0.0
  0
VERTEX
  5
65E
  8
LE_ALL
 10
295.850133815353
 20
-82.0030399787305
 30
0.0
  0
VERTEX
  5
65F
  8
LE_ALL
 10
295.6014081536423
 20
-81.90201561434607
 30
0.0
  0
VERTEX
  5
660
  8
LE_ALL
 10
295.2983350579047
 20
-81.81910706109026
 30
0.0
  0
VERTEX
  5
661
  8
LE_ALL
 10
294.9525614572176
 20
-81.75750044816178
 30
0.0
  0
VERTEX
  5
662
  8
LE_ALL
 10
294.577375237113
 20
-81.71956328314067
 30
0.0
  0
VERTEX
  5
663
  8
LE_ALL
 10
294.1871945935898
 20
-81.70675347
 30
0.0
  0
VERTEX
  5
664
  8
LE_ALL
 10
293.7970139499287
 20
-81.71956328267379
 30
0.0
  0
VERTEX
  5
665
  8
LE_ALL
 10
293.4218277294155
 20
-81.75750044724595
 30
0.0
  0
VERTEX
  5
666
  8
LE_ALL
 10
293.0760541280649
 20
-81.81910705976067
 30
0.0
  0
VERTEX
  5
667
  8
LE_ALL
 10
292.7729810314344
 20
-81.90201561265383
 30
0.0
  0
VERTEX
  5
668
  8
LE_ALL
 10
292.5242553686357
 20
-82.00303997674064
 30
0.0
  0
VERTEX
  5
669
  8
LE_ALL
 10
292.3394355273815
 20
-82.11829784237318
 30
0.0
  0
VERTEX
  5
66A
  8
LE_ALL
 10
292.2256240305067
 20
-82.24335991442267
 30
0.0
  0
VERTEX
  5
66B
  8
LE_ALL
 10
292.18719459
 20
-82.3734201276068
 30
0.0
  0
SEQEND
  5
71C
  8
LE_ALL
  0
POLYLINE
  5
3B7
  8
LE_ALL
 66
     1
 10
0.0
 20
0.0
 30
0.0
  0
VERTEX
  5
66C
  8
LE_ALL
 10
292.18719459
 20
-82.3734201276068
 30
0.0
  0
VERTEX
  5
66D
  8
LE_ALL
 10
292.2256240278804
 20
-82.5034803411763
 30
0.0
  0
VERTEX
  5
66E
  8
LE_ALL
 10
292.3394355225734
 20
-82.62854241375753
 30
0.0
  0
VERTEX
  5
66F
  8
LE_ALL
 10
292.524255362154
 20
-82.74380028002584
 30
0.0
  0
VERTEX
  5
670
  8
LE_ALL
 10
292.7729810238193
 20
-82.8448246448078
 30
0.0
  0
VERTEX
  5
671
  8
LE_ALL
 10
293.0760541198567
 20
-82.92773319841115
 30
0.0
  0
VERTEX
  5
672
  8
LE_ALL
 10
293.4218277211241
 20
-82.98933981160927
 30
0.0
  0
VERTEX
  5
673
  8
LE_ALL
 10
293.7970139420068
 20
-83.02727697680096
 30
0.0
  0
VERTEX
  5
674
  8
LE_ALL
 10
294.1871945864102
 20
-83.04008679
 30
0.0
  0
VERTEX
  5
675
  8
LE_ALL
 10
294.5773752309515
 20
-83.02727697726785
 30
0.0
  0
VERTEX
  5
676
  8
LE_ALL
 10
294.9525614522428
 20
-82.9893398125251
 30
0.0
  0
VERTEX
  5
677
  8
LE_ALL
 10
295.2983350541737
 20
-82.92773319974073
 30
0.0
  0
VERTEX
  5
678
  8
LE_ALL
 10
295.6014081511039
 20
-82.84482464650004
 30
0.0
  0
VERTEX
  5
679
  8
LE_ALL
 10
295.8501338138572
 20
-82.7438002820157
 30
0.0
  0
VERTEX
  5
67A
  8
LE_ALL
 10
296.0349536546791
 20
-82.62854241596855
 30
0.0
  0
VERTEX
  5
67B
  8
LE_ALL
 10
296.1487651507189
 20
-82.50348034352352
 30
0.0
  0
VERTEX
  5
67C
  8
LE_ALL
 10
296.18719459
 20
-82.37342013
 30
0.0
  0
SEQEND
  5
71D
  8
LE_ALL
  0
POLYLINE
  5
3B8
  8
LE_ALL
 66
     1
 10
0.0
 20
0.0
 30
0.0
  0
VERTEX
  5
67D
  8
LE_ALL
 10
289.64645687
 20
-88.14180861
 30
0.0
  0
VERTEX
  5
67E
  8
LE_ALL
 10
289.608027430894
 20
-88.01174839676989
 30
0.0
  0
VERTEX
  5
67F
  8
LE_ALL
 10
289.494215935366
 20
-87.8866863245842
 30
0.0
  0
VERTEX
  5
680
  8
LE_ALL
 10
289.309396095353
 20
-87.7714284587305
 30
0.0
  0
VERTEX
  5
681
  8
LE_ALL
 10
289.0606704336423
 20
-87.67040409434607
 30
0.0
  0
VERTEX
  5
682
  8
LE_ALL
 10
288.7575973379047
 20
-87.58749554109026
 30
0.0
  0
VERTEX
  5
683
  8
LE_ALL
 10
288.4118237372176
 20
-87.52588892816178
 30
0.0
  0
VERTEX
  5
684
  8
LE_ALL
 10
288.036637517113
 20
-87.48795176314067
 30
0.0
  0
VERTEX
  5
685
  8
LE_ALL
 10
287.6464568735898
 20
-87.47514195
 30
0.0
  0
VERTEX
  5
686
  8
LE_ALL
 10
287.2562762299287
 20
-87.48795176267379
 30
0.0
  0
VERTEX
  5
687
  8
LE_ALL
 10
286.8810900094155
 20
-87.52588892724594
 30
0.0
  0
VERTEX
  5
688
  8
LE_ALL
 10
286.5353164080649
 20
-87.58749553976067
 30
0.0
  0
VERTEX
  5
689
  8
LE_ALL
 10
286.2322433114344
 20
-87.67040409265383
 30
0.0
  0
VERTEX
  5
68A
  8
LE_ALL
 10
285.9835176486358
 20
-87.77142845674064
 30
0.0
  0
VERTEX
  5
68B
  8
LE_ALL
 10
285.7986978073815
 20
-87.88668632237318
 30
0.0
  0
VERTEX
  5
68C
  8
LE_ALL
 10
285.6848863105067
 20
-88.01174839442267
 30
0.0
  0
VERTEX
  5
68D
  8
LE_ALL
 10
285.64645687
 20
-88.1418086076068
 30
0.0
  0
SEQEND
  5
71E
  8
LE_ALL
  0
POLYLINE
  5
3B9
  8
LE_ALL
 66
     1
 10
0.0
 20
0.0
 30
0.0
  0
VERTEX
  5
68E
  8
LE_ALL
 10
285.64645687
 20
-88.1418086076068
 30
0.0
  0
VERTEX
  5
68F
  8
LE_ALL
 10
285.6848863078804
 20
-88.2718688211763
 30
0.0
  0
VERTEX
  5
690
  8
LE_ALL
 10
285.7986978025734
 20
-88.39693089375753
 30
0.0
  0
VERTEX
  5
691
  8
LE_ALL
 10
285.983517642154
 20
-88.51218876002584
 30
0.0
  0
VERTEX
  5
692
  8
LE_ALL
 10
286.2322433038194
 20
-88.6132131248078
 30
0.0
  0
VERTEX
  5
693
  8
LE_ALL
 10
286.5353163998567
 20
-88.69612167841115
 30
0.0
  0
VERTEX
  5
694
  8
LE_ALL
 10
286.8810900011242
 20
-88.75772829160927
 30
0.0
  0
VERTEX
  5
695
  8
LE_ALL
 10
287.2562762220068
 20
-88.79566545680096
 30
0.0
  0
VERTEX
  5
696
  8
LE_ALL
 10
287.6464568664102
 20
-88.80847527
 30
0.0
  0
VERTEX
  5
697
  8
LE_ALL
 10
288.0366375109516
 20
-88.79566545726784
 30
0.0
  0
VERTEX
  5
698
  8
LE_ALL
 10
288.4118237322428
 20
-88.7577282925251
 30
0.0
  0
VERTEX
  5
699
  8
LE_ALL
 10
288.7575973341737
 20
-88.69612167974073
 30
0.0
  0
VERTEX
  5
69A
  8
LE_ALL
 10
289.0606704311039
 20
-88.61321312650004
 30
0.0
  0
VERTEX
  5
69B
  8
LE_ALL
 10
289.3093960938572
 20
-88.5121887620157
 30
0.0
  0
VERTEX
  5
69C
  8
LE_ALL
 10
289.4942159346791
 20
-88.39693089596855
 30
0.0
  0
VERTEX
  5
69D
  8
LE_ALL
 10
289.6080274307189
 20
-88.27186882352352
 30
0.0
  0
VERTEX
  5
69E
  8
LE_ALL
 10
289.64645687
 20
-88.14180861
 30
0.0
  0
SEQEND
  5
71F
  8
LE_ALL
  0
LINE
  5
3BA
  8
LE_ALL
 10
262.92972696
 20
-90.84803236
 30
0.0
 11
262.92972696
 21
-87.0767962
 31
0.0
  0
LINE
  5
3BB
  8
LE_ALL
 10
306.89420126
 20
-92.61579932
 30
0.0
 11
262.92972696
 21
-87.0767962
 31
0.0
  0
LINE
  5
3BC
  8
LE_ALL
 10
262.92972696
 20
-90.84803236
 30
0.0
 11
306.89420126
 21
-96.38703548
 31
0.0
  0
LINE
  5
3BD
  8
LE_ALL
 10
310.63585865
 20
-89.31596767
 30
0.0
 11
306.89420126
 21
-92.61579932
 31
0.0
  0
LINE
  5
3BE
  8
LE_ALL
 10
273.53632868
 20
-77.72265273
 30
0.0
 11
310.83624606
 21
-82.4220006
 31
0.0
  0
LINE
  5
3BF
  8
LE_ALL
 10
262.92972696
 20
-87.0767962
 30
0.0
 11
273.53632868
 21
-77.72265273
 31
0.0
  0
ENDBLK
  8
0
  0
BLOCK
  8
0
  2
_00072
 70
     0
 10
0.0
 20
0.0
 30
0.0
  0
INSERT
  5
3C2
  8
0
  2
_00073
 10
287.64645687
 20
-87.19899956
 30
0.0
  0
ENDBLK
  8
0
  0
BLOCK
  8
0
  2
_00073
 70
     0
 10
287.64645687
 20
-87.19899956
 30
0.0
  0
LINE
  5
3C5
  8
LE_ALL
  6
STRICHPUNKT2
 62
     1
 10
287.64645687
 20
-87.19899956
 30
0.0
 11
287.64645687
 21
-88.80847527
 31
0.0
  0
LINE
  5
3C6
  8
LE_ALL
  6
STRICHPUNKT2
 62
     1
 10
287.64645687
 20
-88.14180861
 30
0.0
 11
288.70711704
 21
-87.20639426
 31
0.0
  0
LINE
  5
3C7
  8
LE_ALL
  6
STRICHPUNKT2
 62
     1
 10
287.64645687
 20
-88.14180861
 30
0.0
 11
286.5857967
 21
-89.07722295
 31
0.0
  0
LINE
  5
3C8
  8
LE_ALL
  6
STRICHPUNKT2
 62
     1
 10
287.64645687
 20
-88.14180861
 30
0.0
 11
284.84021383
 21
-87.78825522
 31
0.0
  0
LINE
  5
3C9
  8
LE_ALL
  6
STRICHPUNKT2
 62
     1
 10
287.64645687
 20
-88.14180861
 30
0.0
 11
290.45269991
 21
-88.495362
 31
0.0
  0
LINE
  5
3CA
  8
LE_ALL
  6
STRICHPUNKT2
 62
     1
 10
294.18719459
 20
-81.43061109
 30
0.0
 11
294.18719459
 21
-83.0400868
 31
0.0
  0
LINE
  5
3CB
  8
LE_ALL
  6
STRICHPUNKT2
 62
     1
 10
294.18719459
 20
-82.37342013
 30
0.0
 11
295.24785477
 21
-81.43800579
 31
0.0
  0
LINE
  5
3CC
  8
LE_ALL
  6
STRICHPUNKT2
 62
     1
 10
294.18719459
 20
-82.37342013
 30
0.0
 11
293.12653442
 21
-83.30883448
 31
0.0
  0
LINE
  5
3CD
  8
LE_ALL
  6
STRICHPUNKT2
 62
     1
 10
294.18719459
 20
-82.37342013
 30
0.0
 11
291.38095155
 21
-82.01986674
 31
0.0
  0
LINE
  5
3CE
  8
LE_ALL
  6
STRICHPUNKT2
 62
     1
 10
294.18719459
 20
-82.37342013
 30
0.0
 11
296.99343763
 21
-82.72697353
 31
0.0
  0
LINE
  5
3CF
  8
LE_ALL
  6
STRICHPUNKT2
 62
     1
 10
270.34129145
 20
-85.01875366
 30
0.0
 11
270.34129145
 21
-86.62822936
 31
0.0
  0
LINE
  5
3D0
  8
LE_ALL
  6
STRICHPUNKT2
 62
     1
 10
270.34129145
 20
-85.9615627
 30
0.0
 11
271.40195163
 21
-85.02614835
 31
0.0
  0
LINE
  5
3D1
  8
LE_ALL
  6
STRICHPUNKT2
 62
     1
 10
270.34129145
 20
-85.9615627
 30
0.0
 11
269.28063128
 21
-86.89697704
 31
0.0
  0
LINE
  5
3D2
  8
LE_ALL
  6
STRICHPUNKT2
 62
     1
 10
270.34129145
 20
-85.9615627
 30
0.0
 11
267.53504841
 21
-85.60800931
 31
0.0
  0
LINE
  5
3D3
  8
LE_ALL
  6
STRICHPUNKT2
 62
     1
 10
270.34129145
 20
-85.9615627
 30
0.0
 11
273.14753449
 21
-86.31511609
 31
0.0
  0
LINE
  5
3D4
  8
LE_ALL
  6
STRICHPUNKT2
 62
     1
 10
276.88202918
 20
-79.25036518
 30
0.0
 11
276.88202918
 21
-80.85984089
 31
0.0
  0
LINE
  5
3D5
  8
LE_ALL
  6
STRICHPUNKT2
 62
     1
 10
276.88202918
 20
-80.19317423
 30
0.0
 11
277.94268935
 21
-79.25775988
 31
0.0
  0
LINE
  5
3D6
  8
LE_ALL
  6
STRICHPUNKT2
 62
     1
 10
276.88202918
 20
-80.19317423
 30
0.0
 11
275.82136901
 21
-81.12858857
 31
0.0
  0
LINE
  5
3D7
  8
LE_ALL
  6
STRICHPUNKT2
 62
     1
 10
276.88202918
 20
-80.19317423
 30
0.0
 11
274.07578614
 21
-79.83962084
 31
0.0
  0
LINE
  5
3D8
  8
LE_ALL
  6
STRICHPUNKT2
 62
     1
 10
276.88202918
 20
-80.19317423
 30
0.0
 11
279.68827222
 21
-80.54672762
 31
0.0
  0
LINE
  5
3D9
  8
LE_ALL
  6
STRICHPUNKT2
 62
     1
 10
282.26424302
 20
-82.75327785
 30
0.0
 11
282.26424302
 21
-85.25082475
 31
0.0
  0
LINE
  5
3DA
  8
LE_ALL
  6
STRICHPUNKT2
 62
     1
 10
282.26424302
 20
-84.16749142
 30
0.0
 11
286.70746117
 21
-84.72728428
 31
0.0
  0
LINE
  5
3DB
  8
LE_ALL
  6
STRICHPUNKT2
 62
     1
 10
282.26424302
 20
-84.16749142
 30
0.0
 11
277.82102488
 21
-83.60769855
 31
0.0
  0
LINE
  5
3DC
  8
LE_ALL
  6
STRICHPUNKT2
 62
     1
 10
282.26424302
 20
-84.16749142
 30
0.0
 11
283.94362163
 21
-82.6864187
 31
0.0
  0
LINE
  5
3DD
  8
LE_ALL
  6
STRICHPUNKT2
 62
     1
 10
282.26424302
 20
-84.16749142
 30
0.0
 11
280.58486442
 21
-85.64856413
 31
0.0
  0
ENDBLK
  8
0
  0
BLOCK
  8
0
  2
BEND_ZONE_00074
 70
     0
 10
0.0
 20
0.0
 30
0.0
  0
INSERT
  5
3E0
  8
0
  2
BEND_ZONE_00075
 10
323.26395233
 20
-81.95027203
 30
0.0
  0
ENDBLK
  8
0
  0
BLOCK
  8
0
  2
BEND_ZONE_00075
 70
     0
 10
323.26395233
 20
-81.95027203
 30
0.0
  0
LINE
  5
3E3
  8
LE_ALL
 10
323.26395233
 20
-81.95027203
 30
0.0
 11
314.37751603
 21
-89.78737219
 31
0.0
  0
POLYLINE
  5
3E4
  8
LE_ALL
 66
     1
 10
0.0
 20
0.0
 30
0.0
  0
VERTEX
  5
69F
  8
LE_ALL
 10
322.7923056149243
 20
-85.49041966683806
 30
0.0
  0
VERTEX
  5
6A0
  8
LE_ALL
 10
323.6731914717478
 20
-84.5325455767846
 30
0.0
  0
VERTEX
  5
6A1
  8
LE_ALL
 10
324.344595203208
 20
-83.40354887339915
 30
0.0
  0
VERTEX
  5
6A2
  8
LE_ALL
 10
324.7837303173607
 20
-82.14174610614543
 30
0.0
  0
SEQEND
  5
720
  8
LE_ALL
  0
POLYLINE
  5
3E5
  8
LE_ALL
 66
     1
 10
0.0
 20
0.0
 30
0.0
  0
VERTEX
  5
3E6
  8
LE_ALL
 10
322.7923056
 20
-85.49041968
 30
0.0
  0
VERTEX
  5
3E7
  8
LE_ALL
 10
312.18570388
 20
-94.84456315
 30
0.0
  0
SEQEND
  5
3E8
  8
LE_ALL
  0
POLYLINE
  5
3E9
  8
LE_ALL
 66
     1
 10
0.0
 20
0.0
 30
0.0
  0
VERTEX
  5
6A3
  8
LE_ALL
 10
312.18570388
 20
-94.84456315
 30
0.0
  0
VERTEX
  5
6A4
  8
LE_ALL
 10
313.1163500835631
 20
-93.81885333873294
 30
0.0
  0
VERTEX
  5
6A5
  8
LE_ALL
 10
313.80788259932
 20
-92.60198434677542
 30
0.0
  0
VERTEX
  5
6A6
  8
LE_ALL
 10
314.2337262207352
 20
-91.24071976665716
 30
0.0
  0
VERTEX
  5
6A7
  8
LE_ALL
 10
314.3775160163946
 20
-89.78737223233496
 30
0.0
  0
SEQEND
  5
721
  8
LE_ALL
  0
POLYLINE
  5
3EA
  8
LE_ALL
 66
     1
 10
0.0
 20
0.0
 30
0.0
  0
VERTEX
  5
6A8
  8
LE_ALL
 10
306.8942012458392
 20
-96.38703546396293
 30
0.0
  0
VERTEX
  5
6A9
  8
LE_ALL
 10
308.3541235386242
 20
-96.42604190090525
 30
0.0
  0
VERTEX
  5
6AA
  8
LE_ALL
 10
309.7579418364368
 20
-96.17369635839553
 30
0.0
  0
VERTEX
  5
6AB
  8
LE_ALL
 10
311.0517081888447
 20
-95.6396963342085
 30
0.0
  0
VERTEX
  5
6AC
  8
LE_ALL
 10
312.18570388
 20
-94.84456315
 30
0.0
  0
SEQEND
  5
722
  8
LE_ALL
  0
POLYLINE
  5
3EB
  8
LE_ALL
 66
     1
 10
0.0
 20
0.0
 30
0.0
  0
VERTEX
  5
6AD
  8
LE_ALL
 10
306.8942012529196
 20
-92.61579930698146
 30
0.0
  0
VERTEX
  5
6AE
  8
LE_ALL
 10
307.6241623993121
 20
-92.63530252545263
 30
0.0
  0
VERTEX
  5
6AF
  8
LE_ALL
 10
308.3260715482184
 20
-92.50912975419777
 30
0.0
  0
VERTEX
  5
6B0
  8
LE_ALL
 10
308.9729547244223
 20
-92.24212974210424
 30
0.0
  0
VERTEX
  5
6B1
  8
LE_ALL
 10
309.53995257
 20
-91.84456315
 30
0.0
  0
SEQEND
  5
723
  8
LE_ALL
  0
POLYLINE
  5
3EC
  8
LE_ALL
 66
     1
 10
0.0
 20
0.0
 30
0.0
  0
VERTEX
  5
6B2
  8
LE_ALL
 10
309.53995257
 20
-91.84456315
 30
0.0
  0
VERTEX
  5
6B3
  8
LE_ALL
 10
310.0052756717815
 20
-91.33170824436647
 30
0.0
  0
VERTEX
  5
6B4
  8
LE_ALL
 10
310.3510419296599
 20
-90.72327374838771
 30
0.0
  0
VERTEX
  5
6B5
  8
LE_ALL
 10
310.5639637403675
 20
-90.04264145832857
 30
0.0
  0
VERTEX
  5
6B6
  8
LE_ALL
 10
310.6358586381973
 20
-89.31596769116749
 30
0.0
  0
SEQEND
  5
724
  8
LE_ALL
  0
LINE
  5
3ED
  8
LE_ALL
 10
310.63585865
 20
-89.31596767
 30
0.0
 11
306.89420126
 21
-92.61579932
 31
0.0
  0
ENDBLK
  8
0
  0
BLOCK
  8
0
  2
SHEET_FLANGE_00076
 70
     0
 10
0.0
 20
0.0
 30
0.0
  0
INSERT
  5
3F0
  8
0
  2
SHEET_FLANGE_00077
 10
310.63585865
 20
-89.31596767
 30
0.0
  0
ENDBLK
  8
0
  0
BLOCK
  8
0
  2
SHEET_FLANGE_00077
 70
     0
 10
310.63585865
 20
-89.31596767
 30
0.0
  0
LINE
  5
3F3
  8
LE_ALL
 10
310.63585865
 20
-89.31596767
 30
0.0
 11
310.63585865
 21
-84.13051794
 31
0.0
  0
POLYLINE
  5
3F4
  8
LE_ALL
 66
     1
 10
0.0
 20
0.0
 30
0.0
  0
VERTEX
  5
3F5
  8
LE_ALL
 10
314.37751603
 20
-84.60192246
 30
0.0
  0
VERTEX
  5
3F6
  8
LE_ALL
 10
314.37751603
 20
-89.78737219
 30
0.0
  0
VERTEX
  5
3F7
  8
LE_ALL
 10
323.26395233
 20
-81.95027203
 30
0.0
  0
SEQEND
  5
3F8
  8
LE_ALL
  0
LINE
  5
3F9
  8
LE_ALL
 10
318.11917342
 20
-81.30209082
 30
0.0
 11
314.37751603
 21
-84.60192246
 31
0.0
  0
ENDBLK
  8
0
  0
BLOCK
  8
0
  2
BEND_ZONE_00078
 70
     0
 10
0.0
 20
0.0
 30
0.0
  0
INSERT
  5
3FC
  8
0
  2
BEND_ZONE_00079
 10
318.11917342
 20
-77.53085465
 30
0.0
  0
ENDBLK
  8
0
  0
BLOCK
  8
0
  2
BEND_ZONE_00079
 70
     0
 10
318.11917342
 20
-77.53085465
 30
0.0
  0
LINE
  5
3FF
  8
LE_ALL
 10
318.11917342
 20
-77.53085465
 30
0.0
 11
328.72577514
 21
-68.17671118
 31
0.0
  0
POLYLINE
  5
400
  8
LE_ALL
 66
     1
 10
0.0
 20
0.0
 30
0.0
  0
VERTEX
  5
6B7
  8
LE_ALL
 10
318.1191734072972
 20
-77.53085466265259
 30
0.0
  0
VERTEX
  5
6B8
  8
LE_ALL
 10
316.6592511282022
 20
-77.49184823007614
 30
0.0
  0
VERTEX
  5
6B9
  8
LE_ALL
 10
315.2554328435632
 20
-77.74419377160447
 30
0.0
  0
VERTEX
  5
6BA
  8
LE_ALL
 10
313.9616665023235
 20
-78.27819378967727
 30
0.0
  0
VERTEX
  5
6BB
  8
LE_ALL
 10
312.8276708189954
 20
-79.07332696324764
 30
0.0
  0
SEQEND
  5
725
  8
LE_ALL
  0
POLYLINE
  5
401
  8
LE_ALL
 66
     1
 10
0.0
 20
0.0
 30
0.0
  0
VERTEX
  5
402
  8
LE_ALL
 10
312.8276708
 20
-79.07332698
 30
0.0
  0
VERTEX
  5
403
  8
LE_ALL
 10
323.43427252
 20
-69.71918352
 30
0.0
  0
SEQEND
  5
404
  8
LE_ALL
  0
POLYLINE
  5
405
  8
LE_ALL
 66
     1
 10
0.0
 20
0.0
 30
0.0
  0
VERTEX
  5
6BC
  8
LE_ALL
 10
328.7257751272972
 20
-68.17671120265258
 30
0.0
  0
VERTEX
  5
6BD
  8
LE_ALL
 10
327.2658528482022
 20
-68.13770477007614
 30
0.0
  0
VERTEX
  5
6BE
  8
LE_ALL
 10
325.8620345635632
 20
-68.39005031160447
 30
0.0
  0
VERTEX
  5
6BF
  8
LE_ALL
 10
324.5682682223235
 20
-68.92405032967727
 30
0.0
  0
VERTEX
  5
6C0
  8
LE_ALL
 10
323.4342725389954
 20
-69.71918350324763
 30
0.0
  0
SEQEND
  5
726
  8
LE_ALL
  0
POLYLINE
  5
406
  8
LE_ALL
 66
     1
 10
0.0
 20
0.0
 30
0.0
  0
VERTEX
  5
6C1
  8
LE_ALL
 10
312.8276708189954
 20
-79.07332696324764
 30
0.0
  0
VERTEX
  5
6C2
  8
LE_ALL
 10
311.8970246009678
 20
-80.09903678500343
 30
0.0
  0
VERTEX
  5
6C3
  8
LE_ALL
 10
311.2054920766416
 20
-81.31590579254257
 30
0.0
  0
VERTEX
  5
6C4
  8
LE_ALL
 10
310.7796484535563
 20
-82.67717039154955
 30
0.0
  0
VERTEX
  5
6C5
  8
LE_ALL
 10
310.6358586636053
 20
-84.13051794601384
 30
0.0
  0
SEQEND
  5
727
  8
LE_ALL
  0
POLYLINE
  5
407
  8
LE_ALL
 66
     1
 10
0.0
 20
0.0
 30
0.0
  0
VERTEX
  5
6C6
  8
LE_ALL
 10
315.4734221194977
 20
-82.07332697162381
 30
0.0
  0
VERTEX
  5
6C7
  8
LE_ALL
 10
315.0080990104839
 20
-82.58618188250172
 30
0.0
  0
VERTEX
  5
6C8
  8
LE_ALL
 10
314.6623327483208
 20
-83.19461638627129
 30
0.0
  0
VERTEX
  5
6C9
  8
LE_ALL
 10
314.4494109367781
 20
-83.87524868577479
 30
0.0
  0
VERTEX
  5
6CA
  8
LE_ALL
 10
314.3775160418027
 20
-84.60192246300693
 30
0.0
  0
SEQEND
  5
728
  8
LE_ALL
  0
POLYLINE
  5
408
  8
LE_ALL
 66
     1
 10
0.0
 20
0.0
 30
0.0
  0
VERTEX
  5
6CB
  8
LE_ALL
 10
318.1191734136486
 20
-81.30209082132629
 30
0.0
  0
VERTEX
  5
6CC
  8
LE_ALL
 10
317.3892122741011
 20
-81.28258760503807
 30
0.0
  0
VERTEX
  5
6CD
  8
LE_ALL
 10
316.6873031317816
 20
-81.40876037580223
 30
0.0
  0
VERTEX
  5
6CE
  8
LE_ALL
 10
316.0404199611617
 20
-81.67576038483864
 30
0.0
  0
VERTEX
  5
6CF
  8
LE_ALL
 10
315.4734221194977
 20
-82.07332697162381
 30
0.0
  0
SEQEND
  5
729
  8
LE_ALL
  0
LINE
  5
409
  8
LE_ALL
 10
314.37751603
 20
-84.60192246
 30
0.0
 11
318.11917342
 21
-81.30209082
 31
0.0
  0
ENDBLK
  8
0
  0
BLOCK
  8
0
  2
SHEET_FLANGE_00080
 70
     0
 10
0.0
 20
0.0
 30
0.0
  0
INSERT
  5
40C
  8
0
  2
SHEET_FLANGE_00081
 10
357.58531735
 20
-78.31602862
 30
0.0
  0
INSERT
  5
40D
  8
0
  2
_00082
 10
0.0
 20
0.0
 30
0.0
  0
ENDBLK
  8
0
  0
BLOCK
  8
0
  2
SHEET_FLANGE_00081
 70
     0
 10
357.58531735
 20
-78.31602862
 30
0.0
  0
POLYLINE
  5
410
  8
LE_ALL
 66
     1
 10
0.0
 20
0.0
 30
0.0
  0
VERTEX
  5
6D0
  8
LE_ALL
 10
355.48436587
 20
-77.30266307611106
 30
0.0
  0
VERTEX
  5
6D1
  8
LE_ALL
 10
355.5501681239335
 20
-77.51955647559582
 30
0.0
  0
VERTEX
  5
6D2
  8
LE_ALL
 10
355.7449103139281
 20
-77.72766705981897
 30
0.0
  0
VERTEX
  5
6D3
  8
LE_ALL
 10
356.0607066089112
 20
-77.91856766201408
 30
0.0
  0
VERTEX
  5
6D4
  8
LE_ALL
 10
356.4847692496638
 20
-78.08452801119802
 30
0.0
  0
VERTEX
  5
6D5
  8
LE_ALL
 10
356.9999263724557
 20
-78.21882775941535
 30
0.0
  0
VERTEX
  5
6D6
  8
LE_ALL
 10
357.5853173612791
 20
-78.31602861346661
 30
0.0
  0
SEQEND
  5
72A
  8
LE_ALL
  0
POLYLINE
  5
411
  8
LE_ALL
 66
     1
 10
0.0
 20
0.0
 30
0.0
  0
VERTEX
  5
6D7
  8
LE_ALL
 10
359.8834143982085
 20
-76.2892975489886
 30
0.0
  0
VERTEX
  5
6D8
  8
LE_ALL
 10
359.2782842435165
 20
-76.23460915930445
 30
0.0
  0
VERTEX
  5
6D9
  8
LE_ALL
 10
358.6529113196195
 20
-76.21967005934408
 30
0.0
  0
VERTEX
  5
6DA
  8
LE_ALL
 10
358.0305698536478
 20
-76.24503623097414
 30
0.0
  0
VERTEX
  5
6DB
  8
LE_ALL
 10
357.4344212523042
 20
-76.30976363261982
 30
0.0
  0
VERTEX
  5
6DC
  8
LE_ALL
 10
356.8866521140499
 20
-76.41144333324192
 30
0.0
  0
VERTEX
  5
6DD
  8
LE_ALL
 10
356.4076485202955
 20
-76.54629116445649
 30
0.0
  0
VERTEX
  5
6DE
  8
LE_ALL
 10
356.0152373356383
 20
-76.70928855425355
 30
0.0
  0
VERTEX
  5
6DF
  8
LE_ALL
 10
355.7240227533382
 20
-76.89436930096879
 30
0.0
  0
VERTEX
  5
6E0
  8
LE_ALL
 10
355.5448427775252
 20
-77.09464533642429
 30
0.0
  0
VERTEX
  5
6E1
  8
LE_ALL
 10
355.48436587
 20
-77.30266307611106
 30
0.0
  0
SEQEND
  5
72B
  8
LE_ALL
  0
POLYLINE
  5
412
  8
LE_ALL
 66
     1
 10
0.0
 20
0.0
 30
0.0
  0
VERTEX
  5
413
  8
LE_ALL
 10
359.88341439
 20
-76.28929754
 30
0.0
  0
VERTEX
  5
414
  8
LE_ALL
 10
372.51150807
 20
-77.8802878
 30
0.0
  0
SEQEND
  5
415
  8
LE_ALL
  0
POLYLINE
  5
416
  8
LE_ALL
 66
     1
 10
0.0
 20
0.0
 30
0.0
  0
VERTEX
  5
6E2
  8
LE_ALL
 10
374.61245955
 20
-78.89365334
 30
0.0
  0
VERTEX
  5
6E3
  8
LE_ALL
 10
374.5466572948151
 20
-78.67675994236296
 30
0.0
  0
VERTEX
  5
6E4
  8
LE_ALL
 10
374.3519151057449
 20
-78.46864935992546
 30
0.0
  0
VERTEX
  5
6E5
  8
LE_ALL
 10
374.0361188136944
 20
-78.27774875924271
 30
0.0
  0
VERTEX
  5
6E6
  8
LE_ALL
 10
373.6120561775533
 20
-78.11178841110923
 30
0.0
  0
VERTEX
  5
6E7
  8
LE_ALL
 10
373.0968990605818
 20
-77.97748866332712
 30
0.0
  0
VERTEX
  5
6E8
  8
LE_ALL
 10
372.5115080782085
 20
-77.8802878089886
 30
0.0
  0
SEQEND
  5
72C
  8
LE_ALL
  0
POLYLINE
  5
417
  8
LE_ALL
 66
     1
 10
0.0
 20
0.0
 30
0.0
  0
VERTEX
  5
6E9
  8
LE_ALL
 10
370.2134110412791
 20
-79.90701887346661
 30
0.0
  0
VERTEX
  5
6EA
  8
LE_ALL
 10
370.8185411961192
 20
-79.96170726180662
 30
0.0
  0
VERTEX
  5
6EB
  8
LE_ALL
 10
371.4439141193744
 20
-79.9766463604972
 30
0.0
  0
VERTEX
  5
6EC
  8
LE_ALL
 10
372.0662555840064
 20
-79.95128018772053
 30
0.0
  0
VERTEX
  5
6ED
  8
LE_ALL
 10
372.6624041834294
 20
-79.8865527850914
 30
0.0
  0
VERTEX
  5
6EE
  8
LE_ALL
 10
373.2101733193183
 20
-79.78487308367856
 30
0.0
  0
VERTEX
  5
6EF
  8
LE_ALL
 10
373.68917691041
 20
-79.65002525188439
 30
0.0
  0
VERTEX
  5
6F0
  8
LE_ALL
 10
374.0815880922581
 20
-79.48702786172585
 30
0.0
  0
VERTEX
  5
6F1
  8
LE_ALL
 10
374.3728026717498
 20
-79.30194711486301
 30
0.0
  0
VERTEX
  5
6F2
  8
LE_ALL
 10
374.551982644891
 20
-79.10167107945928
 30
0.0
  0
VERTEX
  5
6F3
  8
LE_ALL
 10
374.61245955
 20
-78.89365334
 30
0.0
  0
SEQEND
  5
72D
  8
LE_ALL
  0
LINE
  5
418
  8
LE_ALL
 10
370.21341103
 20
-79.90701888
 30
0.0
 11
357.58531735
 21
-78.31602862
 31
0.0
  0
LINE
  5
419
  8
LE_ALL
 10
359.88341439
 20
-78.60556164
 30
0.0
 11
359.88341439
 21
-76.28929754
 31
0.0
  0
LINE
  5
41A
  8
LE_ALL
 10
372.51150807
 20
-79.90701888
 30
0.0
 11
372.51150807
 21
-77.8802878
 31
0.0
  0
POLYLINE
  5
41B
  8
LE_ALL
 66
     1
 10
0.0
 20
0.0
 30
0.0
  0
VERTEX
  5
6F4
  8
LE_ALL
 10
326.72037471
 20
-73.67874082611105
 30
0.0
  0
VERTEX
  5
6F5
  8
LE_ALL
 10
326.7828225465557
 20
-73.8900886731615
 30
0.0
  0
VERTEX
  5
6F6
  8
LE_ALL
 10
326.9677662254317
 20
-74.09331454110597
 30
0.0
  0
VERTEX
  5
6F7
  8
LE_ALL
 10
327.2680984647503
 20
-74.28060857379197
 30
0.0
  0
VERTEX
  5
6F8
  8
LE_ALL
 10
327.6722776649564
 20
-74.44477316656267
 30
0.0
  0
VERTEX
  5
6F9
  8
LE_ALL
 10
328.1647714460171
 20
-74.5794995661681
 30
0.0
  0
VERTEX
  5
6FA
  8
LE_ALL
 10
328.7266535480767
 20
-74.67961031261505
 30
0.0
  0
VERTEX
  5
6FB
  8
LE_ALL
 10
329.3363311570111
 20
-74.74125820605155
 30
0.0
  0
VERTEX
  5
6FC
  8
LE_ALL
 10
329.9703747041665
 20
-74.76207415249999
 30
0.0
  0
VERTEX
  5
6FD
  8
LE_ALL
 10
330.6044182515462
 20
-74.74125820681024
 30
0.0
  0
VERTEX
  5
6FE
  8
LE_ALL
 10
331.2140958611445
 20
-74.67961031410329
 30
0.0
  0
VERTEX
  5
6FF
  8
LE_ALL
 10
331.7759779642823
 20
-74.57949956832869
 30
0.0
  0
VERTEX
  5
700
  8
LE_ALL
 10
332.2684717467939
 20
-74.44477316931257
 30
0.0
  0
VERTEX
  5
701
  8
LE_ALL
 10
332.6726509487679
 20
-74.2806085770255
 30
0.0
  0
VERTEX
  5
702
  8
LE_ALL
 10
332.9729831901036
 20
-74.09331454469888
 30
0.0
  0
VERTEX
  5
703
  8
LE_ALL
 10
333.1579268711682
 20
-73.89008867697571
 30
0.0
  0
VERTEX
  5
704
  8
LE_ALL
 10
333.22037471
 20
-73.67874083
 30
0.0
  0
SEQEND
  5
72E
  8
LE_ALL
  0
POLYLINE
  5
41C
  8
LE_ALL
 66
     1
 10
0.0
 20
0.0
 30
0.0
  0
VERTEX
  5
705
  8
LE_ALL
 10
333.22037471
 20
-73.67874083
 30
0.0
  0
VERTEX
  5
706
  8
LE_ALL
 10
333.1579268714527
 20
-73.46739298350106
 30
0.0
  0
VERTEX
  5
707
  8
LE_ALL
 10
332.9729831912198
 20
-73.26416711619933
 30
0.0
  0
VERTEX
  5
708
  8
LE_ALL
 10
332.6726509511986
 20
-73.07687308418706
 30
0.0
  0
VERTEX
  5
709
  8
LE_ALL
 10
332.2684717509187
 20
-72.91270849206236
 30
0.0
  0
VERTEX
  5
70A
  8
LE_ALL
 10
331.7759779703451
 20
-72.77798209302168
 30
0.0
  0
VERTEX
  5
70B
  8
LE_ALL
 10
331.2140958692286
 20
-72.67787134701288
 30
0.0
  0
VERTEX
  5
70C
  8
LE_ALL
 10
330.6044182615586
 20
-72.61622345385359
 30
0.0
  0
VERTEX
  5
70D
  8
LE_ALL
 10
329.9703747158334
 20
-72.5954075075
 30
0.0
  0
VERTEX
  5
70E
  8
LE_ALL
 10
329.3363311698841
 20
-72.6162234530949
 30
0.0
  0
VERTEX
  5
70F
  8
LE_ALL
 10
328.7266535615502
 20
-72.67787134552465
 30
0.0
  0
VERTEX
  5
710
  8
LE_ALL
 10
328.1647714593554
 20
-72.77798209086109
 30
0.0
  0
VERTEX
  5
711
  8
LE_ALL
 10
327.672277677331
 20
-72.91270848931246
 30
0.0
  0
VERTEX
  5
712
  8
LE_ALL
 10
327.2680984752831
 20
-73.07687308095352
 30
0.0
  0
VERTEX
  5
713
  8
LE_ALL
 10
326.9677662332449
 20
-73.26416711260642
 30
0.0
  0
VERTEX
  5
714
  8
LE_ALL
 10
326.7828225508233
 20
-73.46739297968684
 30
0.0
  0
VERTEX
  5
715
  8
LE_ALL
 10
326.72037471
 20
-73.67874082611105
 30
0.0
  0
SEQEND
  5
72F
  8
LE_ALL
  0
POLYLINE
  5
41D
  8
LE_ALL
 66
     1
 10
0.0
 20
0.0
 30
0.0
  0
VERTEX
  5
41E
  8
LE_ALL
 10
378.45339878
 20
-85.13225255
 30
0.0
  0
VERTEX
  5
41F
  8
LE_ALL
 10
378.45339878
 20
-88.90348871
 30
0.0
  0
VERTEX
  5
420
  8
LE_ALL
 10
318.11917342
 20
-81.30209082
 30
0.0
  0
SEQEND
  5
421
  8
LE_ALL
  0
POLYLINE
  5
422
  8
LE_ALL
 66
     1
 10
0.0
 20
0.0
 30
0.0
  0
VERTEX
  5
423
  8
LE_ALL
 10
318.11917342
 20
-77.53085465
 30
0.0
  0
VERTEX
  5
424
  8
LE_ALL
 10
378.45339878
 20
-85.13225255
 30
0.0
  0
VERTEX
  5
425
  8
LE_ALL
 10
389.0600005
 20
-75.77810908
 30
0.0
  0
VERTEX
  5
426
  8
LE_ALL
 10
389.0600005
 20
-79.54934525
 30
0.0
  0
VERTEX
  5
427
  8
LE_ALL
 10
378.45339878
 20
-88.90348871
 30
0.0
  0
SEQEND
  5
428
  8
LE_ALL
  0
POLYLINE
  5
429
  8
LE_ALL
 66
     1
 10
0.0
 20
0.0
 30
0.0
  0
VERTEX
  5
42A
  8
LE_ALL
 10
389.0600005
 20
-75.77810908
 30
0.0
  0
VERTEX
  5
42B
  8
LE_ALL
 10
328.72577514
 20
-68.17671118
 30
0.0
  0
VERTEX
  5
42C
  8
LE_ALL
 10
318.11917342
 20
-77.53085465
 30
0.0
  0
SEQEND
  5
42D
  8
LE_ALL
  0
ENDBLK
  8
0
  0
BLOCK
  8
0
  2
_00082
 70
     0
 10
0.0
 20
0.0
 30
0.0
  0
INSERT
  5
430
  8
0
  2
_00083
 10
329.97037471
 20
-74.76207416
 30
0.0
  0
ENDBLK
  8
0
  0
BLOCK
  8
0
  2
_00083
 70
     0
 10
329.97037471
 20
-74.76207416
 30
0.0
  0
LINE
  5
433
  8
LE_ALL
  6
STRICHPUNKT2
 62
     1
 10
329.97037471
 20
-74.76207416
 30
0.0
 11
329.97037471
 21
-72.26452727
 31
0.0
  0
LINE
  5
434
  8
LE_ALL
  6
STRICHPUNKT2
 62
     1
 10
329.97037471
 20
-73.67874083
 30
0.0
 11
334.41359285
 21
-74.2385337
 31
0.0
  0
LINE
  5
435
  8
LE_ALL
  6
STRICHPUNKT2
 62
     1
 10
329.97037471
 20
-73.67874083
 30
0.0
 11
325.52715656
 21
-73.11894796
 31
0.0
  0
LINE
  5
436
  8
LE_ALL
  6
STRICHPUNKT2
 62
     1
 10
329.97037471
 20
-73.67874083
 30
0.0
 11
331.64975331
 21
-72.19766811
 31
0.0
  0
LINE
  5
437
  8
LE_ALL
  6
STRICHPUNKT2
 62
     1
 10
329.97037471
 20
-73.67874083
 30
0.0
 11
328.2909961
 21
-75.15981354
 31
0.0
  0
LINE
  5
438
  8
LE_ALL
  6
STRICHPUNKT2
 62
     1
 10
358.73436587
 20
-78.46079513
 30
0.0
 11
358.73436587
 21
-75.88844952
 31
0.0
  0
LINE
  5
439
  8
LE_ALL
  6
STRICHPUNKT2
 62
     1
 10
371.36245955
 20
-79.97698667
 30
0.0
 11
371.36245955
 21
-77.47943978
 31
0.0
  0
LINE
  5
43A
  8
LE_ALL
  6
STRICHPUNKT2
 62
     1
 10
354.29114772
 20
-76.74287021
 30
0.0
 11
375.80567769
 21
-79.45344621
 31
0.0
  0
LINE
  5
43B
  8
LE_ALL
  6
STRICHPUNKT2
 62
     1
 10
357.05498726
 20
-78.7837358
 30
0.0
 11
360.41374447
 21
-75.82159037
 31
0.0
  0
LINE
  5
43C
  8
LE_ALL
  6
STRICHPUNKT2
 62
     1
 10
369.68308094
 20
-80.37472606
 30
0.0
 11
373.04183815
 21
-77.41258062
 31
0.0
  0
ENDBLK
  8
0
  0
BLOCK
  8
0
  2
DVI_FIGURE_00084
 70
     0
 10
0.0
 20
0.0
 30
0.0
  0
INSERT
  5
43F
  8
0
  2
VIEW_3_00085
 10
0.0
 20
0.0
 30
0.0
  0
INSERT
  5
440
  8
0
  2
VIEW_4_00093
 10
0.0
 20
0.0
 30
0.0
  0
INSERT
  5
441
  8
0
  2
VIEW_5_00096
 10
0.0
 20
0.0
 30
0.0
  0
ENDBLK
  8
0
  0
BLOCK
  8
0
  2
VIEW_3_00085
 70
     0
 10
0.0
 20
0.0
 30
0.0
  0
INSERT
  5
444
  8
0
  2
PART_2_00086
 10
0.0
 20
0.0
 30
0.0
  0
ENDBLK
  8
0
  0
BLOCK
  8
0
  2
PART_2_00086
 70
     0
 10
0.0
 20
0.0
 30
0.0
  0
INSERT
  5
447
  8
0
  2
_D1
 10
292.16269016
 20
-249.68724912
 30
0.0
  0
INSERT
  5
448
  8
0
  2
_D2
 10
83.86951032
 20
-277.76741367
 30
0.0
  0
INSERT
  5
449
  8
0
  2
_D3
 10
152.36951032
 20
-207.92466366
 30
0.0
  0
INSERT
  5
44A
  8
0
  2
_D4
 10
203.36951032
 20
-217.4863786
 30
0.0
  0
INSERT
  5
44B
  8
0
  2
_D5
 10
283.49064047
 20
-253.68724912
 30
0.0
  0
INSERT
  5
44C
  8
0
  2
_D6
 10
283.49064047
 20
-231.2273314
 30
0.0
  0
ENDBLK
  8
0
  0
BLOCK
  8
0
  2
VIEW_4_00093
 70
     0
 10
0.0
 20
0.0
 30
0.0
  0
INSERT
  5
47F
  8
0
  2
PART_2_00094
 10
0.0
 20
0.0
 30
0.0
  0
ENDBLK
  8
0
  0
BLOCK
  8
0
  2
PART_2_00094
 70
     0
 10
0.0
 20
0.0
 30
0.0
  0
INSERT
  5
482
  8
0
  2
_D7
 10
351.6644378
 20
-214.5513667
 30
0.0
  0
ENDBLK
  8
0
  0
BLOCK
  8
0
  2
VIEW_5_00096
 70
     0
 10
0.0
 20
0.0
 30
0.0
  0
INSERT
  5
48D
  8
0
  2
PART_2_00097
 10
0.0
 20
0.0
 30
0.0
  0
ENDBLK
  8
0
  0
BLOCK
  8
0
  2
PART_2_00097
 70
     0
 10
0.0
 20
0.0
 30
0.0
  0
INSERT
  5
490
  8
0
  2
_D8
 10
22.80889576
 20
-174.5583742
 30
0.0
  0
INSERT
  5
491
  8
0
  2
_D9
 10
22.80889576
 20
-159.5583742
 30
0.0
  0
INSERT
  5
492
  8
0
  2
_D10
 10
22.80889576
 20
-141.0583742
 30
0.0
  0
INSERT
  5
493
  8
0
  2
_D11
 10
22.80889576
 20
-126.0583742
 30
0.0
  0
INSERT
  5
494
  8
0
  2
_D12
 10
34.1399726
 20
-184.2984455
 30
0.0
  0
INSERT
  5
495
  8
0
  2
_D13
 10
49.1399726
 20
-184.2984455
 30
0.0
  0
INSERT
  5
496
  8
0
  2
_D14
 10
67.6399726
 20
-184.2984455
 30
0.0
  0
INSERT
  5
497
  8
0
  2
_D15
 10
266.82942799
 20
-182.14760161
 30
0.0
  0
INSERT
  5
498
  8
0
  2
_D16
 10
236.82942799
 20
-182.14760161
 30
0.0
  0
INSERT
  5
499
  8
0
  2
_D17
 10
189.32942799
 20
-182.14760161
 30
0.0
  0
INSERT
  5
49A
  8
0
  2
_D18
 10
266.24215593
 20
-150.71145538
 30
0.0
  0
INSERT
  5
49B
  8
0
  2
_D19
 10
285.31885698
 20
-163.86891881
 30
0.0
  0
INSERT
  5
49C
  8
0
  2
_D20
 10
285.31885698
 20
-133.86891881
 30
0.0
  0
INSERT
  5
49D
  8
0
  2
_D21
 10
159.98689142
 20
-135.23342261
 30
0.0
  0
INSERT
  5
49E
  8
0
  2
_D22
 10
40.4468092
 20
-138.55659039
 30
0.0
  0
INSERT
  5
49F
  8
0
  2
_D23
 10
57.98689142
 20
-135.19205392
 30
0.0
  0
ENDBLK
  8
0
  0
ENDSEC
  0
SECTION
  2
ENTITIES
  0
INSERT
  5
525
  8
0
  2
_ZBL0002_00001
 10
0.0
 20
0.0
 30
0.0
  0
INSERT
  5
526
  8
0
  2
_ANS0003_00016
 10
0.0
 20
0.0
 30
0.0
  0
INSERT
  5
527
  8
0
  2
_ANS0004_00033
 10
0.0
 20
0.0
 30
0.0
  0
INSERT
  5
528
  8
0
  2
_ANS0005_00050
 10
0.0
 20
0.0
 30
0.0
  0
INSERT
  5
529
  8
0
  2
_ANS0006_00067
 10
0.0
 20
0.0
 30
0.0
  0
INSERT
  5
52A
  8
0
  2
DVI_FIGURE_00084
 10
0.0
 20
0.0
 30
0.0
  0
ENDSEC
  0
EOF
