  0
SECTION
  2
HEADER
  9
$ACADVER
  1
AC1006
  9
$DWGCODEPAGE
  3
ansi_1252
  9
$INSBASE
 10
0.0
 20
0.0
 30
0.0
  9
$EXTMIN
 10
-11.30800247
 20
-345.02354302
  9
$EXTMAX
 10
417.09199753
 20
-31.33433677
  9
$LIMMIN
 10
-11.30800247
 20
-345.02354302
  9
$LIMMAX
 10
417.09199753
 20
-31.33433677
  9
$ORTHOMODE
 70
     0
  9
$REGENMODE
 70
     1
  9
$FILLMODE
 70
     1
  9
$QTEXTMODE
 70
     0
  9
$MIRRTEXT
 70
     1
  9
$DRAGMODE
 70
     2
  9
$LTSCALE
 40
1.0
  9
$OSMODE
 70
    37
  9
$ATTMODE
 70
     1
  9
$TEXTSIZE
 40
1.0
  9
$TRACEWID
 40
0.05
  9
$TEXTSTYLE
  7
STANDARD
  9
$CLAYER
  8
0
  9
$CELTYPE
  6
BYBLOCK
  9
$CECOLOR
 62
   256
  9
$DIMSCALE
 40
1.0
  9
$DIMASZ
 40
0.18
  9
$DIMEXO
 40
0.0625
  9
$DIMDLI
 40
0.38
  9
$DIMRND
 40
0.0
  9
$DIMDLE
 40
0.0
  9
$DIMEXE
 40
0.18
  9
$DIMTP
 40
0.0
  9
$DIMTM
 40
0.0
  9
$DIMTXT
 40
0.18
  9
$DIMCEN
 40
0.09
  9
$DIMTSZ
 40
0.0
  9
$DIMTOL
 70
     0
  9
$DIMLIM
 70
     0
  9
$DIMTIH
 70
     1
  9
$DIMTOH
 70
     1
  9
$DIMSE1
 70
     0
  9
$DIMSE2
 70
     0
  9
$DIMTAD
 70
     0
  9
$DIMZIN
 70
     0
  9
$DIMBLK
  1

  9
$DIMASO
 70
     1
  9
$DIMSHO
 70
     1
  9
$DIMPOST
  1

  9
$DIMAPOST
  1

  9
$DIMALT
 70
     0
  9
$DIMALTD
 70
     2
  9
$DIMALTF
 40
25.4
  9
$DIMLFAC
 40
1.0
  9
$DIMTOFL
 70
     0
  9
$DIMTVP
 40
0.0
  9
$DIMTIX
 70
     0
  9
$DIMSOXD
 70
     0
  9
$DIMSAH
 70
     0
  9
$DIMBLK1
  1

  9
$DIMBLK2
  1

  9
$LUNITS
 70
     2
  9
$LUPREC
 70
     4
  9
$SKETCHINC
 40
0.1
  9
$FILLETRAD
 40
0.5
  9
$AUNITS
 70
     0
  9
$AUPREC
 70
     0
  9
$MENU
  1
.
  9
$ELEVATION
 40
0.0
  9
$THICKNESS
 40
0.0
  9
$LIMCHECK
 70
     0
  9
$CHAMFERA
 40
0.0
  9
$CHAMFERB
 40
0.0
  9
$SKPOLY
 70
     0
  9
$TDCREATE
 40
2447893.125
  9
$TDUPDATE
 40
2460791.515407176
  9
$TDINDWG
 40
0.0
  9
$TDUSRTIMER
 40
0.0
  9
$USRTIMER
 70
     1
  9
$ANGBASE
 50
0.0
  9
$ANGDIR
 70
     0
  9
$PDMODE
 70
     0
  9
$PDSIZE
 40
0.0
  9
$PLINEWID
 40
0.0
  9
$COORDS
 70
     1
  9
$SPLFRAME
 70
     0
  9
$SPLINETYPE
 70
     6
  9
$SPLINESEGS
 70
     8
  9
$ATTDIA
 70
     0
  9
$ATTREQ
 70
     1
  9
$HANDLING
 70
     1
  9
$HANDSEED
  5
73A
  9
$SURFTAB1
 70
     6
  9
$SURFTAB2
 70
     6
  9
$SURFTYPE
 70
     6
  9
$SURFU
 70
     6
  9
$SURFV
 70
     6
  9
$UCSNAME
  2

  9
$UCSORG
 10
0.0
 20
0.0
 30
0.0
  9
$UCSXDIR
 10
1.0
 20
0.0
 30
0.0
  9
$UCSYDIR
 10
0.0
 20
1.0
 30
0.0
  9
$USERI1
 70
     0
  9
$USERI2
 70
     0
  9
$USERI3
 70
     0
  9
$USERI4
 70
     0
  9
$USERI5
 70
     0
  9
$USERR1
 40
0.0
  9
$USERR2
 40
0.0
  9
$USERR3
 40
0.0
  9
$USERR4
 40
0.0
  9
$USERR5
 40
0.0
  9
$WORLDVIEW
 70
     1
  0
ENDSEC
  0
SECTION
  2
TABLES
  0
TABLE
  2
VPORT
 70
     1
  0
VPORT
  2
*ACTIVE
 70
     0
 10
0.0
 20
0.0
 11
1.0
 21
1.0
 12
202.89199753
 22
-188.17893989
 13
0.0
 23
0.0
 14
1.0
 24
1.0
 15
0.0
 25
0.0
 16
0.0
 26
0.0
 36
1.0
 17
0.0
 27
0.0
 37
0.0
 40
313.68920625
 41
1.365682948
 42
50.0
 43
0.0
 44
0.0
 50
0.0
 51
0.0
 71
     0
 72
   100
 73
     1
 74
     1
 75
     0
 76
     0
 77
     0
 78
     0
  0
ENDTAB
  0
TABLE
  2
LTYPE
 70
    19
  0
LTYPE
  2
CONTINUOUS
 70
     0
  3
Solid line
 72
    65
 73
     0
 40
0.0
  0
LTYPE
  2
DOT
 70
     0
  3
..............
 72
    65
 73
     2
 40
2.0
 49
0.5
 49
-1.5
  0
LTYPE
  2
HIDDEN
 70
     0
  3
-- -- -- -- --
 72
    65
 73
     2
 40
7.0
 49
4.0
 49
-3.0
  0
LTYPE
  2
DASHDOT
 70
     0
  3
--.--.--.--.--
 72
    65
 73
     4
 40
8.5
 49
4.0
 49
-2.0
 49
0.5
 49
-2.0
  0
LTYPE
  2
STRICHPUNKT2
 70
     0
  3
--.--.--.--.--
 72
    65
 73
     4
 40
18.5
 49
10.0
 49
-4.0
 49
0.5
 49
-4.0
  0
LTYPE
  2
STRICHPUNKT3
 70
     0
  3
--.--.--.--.--
 72
    65
 73
     4
 40
35.5
 49
25.0
 49
-5.0
 49
0.5
 49
-5.0
  0
LTYPE
  2
PHANTOM
 70
     0
  3
--..--..--..--
 72
    65
 73
     6
 40
23.0
 49
10.0
 49
-4.0
 49
0.5
 49
-4.0
 49
0.5
 49
-4.0
  0
LTYPE
  2
PHANTOM2
 70
     0
  3
--..--..--..--
 72
    65
 73
     6
 40
33.0
 49
20.0
 49
-4.0
 49
0.5
 49
-4.0
 49
0.5
 49
-4.0
  0
LTYPE
  2
PHANTOM3
 70
     0
  3
--..--..--..--
 72
    65
 73
     6
 40
50.0
 49
37.0
 49
-4.0
 49
0.5
 49
-4.0
 49
0.5
 49
-4.0
  0
LTYPE
  2
STR3PKT
 70
     0
  3
--...--...--...
 72
    65
 73
     8
 40
31.5
 49
20.0
 49
-2.5
 49
0.5
 49
-2.5
 49
0.5
 49
-2.5
 49
0.5
 49
-2.5
  0
LTYPE
  2
2STRPKT
 70
     0
  3
--.--.--.--.--
 72
    65
 73
     6
 40
28.0
 49
10.0
 49
-2.5
 49
10.0
 49
-2.5
 49
0.5
 49
-2.5
  0
LTYPE
  2
GESTRICHELT2
 70
     0
  3
-- -- -- -- --
 72
    65
 73
     2
 40
25.0
 49
10.0
 49
-15.0
  0
LTYPE
  2
2STR2PKT
 70
     0
  3
--..--..--..--
 72
    65
 73
     8
 40
31.0
 49
10.0
 49
-2.5
 49
10.0
 49
-2.5
 49
0.5
 49
-2.5
 49
0.5
 49
-2.5
  0
LTYPE
  2
STR3PKT2
 70
     0
  3
--...--...--...
 72
    65
 73
     8
 40
21.0
 49
10.0
 49
-2.5
 49
0.5
 49
-2.5
 49
0.5
 49
-2.5
 49
0.5
 49
-2.0
  0
LTYPE
  2
2STR3PKT
 70
     0
  3
--...--...--...
 72
    65
 73
    10
 40
34.0
 49
10.0
 49
-2.5
 49
10.0
 49
-2.5
 49
0.5
 49
-2.5
 49
0.5
 49
-2.5
 49
0.5
 49
-2.5
  0
LTYPE
  2
STRKSTR
 70
     0
  3
-- - -- - -- -
 72
    65
 73
     4
 40
30.0
 49
20.0
 49
-2.5
 49
5.0
 49
-2.5
  0
LTYPE
  2
STRKSTR2
 70
     0
  3
-- - -- - -- -
 72
    65
 73
     6
 40
37.5
 49
20.0
 49
-2.5
 49
5.0
 49
-2.5
 49
5.0
 49
-2.5
  0
LTYPE
  2
STRKSTR3
 70
     0
  3
-- - -- - -- -
 72
    65
 73
     8
 40
45.0
 49
20.0
 49
-2.5
 49
5.0
 49
-2.5
 49
5.0
 49
-2.5
 49
5.0
 49
-2.5
  0
LTYPE
  2
PUNKT2
 70
     0
  3
..............
 72
    65
 73
     2
 40
3.5
 49
0.5
 49
-3.0
  0
ENDTAB
  0
TABLE
  2
LAYER
 70
    16
  0
LAYER
  2
0
 70
     0
 62
     7
  6
CONTINUOUS
  0
LAYER
  2
LE_GREEN
 70
     0
 62
     3
  6
CONTINUOUS
  0
LAYER
  2
LE_RED
 70
     0
 62
     1
  6
CONTINUOUS
  0
LAYER
  2
LE_ALL
 70
     0
 62
     7
  6
CONTINUOUS
  0
LAYER
  2
LE_HIDDEN1
 70
     0
 62
     3
  6
HIDDEN
  0
LAYER
  2
LE_HIDDEN
 70
     0
 62
     7
  6
CONTINUOUS
  0
LAYER
  2
LE_MIDDLE
 70
     0
 62
     7
  6
CONTINUOUS
  0
LAYER
  2
TXT_YELLOW
 70
     0
 62
     2
  6
CONTINUOUS
  0
LAYER
  2
TXT_DIM49
 70
     0
 62
     2
  6
CONTINUOUS
  0
LAYER
  2
TXT_ALL
 70
     0
 62
     7
  6
CONTINUOUS
  0
LAYER
  2
DIM49
 70
     0
 62
     4
  6
CONTINUOUS
  0
LAYER
  2
HATCH
 70
     0
 62
     3
  6
CONTINUOUS
  0
LAYER
  2
APPLE
 70
     0
 62
     7
  6
CONTINUOUS
  0
LAYER
  2
10
 70
     0
 62
     7
  6
CONTINUOUS
  0
LAYER
  2
20
 70
     0
 62
     7
  6
CONTINUOUS
  0
LAYER
  2
49
 70
     0
 62
     7
  6
CONTINUOUS
  0
ENDTAB
  0
TABLE
  2
STYLE
 70
     5
  0
STYLE
  2
MONOTXT
 70
     0
 40
0.0
 41
1.0
 50
0.0
 71
     0
 42
1.0
  3
monotxt.shx
  4

  0
STYLE
  2
STANDARD
 70
     0
 40
0.0
 41
1.0
 50
0.0
 71
     0
 42
1.0
  3
txt
  4

  0
STYLE
  2
ARIAL
 70
     0
 40
0.0
 41
1.0
 50
0.0
 71
     0
 42
1.0
  3
arial.ttf
  4

  0
STYLE
  2
ARIAL_NARROW
 70
     0
 40
0.0
 41
1.0
 50
0.0
 71
     0
 42
1.0
  3
ArialN.ttf
  4

  0
STYLE
  2
ISOCPEUR
 70
     0
 40
0.0
 41
1.0
 50
0.0
 71
     0
 42
1.0
  3
ISOCPEUR.ttf
  4

  0
ENDTAB
  0
TABLE
  2
VIEW
 70
     0
  0
ENDTAB
  0
TABLE
  2
UCS
 70
     0
  0
ENDTAB
  0
ENDSEC
  0
SECTION
  2
BLOCKS
  0
BLOCK
  8
0
  2
_D1
 70
     0
 10
289.61561045
 20
-256.2140247
 30
0.0
  0
TEXT
  5
44F
  8
TXT_DIM49
 10
289.61561045
 20
-256.2140247
 30
0.0
 40
2.5
  1
43
 50
90.00020741
  7
ARIAL
  0
LINE
  5
450
  8
DIM49
 10
290.11561045
 20
-274.79418925
 30
0.0
 11
292.11561045
 21
-276.79418925
 31
0.0
  0
LINE
  5
451
  8
DIM49
 10
291.86561045
 20
-233.54418925
 30
0.0
 11
290.36561045
 21
-232.04418925
 31
0.0
  0
LINE
  5
452
  8
DIM49
 10
291.11561045
 20
-275.79418925
 30
0.0
 11
291.11561045
 21
-232.79418925
 31
0.0
  0
LINE
  5
453
  8
DIM49
 10
289.11561045
 20
-275.79418925
 30
0.0
 11
293.11561045
 21
-275.79418925
 31
0.0
  0
LINE
  5
454
  8
DIM49
 10
289.11561045
 20
-232.79418925
 30
0.0
 11
293.11561045
 21
-232.79418925
 31
0.0
  0
ENDBLK
  8
0
  0
BLOCK
  8
0
  2
_D2
 70
     0
 10
68.78327269
 20
-284.29418925
 30
0.0
  0
TEXT
  5
457
  8
TXT_DIM49
 10
68.78327269
 20
-284.29418925
 30
0.0
 40
2.5
  1
88
  7
ARIAL
  0
LINE
  5
458
  8
DIM49
 10
27.70310813
 20
-284.79418925
 30
0.0
 11
25.70310813
 21
-286.79418925
 31
0.0
  0
LINE
  5
459
  8
DIM49
 10
113.95310813
 20
-286.54418925
 30
0.0
 11
115.45310813
 21
-285.04418925
 31
0.0
  0
LINE
  5
45A
  8
DIM49
 10
26.70310813
 20
-285.79418925
 30
0.0
 11
114.70310813
 21
-285.79418925
 31
0.0
  0
LINE
  5
45B
  8
DIM49
 10
26.70310813
 20
-283.79418925
 30
0.0
 11
26.70310813
 21
-287.79418925
 31
0.0
  0
LINE
  5
45C
  8
DIM49
 10
114.70310813
 20
-283.79418925
 30
0.0
 11
114.70310813
 21
-287.79418925
 31
0.0
  0
ENDBLK
  8
0
  0
BLOCK
  8
0
  2
_D3
 70
     0
 10
148.82335502
 20
-212.79726043
 30
0.0
  0
TEXT
  5
45F
  8
TXT_DIM49
 10
148.82335502
 20
-212.79726043
 30
0.0
 40
2.5
  1
250
  7
ARIAL
  0
LINE
  5
460
  8
DIM49
 10
275.70310813
 20
-215.29726043
 30
0.0
 11
277.70310813
 21
-213.29726043
 31
0.0
  0
LINE
  5
461
  8
DIM49
 10
27.45310813
 20
-213.54726043
 30
0.0
 11
25.95310813
 21
-215.04726043
 31
0.0
  0
LINE
  5
462
  8
DIM49
 10
276.70310813
 20
-214.29726043
 30
0.0
 11
26.70310813
 21
-214.29726043
 31
0.0
  0
LINE
  5
463
  8
DIM49
 10
276.70310813
 20
-216.29726043
 30
0.0
 11
276.70310813
 21
-212.29726043
 31
0.0
  0
LINE
  5
464
  8
DIM49
 10
26.70310813
 20
-216.29726043
 30
0.0
 11
26.70310813
 21
-212.29726043
 31
0.0
  0
ENDBLK
  8
0
  0
BLOCK
  8
0
  2
_D4
 70
     0
 10
188.82335502
 20
-221.45539064
 30
0.0
  0
TEXT
  5
467
  8
TXT_DIM49
 10
188.82335502
 20
-221.45539064
 30
0.0
 40
2.5
  1
170
  7
ARIAL
  0
LINE
  5
468
  8
DIM49
 10
275.70310813
 20
-223.95539064
 30
0.0
 11
277.70310813
 21
-221.95539064
 31
0.0
  0
LINE
  5
469
  8
DIM49
 10
107.45310813
 20
-222.20539064
 30
0.0
 11
105.95310813
 21
-223.70539064
 31
0.0
  0
LINE
  5
46A
  8
DIM49
 10
276.70310813
 20
-222.95539064
 30
0.0
 11
106.70310813
 21
-222.95539064
 31
0.0
  0
LINE
  5
46B
  8
DIM49
 10
276.70310813
 20
-224.95539064
 30
0.0
 11
276.70310813
 21
-220.95539064
 31
0.0
  0
LINE
  5
46C
  8
DIM49
 10
106.70310813
 20
-224.95539064
 30
0.0
 11
106.70310813
 21
-220.95539064
 31
0.0
  0
ENDBLK
  8
0
  0
BLOCK
  8
0
  2
_D5
 70
     0
 10
282.09734668
 20
-264.14524681
 30
0.0
  0
TEXT
  5
46F
  8
TXT_DIM49
 10
282.09734668
 20
-264.14524681
 30
0.0
 40
2.5
  1
35
 50
90.00020741
  7
ARIAL
  0
LINE
  5
470
  8
DIM49
 10
282.59734668
 20
-274.79418925
 30
0.0
 11
284.59734668
 21
-276.79418925
 31
0.0
  0
LINE
  5
471
  8
DIM49
 10
284.34734668
 20
-241.54418925
 30
0.0
 11
282.84734668
 21
-240.04418925
 31
0.0
  0
LINE
  5
472
  8
DIM49
 10
283.59734668
 20
-275.79418925
 30
0.0
 11
283.59734668
 21
-240.79418925
 31
0.0
  0
LINE
  5
473
  8
DIM49
 10
281.59734668
 20
-275.79418925
 30
0.0
 11
285.59734668
 21
-275.79418925
 31
0.0
  0
LINE
  5
474
  8
DIM49
 10
281.59734668
 20
-240.79418925
 30
0.0
 11
285.59734668
 21
-240.79418925
 31
0.0
  0
ENDBLK
  8
0
  0
BLOCK
  8
0
  2
_D6
 70
     0
 10
282.09734668
 20
-237.75410697
 30
0.0
  0
TEXT
  5
477
  8
TXT_DIM49
 10
282.09734668
 20
-237.75410697
 30
0.0
 40
2.5
  1
8
 50
90.00020741
  7
ARIAL
  0
LINE
  5
478
  8
DIM49
 10
282.59734668
 20
-239.79418925
 30
0.0
 11
284.59734668
 21
-241.79418925
 31
0.0
  0
LINE
  5
479
  8
DIM49
 10
284.34734668
 20
-233.54418925
 30
0.0
 11
282.84734668
 21
-232.04418925
 31
0.0
  0
LINE
  5
47A
  8
DIM49
 10
283.59734668
 20
-240.79418925
 30
0.0
 11
283.59734668
 21
-232.79418925
 31
0.0
  0
LINE
  5
47B
  8
DIM49
 10
281.59734668
 20
-240.79418925
 30
0.0
 11
285.59734668
 21
-240.79418925
 31
0.0
  0
LINE
  5
47C
  8
DIM49
 10
281.59734668
 20
-232.79418925
 30
0.0
 11
285.59734668
 21
-232.79418925
 31
0.0
  0
ENDBLK
  8
0
  0
BLOCK
  8
0
  2
_D7
 70
     0
 10
352.70794727
 20
-221.07814227
 30
0.0
  0
TEXT
  5
485
  8
TXT_DIM49
 10
352.70794727
 20
-221.07814227
 30
0.0
 40
2.5
  1
60
  7
ARIAL
  0
LINE
  5
486
  8
DIM49
 10
325.62778272
 20
-221.57814227
 30
0.0
 11
323.62778272
 21
-223.57814227
 31
0.0
  0
LINE
  5
487
  8
DIM49
 10
383.87778272
 20
-223.32814227
 30
0.0
 11
385.37778272
 21
-221.82814227
 31
0.0
  0
LINE
  5
488
  8
DIM49
 10
324.62778272
 20
-222.57814227
 30
0.0
 11
384.62778272
 21
-222.57814227
 31
0.0
  0
LINE
  5
489
  8
DIM49
 10
324.62778272
 20
-224.57814227
 30
0.0
 11
324.62778272
 21
-220.57814227
 31
0.0
  0
LINE
  5
48A
  8
DIM49
 10
384.62778272
 20
-224.57814227
 30
0.0
 11
384.62778272
 21
-220.57814227
 31
0.0
  0
ENDBLK
  8
0
  0
BLOCK
  8
0
  2
_D8
 70
     0
 10
281.52282966
 20
-149.70482227
 30
0.0
  0
TEXT
  5
4A3
  8
TXT_DIM49
 10
281.52282966
 20
-149.70482227
 30
0.0
 40
2.5
  1
Ø
 50
90.00020741
  7
ARIAL
  0
TEXT
  5
4A4
  8
TXT_DIM49
 10
281.52282966
 20
-146.01974938
 30
0.0
 40
2.5
  1
13
 50
90.00020741
  7
ARIAL
  0
LINE
  5
4A5
  8
DIM49
 10
284.02282966
 20
-140.44245026
 30
0.0
 11
282.02282966
 21
-138.44245026
 31
0.0
  0
LINE
  5
4A6
  8
DIM49
 10
282.27282966
 20
-151.69245026
 30
0.0
 11
283.77282966
 21
-153.19245026
 31
0.0
  0
LINE
  5
4A7
  8
DIM49
 10
283.02282966
 20
-139.44245026
 30
0.0
 11
283.02282966
 21
-152.44245026
 31
0.0
  0
LINE
  5
4A8
  8
DIM49
 10
281.02282966
 20
-139.44245026
 30
0.0
 11
285.02282966
 21
-139.44245026
 31
0.0
  0
LINE
  5
4A9
  8
DIM49
 10
281.02282966
 20
-152.44245026
 30
0.0
 11
285.02282966
 21
-152.44245026
 31
0.0
  0
ENDBLK
  8
0
  0
BLOCK
  8
0
  2
_D9
 70
     0
 10
45.04886791
 20
-183.2918124
 30
0.0
  0
TEXT
  5
4AC
  8
TXT_DIM49
 10
45.04886791
 20
-183.2918124
 30
0.0
 40
2.5
  1
11,5
  7
ARIAL
  0
LINE
  5
4AD
  8
DIM49
 10
43.65815874
 20
-183.7918124
 30
0.0
 11
41.65815874
 21
-185.7918124
 31
0.0
  0
LINE
  5
4AE
  8
DIM49
 10
53.40815874
 20
-185.5418124
 30
0.0
 11
54.90815874
 21
-184.0418124
 31
0.0
  0
LINE
  5
4AF
  8
DIM49
 10
42.65815874
 20
-184.7918124
 30
0.0
 11
54.15815874
 21
-184.7918124
 31
0.0
  0
LINE
  5
4B0
  8
DIM49
 10
42.65815874
 20
-182.7918124
 30
0.0
 11
42.65815874
 21
-186.7918124
 31
0.0
  0
LINE
  5
4B1
  8
DIM49
 10
54.15815874
 20
-182.7918124
 30
0.0
 11
54.15815874
 21
-186.7918124
 31
0.0
  0
ENDBLK
  8
0
  0
BLOCK
  8
0
  2
_D10
 70
     0
 10
60.04886791
 20
-183.2918124
 30
0.0
  0
TEXT
  5
4B4
  8
TXT_DIM49
 10
60.04886791
 20
-183.2918124
 30
0.0
 40
2.5
  1
18,5
  7
ARIAL
  0
LINE
  5
4B5
  8
DIM49
 10
55.15815874
 20
-183.7918124
 30
0.0
 11
53.15815874
 21
-185.7918124
 31
0.0
  0
LINE
  5
4B6
  8
DIM49
 10
71.90815874
 20
-185.5418124
 30
0.0
 11
73.40815874
 21
-184.0418124
 31
0.0
  0
LINE
  5
4B7
  8
DIM49
 10
54.15815874
 20
-184.7918124
 30
0.0
 11
72.65815874
 21
-184.7918124
 31
0.0
  0
LINE
  5
4B8
  8
DIM49
 10
54.15815874
 20
-182.7918124
 30
0.0
 11
54.15815874
 21
-186.7918124
 31
0.0
  0
LINE
  5
4B9
  8
DIM49
 10
72.65815874
 20
-182.7918124
 30
0.0
 11
72.65815874
 21
-186.7918124
 31
0.0
  0
ENDBLK
  8
0
  0
BLOCK
  8
0
  2
_D11
 70
     0
 10
78.54886791
 20
-183.2918124
 30
0.0
  0
TEXT
  5
4BC
  8
TXT_DIM49
 10
78.54886791
 20
-183.2918124
 30
0.0
 40
2.5
  1
18,5
  7
ARIAL
  0
LINE
  5
4BD
  8
DIM49
 10
73.65815874
 20
-183.7918124
 30
0.0
 11
71.65815874
 21
-185.7918124
 31
0.0
  0
LINE
  5
4BE
  8
DIM49
 10
90.40815874
 20
-185.5418124
 30
0.0
 11
91.90815874
 21
-184.0418124
 31
0.0
  0
LINE
  5
4BF
  8
DIM49
 10
72.65815874
 20
-184.7918124
 30
0.0
 11
91.15815874
 21
-184.7918124
 31
0.0
  0
LINE
  5
4C0
  8
DIM49
 10
72.65815874
 20
-182.7918124
 30
0.0
 11
72.65815874
 21
-186.7918124
 31
0.0
  0
LINE
  5
4C1
  8
DIM49
 10
91.15815874
 20
-182.7918124
 30
0.0
 11
91.15815874
 21
-186.7918124
 31
0.0
  0
ENDBLK
  8
0
  0
BLOCK
  8
0
  2
_D12
 70
     0
 10
173.89578673
 20
-132.56848618
 30
0.0
  0
TEXT
  5
4C4
  8
TXT_DIM49
 10
173.89578673
 20
-132.56848618
 30
0.0
 40
2.5
  1
Ø
  7
ARIAL
  0
TEXT
  5
4C5
  8
TXT_DIM49
 10
177.58085963
 20
-132.56848618
 30
0.0
 40
2.5
  1
13
  7
ARIAL
  0
LINE
  5
4C6
  8
DIM49
 10
172.15815874
 20
-133.06848618
 30
0.0
 11
170.15815874
 21
-135.06848618
 31
0.0
  0
LINE
  5
4C7
  8
DIM49
 10
183.40815874
 20
-134.81848618
 30
0.0
 11
184.90815874
 21
-133.31848618
 31
0.0
  0
LINE
  5
4C8
  8
DIM49
 10
171.15815874
 20
-134.06848618
 30
0.0
 11
184.15815874
 21
-134.06848618
 31
0.0
  0
LINE
  5
4C9
  8
DIM49
 10
171.15815874
 20
-136.06848618
 30
0.0
 11
171.15815874
 21
-132.06848618
 31
0.0
  0
LINE
  5
4CA
  8
DIM49
 10
184.15815874
 20
-136.06848618
 30
0.0
 11
184.15815874
 21
-132.06848618
 31
0.0
  0
ENDBLK
  8
0
  0
BLOCK
  8
0
  2
_D13
 70
     0
 10
280.73832329
 20
-180.85090882
 30
0.0
  0
TEXT
  5
4CD
  8
TXT_DIM49
 10
280.73832329
 20
-180.85090882
 30
0.0
 40
2.5
  1
20
  7
ARIAL
  0
LINE
  5
4CE
  8
DIM49
 10
291.65815874
 20
-183.35090882
 30
0.0
 11
293.65815874
 21
-181.35090882
 31
0.0
  0
LINE
  5
4CF
  8
DIM49
 10
273.40815874
 20
-181.60090882
 30
0.0
 11
271.90815874
 21
-183.10090882
 31
0.0
  0
LINE
  5
4D0
  8
DIM49
 10
292.65815874
 20
-182.35090882
 30
0.0
 11
272.65815874
 21
-182.35090882
 31
0.0
  0
LINE
  5
4D1
  8
DIM49
 10
292.65815874
 20
-180.35090882
 30
0.0
 11
292.65815874
 21
-184.35090882
 31
0.0
  0
LINE
  5
4D2
  8
DIM49
 10
272.65815874
 20
-180.35090882
 30
0.0
 11
272.65815874
 21
-184.35090882
 31
0.0
  0
ENDBLK
  8
0
  0
BLOCK
  8
0
  2
_D14
 70
     0
 10
250.73832329
 20
-180.85090882
 30
0.0
  0
TEXT
  5
4D5
  8
TXT_DIM49
 10
250.73832329
 20
-180.85090882
 30
0.0
 40
2.5
  1
40
  7
ARIAL
  0
LINE
  5
4D6
  8
DIM49
 10
271.65815874
 20
-183.35090882
 30
0.0
 11
273.65815874
 21
-181.35090882
 31
0.0
  0
LINE
  5
4D7
  8
DIM49
 10
233.40815874
 20
-181.60090882
 30
0.0
 11
231.90815874
 21
-183.10090882
 31
0.0
  0
LINE
  5
4D8
  8
DIM49
 10
272.65815874
 20
-182.35090882
 30
0.0
 11
232.65815874
 21
-182.35090882
 31
0.0
  0
LINE
  5
4D9
  8
DIM49
 10
272.65815874
 20
-180.35090882
 30
0.0
 11
272.65815874
 21
-184.35090882
 31
0.0
  0
LINE
  5
4DA
  8
DIM49
 10
232.65815874
 20
-180.35090882
 30
0.0
 11
232.65815874
 21
-184.35090882
 31
0.0
  0
ENDBLK
  8
0
  0
BLOCK
  8
0
  2
_D15
 70
     0
 10
203.23832329
 20
-180.85090882
 30
0.0
  0
TEXT
  5
4DD
  8
TXT_DIM49
 10
203.23832329
 20
-180.85090882
 30
0.0
 40
2.5
  1
55
  7
ARIAL
  0
LINE
  5
4DE
  8
DIM49
 10
231.65815874
 20
-183.35090882
 30
0.0
 11
233.65815874
 21
-181.35090882
 31
0.0
  0
LINE
  5
4DF
  8
DIM49
 10
178.40815874
 20
-181.60090882
 30
0.0
 11
176.90815874
 21
-183.10090882
 31
0.0
  0
LINE
  5
4E0
  8
DIM49
 10
232.65815874
 20
-182.35090882
 30
0.0
 11
177.65815874
 21
-182.35090882
 31
0.0
  0
LINE
  5
4E1
  8
DIM49
 10
232.65815874
 20
-180.35090882
 30
0.0
 11
232.65815874
 21
-184.35090882
 31
0.0
  0
LINE
  5
4E2
  8
DIM49
 10
177.65815874
 20
-180.35090882
 30
0.0
 11
177.65815874
 21
-184.35090882
 31
0.0
  0
ENDBLK
  8
0
  0
BLOCK
  8
0
  2
_D16
 70
     0
 10
297.29734584
 20
-162.86228571
 30
0.0
  0
TEXT
  5
4E5
  8
TXT_DIM49
 10
297.29734584
 20
-162.86228571
 30
0.0
 40
2.5
  1
30
 50
90.00020741
  7
ARIAL
  0
LINE
  5
4E6
  8
DIM49
 10
297.79734584
 20
-174.94245026
 30
0.0
 11
299.79734584
 21
-176.94245026
 31
0.0
  0
LINE
  5
4E7
  8
DIM49
 10
299.54734584
 20
-146.69245026
 30
0.0
 11
298.04734584
 21
-145.19245026
 31
0.0
  0
LINE
  5
4E8
  8
DIM49
 10
298.79734584
 20
-175.94245026
 30
0.0
 11
298.79734584
 21
-145.94245026
 31
0.0
  0
LINE
  5
4E9
  8
DIM49
 10
296.79734584
 20
-175.94245026
 30
0.0
 11
300.79734584
 21
-175.94245026
 31
0.0
  0
LINE
  5
4EA
  8
DIM49
 10
296.79734584
 20
-145.94245026
 30
0.0
 11
300.79734584
 21
-145.94245026
 31
0.0
  0
ENDBLK
  8
0
  0
BLOCK
  8
0
  2
_D17
 70
     0
 10
297.29734584
 20
-132.86228571
 30
0.0
  0
TEXT
  5
4ED
  8
TXT_DIM49
 10
297.29734584
 20
-132.86228571
 30
0.0
 40
2.5
  1
30
 50
90.00020741
  7
ARIAL
  0
LINE
  5
4EE
  8
DIM49
 10
297.79734584
 20
-144.94245026
 30
0.0
 11
299.79734584
 21
-146.94245026
 31
0.0
  0
LINE
  5
4EF
  8
DIM49
 10
299.54734584
 20
-116.69245026
 30
0.0
 11
298.04734584
 21
-115.19245026
 31
0.0
  0
LINE
  5
4F0
  8
DIM49
 10
298.79734584
 20
-145.94245026
 30
0.0
 11
298.79734584
 21
-115.94245026
 31
0.0
  0
LINE
  5
4F1
  8
DIM49
 10
296.79734584
 20
-145.94245026
 30
0.0
 11
300.79734584
 21
-145.94245026
 31
0.0
  0
LINE
  5
4F2
  8
DIM49
 10
296.79734584
 20
-115.94245026
 30
0.0
 11
300.79734584
 21
-115.94245026
 31
0.0
  0
ENDBLK
  8
0
  0
BLOCK
  8
0
  2
_D18
 70
     0
 10
68.89578673
 20
-133.38985415
 30
0.0
  0
TEXT
  5
4F5
  8
TXT_DIM49
 10
68.89578673
 20
-133.38985415
 30
0.0
 40
2.5
  1
Ø
  7
ARIAL
  0
TEXT
  5
4F6
  8
TXT_DIM49
 10
72.58085963
 20
-133.38985415
 30
0.0
 40
2.5
  1
13
  7
ARIAL
  0
LINE
  5
4F7
  8
DIM49
 10
67.15815874
 20
-133.88985415
 30
0.0
 11
65.15815874
 21
-135.88985415
 31
0.0
  0
LINE
  5
4F8
  8
DIM49
 10
78.40815874
 20
-135.63985415
 30
0.0
 11
79.90815874
 21
-134.13985415
 31
0.0
  0
LINE
  5
4F9
  8
DIM49
 10
66.15815874
 20
-134.88985415
 30
0.0
 11
79.15815874
 21
-134.88985415
 31
0.0
  0
LINE
  5
4FA
  8
DIM49
 10
66.15815874
 20
-136.88985415
 30
0.0
 11
66.15815874
 21
-132.88985415
 31
0.0
  0
LINE
  5
4FB
  8
DIM49
 10
79.15815874
 20
-136.88985415
 30
0.0
 11
79.15815874
 21
-132.88985415
 31
0.0
  0
ENDBLK
  8
0
  0
BLOCK
  8
0
  2
_D19
 70
     0
 10
51.35570451
 20
-138.5406815
 30
0.0
  0
TEXT
  5
4FE
  8
TXT_DIM49
 10
51.35570451
 20
-138.5406815
 30
0.0
 40
2.5
  1
Ø
  7
ARIAL
  0
TEXT
  5
4FF
  8
TXT_DIM49
 10
55.04077741
 20
-138.5406815
 30
0.0
 40
2.5
  1
8
  7
ARIAL
  0
LINE
  5
500
  8
DIM49
 10
57.15815874
 20
-141.0406815
 30
0.0
 11
59.15815874
 21
-139.0406815
 31
0.0
  0
LINE
  5
501
  8
DIM49
 10
50.90815874
 20
-139.2906815
 30
0.0
 11
49.40815874
 21
-140.7906815
 31
0.0
  0
LINE
  5
502
  8
DIM49
 10
58.15815874
 20
-140.0406815
 30
0.0
 11
50.15815874
 21
-140.0406815
 31
0.0
  0
LINE
  5
503
  8
DIM49
 10
58.15815874
 20
-138.0406815
 30
0.0
 11
58.15815874
 21
-142.0406815
 31
0.0
  0
LINE
  5
504
  8
DIM49
 10
50.15815874
 20
-138.0406815
 30
0.0
 11
50.15815874
 21
-142.0406815
 31
0.0
  0
ENDBLK
  8
0
  0
BLOCK
  8
0
  2
_D20
 70
     0
 10
33.66214805
 20
-173.5517411
 30
0.0
  0
TEXT
  5
507
  8
TXT_DIM49
 10
33.66214805
 20
-173.5517411
 30
0.0
 40
2.5
  1
11,5
 50
90.00020741
  7
ARIAL
  0
LINE
  5
508
  8
DIM49
 10
34.16214805
 20
-174.94245026
 30
0.0
 11
36.16214805
 21
-176.94245026
 31
0.0
  0
LINE
  5
509
  8
DIM49
 10
35.91214805
 20
-165.19245026
 30
0.0
 11
34.41214805
 21
-163.69245026
 31
0.0
  0
LINE
  5
50A
  8
DIM49
 10
35.16214805
 20
-175.94245026
 30
0.0
 11
35.16214805
 21
-164.44245026
 31
0.0
  0
LINE
  5
50B
  8
DIM49
 10
37.16214805
 20
-175.94245026
 30
0.0
 11
33.16214805
 21
-175.94245026
 31
0.0
  0
LINE
  5
50C
  8
DIM49
 10
37.16214805
 20
-164.44245026
 30
0.0
 11
33.16214805
 21
-164.44245026
 31
0.0
  0
ENDBLK
  8
0
  0
BLOCK
  8
0
  2
_D21
 70
     0
 10
33.66214805
 20
-158.5517411
 30
0.0
  0
TEXT
  5
50F
  8
TXT_DIM49
 10
33.66214805
 20
-158.5517411
 30
0.0
 40
2.5
  1
18,5
 50
90.00020741
  7
ARIAL
  0
LINE
  5
510
  8
DIM49
 10
34.16214805
 20
-163.44245026
 30
0.0
 11
36.16214805
 21
-165.44245026
 31
0.0
  0
LINE
  5
511
  8
DIM49
 10
35.91214805
 20
-146.69245026
 30
0.0
 11
34.41214805
 21
-145.19245026
 31
0.0
  0
LINE
  5
512
  8
DIM49
 10
35.16214805
 20
-164.44245026
 30
0.0
 11
35.16214805
 21
-145.94245026
 31
0.0
  0
LINE
  5
513
  8
DIM49
 10
37.16214805
 20
-164.44245026
 30
0.0
 11
33.16214805
 21
-164.44245026
 31
0.0
  0
LINE
  5
514
  8
DIM49
 10
37.16214805
 20
-145.94245026
 30
0.0
 11
33.16214805
 21
-145.94245026
 31
0.0
  0
ENDBLK
  8
0
  0
BLOCK
  8
0
  2
_D22
 70
     0
 10
33.66214805
 20
-140.0517411
 30
0.0
  0
TEXT
  5
517
  8
TXT_DIM49
 10
33.66214805
 20
-140.0517411
 30
0.0
 40
2.5
  1
18,5
 50
90.00020741
  7
ARIAL
  0
LINE
  5
518
  8
DIM49
 10
34.16214805
 20
-144.94245026
 30
0.0
 11
36.16214805
 21
-146.94245026
 31
0.0
  0
LINE
  5
519
  8
DIM49
 10
35.91214805
 20
-128.19245026
 30
0.0
 11
34.41214805
 21
-126.69245026
 31
0.0
  0
LINE
  5
51A
  8
DIM49
 10
35.16214805
 20
-145.94245026
 30
0.0
 11
35.16214805
 21
-127.44245026
 31
0.0
  0
LINE
  5
51B
  8
DIM49
 10
37.16214805
 20
-145.94245026
 30
0.0
 11
33.16214805
 21
-145.94245026
 31
0.0
  0
LINE
  5
51C
  8
DIM49
 10
37.16214805
 20
-127.44245026
 30
0.0
 11
33.16214805
 21
-127.44245026
 31
0.0
  0
ENDBLK
  8
0
  0
BLOCK
  8
0
  2
_D23
 70
     0
 10
33.66214805
 20
-125.0517411
 30
0.0
  0
TEXT
  5
51F
  8
TXT_DIM49
 10
33.66214805
 20
-125.0517411
 30
0.0
 40
2.5
  1
11,5
 50
90.00020741
  7
ARIAL
  0
LINE
  5
520
  8
DIM49
 10
34.16214805
 20
-126.44245026
 30
0.0
 11
36.16214805
 21
-128.44245026
 31
0.0
  0
LINE
  5
521
  8
DIM49
 10
35.91214805
 20
-116.69245026
 30
0.0
 11
34.41214805
 21
-115.19245026
 31
0.0
  0
LINE
  5
522
  8
DIM49
 10
35.16214805
 20
-127.44245026
 30
0.0
 11
35.16214805
 21
-115.94245026
 31
0.0
  0
LINE
  5
523
  8
DIM49
 10
37.16214805
 20
-127.44245026
 30
0.0
 11
33.16214805
 21
-127.44245026
 31
0.0
  0
LINE
  5
524
  8
DIM49
 10
37.16214805
 20
-115.94245026
 30
0.0
 11
33.16214805
 21
-115.94245026
 31
0.0
  0
ENDBLK
  8
0
  0
BLOCK
  8
0
  2
_D24
 70
     0
 10
305.52426424
 20
-147.86228571
 30
0.0
  0
TEXT
  5
527
  8
TXT_DIM49
 10
305.52426424
 20
-147.86228571
 30
0.0
 40
2.5
  1
60
 50
90.00020741
  7
ARIAL
  0
LINE
  5
528
  8
DIM49
 10
308.02426424
 20
-116.94245026
 30
0.0
 11
306.02426424
 21
-114.94245026
 31
0.0
  0
LINE
  5
529
  8
DIM49
 10
306.27426424
 20
-175.19245026
 30
0.0
 11
307.77426424
 21
-176.69245026
 31
0.0
  0
LINE
  5
52A
  8
DIM49
 10
307.02426424
 20
-115.94245026
 30
0.0
 11
307.02426424
 21
-175.94245026
 31
0.0
  0
LINE
  5
52B
  8
DIM49
 10
305.02426424
 20
-115.94245026
 30
0.0
 11
309.02426424
 21
-115.94245026
 31
0.0
  0
LINE
  5
52C
  8
DIM49
 10
305.02426424
 20
-175.94245026
 30
0.0
 11
309.02426424
 21
-175.94245026
 31
0.0
  0
ENDBLK
  8
0
  0
BLOCK
  8
0
  2
_ZBL0002_00001
 70
     0
 10
0.0
 20
0.0
 30
0.0
  0
INSERT
  5
1C8
  8
0
  2
DINA3_00002
 10
-7.10800247
 20
-336.67893989
 30
0.0
  0
ENDBLK
  8
0
  0
BLOCK
  8
0
  2
DINA3_00002
 70
     0
 10
-7.10800247
 20
-336.67893989
 30
0.0
  0
POLYLINE
  5
1CB
  8
0
 66
     1
 10
0.0
 20
0.0
 30
0.0
 70
     1
  0
VERTEX
  5
1CC
  8
0
 10
-7.10800247
 20
-336.67893989
 30
0.0
  0
VERTEX
  5
1CD
  8
0
 10
412.89199753
 20
-336.67893989
 30
0.0
  0
VERTEX
  5
1CE
  8
0
 10
412.89199753
 20
-39.67893989
 30
0.0
  0
VERTEX
  5
1CF
  8
0
 10
-7.10800247
 20
-39.67893989
 30
0.0
  0
SEQEND
  5
1D0
  8
0
  0
POLYLINE
  5
1D1
  8
0
 66
     1
 10
0.0
 20
0.0
 30
0.0
 70
     1
  0
VERTEX
  5
1D2
  8
0
 10
-2.10800247
 20
-331.67893989
 30
0.0
  0
VERTEX
  5
1D3
  8
0
 10
407.89199753
 20
-331.67893989
 30
0.0
  0
VERTEX
  5
1D4
  8
0
 10
407.89199753
 20
-44.67893989
 30
0.0
  0
VERTEX
  5
1D5
  8
0
 10
-2.10800247
 20
-44.67893989
 30
0.0
  0
SEQEND
  5
1D6
  8
0
  0
LINE
  5
1D7
  8
0
 10
222.89199753
 20
-331.67893989
 30
0.0
 11
222.89199753
 21
-336.67893989
 31
0.0
  0
LINE
  5
1D8
  8
0
 10
222.89199753
 20
-44.67893989
 30
0.0
 11
222.89199753
 21
-39.67893989
 31
0.0
  0
LINE
  5
1D9
  8
0
 10
12.89199753
 20
-331.67893989
 30
0.0
 11
12.89199753
 21
-336.67893989
 31
0.0
  0
LINE
  5
1DA
  8
0
 10
12.89199753
 20
-44.67893989
 30
0.0
 11
12.89199753
 21
-39.67893989
 31
0.0
  0
TEXT
  5
1DB
  8
TXT_ALL
 62
     4
 10
411.89199753
 20
-335.67893989
 30
0.0
 40
2.5
  1

 50
90.00020741
  0
POLYLINE
  5
1DC
  8
0
 66
     1
 10
0.0
 20
0.0
 30
0.0
  0
VERTEX
  5
1DD
  8
0
 10
407.89199753
 20
-54.67893989
 30
0.0
  0
VERTEX
  5
1DE
  8
0
 10
338.89869753
 20
-54.67893989
 30
0.0
  0
VERTEX
  5
1DF
  8
0
 10
338.89869753
 20
-44.67893989
 30
0.0
  0
SEQEND
  5
1E0
  8
0
  0
LINE
  5
1E1
  8
0
 10
340.80199753
 20
-312.17893989
 30
0.0
 11
200.91199753
 21
-312.17893989
 31
0.0
  0
LINE
  5
1E2
  8
0
 10
200.91199753
 20
-321.92893989
 30
0.0
 11
340.80199753
 21
-321.92893989
 31
0.0
  0
POLYLINE
  5
1E3
  8
0
 66
     1
 10
0.0
 20
0.0
 30
0.0
  0
VERTEX
  5
1E4
  8
0
 10
200.91199753
 20
-312.17893989
 30
0.0
  0
VERTEX
  5
1E5
  8
0
 10
200.91199753
 20
-321.92893989
 30
0.0
  0
VERTEX
  5
1E6
  8
0
 10
200.91199753
 20
-331.67893989
 30
0.0
  0
SEQEND
  5
1E7
  8
0
  0
POLYLINE
  5
1E8
  8
0
 66
     1
 10
0.0
 20
0.0
 30
0.0
  0
VERTEX
  5
1E9
  8
0
 10
270.85699753
 20
-312.17893989
 30
0.0
  0
VERTEX
  5
1EA
  8
0
 10
270.85699753
 20
-321.92893989
 30
0.0
  0
VERTEX
  5
1EB
  8
0
 10
270.85699753
 20
-331.67893989
 30
0.0
  0
SEQEND
  5
1EC
  8
0
  0
INSERT
  5
1ED
  8
0
  2
FLEX_00003
 10
202.91199753
 20
-317.05393989
 30
0.0
  0
INSERT
  5
1EE
  8
0
  2
FLEX_00005
 10
202.91199753
 20
-326.80393989
 30
0.0
  0
INSERT
  5
1EF
  8
0
  2
FLEX_00007
 10
272.85699753
 20
-326.80393989
 30
0.0
  0
INSERT
  5
1F0
  8
0
  2
FLEX_00009
 10
272.85699753
 20
-317.05393989
 30
0.0
  0
INSERT
  5
1F1
  8
0
  2
SCHRIFE_00011
 10
1.33395779
 20
-49.67893989
 30
0.0
  0
INSERT
  5
1F2
  8
0
  2
_B_M_P___00015
 10
389.73442361
 20
-336.56893989
 30
0.0
  0
ENDBLK
  8
0
  0
BLOCK
  8
0
  2
FLEX_00003
 70
     0
 10
202.91199753
 20
-317.05393989
 30
0.0
  0
INSERT
  5
1F5
  8
0
  2
TFIELD_00004
 10
202.91199753
 20
-317.05393989
 30
0.0
  0
ENDBLK
  8
0
  0
BLOCK
  8
0
  2
TFIELD_00004
 70
     0
 10
202.91199753
 20
-317.05393989
 30
0.0
  0
TEXT
  5
1F8
  8
TXT_ALL
 10
202.91199753
 20
-318.35393985
 30
0.0
 40
2.5999999
  1
E-mail: verkoop@jonkers-bouwmetaal.nl
  7
ARIAL
  0
ENDBLK
  8
0
  0
BLOCK
  8
0
  2
FLEX_00005
 70
     0
 10
202.91199753
 20
-326.80393989
 30
0.0
  0
INSERT
  5
1FB
  8
0
  2
TFIELD_00006
 10
202.91199753
 20
-326.80393989
 30
0.0
  0
ENDBLK
  8
0
  0
BLOCK
  8
0
  2
TFIELD_00006
 70
     0
 10
202.91199753
 20
-326.80393989
 30
0.0
  0
TEXT
  5
1FE
  8
TXT_ALL
 10
202.91199753
 20
-328.10393985
 30
0.0
 40
2.5999999
  1
Telefoon: 0527-685156
  7
ARIAL
  0
ENDBLK
  8
0
  0
BLOCK
  8
0
  2
FLEX_00007
 70
     0
 10
272.85699753
 20
-326.80393989
 30
0.0
  0
INSERT
  5
201
  8
0
  2
TFIELD_00008
 10
272.85699753
 20
-326.80393989
 30
0.0
  0
ENDBLK
  8
0
  0
BLOCK
  8
0
  2
TFIELD_00008
 70
     0
 10
272.85699753
 20
-326.80393989
 30
0.0
  0
TEXT
  5
204
  8
TXT_ALL
 10
272.85699753
 20
-328.10393985
 30
0.0
 40
2.5999999
  1
Website: www.jonkers-bouwmetaal.nl
  7
ARIAL
  0
ENDBLK
  8
0
  0
BLOCK
  8
0
  2
FLEX_00009
 70
     0
 10
272.85699753
 20
-317.05393989
 30
0.0
  0
INSERT
  5
207
  8
0
  2
TFIELD_00010
 10
272.85699753
 20
-317.05393989
 30
0.0
  0
ENDBLK
  8
0
  0
BLOCK
  8
0
  2
TFIELD_00010
 70
     0
 10
272.85699753
 20
-317.05393989
 30
0.0
  0
TEXT
  5
20A
  8
TXT_ALL
 10
272.85699753
 20
-318.35393985
 30
0.0
 40
2.5999999
  1
Adres: Hoornse Hop 10, 8321 WX Urk
  7
ARIAL
  0
ENDBLK
  8
0
  0
BLOCK
  8
0
  2
SCHRIFE_00011
 70
     0
 10
1.33395779
 20
-49.67893989
 30
0.0
  0
TEXT
  5
20D
  8
TXT_ALL
 10
1.33395779
 20
-50.92893989
 30
0.0
 40
2.5
  1
Art. nr. 91017455
  7
ARIAL
  0
TEXT
  5
20E
  8
TXT_ALL
 10
44.0719946
 20
-50.92893989
 30
0.0
 40
2.5
  1
Omschrijving: Z05-anker 170x43x88 60x8 (sprong 35mm)
  7
ARIAL
  0
LINE
  5
20F
  8
0
 10
407.89199753
 20
-54.67893989
 30
0.0
 11
-2.10800247
 21
-54.67893989
 31
0.0
  0
LINE
  5
210
  8
0
 10
40.91199753
 20
-54.67893989
 30
0.0
 11
40.91199753
 21
-44.67893989
 31
0.0
  0
LINE
  5
211
  8
0
 10
200.91199753
 20
-54.67893989
 30
0.0
 11
200.91199753
 21
-44.67893989
 31
0.0
  0
TEXT
  5
212
  8
TXT_ALL
 10
271.90569753
 20
-50.92893989
 30
0.0
 40
2.5
  1
Behandeling: Thermisch verzinkt
  7
ARIAL
  0
LINE
  5
213
  8
0
 10
340.80199753
 20
-312.17893989
 30
0.0
 11
407.89199753
 21
-312.17893989
 31
0.0
  0
LINE
  5
214
  8
0
 10
340.80199753
 20
-331.67893989
 30
0.0
 11
340.80199753
 21
-312.17893989
 31
0.0
  0
LINE
  5
215
  8
0
 10
340.80199753
 20
-331.67893989
 30
0.0
 11
340.80199753
 21
-312.17893989
 31
0.0
  0
TEXT
  5
216
  8
TXT_ALL
 10
135.25719563
 20
-330.52440648
 30
0.0
 40
2.5
  1

  0
TEXT
  5
217
  8
TXT_ALL
 10
256.39237859
 20
-320.42893989
 30
0.0
 40
2.5
  1

  0
POLYLINE
  5
218
  8
0
 66
     1
 10
0.0
 20
0.0
 30
0.0
  0
VERTEX
  5
219
  8
0
 10
338.89869753
 20
-54.67893989
 30
0.0
  0
VERTEX
  5
21A
  8
0
 10
269.90569753
 20
-54.67893989
 30
0.0
  0
VERTEX
  5
21B
  8
0
 10
269.90569753
 20
-44.67893989
 30
0.0
  0
SEQEND
  5
21C
  8
0
  0
TEXT
  5
21D
  8
TXT_ALL
 10
340.89869753
 20
-50.92893989
 30
0.0
 40
2.5
  1
Verpakkingshoeveelheid: 1 st.
  7
ARIAL
  0
TEXT
  5
21E
  8
TXT_ALL
 10
202.91199753
 20
-50.92893989
 30
0.0
 40
2.5
  1
Materiaal: S355
  7
ARIAL
  0
INSERT
  5
21F
  8
0
  2
FLEX_00012
 10
382.46723295
 20
-335.67844974
 30
0.0
  0
INSERT
  5
220
  8
0
  2
_B_M_P___00014
 10
341.56136485
 20
-330.88625783
 30
0.0
  0
ENDBLK
  8
0
  0
BLOCK
  8
0
  2
FLEX_00012
 70
     0
 10
382.46723295
 20
-335.67844974
 30
0.0
  0
INSERT
  5
223
  8
0
  2
TFIELD_00013
 10
375.67364476
 20
-334.17844974
 30
0.0
  0
ENDBLK
  8
0
  0
BLOCK
  8
0
  2
TFIELD_00013
 70
     0
 10
375.67364476
 20
-334.17844974
 30
0.0
  0
TEXT
  5
226
  8
TXT_ALL
 10
375.67364476
 20
-334.92844974
 30
0.0
 40
1.5
  1
Onderdeel van
  7
ARIAL
  0
ENDBLK
  8
0
  0
BLOCK
  8
0
  2
_B_M_P___00014
 70
     0
 10
341.56136485
 20
-330.88625783
 30
0.0
  0
ENDBLK
  8
0
  0
BLOCK
  8
0
  2
_B_M_P___00015
 70
     0
 10
389.73442361
 20
-336.56893989
 30
0.0
  0
ENDBLK
  8
0
  0
BLOCK
  8
0
  2
_ANS0003_00016
 70
     0
 10
0.0
 20
0.0
 30
0.0
  0
INSERT
  5
22D
  8
0
  2
_A3D0003_00017
 10
0.0
 20
0.0
 30
0.0
  0
ENDBLK
  8
0
  0
BLOCK
  8
0
  2
_A3D0003_00017
 70
     0
 10
0.0
 20
0.0
 30
0.0
  0
INSERT
  5
230
  8
0
  2
PLAATWERK__D___8MM_00018
 10
0.0
 20
0.0
 30
0.0
  0
ENDBLK
  8
0
  0
BLOCK
  8
0
  2
PLAATWERK__D___8MM_00018
 70
     0
 10
0.0
 20
0.0
 30
0.0
  0
INSERT
  5
233
  8
0
  2
SHEET_FLANGE_00019
 10
0.0
 20
0.0
 30
0.0
  0
INSERT
  5
234
  8
0
  2
BEND_ZONE_00023
 10
0.0
 20
0.0
 30
0.0
  0
INSERT
  5
235
  8
0
  2
SHEET_FLANGE_00025
 10
0.0
 20
0.0
 30
0.0
  0
INSERT
  5
236
  8
0
  2
BEND_ZONE_00027
 10
0.0
 20
0.0
 30
0.0
  0
INSERT
  5
237
  8
0
  2
SHEET_FLANGE_00029
 10
0.0
 20
0.0
 30
0.0
  0
ENDBLK
  8
0
  0
BLOCK
  8
0
  2
SHEET_FLANGE_00019
 70
     0
 10
0.0
 20
0.0
 30
0.0
  0
INSERT
  5
23A
  8
0
  2
SHEET_FLANGE_00020
 10
26.70310813
 20
-275.79418925
 30
0.0
  0
INSERT
  5
23B
  8
0
  2
_00021
 10
0.0
 20
0.0
 30
0.0
  0
ENDBLK
  8
0
  0
BLOCK
  8
0
  2
SHEET_FLANGE_00020
 70
     0
 10
26.70310813
 20
-275.79418925
 30
0.0
  0
LINE
  5
23E
  8
LE_ALL
  6
DOT
 62
     3
 10
26.70310813
 20
-275.79418925
 30
0.0
 11
26.70310813
 21
-275.79418925
 31
0.0
  0
LINE
  5
23F
  8
LE_ALL
  6
DOT
 62
     3
 10
26.70310813
 20
-267.79418925
 30
0.0
 11
26.70310813
 21
-267.79418925
 31
0.0
  0
LINE
  5
240
  8
LE_ALL
  6
DOT
 62
     3
 10
98.70310813
 20
-275.79418925
 30
0.0
 11
98.70310813
 21
-275.79418925
 31
0.0
  0
LINE
  5
241
  8
LE_ALL
  6
DOT
 62
     3
 10
98.70310813
 20
-267.79418925
 30
0.0
 11
98.70310813
 21
-267.79418925
 31
0.0
  0
LINE
  5
242
  8
LE_ALL
  6
DOT
 62
     3
 10
71.20310813
 20
-267.79418925
 30
0.0
 11
71.20310813
 21
-275.79418925
 31
0.0
  0
LINE
  5
243
  8
LE_ALL
  6
DOT
 62
     3
 10
79.20310813
 20
-267.79418925
 30
0.0
 11
79.20310813
 21
-275.79418925
 31
0.0
  0
LINE
  5
244
  8
LE_ALL
  6
DOT
 62
     3
 10
34.20310813
 20
-267.79418925
 30
0.0
 11
34.20310813
 21
-275.79418925
 31
0.0
  0
LINE
  5
245
  8
LE_ALL
  6
DOT
 62
     3
 10
42.20310813
 20
-267.79418925
 30
0.0
 11
42.20310813
 21
-275.79418925
 31
0.0
  0
LINE
  5
246
  8
LE_ALL
  6
DOT
 62
     3
 10
50.20310813
 20
-267.79418925
 30
0.0
 11
50.20310813
 21
-275.79418925
 31
0.0
  0
LINE
  5
247
  8
LE_ALL
  6
DOT
 62
     3
 10
63.20310813
 20
-267.79418925
 30
0.0
 11
63.20310813
 21
-275.79418925
 31
0.0
  0
LINE
  5
248
  8
LE_ALL
 10
26.70310813
 20
-275.79418925
 30
0.0
 11
26.70310813
 21
-267.79418925
 31
0.0
  0
LINE
  5
249
  8
LE_ALL
 10
98.70310813
 20
-267.79418925
 30
0.0
 11
26.70310813
 21
-267.79418925
 31
0.0
  0
LINE
  5
24A
  8
LE_ALL
 10
26.70310813
 20
-275.79418925
 30
0.0
 11
98.70310813
 21
-275.79418925
 31
0.0
  0
ENDBLK
  8
0
  0
BLOCK
  8
0
  2
_00021
 70
     0
 10
0.0
 20
0.0
 30
0.0
  0
INSERT
  5
24D
  8
0
  2
_00022
 10
75.20310813
 20
-265.79418925
 30
0.0
  0
ENDBLK
  8
0
  0
BLOCK
  8
0
  2
_00022
 70
     0
 10
75.20310813
 20
-265.79418925
 30
0.0
  0
LINE
  5
250
  8
LE_ALL
  6
STRICHPUNKT2
 62
     1
 10
75.20310813
 20
-265.79418925
 30
0.0
 11
75.20310813
 21
-277.79418925
 31
0.0
  0
LINE
  5
251
  8
LE_ALL
  6
STRICHPUNKT2
 62
     1
 10
38.20310813
 20
-265.79418925
 30
0.0
 11
38.20310813
 21
-277.79418925
 31
0.0
  0
LINE
  5
252
  8
LE_ALL
  6
STRICHPUNKT2
 62
     1
 10
38.20310813
 20
-265.79418925
 30
0.0
 11
38.20310813
 21
-277.79418925
 31
0.0
  0
LINE
  5
253
  8
LE_ALL
  6
STRICHPUNKT2
 62
     1
 10
56.70310813
 20
-264.79418925
 30
0.0
 11
56.70310813
 21
-278.79418925
 31
0.0
  0
LINE
  5
254
  8
LE_ALL
  6
STRICHPUNKT2
 62
     1
 10
75.20310813
 20
-265.79418925
 30
0.0
 11
75.20310813
 21
-277.79418925
 31
0.0
  0
ENDBLK
  8
0
  0
BLOCK
  8
0
  2
BEND_ZONE_00023
 70
     0
 10
0.0
 20
0.0
 30
0.0
  0
INSERT
  5
257
  8
0
  2
BEND_ZONE_00024
 10
114.70310813
 20
-259.79418925
 30
0.0
  0
ENDBLK
  8
0
  0
BLOCK
  8
0
  2
BEND_ZONE_00024
 70
     0
 10
114.70310813
 20
-259.79418925
 30
0.0
  0
LINE
  5
25A
  8
LE_ALL
  6
DOT
 62
     3
 10
114.70310813
 20
-259.79418925
 30
0.0
 11
114.70310813
 21
-259.79418925
 31
0.0
  0
LINE
  5
25B
  8
LE_ALL
  6
DOT
 62
     3
 10
106.70310813
 20
-259.79418925
 30
0.0
 11
106.70310813
 21
-259.79418925
 31
0.0
  0
LINE
  5
25C
  8
LE_ALL
  6
DOT
 62
     3
 10
98.70310813
 20
-275.79418925
 30
0.0
 11
98.70310813
 21
-275.79418925
 31
0.0
  0
LINE
  5
25D
  8
LE_ALL
  6
DOT
 62
     3
 10
98.70310813
 20
-267.79418925
 30
0.0
 11
98.70310813
 21
-267.79418925
 31
0.0
  0
ARC
  5
25E
  8
LE_ALL
 10
98.70310813
 20
-259.79418925
 30
0.0
 40
16.0
 50
-90.0
 51
0.0
  0
ARC
  5
25F
  8
LE_ALL
 10
98.70310813
 20
-259.79418925
 30
0.0
 40
8.0
 50
-90.0
 51
0.0
  0
ENDBLK
  8
0
  0
BLOCK
  8
0
  2
SHEET_FLANGE_00025
 70
     0
 10
0.0
 20
0.0
 30
0.0
  0
INSERT
  5
262
  8
0
  2
SHEET_FLANGE_00026
 10
114.70310813
 20
-259.79418925
 30
0.0
  0
ENDBLK
  8
0
  0
BLOCK
  8
0
  2
SHEET_FLANGE_00026
 70
     0
 10
114.70310813
 20
-259.79418925
 30
0.0
  0
LINE
  5
265
  8
LE_ALL
  6
DOT
 62
     3
 10
114.70310813
 20
-259.79418925
 30
0.0
 11
114.70310813
 21
-259.79418925
 31
0.0
  0
LINE
  5
266
  8
LE_ALL
  6
DOT
 62
     3
 10
106.70310813
 20
-259.79418925
 30
0.0
 11
106.70310813
 21
-259.79418925
 31
0.0
  0
LINE
  5
267
  8
LE_ALL
  6
DOT
 62
     3
 10
114.70310813
 20
-248.79418925
 30
0.0
 11
114.70310813
 21
-248.79418925
 31
0.0
  0
LINE
  5
268
  8
LE_ALL
  6
DOT
 62
     3
 10
106.70310813
 20
-248.79418925
 30
0.0
 11
106.70310813
 21
-248.79418925
 31
0.0
  0
LINE
  5
269
  8
LE_ALL
 10
106.70310813
 20
-259.79418925
 30
0.0
 11
106.70310813
 21
-248.79418925
 31
0.0
  0
LINE
  5
26A
  8
LE_ALL
 10
114.70310813
 20
-248.79418925
 30
0.0
 11
114.70310813
 21
-259.79418925
 31
0.0
  0
ENDBLK
  8
0
  0
BLOCK
  8
0
  2
BEND_ZONE_00027
 70
     0
 10
0.0
 20
0.0
 30
0.0
  0
INSERT
  5
26D
  8
0
  2
BEND_ZONE_00028
 10
122.70310813
 20
-232.79418925
 30
0.0
  0
ENDBLK
  8
0
  0
BLOCK
  8
0
  2
BEND_ZONE_00028
 70
     0
 10
122.70310813
 20
-232.79418925
 30
0.0
  0
LINE
  5
270
  8
LE_ALL
  6
DOT
 62
     3
 10
122.70310813
 20
-232.79418925
 30
0.0
 11
122.70310813
 21
-232.79418925
 31
0.0
  0
LINE
  5
271
  8
LE_ALL
  6
DOT
 62
     3
 10
122.70310813
 20
-240.79418925
 30
0.0
 11
122.70310813
 21
-240.79418925
 31
0.0
  0
LINE
  5
272
  8
LE_ALL
  6
DOT
 62
     3
 10
106.70310813
 20
-248.79418925
 30
0.0
 11
106.70310813
 21
-248.79418925
 31
0.0
  0
LINE
  5
273
  8
LE_ALL
  6
DOT
 62
     3
 10
114.70310813
 20
-248.79418925
 30
0.0
 11
114.70310813
 21
-248.79418925
 31
0.0
  0
ARC
  5
274
  8
LE_ALL
 10
122.70310813
 20
-248.79418925
 30
0.0
 40
16.0
 50
90.0
 51
180.0
  0
ARC
  5
275
  8
LE_ALL
 10
122.70310813
 20
-248.79418925
 30
0.0
 40
8.0
 50
90.0
 51
180.0
  0
ENDBLK
  8
0
  0
BLOCK
  8
0
  2
SHEET_FLANGE_00029
 70
     0
 10
0.0
 20
0.0
 30
0.0
  0
INSERT
  5
278
  8
0
  2
SHEET_FLANGE_00030
 10
122.70310813
 20
-232.79418925
 30
0.0
  0
INSERT
  5
279
  8
0
  2
_00031
 10
0.0
 20
0.0
 30
0.0
  0
ENDBLK
  8
0
  0
BLOCK
  8
0
  2
SHEET_FLANGE_00030
 70
     0
 10
122.70310813
 20
-232.79418925
 30
0.0
  0
LINE
  5
27C
  8
LE_ALL
  6
DOT
 62
     3
 10
122.70310813
 20
-232.79418925
 30
0.0
 11
122.70310813
 21
-232.79418925
 31
0.0
  0
LINE
  5
27D
  8
LE_ALL
  6
DOT
 62
     3
 10
122.70310813
 20
-240.79418925
 30
0.0
 11
122.70310813
 21
-240.79418925
 31
0.0
  0
LINE
  5
27E
  8
LE_ALL
  6
DOT
 62
     3
 10
276.70310813
 20
-232.79418925
 30
0.0
 11
276.70310813
 21
-232.79418925
 31
0.0
  0
LINE
  5
27F
  8
LE_ALL
  6
DOT
 62
     3
 10
276.70310813
 20
-240.79418925
 30
0.0
 11
276.70310813
 21
-240.79418925
 31
0.0
  0
LINE
  5
280
  8
LE_ALL
  6
DOT
 62
     3
 10
250.20310813
 20
-240.79418925
 30
0.0
 11
250.20310813
 21
-232.79418925
 31
0.0
  0
LINE
  5
281
  8
LE_ALL
  6
DOT
 62
     3
 10
223.20310813
 20
-240.79418925
 30
0.0
 11
223.20310813
 21
-232.79418925
 31
0.0
  0
LINE
  5
282
  8
LE_ALL
  6
DOT
 62
     3
 10
168.20310813
 20
-240.79418925
 30
0.0
 11
168.20310813
 21
-232.79418925
 31
0.0
  0
LINE
  5
283
  8
LE_ALL
  6
DOT
 62
     3
 10
155.20310813
 20
-240.79418925
 30
0.0
 11
155.20310813
 21
-232.79418925
 31
0.0
  0
LINE
  5
284
  8
LE_ALL
  6
DOT
 62
     3
 10
216.70310813
 20
-240.79418925
 30
0.0
 11
216.70310813
 21
-232.79418925
 31
0.0
  0
LINE
  5
285
  8
LE_ALL
  6
DOT
 62
     3
 10
256.70310813
 20
-240.79418925
 30
0.0
 11
256.70310813
 21
-232.79418925
 31
0.0
  0
POLYLINE
  5
286
  8
LE_ALL
 66
     1
 10
0.0
 20
0.0
 30
0.0
  0
VERTEX
  5
287
  8
LE_ALL
 10
276.70310813
 20
-232.79418925
 30
0.0
  0
VERTEX
  5
288
  8
LE_ALL
 10
276.70310813
 20
-240.79418925
 30
0.0
  0
VERTEX
  5
289
  8
LE_ALL
 10
122.70310813
 20
-240.79418925
 30
0.0
  0
SEQEND
  5
28A
  8
LE_ALL
  0
LINE
  5
28B
  8
LE_ALL
 10
122.70310813
 20
-232.79418925
 30
0.0
 11
276.70310813
 21
-232.79418925
 31
0.0
  0
ENDBLK
  8
0
  0
BLOCK
  8
0
  2
_00031
 70
     0
 10
0.0
 20
0.0
 30
0.0
  0
INSERT
  5
28E
  8
0
  2
_00032
 10
161.70310813
 20
-243.79418925
 30
0.0
  0
ENDBLK
  8
0
  0
BLOCK
  8
0
  2
_00032
 70
     0
 10
161.70310813
 20
-243.79418925
 30
0.0
  0
LINE
  5
291
  8
LE_ALL
  6
STRICHPUNKT2
 62
     1
 10
161.70310813
 20
-243.79418925
 30
0.0
 11
161.70310813
 21
-229.79418925
 31
0.0
  0
LINE
  5
292
  8
LE_ALL
  6
STRICHPUNKT2
 62
     1
 10
223.20310813
 20
-243.79418925
 30
0.0
 11
223.20310813
 21
-229.79418925
 31
0.0
  0
LINE
  5
293
  8
LE_ALL
  6
STRICHPUNKT2
 62
     1
 10
250.20310813
 20
-243.79418925
 30
0.0
 11
250.20310813
 21
-229.79418925
 31
0.0
  0
ENDBLK
  8
0
  0
BLOCK
  8
0
  2
_ANS0004_00033
 70
     0
 10
0.0
 20
0.0
 30
0.0
  0
INSERT
  5
296
  8
0
  2
_A3D0004_00034
 10
0.0
 20
0.0
 30
0.0
  0
ENDBLK
  8
0
  0
BLOCK
  8
0
  2
_A3D0004_00034
 70
     0
 10
0.0
 20
0.0
 30
0.0
  0
INSERT
  5
299
  8
0
  2
PLAATWERK__D___8MM_00035
 10
0.0
 20
0.0
 30
0.0
  0
ENDBLK
  8
0
  0
BLOCK
  8
0
  2
PLAATWERK__D___8MM_00035
 70
     0
 10
0.0
 20
0.0
 30
0.0
  0
INSERT
  5
29C
  8
0
  2
SHEET_FLANGE_00036
 10
0.0
 20
0.0
 30
0.0
  0
INSERT
  5
29D
  8
0
  2
BEND_ZONE_00040
 10
0.0
 20
0.0
 30
0.0
  0
INSERT
  5
29E
  8
0
  2
SHEET_FLANGE_00042
 10
0.0
 20
0.0
 30
0.0
  0
INSERT
  5
29F
  8
0
  2
BEND_ZONE_00044
 10
0.0
 20
0.0
 30
0.0
  0
INSERT
  5
2A0
  8
0
  2
SHEET_FLANGE_00046
 10
0.0
 20
0.0
 30
0.0
  0
ENDBLK
  8
0
  0
BLOCK
  8
0
  2
SHEET_FLANGE_00036
 70
     0
 10
0.0
 20
0.0
 30
0.0
  0
INSERT
  5
2A3
  8
0
  2
SHEET_FLANGE_00037
 10
324.62778272
 20
-275.79418925
 30
0.0
  0
INSERT
  5
2A4
  8
0
  2
_00038
 10
0.0
 20
0.0
 30
0.0
  0
ENDBLK
  8
0
  0
BLOCK
  8
0
  2
SHEET_FLANGE_00037
 70
     0
 10
324.62778272
 20
-275.79418925
 30
0.0
  0
LINE
  5
2A7
  8
LE_ALL
  6
DOT
 62
     3
 10
324.62778272
 20
-275.79418925
 30
0.0
 11
324.62778272
 21
-275.79418925
 31
0.0
  0
LINE
  5
2A8
  8
LE_ALL
  6
DOT
 62
     3
 10
324.62778272
 20
-267.79418925
 30
0.0
 11
324.62778272
 21
-267.79418925
 31
0.0
  0
LINE
  5
2A9
  8
LE_ALL
  6
DOT
 62
     3
 10
384.62778272
 20
-275.79418925
 30
0.0
 11
384.62778272
 21
-275.79418925
 31
0.0
  0
LINE
  5
2AA
  8
LE_ALL
  6
DOT
 62
     3
 10
384.62778272
 20
-267.79418925
 30
0.0
 11
384.62778272
 21
-267.79418925
 31
0.0
  0
LINE
  5
2AB
  8
LE_ALL
  6
DOT
 62
     3
 10
332.12778272
 20
-267.79418925
 30
0.0
 11
332.12778272
 21
-275.79418925
 31
0.0
  0
LINE
  5
2AC
  8
LE_ALL
  6
DOT
 62
     3
 10
340.12778272
 20
-267.79418925
 30
0.0
 11
340.12778272
 21
-275.79418925
 31
0.0
  0
LINE
  5
2AD
  8
LE_ALL
  6
DOT
 62
     3
 10
369.12778272
 20
-267.79418925
 30
0.0
 11
369.12778272
 21
-275.79418925
 31
0.0
  0
LINE
  5
2AE
  8
LE_ALL
  6
DOT
 62
     3
 10
377.12778272
 20
-267.79418925
 30
0.0
 11
377.12778272
 21
-275.79418925
 31
0.0
  0
LINE
  5
2AF
  8
LE_ALL
  6
DOT
 62
     3
 10
348.12778272
 20
-267.79418925
 30
0.0
 11
348.12778272
 21
-275.79418925
 31
0.0
  0
LINE
  5
2B0
  8
LE_ALL
  6
DOT
 62
     3
 10
361.12778272
 20
-267.79418925
 30
0.0
 11
361.12778272
 21
-275.79418925
 31
0.0
  0
LINE
  5
2B1
  8
LE_ALL
  6
DOT
 62
     3
 10
384.62778272
 20
-267.79418925
 30
0.0
 11
324.62778272
 21
-267.79418925
 31
0.0
  0
LINE
  5
2B2
  8
LE_ALL
 10
324.62778272
 20
-275.79418925
 30
0.0
 11
384.62778272
 21
-275.79418925
 31
0.0
  0
ENDBLK
  8
0
  0
BLOCK
  8
0
  2
_00038
 70
     0
 10
0.0
 20
0.0
 30
0.0
  0
INSERT
  5
2B5
  8
0
  2
_00039
 10
336.12778272
 20
-265.79418925
 30
0.0
  0
ENDBLK
  8
0
  0
BLOCK
  8
0
  2
_00039
 70
     0
 10
336.12778272
 20
-265.79418925
 30
0.0
  0
LINE
  5
2B8
  8
LE_ALL
  6
STRICHPUNKT2
 62
     1
 10
336.12778272
 20
-265.79418925
 30
0.0
 11
336.12778272
 21
-277.79418925
 31
0.0
  0
LINE
  5
2B9
  8
LE_ALL
  6
STRICHPUNKT2
 62
     1
 10
336.12778272
 20
-265.79418925
 30
0.0
 11
336.12778272
 21
-277.79418925
 31
0.0
  0
LINE
  5
2BA
  8
LE_ALL
  6
STRICHPUNKT2
 62
     1
 10
373.12778272
 20
-265.79418925
 30
0.0
 11
373.12778272
 21
-277.79418925
 31
0.0
  0
LINE
  5
2BB
  8
LE_ALL
  6
STRICHPUNKT2
 62
     1
 10
354.62778272
 20
-264.79418925
 30
0.0
 11
354.62778272
 21
-278.79418925
 31
0.0
  0
LINE
  5
2BC
  8
LE_ALL
  6
STRICHPUNKT2
 62
     1
 10
373.12778272
 20
-265.79418925
 30
0.0
 11
373.12778272
 21
-277.79418925
 31
0.0
  0
ENDBLK
  8
0
  0
BLOCK
  8
0
  2
BEND_ZONE_00040
 70
     0
 10
0.0
 20
0.0
 30
0.0
  0
INSERT
  5
2BF
  8
0
  2
BEND_ZONE_00041
 10
384.62778272
 20
-267.79418925
 30
0.0
  0
ENDBLK
  8
0
  0
BLOCK
  8
0
  2
BEND_ZONE_00041
 70
     0
 10
384.62778272
 20
-267.79418925
 30
0.0
  0
LINE
  5
2C2
  8
LE_ALL
  6
DOT
 62
     3
 10
384.62778272
 20
-267.79418925
 30
0.0
 11
324.62778272
 21
-267.79418925
 31
0.0
  0
POLYLINE
  5
2C3
  8
LE_ALL
 66
     1
 10
0.0
 20
0.0
 30
0.0
  0
VERTEX
  5
2C4
  8
LE_ALL
 10
384.62778272
 20
-275.79418925
 30
0.0
  0
VERTEX
  5
2C5
  8
LE_ALL
 10
324.62778272
 20
-275.79418925
 30
0.0
  0
VERTEX
  5
2C6
  8
LE_ALL
 10
324.62778272
 20
-259.79418925
 30
0.0
  0
SEQEND
  5
2C7
  8
LE_ALL
  0
LINE
  5
2C8
  8
LE_ALL
 10
384.62778272
 20
-259.79418925
 30
0.0
 11
324.62778272
 21
-259.79418925
 31
0.0
  0
LINE
  5
2C9
  8
LE_ALL
 10
384.62778272
 20
-259.79418925
 30
0.0
 11
384.62778272
 21
-275.79418925
 31
0.0
  0
ENDBLK
  8
0
  0
BLOCK
  8
0
  2
SHEET_FLANGE_00042
 70
     0
 10
0.0
 20
0.0
 30
0.0
  0
INSERT
  5
2CC
  8
0
  2
SHEET_FLANGE_00043
 10
324.62778272
 20
-259.79418925
 30
0.0
  0
ENDBLK
  8
0
  0
BLOCK
  8
0
  2
SHEET_FLANGE_00043
 70
     0
 10
324.62778272
 20
-259.79418925
 30
0.0
  0
POLYLINE
  5
2CF
  8
LE_ALL
 66
     1
 10
0.0
 20
0.0
 30
0.0
 70
     1
  0
VERTEX
  5
2D0
  8
LE_ALL
 10
324.62778272
 20
-259.79418925
 30
0.0
  0
VERTEX
  5
2D1
  8
LE_ALL
 10
384.62778272
 20
-259.79418925
 30
0.0
  0
VERTEX
  5
2D2
  8
LE_ALL
 10
384.62778272
 20
-248.79418925
 30
0.0
  0
VERTEX
  5
2D3
  8
LE_ALL
 10
324.62778272
 20
-248.79418925
 30
0.0
  0
SEQEND
  5
2D4
  8
LE_ALL
  0
ENDBLK
  8
0
  0
BLOCK
  8
0
  2
BEND_ZONE_00044
 70
     0
 10
0.0
 20
0.0
 30
0.0
  0
INSERT
  5
2D7
  8
0
  2
BEND_ZONE_00045
 10
324.62778272
 20
-240.79418925
 30
0.0
  0
ENDBLK
  8
0
  0
BLOCK
  8
0
  2
BEND_ZONE_00045
 70
     0
 10
324.62778272
 20
-240.79418925
 30
0.0
  0
LINE
  5
2DA
  8
LE_ALL
  6
DOT
 62
     3
 10
324.62778272
 20
-240.79418925
 30
0.0
 11
384.62778272
 21
-240.79418925
 31
0.0
  0
POLYLINE
  5
2DB
  8
LE_ALL
 66
     1
 10
0.0
 20
0.0
 30
0.0
  0
VERTEX
  5
2DC
  8
LE_ALL
 10
324.62778272
 20
-240.79418925
 30
0.0
  0
VERTEX
  5
2DD
  8
LE_ALL
 10
324.62778272
 20
-248.79418925
 30
0.0
  0
VERTEX
  5
2DE
  8
LE_ALL
 10
384.62778272
 20
-248.79418925
 30
0.0
  0
VERTEX
  5
2DF
  8
LE_ALL
 10
384.62778272
 20
-240.79418925
 30
0.0
  0
SEQEND
  5
2E0
  8
LE_ALL
  0
ENDBLK
  8
0
  0
BLOCK
  8
0
  2
SHEET_FLANGE_00046
 70
     0
 10
0.0
 20
0.0
 30
0.0
  0
INSERT
  5
2E3
  8
0
  2
SHEET_FLANGE_00047
 10
384.62778272
 20
-232.79418925
 30
0.0
  0
INSERT
  5
2E4
  8
0
  2
_00048
 10
0.0
 20
0.0
 30
0.0
  0
ENDBLK
  8
0
  0
BLOCK
  8
0
  2
SHEET_FLANGE_00047
 70
     0
 10
384.62778272
 20
-232.79418925
 30
0.0
  0
LINE
  5
2E7
  8
LE_ALL
  6
DOT
 62
     3
 10
384.62778272
 20
-232.79418925
 30
0.0
 11
384.62778272
 21
-232.79418925
 31
0.0
  0
LINE
  5
2E8
  8
LE_ALL
  6
DOT
 62
     3
 10
384.62778272
 20
-240.79418925
 30
0.0
 11
384.62778272
 21
-240.79418925
 31
0.0
  0
LINE
  5
2E9
  8
LE_ALL
  6
DOT
 62
     3
 10
324.62778272
 20
-232.79418925
 30
0.0
 11
324.62778272
 21
-232.79418925
 31
0.0
  0
LINE
  5
2EA
  8
LE_ALL
  6
DOT
 62
     3
 10
324.62778272
 20
-240.79418925
 30
0.0
 11
324.62778272
 21
-240.79418925
 31
0.0
  0
LINE
  5
2EB
  8
LE_ALL
  6
DOT
 62
     3
 10
361.12778272
 20
-232.79418925
 30
0.0
 11
361.12778272
 21
-232.79418925
 31
0.0
  0
LINE
  5
2EC
  8
LE_ALL
  6
DOT
 62
     3
 10
348.12778272
 20
-232.79418925
 30
0.0
 11
348.12778272
 21
-232.79418925
 31
0.0
  0
LINE
  5
2ED
  8
LE_ALL
  6
DOT
 62
     3
 10
348.12778272
 20
-240.79418925
 30
0.0
 11
348.12778272
 21
-240.79418925
 31
0.0
  0
LINE
  5
2EE
  8
LE_ALL
  6
DOT
 62
     3
 10
361.12778272
 20
-240.79418925
 30
0.0
 11
361.12778272
 21
-240.79418925
 31
0.0
  0
LINE
  5
2EF
  8
LE_ALL
  6
DOT
 62
     3
 10
348.12778272
 20
-240.79418925
 30
0.0
 11
348.12778272
 21
-232.79418925
 31
0.0
  0
LINE
  5
2F0
  8
LE_ALL
  6
DOT
 62
     3
 10
361.12778272
 20
-240.79418925
 30
0.0
 11
361.12778272
 21
-232.79418925
 31
0.0
  0
POLYLINE
  5
2F1
  8
LE_ALL
 66
     1
 10
0.0
 20
0.0
 30
0.0
  0
VERTEX
  5
2F2
  8
LE_ALL
 10
384.62778272
 20
-232.79418925
 30
0.0
  0
VERTEX
  5
2F3
  8
LE_ALL
 10
384.62778272
 20
-240.79418925
 30
0.0
  0
VERTEX
  5
2F4
  8
LE_ALL
 10
324.62778272
 20
-240.79418925
 30
0.0
  0
SEQEND
  5
2F5
  8
LE_ALL
  0
LINE
  5
2F6
  8
LE_ALL
 10
324.62778272
 20
-232.79418925
 30
0.0
 11
324.62778272
 21
-240.79418925
 31
0.0
  0
LINE
  5
2F7
  8
LE_ALL
 10
324.62778272
 20
-232.79418925
 30
0.0
 11
384.62778272
 21
-232.79418925
 31
0.0
  0
ENDBLK
  8
0
  0
BLOCK
  8
0
  2
_00048
 70
     0
 10
0.0
 20
0.0
 30
0.0
  0
INSERT
  5
2FA
  8
0
  2
_00049
 10
354.62778272
 20
-243.79418925
 30
0.0
  0
ENDBLK
  8
0
  0
BLOCK
  8
0
  2
_00049
 70
     0
 10
354.62778272
 20
-243.79418925
 30
0.0
  0
LINE
  5
2FD
  8
LE_ALL
  6
STRICHPUNKT2
 62
     1
 10
354.62778272
 20
-243.79418925
 30
0.0
 11
354.62778272
 21
-229.79418925
 31
0.0
  0
LINE
  5
2FE
  8
LE_ALL
  6
STRICHPUNKT2
 62
     1
 10
354.62778272
 20
-243.79418925
 30
0.0
 11
354.62778272
 21
-229.79418925
 31
0.0
  0
LINE
  5
2FF
  8
LE_ALL
  6
STRICHPUNKT2
 62
     1
 10
354.62778272
 20
-243.79418925
 30
0.0
 11
354.62778272
 21
-229.79418925
 31
0.0
  0
ENDBLK
  8
0
  0
BLOCK
  8
0
  2
_ANS0005_00050
 70
     0
 10
0.0
 20
0.0
 30
0.0
  0
INSERT
  5
302
  8
0
  2
_A3D0005_00051
 10
0.0
 20
0.0
 30
0.0
  0
ENDBLK
  8
0
  0
BLOCK
  8
0
  2
_A3D0005_00051
 70
     0
 10
0.0
 20
0.0
 30
0.0
  0
INSERT
  5
305
  8
0
  2
PLAATWERK__D___8MM_00052
 10
0.0
 20
0.0
 30
0.0
  0
ENDBLK
  8
0
  0
BLOCK
  8
0
  2
PLAATWERK__D___8MM_00052
 70
     0
 10
0.0
 20
0.0
 30
0.0
  0
INSERT
  5
308
  8
0
  2
SHEET_FLANGE_00053
 10
0.0
 20
0.0
 30
0.0
  0
INSERT
  5
309
  8
0
  2
BEND_ZONE_00057
 10
0.0
 20
0.0
 30
0.0
  0
INSERT
  5
30A
  8
0
  2
SHEET_FLANGE_00059
 10
0.0
 20
0.0
 30
0.0
  0
INSERT
  5
30B
  8
0
  2
BEND_ZONE_00061
 10
0.0
 20
0.0
 30
0.0
  0
INSERT
  5
30C
  8
0
  2
SHEET_FLANGE_00063
 10
0.0
 20
0.0
 30
0.0
  0
ENDBLK
  8
0
  0
BLOCK
  8
0
  2
SHEET_FLANGE_00053
 70
     0
 10
0.0
 20
0.0
 30
0.0
  0
INSERT
  5
30F
  8
0
  2
SHEET_FLANGE_00054
 10
42.65815874
 20
-175.94245026
 30
0.0
  0
INSERT
  5
310
  8
0
  2
_00055
 10
0.0
 20
0.0
 30
0.0
  0
ENDBLK
  8
0
  0
BLOCK
  8
0
  2
SHEET_FLANGE_00054
 70
     0
 10
42.65815874
 20
-175.94245026
 30
0.0
  0
LINE
  5
313
  8
LE_ALL
  6
DOT
 62
     3
 10
42.65815874
 20
-175.94245026
 30
0.0
 11
42.65815874
 21
-175.94245026
 31
0.0
  0
LINE
  5
314
  8
LE_ALL
  6
DOT
 62
     3
 10
42.65815874
 20
-115.94245026
 30
0.0
 11
42.65815874
 21
-115.94245026
 31
0.0
  0
CIRCLE
  5
315
  8
LE_ALL
 10
72.65815874
 20
-145.94245026
 30
0.0
 40
6.5
  0
CIRCLE
  5
316
  8
LE_ALL
 10
54.15815874
 20
-127.44245026
 30
0.0
 40
4.0
  0
CIRCLE
  5
317
  8
LE_ALL
 10
54.15815874
 20
-164.44245026
 30
0.0
 40
4.0
  0
CIRCLE
  5
318
  8
LE_ALL
 10
91.15815874
 20
-127.44245026
 30
0.0
 40
4.0
  0
CIRCLE
  5
319
  8
LE_ALL
 10
91.15815874
 20
-164.44245026
 30
0.0
 40
4.0
  0
POLYLINE
  5
31A
  8
LE_ALL
 66
     1
 10
0.0
 20
0.0
 30
0.0
 70
     1
  0
VERTEX
  5
31B
  8
LE_ALL
 10
114.65815874
 20
-175.94245026
 30
0.0
  0
VERTEX
  5
31C
  8
LE_ALL
 10
42.65815874
 20
-175.94245026
 30
0.0
  0
VERTEX
  5
31D
  8
LE_ALL
 10
42.65815874
 20
-115.94245026
 30
0.0
  0
VERTEX
  5
31E
  8
LE_ALL
 10
114.65815874
 20
-115.94245026
 30
0.0
  0
SEQEND
  5
31F
  8
LE_ALL
  0
ENDBLK
  8
0
  0
BLOCK
  8
0
  2
_00055
 70
     0
 10
0.0
 20
0.0
 30
0.0
  0
INSERT
  5
322
  8
0
  2
_00056
 10
91.15815874
 20
-164.44245026
 30
0.0
  0
ENDBLK
  8
0
  0
BLOCK
  8
0
  2
_00056
 70
     0
 10
91.15815874
 20
-164.44245026
 30
0.0
  0
LINE
  5
325
  8
LE_ALL
  6
STRICHPUNKT2
 62
     1
 10
91.15815874
 20
-164.44245026
 30
0.0
 11
91.15815874
 21
-158.44245026
 31
0.0
  0
LINE
  5
326
  8
LE_ALL
  6
STRICHPUNKT2
 62
     1
 10
91.15815874
 20
-164.44245026
 30
0.0
 11
91.15815874
 21
-170.44245026
 31
0.0
  0
LINE
  5
327
  8
LE_ALL
  6
STRICHPUNKT2
 62
     1
 10
91.15815874
 20
-164.44245026
 30
0.0
 11
85.15815874
 21
-164.44245026
 31
0.0
  0
LINE
  5
328
  8
LE_ALL
  6
STRICHPUNKT2
 62
     1
 10
91.15815874
 20
-164.44245026
 30
0.0
 11
97.15815874
 21
-164.44245026
 31
0.0
  0
LINE
  5
329
  8
LE_ALL
  6
STRICHPUNKT2
 62
     1
 10
91.15815874
 20
-164.44245026
 30
0.0
 11
91.15815874
 21
-158.44245026
 31
0.0
  0
LINE
  5
32A
  8
LE_ALL
  6
STRICHPUNKT2
 62
     1
 10
91.15815874
 20
-164.44245026
 30
0.0
 11
91.15815874
 21
-170.44245026
 31
0.0
  0
LINE
  5
32B
  8
LE_ALL
  6
STRICHPUNKT2
 62
     1
 10
91.15815874
 20
-164.44245026
 30
0.0
 11
85.15815874
 21
-164.44245026
 31
0.0
  0
LINE
  5
32C
  8
LE_ALL
  6
STRICHPUNKT2
 62
     1
 10
91.15815874
 20
-164.44245026
 30
0.0
 11
97.15815874
 21
-164.44245026
 31
0.0
  0
LINE
  5
32D
  8
LE_ALL
  6
STRICHPUNKT2
 62
     1
 10
91.15815874
 20
-127.44245026
 30
0.0
 11
91.15815874
 21
-121.44245026
 31
0.0
  0
LINE
  5
32E
  8
LE_ALL
  6
STRICHPUNKT2
 62
     1
 10
91.15815874
 20
-127.44245026
 30
0.0
 11
91.15815874
 21
-133.44245026
 31
0.0
  0
LINE
  5
32F
  8
LE_ALL
  6
STRICHPUNKT2
 62
     1
 10
91.15815874
 20
-127.44245026
 30
0.0
 11
85.15815874
 21
-127.44245026
 31
0.0
  0
LINE
  5
330
  8
LE_ALL
  6
STRICHPUNKT2
 62
     1
 10
91.15815874
 20
-127.44245026
 30
0.0
 11
97.15815874
 21
-127.44245026
 31
0.0
  0
LINE
  5
331
  8
LE_ALL
  6
STRICHPUNKT2
 62
     1
 10
91.15815874
 20
-127.44245026
 30
0.0
 11
91.15815874
 21
-121.44245026
 31
0.0
  0
LINE
  5
332
  8
LE_ALL
  6
STRICHPUNKT2
 62
     1
 10
91.15815874
 20
-127.44245026
 30
0.0
 11
91.15815874
 21
-133.44245026
 31
0.0
  0
LINE
  5
333
  8
LE_ALL
  6
STRICHPUNKT2
 62
     1
 10
91.15815874
 20
-127.44245026
 30
0.0
 11
85.15815874
 21
-127.44245026
 31
0.0
  0
LINE
  5
334
  8
LE_ALL
  6
STRICHPUNKT2
 62
     1
 10
91.15815874
 20
-127.44245026
 30
0.0
 11
97.15815874
 21
-127.44245026
 31
0.0
  0
LINE
  5
335
  8
LE_ALL
  6
STRICHPUNKT2
 62
     1
 10
54.15815874
 20
-164.44245026
 30
0.0
 11
54.15815874
 21
-158.44245026
 31
0.0
  0
LINE
  5
336
  8
LE_ALL
  6
STRICHPUNKT2
 62
     1
 10
54.15815874
 20
-164.44245026
 30
0.0
 11
54.15815874
 21
-170.44245026
 31
0.0
  0
LINE
  5
337
  8
LE_ALL
  6
STRICHPUNKT2
 62
     1
 10
54.15815874
 20
-164.44245026
 30
0.0
 11
48.15815874
 21
-164.44245026
 31
0.0
  0
LINE
  5
338
  8
LE_ALL
  6
STRICHPUNKT2
 62
     1
 10
54.15815874
 20
-164.44245026
 30
0.0
 11
60.15815874
 21
-164.44245026
 31
0.0
  0
LINE
  5
339
  8
LE_ALL
  6
STRICHPUNKT2
 62
     1
 10
54.15815874
 20
-164.44245026
 30
0.0
 11
54.15815874
 21
-158.44245026
 31
0.0
  0
LINE
  5
33A
  8
LE_ALL
  6
STRICHPUNKT2
 62
     1
 10
54.15815874
 20
-164.44245026
 30
0.0
 11
54.15815874
 21
-170.44245026
 31
0.0
  0
LINE
  5
33B
  8
LE_ALL
  6
STRICHPUNKT2
 62
     1
 10
54.15815874
 20
-164.44245026
 30
0.0
 11
48.15815874
 21
-164.44245026
 31
0.0
  0
LINE
  5
33C
  8
LE_ALL
  6
STRICHPUNKT2
 62
     1
 10
54.15815874
 20
-164.44245026
 30
0.0
 11
60.15815874
 21
-164.44245026
 31
0.0
  0
LINE
  5
33D
  8
LE_ALL
  6
STRICHPUNKT2
 62
     1
 10
54.15815874
 20
-127.44245026
 30
0.0
 11
54.15815874
 21
-121.44245026
 31
0.0
  0
LINE
  5
33E
  8
LE_ALL
  6
STRICHPUNKT2
 62
     1
 10
54.15815874
 20
-127.44245026
 30
0.0
 11
54.15815874
 21
-133.44245026
 31
0.0
  0
LINE
  5
33F
  8
LE_ALL
  6
STRICHPUNKT2
 62
     1
 10
54.15815874
 20
-127.44245026
 30
0.0
 11
48.15815874
 21
-127.44245026
 31
0.0
  0
LINE
  5
340
  8
LE_ALL
  6
STRICHPUNKT2
 62
     1
 10
54.15815874
 20
-127.44245026
 30
0.0
 11
60.15815874
 21
-127.44245026
 31
0.0
  0
LINE
  5
341
  8
LE_ALL
  6
STRICHPUNKT2
 62
     1
 10
54.15815874
 20
-127.44245026
 30
0.0
 11
54.15815874
 21
-121.44245026
 31
0.0
  0
LINE
  5
342
  8
LE_ALL
  6
STRICHPUNKT2
 62
     1
 10
54.15815874
 20
-127.44245026
 30
0.0
 11
54.15815874
 21
-133.44245026
 31
0.0
  0
LINE
  5
343
  8
LE_ALL
  6
STRICHPUNKT2
 62
     1
 10
54.15815874
 20
-127.44245026
 30
0.0
 11
48.15815874
 21
-127.44245026
 31
0.0
  0
LINE
  5
344
  8
LE_ALL
  6
STRICHPUNKT2
 62
     1
 10
54.15815874
 20
-127.44245026
 30
0.0
 11
60.15815874
 21
-127.44245026
 31
0.0
  0
LINE
  5
345
  8
LE_ALL
  6
STRICHPUNKT2
 62
     1
 10
72.65815874
 20
-145.94245026
 30
0.0
 11
82.15815874
 21
-145.94245026
 31
0.0
  0
LINE
  5
346
  8
LE_ALL
  6
STRICHPUNKT2
 62
     1
 10
72.65815874
 20
-145.94245026
 30
0.0
 11
63.15815874
 21
-145.94245026
 31
0.0
  0
LINE
  5
347
  8
LE_ALL
  6
STRICHPUNKT2
 62
     1
 10
72.65815874
 20
-145.94245026
 30
0.0
 11
72.65815874
 21
-136.44245026
 31
0.0
  0
LINE
  5
348
  8
LE_ALL
  6
STRICHPUNKT2
 62
     1
 10
72.65815874
 20
-145.94245026
 30
0.0
 11
72.65815874
 21
-155.44245026
 31
0.0
  0
LINE
  5
349
  8
LE_ALL
  6
STRICHPUNKT2
 62
     1
 10
72.65815874
 20
-145.94245026
 30
0.0
 11
82.15815874
 21
-145.94245026
 31
0.0
  0
LINE
  5
34A
  8
LE_ALL
  6
STRICHPUNKT2
 62
     1
 10
72.65815874
 20
-145.94245026
 30
0.0
 11
63.15815874
 21
-145.94245026
 31
0.0
  0
LINE
  5
34B
  8
LE_ALL
  6
STRICHPUNKT2
 62
     1
 10
72.65815874
 20
-145.94245026
 30
0.0
 11
72.65815874
 21
-136.44245026
 31
0.0
  0
LINE
  5
34C
  8
LE_ALL
  6
STRICHPUNKT2
 62
     1
 10
72.65815874
 20
-145.94245026
 30
0.0
 11
72.65815874
 21
-155.44245026
 31
0.0
  0
ENDBLK
  8
0
  0
BLOCK
  8
0
  2
BEND_ZONE_00057
 70
     0
 10
0.0
 20
0.0
 30
0.0
  0
INSERT
  5
34F
  8
0
  2
BEND_ZONE_00058
 10
122.65815874
 20
-115.94245026
 30
0.0
  0
ENDBLK
  8
0
  0
BLOCK
  8
0
  2
BEND_ZONE_00058
 70
     0
 10
122.65815874
 20
-115.94245026
 30
0.0
  0
LINE
  5
352
  8
LE_ALL
  6
DOT
 62
     3
 10
122.65815874
 20
-115.94245026
 30
0.0
 11
122.65815874
 21
-175.94245026
 31
0.0
  0
POLYLINE
  5
353
  8
LE_ALL
 66
     1
 10
0.0
 20
0.0
 30
0.0
  0
VERTEX
  5
354
  8
LE_ALL
 10
122.65815874
 20
-115.94245026
 30
0.0
  0
VERTEX
  5
355
  8
LE_ALL
 10
114.65815874
 20
-115.94245026
 30
0.0
  0
VERTEX
  5
356
  8
LE_ALL
 10
114.65815874
 20
-175.94245026
 30
0.0
  0
VERTEX
  5
357
  8
LE_ALL
 10
122.65815874
 20
-175.94245026
 30
0.0
  0
SEQEND
  5
358
  8
LE_ALL
  0
ENDBLK
  8
0
  0
BLOCK
  8
0
  2
SHEET_FLANGE_00059
 70
     0
 10
0.0
 20
0.0
 30
0.0
  0
INSERT
  5
35B
  8
0
  2
SHEET_FLANGE_00060
 10
130.65815874
 20
-175.94245026
 30
0.0
  0
ENDBLK
  8
0
  0
BLOCK
  8
0
  2
SHEET_FLANGE_00060
 70
     0
 10
130.65815874
 20
-175.94245026
 30
0.0
  0
LINE
  5
35E
  8
LE_ALL
  6
DOT
 62
     3
 10
130.65815874
 20
-175.94245026
 30
0.0
 11
130.65815874
 21
-175.94245026
 31
0.0
  0
LINE
  5
35F
  8
LE_ALL
  6
DOT
 62
     3
 10
122.65815874
 20
-175.94245026
 30
0.0
 11
122.65815874
 21
-175.94245026
 31
0.0
  0
LINE
  5
360
  8
LE_ALL
  6
DOT
 62
     3
 10
130.65815874
 20
-115.94245026
 30
0.0
 11
130.65815874
 21
-115.94245026
 31
0.0
  0
LINE
  5
361
  8
LE_ALL
  6
DOT
 62
     3
 10
122.65815874
 20
-115.94245026
 30
0.0
 11
122.65815874
 21
-115.94245026
 31
0.0
  0
LINE
  5
362
  8
LE_ALL
 10
122.65815874
 20
-175.94245026
 30
0.0
 11
122.65815874
 21
-115.94245026
 31
0.0
  0
LINE
  5
363
  8
LE_ALL
  6
DOT
 62
     3
 10
130.65815874
 20
-115.94245026
 30
0.0
 11
130.65815874
 21
-175.94245026
 31
0.0
  0
ENDBLK
  8
0
  0
BLOCK
  8
0
  2
BEND_ZONE_00061
 70
     0
 10
0.0
 20
0.0
 30
0.0
  0
INSERT
  5
366
  8
0
  2
BEND_ZONE_00062
 10
130.65815874
 20
-175.94245026
 30
0.0
  0
ENDBLK
  8
0
  0
BLOCK
  8
0
  2
BEND_ZONE_00062
 70
     0
 10
130.65815874
 20
-175.94245026
 30
0.0
  0
LINE
  5
369
  8
LE_ALL
  6
DOT
 62
     3
 10
130.65815874
 20
-175.94245026
 30
0.0
 11
130.65815874
 21
-115.94245026
 31
0.0
  0
POLYLINE
  5
36A
  8
LE_ALL
 66
     1
 10
0.0
 20
0.0
 30
0.0
  0
VERTEX
  5
36B
  8
LE_ALL
 10
122.65815874
 20
-175.94245026
 30
0.0
  0
VERTEX
  5
36C
  8
LE_ALL
 10
122.65815874
 20
-115.94245026
 30
0.0
  0
VERTEX
  5
36D
  8
LE_ALL
 10
138.65815874
 20
-115.94245026
 30
0.0
  0
SEQEND
  5
36E
  8
LE_ALL
  0
LINE
  5
36F
  8
LE_ALL
 10
138.65815874
 20
-175.94245026
 30
0.0
 11
138.65815874
 21
-115.94245026
 31
0.0
  0
LINE
  5
370
  8
LE_ALL
 10
138.65815874
 20
-175.94245026
 30
0.0
 11
122.65815874
 21
-175.94245026
 31
0.0
  0
ENDBLK
  8
0
  0
BLOCK
  8
0
  2
SHEET_FLANGE_00063
 70
     0
 10
0.0
 20
0.0
 30
0.0
  0
INSERT
  5
373
  8
0
  2
SHEET_FLANGE_00064
 10
292.65815874
 20
-115.94245026
 30
0.0
  0
INSERT
  5
374
  8
0
  2
_00065
 10
0.0
 20
0.0
 30
0.0
  0
ENDBLK
  8
0
  0
BLOCK
  8
0
  2
SHEET_FLANGE_00064
 70
     0
 10
292.65815874
 20
-115.94245026
 30
0.0
  0
LINE
  5
377
  8
LE_ALL
  6
DOT
 62
     3
 10
292.65815874
 20
-115.94245026
 30
0.0
 11
292.65815874
 21
-115.94245026
 31
0.0
  0
LINE
  5
378
  8
LE_ALL
  6
DOT
 62
     3
 10
292.65815874
 20
-175.94245026
 30
0.0
 11
292.65815874
 21
-175.94245026
 31
0.0
  0
LINE
  5
379
  8
LE_ALL
  6
DOT
 62
     3
 10
266.15815874
 20
-152.44245026
 30
0.0
 11
266.15815874
 21
-152.44245026
 31
0.0
  0
LINE
  5
37A
  8
LE_ALL
  6
DOT
 62
     3
 10
239.15815874
 20
-152.44245026
 30
0.0
 11
239.15815874
 21
-152.44245026
 31
0.0
  0
LINE
  5
37B
  8
LE_ALL
  6
DOT
 62
     3
 10
266.15815874
 20
-139.44245026
 30
0.0
 11
266.15815874
 21
-139.44245026
 31
0.0
  0
LINE
  5
37C
  8
LE_ALL
  6
DOT
 62
     3
 10
239.15815874
 20
-139.44245026
 30
0.0
 11
239.15815874
 21
-139.44245026
 31
0.0
  0
POLYLINE
  5
37D
  8
LE_ALL
 66
     1
 10
0.0
 20
0.0
 30
0.0
 70
     1
  0
VERTEX
  5
37E
  8
LE_ALL
 10
239.15815874
 20
-152.44245026
 30
0.0
 42
-1.0
  0
VERTEX
  5
37F
  8
LE_ALL
 10
239.15815874
 20
-139.44245026
 30
0.0
  0
VERTEX
  5
380
  8
LE_ALL
 10
266.15815874
 20
-139.44245026
 30
0.0
 42
-1.0
  0
VERTEX
  5
381
  8
LE_ALL
 10
266.15815874
 20
-152.44245026
 30
0.0
  0
SEQEND
  5
382
  8
LE_ALL
  0
CIRCLE
  5
383
  8
LE_ALL
 10
177.65815874
 20
-145.94245026
 30
0.0
 40
6.5
  0
POLYLINE
  5
384
  8
LE_ALL
 66
     1
 10
0.0
 20
0.0
 30
0.0
 70
     1
  0
VERTEX
  5
385
  8
LE_ALL
 10
138.65815874
 20
-115.94245026
 30
0.0
  0
VERTEX
  5
386
  8
LE_ALL
 10
138.65815874
 20
-175.94245026
 30
0.0
  0
VERTEX
  5
387
  8
LE_ALL
 10
292.65815874
 20
-175.94245026
 30
0.0
  0
VERTEX
  5
388
  8
LE_ALL
 10
292.65815874
 20
-115.94245026
 30
0.0
  0
SEQEND
  5
389
  8
LE_ALL
  0
ENDBLK
  8
0
  0
BLOCK
  8
0
  2
_00065
 70
     0
 10
0.0
 20
0.0
 30
0.0
  0
INSERT
  5
38C
  8
0
  2
_00066
 10
177.65815874
 20
-145.94245026
 30
0.0
  0
ENDBLK
  8
0
  0
BLOCK
  8
0
  2
_00066
 70
     0
 10
177.65815874
 20
-145.94245026
 30
0.0
  0
LINE
  5
38F
  8
LE_ALL
  6
STRICHPUNKT2
 62
     1
 10
177.65815874
 20
-145.94245026
 30
0.0
 11
187.15815874
 21
-145.94245026
 31
0.0
  0
LINE
  5
390
  8
LE_ALL
  6
STRICHPUNKT2
 62
     1
 10
177.65815874
 20
-145.94245026
 30
0.0
 11
168.15815874
 21
-145.94245026
 31
0.0
  0
LINE
  5
391
  8
LE_ALL
  6
STRICHPUNKT2
 62
     1
 10
177.65815874
 20
-145.94245026
 30
0.0
 11
177.65815874
 21
-136.44245026
 31
0.0
  0
LINE
  5
392
  8
LE_ALL
  6
STRICHPUNKT2
 62
     1
 10
177.65815874
 20
-145.94245026
 30
0.0
 11
177.65815874
 21
-155.44245026
 31
0.0
  0
LINE
  5
393
  8
LE_ALL
  6
STRICHPUNKT2
 62
     1
 10
177.65815874
 20
-145.94245026
 30
0.0
 11
187.15815874
 21
-145.94245026
 31
0.0
  0
LINE
  5
394
  8
LE_ALL
  6
STRICHPUNKT2
 62
     1
 10
177.65815874
 20
-145.94245026
 30
0.0
 11
168.15815874
 21
-145.94245026
 31
0.0
  0
LINE
  5
395
  8
LE_ALL
  6
STRICHPUNKT2
 62
     1
 10
177.65815874
 20
-145.94245026
 30
0.0
 11
177.65815874
 21
-136.44245026
 31
0.0
  0
LINE
  5
396
  8
LE_ALL
  6
STRICHPUNKT2
 62
     1
 10
177.65815874
 20
-145.94245026
 30
0.0
 11
177.65815874
 21
-155.44245026
 31
0.0
  0
LINE
  5
397
  8
LE_ALL
  6
STRICHPUNKT2
 62
     1
 10
229.65815874
 20
-145.94245026
 30
0.0
 11
275.65815874
 21
-145.94245026
 31
0.0
  0
LINE
  5
398
  8
LE_ALL
  6
STRICHPUNKT2
 62
     1
 10
239.15815874
 20
-155.44245026
 30
0.0
 11
239.15815874
 21
-136.44245026
 31
0.0
  0
LINE
  5
399
  8
LE_ALL
  6
STRICHPUNKT2
 62
     1
 10
266.15815874
 20
-155.44245026
 30
0.0
 11
266.15815874
 21
-136.44245026
 31
0.0
  0
LINE
  5
39A
  8
LE_ALL
  6
STRICHPUNKT2
 62
     1
 10
229.65815874
 20
-145.94245026
 30
0.0
 11
275.65815874
 21
-145.94245026
 31
0.0
  0
LINE
  5
39B
  8
LE_ALL
  6
STRICHPUNKT2
 62
     1
 10
239.15815874
 20
-155.44245026
 30
0.0
 11
239.15815874
 21
-136.44245026
 31
0.0
  0
LINE
  5
39C
  8
LE_ALL
  6
STRICHPUNKT2
 62
     1
 10
266.15815874
 20
-155.44245026
 30
0.0
 11
266.15815874
 21
-136.44245026
 31
0.0
  0
ENDBLK
  8
0
  0
BLOCK
  8
0
  2
_ANS0006_00067
 70
     0
 10
0.0
 20
0.0
 30
0.0
  0
INSERT
  5
39F
  8
0
  2
_A3D0006_00068
 10
0.0
 20
0.0
 30
0.0
  0
ENDBLK
  8
0
  0
BLOCK
  8
0
  2
_A3D0006_00068
 70
     0
 10
0.0
 20
0.0
 30
0.0
  0
INSERT
  5
3A2
  8
0
  2
PLAATWERK__D___8MM_00069
 10
0.0
 20
0.0
 30
0.0
  0
ENDBLK
  8
0
  0
BLOCK
  8
0
  2
PLAATWERK__D___8MM_00069
 70
     0
 10
0.0
 20
0.0
 30
0.0
  0
INSERT
  5
3A5
  8
0
  2
SHEET_FLANGE_00070
 10
0.0
 20
0.0
 30
0.0
  0
INSERT
  5
3A6
  8
0
  2
BEND_ZONE_00074
 10
0.0
 20
0.0
 30
0.0
  0
INSERT
  5
3A7
  8
0
  2
SHEET_FLANGE_00076
 10
0.0
 20
0.0
 30
0.0
  0
INSERT
  5
3A8
  8
0
  2
BEND_ZONE_00078
 10
0.0
 20
0.0
 30
0.0
  0
INSERT
  5
3A9
  8
0
  2
SHEET_FLANGE_00080
 10
0.0
 20
0.0
 30
0.0
  0
ENDBLK
  8
0
  0
BLOCK
  8
0
  2
SHEET_FLANGE_00070
 70
     0
 10
0.0
 20
0.0
 30
0.0
  0
INSERT
  5
3AC
  8
0
  2
SHEET_FLANGE_00071
 10
296.394047
 20
-84.53899454
 30
0.0
  0
INSERT
  5
3AD
  8
0
  2
_00072
 10
0.0
 20
0.0
 30
0.0
  0
ENDBLK
  8
0
  0
BLOCK
  8
0
  2
SHEET_FLANGE_00071
 70
     0
 10
296.394047
 20
-84.53899454
 30
0.0
  0
POLYLINE
  5
3B0
  8
LE_ALL
 66
     1
 10
0.0
 20
0.0
 30
0.0
  0
VERTEX
  5
5FF
  8
LE_ALL
 10
296.394047
 20
-84.53899454
 30
0.0
  0
VERTEX
  5
600
  8
LE_ALL
 10
296.3315991614527
 20
-84.32764669350107
 30
0.0
  0
VERTEX
  5
601
  8
LE_ALL
 10
296.1466554812198
 20
-84.12442082619934
 30
0.0
  0
VERTEX
  5
602
  8
LE_ALL
 10
295.8463232411986
 20
-83.93712679418707
 30
0.0
  0
VERTEX
  5
603
  8
LE_ALL
 10
295.4421440409187
 20
-83.77296220206237
 30
0.0
  0
VERTEX
  5
604
  8
LE_ALL
 10
294.9496502603452
 20
-83.63823580302169
 30
0.0
  0
VERTEX
  5
605
  8
LE_ALL
 10
294.3877681592286
 20
-83.53812505701289
 30
0.0
  0
VERTEX
  5
606
  8
LE_ALL
 10
293.7780905515586
 20
-83.4764771638536
 30
0.0
  0
VERTEX
  5
607
  8
LE_ALL
 10
293.1440470058334
 20
-83.45566121750001
 30
0.0
  0
VERTEX
  5
608
  8
LE_ALL
 10
292.5100034598841
 20
-83.47647716309491
 30
0.0
  0
VERTEX
  5
609
  8
LE_ALL
 10
291.9003258515502
 20
-83.53812505552466
 30
0.0
  0
VERTEX
  5
60A
  8
LE_ALL
 10
291.3384437493555
 20
-83.6382358008611
 30
0.0
  0
VERTEX
  5
60B
  8
LE_ALL
 10
290.845949967331
 20
-83.77296219931247
 30
0.0
  0
VERTEX
  5
60C
  8
LE_ALL
 10
290.4417707652831
 20
-83.93712679095353
 30
0.0
  0
VERTEX
  5
60D
  8
LE_ALL
 10
290.1414385232449
 20
-84.12442082260642
 30
0.0
  0
VERTEX
  5
60E
  8
LE_ALL
 10
289.9564948408233
 20
-84.32764668968684
 30
0.0
  0
VERTEX
  5
60F
  8
LE_ALL
 10
289.894047
 20
-84.53899453611106
 30
0.0
  0
SEQEND
  5
720
  8
LE_ALL
  0
POLYLINE
  5
3B1
  8
LE_ALL
 66
     1
 10
0.0
 20
0.0
 30
0.0
  0
VERTEX
  5
610
  8
LE_ALL
 10
289.894047
 20
-84.53899453611106
 30
0.0
  0
VERTEX
  5
611
  8
LE_ALL
 10
289.9564948365557
 20
-84.75034238316151
 30
0.0
  0
VERTEX
  5
612
  8
LE_ALL
 10
290.1414385154317
 20
-84.95356825110598
 30
0.0
  0
VERTEX
  5
613
  8
LE_ALL
 10
290.4417707547503
 20
-85.14086228379198
 30
0.0
  0
VERTEX
  5
614
  8
LE_ALL
 10
290.8459499549564
 20
-85.30502687656268
 30
0.0
  0
VERTEX
  5
615
  8
LE_ALL
 10
291.3384437360171
 20
-85.4397532761681
 30
0.0
  0
VERTEX
  5
616
  8
LE_ALL
 10
291.9003258380768
 20
-85.53986402261506
 30
0.0
  0
VERTEX
  5
617
  8
LE_ALL
 10
292.5100034470111
 20
-85.60151191605156
 30
0.0
  0
VERTEX
  5
618
  8
LE_ALL
 10
293.1440469941666
 20
-85.6223278625
 30
0.0
  0
VERTEX
  5
619
  8
LE_ALL
 10
293.7780905415462
 20
-85.60151191681025
 30
0.0
  0
VERTEX
  5
61A
  8
LE_ALL
 10
294.3877681511445
 20
-85.5398640241033
 30
0.0
  0
VERTEX
  5
61B
  8
LE_ALL
 10
294.9496502542823
 20
-85.4397532783287
 30
0.0
  0
VERTEX
  5
61C
  8
LE_ALL
 10
295.4421440367939
 20
-85.30502687931258
 30
0.0
  0
VERTEX
  5
61D
  8
LE_ALL
 10
295.8463232387679
 20
-85.14086228702551
 30
0.0
  0
VERTEX
  5
61E
  8
LE_ALL
 10
296.1466554801036
 20
-84.9535682546989
 30
0.0
  0
VERTEX
  5
61F
  8
LE_ALL
 10
296.3315991611682
 20
-84.75034238697572
 30
0.0
  0
VERTEX
  5
620
  8
LE_ALL
 10
296.394047
 20
-84.53899454
 30
0.0
  0
SEQEND
  5
721
  8
LE_ALL
  0
POLYLINE
  5
3B2
  8
LE_ALL
 66
     1
 10
0.0
 20
0.0
 30
0.0
  0
VERTEX
  5
621
  8
LE_ALL
 10
289.76183316
 20
-80.56467735
 30
0.0
  0
VERTEX
  5
622
  8
LE_ALL
 10
289.723403720894
 20
-80.43461713676989
 30
0.0
  0
VERTEX
  5
623
  8
LE_ALL
 10
289.609592225366
 20
-80.3095550645842
 30
0.0
  0
VERTEX
  5
624
  8
LE_ALL
 10
289.424772385353
 20
-80.1942971987305
 30
0.0
  0
VERTEX
  5
625
  8
LE_ALL
 10
289.1760467236423
 20
-80.09327283434607
 30
0.0
  0
VERTEX
  5
626
  8
LE_ALL
 10
288.8729736279047
 20
-80.01036428109026
 30
0.0
  0
VERTEX
  5
627
  8
LE_ALL
 10
288.5272000272176
 20
-79.94875766816178
 30
0.0
  0
VERTEX
  5
628
  8
LE_ALL
 10
288.152013807113
 20
-79.91082050314067
 30
0.0
  0
VERTEX
  5
629
  8
LE_ALL
 10
287.7618331635898
 20
-79.89801068999999
 30
0.0
  0
VERTEX
  5
62A
  8
LE_ALL
 10
287.3716525199287
 20
-79.91082050267379
 30
0.0
  0
VERTEX
  5
62B
  8
LE_ALL
 10
286.9964662994155
 20
-79.94875766724594
 30
0.0
  0
VERTEX
  5
62C
  8
LE_ALL
 10
286.6506926980649
 20
-80.01036427976067
 30
0.0
  0
VERTEX
  5
62D
  8
LE_ALL
 10
286.3476196014344
 20
-80.09327283265382
 30
0.0
  0
VERTEX
  5
62E
  8
LE_ALL
 10
286.0988939386357
 20
-80.19429719674064
 30
0.0
  0
VERTEX
  5
62F
  8
LE_ALL
 10
285.9140740973815
 20
-80.30955506237318
 30
0.0
  0
VERTEX
  5
630
  8
LE_ALL
 10
285.8002626005066
 20
-80.43461713442267
 30
0.0
  0
VERTEX
  5
631
  8
LE_ALL
 10
285.76183316
 20
-80.5646773476068
 30
0.0
  0
SEQEND
  5
722
  8
LE_ALL
  0
POLYLINE
  5
3B3
  8
LE_ALL
 66
     1
 10
0.0
 20
0.0
 30
0.0
  0
VERTEX
  5
632
  8
LE_ALL
 10
285.76183316
 20
-80.5646773476068
 30
0.0
  0
VERTEX
  5
633
  8
LE_ALL
 10
285.8002625978804
 20
-80.6947375611763
 30
0.0
  0
VERTEX
  5
634
  8
LE_ALL
 10
285.9140740925733
 20
-80.81979963375753
 30
0.0
  0
VERTEX
  5
635
  8
LE_ALL
 10
286.098893932154
 20
-80.93505750002583
 30
0.0
  0
VERTEX
  5
636
  8
LE_ALL
 10
286.3476195938193
 20
-81.0360818648078
 30
0.0
  0
VERTEX
  5
637
  8
LE_ALL
 10
286.6506926898567
 20
-81.11899041841114
 30
0.0
  0
VERTEX
  5
638
  8
LE_ALL
 10
286.9964662911241
 20
-81.18059703160927
 30
0.0
  0
VERTEX
  5
639
  8
LE_ALL
 10
287.3716525120068
 20
-81.21853419680096
 30
0.0
  0
VERTEX
  5
63A
  8
LE_ALL
 10
287.7618331564102
 20
-81.23134401
 30
0.0
  0
VERTEX
  5
63B
  8
LE_ALL
 10
288.1520138009515
 20
-81.21853419726784
 30
0.0
  0
VERTEX
  5
63C
  8
LE_ALL
 10
288.5272000222428
 20
-81.1805970325251
 30
0.0
  0
VERTEX
  5
63D
  8
LE_ALL
 10
288.8729736241737
 20
-81.11899041974073
 30
0.0
  0
VERTEX
  5
63E
  8
LE_ALL
 10
289.1760467211039
 20
-81.03608186650004
 30
0.0
  0
VERTEX
  5
63F
  8
LE_ALL
 10
289.4247723838572
 20
-80.9350575020157
 30
0.0
  0
VERTEX
  5
640
  8
LE_ALL
 10
289.6095922246791
 20
-80.81979963596855
 30
0.0
  0
VERTEX
  5
641
  8
LE_ALL
 10
289.7234037207189
 20
-80.69473756352352
 30
0.0
  0
VERTEX
  5
642
  8
LE_ALL
 10
289.76183316
 20
-80.56467735
 30
0.0
  0
SEQEND
  5
723
  8
LE_ALL
  0
POLYLINE
  5
3B4
  8
LE_ALL
 66
     1
 10
0.0
 20
0.0
 30
0.0
  0
VERTEX
  5
643
  8
LE_ALL
 10
283.22109543
 20
-86.33306582
 30
0.0
  0
VERTEX
  5
644
  8
LE_ALL
 10
283.182665990894
 20
-86.20300560676989
 30
0.0
  0
VERTEX
  5
645
  8
LE_ALL
 10
283.068854495366
 20
-86.07794353458421
 30
0.0
  0
VERTEX
  5
646
  8
LE_ALL
 10
282.884034655353
 20
-85.9626856687305
 30
0.0
  0
VERTEX
  5
647
  8
LE_ALL
 10
282.6353089936423
 20
-85.86166130434607
 30
0.0
  0
VERTEX
  5
648
  8
LE_ALL
 10
282.3322358979047
 20
-85.77875275109027
 30
0.0
  0
VERTEX
  5
649
  8
LE_ALL
 10
281.9864622972176
 20
-85.71714613816178
 30
0.0
  0
VERTEX
  5
64A
  8
LE_ALL
 10
281.611276077113
 20
-85.67920897314067
 30
0.0
  0
VERTEX
  5
64B
  8
LE_ALL
 10
281.2210954335898
 20
-85.66639916
 30
0.0
  0
VERTEX
  5
64C
  8
LE_ALL
 10
280.8309147899287
 20
-85.67920897267379
 30
0.0
  0
VERTEX
  5
64D
  8
LE_ALL
 10
280.4557285694155
 20
-85.71714613724595
 30
0.0
  0
VERTEX
  5
64E
  8
LE_ALL
 10
280.1099549680649
 20
-85.77875274976067
 30
0.0
  0
VERTEX
  5
64F
  8
LE_ALL
 10
279.8068818714344
 20
-85.86166130265383
 30
0.0
  0
VERTEX
  5
650
  8
LE_ALL
 10
279.5581562086358
 20
-85.96268566674064
 30
0.0
  0
VERTEX
  5
651
  8
LE_ALL
 10
279.3733363673815
 20
-86.07794353237318
 30
0.0
  0
VERTEX
  5
652
  8
LE_ALL
 10
279.2595248705067
 20
-86.20300560442267
 30
0.0
  0
VERTEX
  5
653
  8
LE_ALL
 10
279.22109543
 20
-86.33306581760681
 30
0.0
  0
SEQEND
  5
724
  8
LE_ALL
  0
POLYLINE
  5
3B5
  8
LE_ALL
 66
     1
 10
0.0
 20
0.0
 30
0.0
  0
VERTEX
  5
654
  8
LE_ALL
 10
279.22109543
 20
-86.33306581760681
 30
0.0
  0
VERTEX
  5
655
  8
LE_ALL
 10
279.2595248678804
 20
-86.4631260311763
 30
0.0
  0
VERTEX
  5
656
  8
LE_ALL
 10
279.3733363625734
 20
-86.58818810375753
 30
0.0
  0
VERTEX
  5
657
  8
LE_ALL
 10
279.558156202154
 20
-86.70344597002584
 30
0.0
  0
VERTEX
  5
658
  8
LE_ALL
 10
279.8068818638193
 20
-86.8044703348078
 30
0.0
  0
VERTEX
  5
659
  8
LE_ALL
 10
280.1099549598567
 20
-86.88737888841115
 30
0.0
  0
VERTEX
  5
65A
  8
LE_ALL
 10
280.4557285611241
 20
-86.94898550160927
 30
0.0
  0
VERTEX
  5
65B
  8
LE_ALL
 10
280.8309147820068
 20
-86.98692266680096
 30
0.0
  0
VERTEX
  5
65C
  8
LE_ALL
 10
281.2210954264102
 20
-86.99973248
 30
0.0
  0
VERTEX
  5
65D
  8
LE_ALL
 10
281.6112760709515
 20
-86.98692266726785
 30
0.0
  0
VERTEX
  5
65E
  8
LE_ALL
 10
281.9864622922428
 20
-86.9489855025251
 30
0.0
  0
VERTEX
  5
65F
  8
LE_ALL
 10
282.3322358941737
 20
-86.88737888974073
 30
0.0
  0
VERTEX
  5
660
  8
LE_ALL
 10
282.6353089911039
 20
-86.80447033650005
 30
0.0
  0
VERTEX
  5
661
  8
LE_ALL
 10
282.8840346538572
 20
-86.7034459720157
 30
0.0
  0
VERTEX
  5
662
  8
LE_ALL
 10
283.0688544946791
 20
-86.58818810596856
 30
0.0
  0
VERTEX
  5
663
  8
LE_ALL
 10
283.1826659907189
 20
-86.46312603352352
 30
0.0
  0
VERTEX
  5
664
  8
LE_ALL
 10
283.22109543
 20
-86.33306582
 30
0.0
  0
SEQEND
  5
725
  8
LE_ALL
  0
POLYLINE
  5
3B6
  8
LE_ALL
 66
     1
 10
0.0
 20
0.0
 30
0.0
  0
VERTEX
  5
665
  8
LE_ALL
 10
307.06699857
 20
-82.74492326
 30
0.0
  0
VERTEX
  5
666
  8
LE_ALL
 10
307.028569130894
 20
-82.61486304676988
 30
0.0
  0
VERTEX
  5
667
  8
LE_ALL
 10
306.914757635366
 20
-82.4898009745842
 30
0.0
  0
VERTEX
  5
668
  8
LE_ALL
 10
306.729937795353
 20
-82.37454310873049
 30
0.0
  0
VERTEX
  5
669
  8
LE_ALL
 10
306.4812121336423
 20
-82.27351874434606
 30
0.0
  0
VERTEX
  5
66A
  8
LE_ALL
 10
306.1781390379047
 20
-82.19061019109026
 30
0.0
  0
VERTEX
  5
66B
  8
LE_ALL
 10
305.8323654372176
 20
-82.12900357816177
 30
0.0
  0
VERTEX
  5
66C
  8
LE_ALL
 10
305.457179217113
 20
-82.09106641314067
 30
0.0
  0
VERTEX
  5
66D
  8
LE_ALL
 10
305.0669985735898
 20
-82.07825659999999
 30
0.0
  0
VERTEX
  5
66E
  8
LE_ALL
 10
304.6768179299287
 20
-82.09106641267378
 30
0.0
  0
VERTEX
  5
66F
  8
LE_ALL
 10
304.3016317094155
 20
-82.12900357724594
 30
0.0
  0
VERTEX
  5
670
  8
LE_ALL
 10
303.9558581080649
 20
-82.19061018976066
 30
0.0
  0
VERTEX
  5
671
  8
LE_ALL
 10
303.6527850114344
 20
-82.27351874265382
 30
0.0
  0
VERTEX
  5
672
  8
LE_ALL
 10
303.4040593486358
 20
-82.37454310674063
 30
0.0
  0
VERTEX
  5
673
  8
LE_ALL
 10
303.2192395073815
 20
-82.48980097237317
 30
0.0
  0
VERTEX
  5
674
  8
LE_ALL
 10
303.1054280105067
 20
-82.61486304442266
 30
0.0
  0
VERTEX
  5
675
  8
LE_ALL
 10
303.06699857
 20
-82.7449232576068
 30
0.0
  0
SEQEND
  5
726
  8
LE_ALL
  0
POLYLINE
  5
3B7
  8
LE_ALL
 66
     1
 10
0.0
 20
0.0
 30
0.0
  0
VERTEX
  5
676
  8
LE_ALL
 10
303.06699857
 20
-82.7449232576068
 30
0.0
  0
VERTEX
  5
677
  8
LE_ALL
 10
303.1054280078804
 20
-82.8749834711763
 30
0.0
  0
VERTEX
  5
678
  8
LE_ALL
 10
303.2192395025734
 20
-83.00004554375752
 30
0.0
  0
VERTEX
  5
679
  8
LE_ALL
 10
303.404059342154
 20
-83.11530341002583
 30
0.0
  0
VERTEX
  5
67A
  8
LE_ALL
 10
303.6527850038194
 20
-83.2163277748078
 30
0.0
  0
VERTEX
  5
67B
  8
LE_ALL
 10
303.9558580998567
 20
-83.29923632841114
 30
0.0
  0
VERTEX
  5
67C
  8
LE_ALL
 10
304.3016317011242
 20
-83.36084294160926
 30
0.0
  0
VERTEX
  5
67D
  8
LE_ALL
 10
304.6768179220068
 20
-83.39878010680096
 30
0.0
  0
VERTEX
  5
67E
  8
LE_ALL
 10
305.0669985664102
 20
-83.41158992
 30
0.0
  0
VERTEX
  5
67F
  8
LE_ALL
 10
305.4571792109516
 20
-83.39878010726784
 30
0.0
  0
VERTEX
  5
680
  8
LE_ALL
 10
305.8323654322428
 20
-83.3608429425251
 30
0.0
  0
VERTEX
  5
681
  8
LE_ALL
 10
306.1781390341737
 20
-83.29923632974072
 30
0.0
  0
VERTEX
  5
682
  8
LE_ALL
 10
306.4812121311039
 20
-83.21632777650004
 30
0.0
  0
VERTEX
  5
683
  8
LE_ALL
 10
306.7299377938572
 20
-83.11530341201569
 30
0.0
  0
VERTEX
  5
684
  8
LE_ALL
 10
306.9147576346791
 20
-83.00004554596855
 30
0.0
  0
VERTEX
  5
685
  8
LE_ALL
 10
307.0285691307189
 20
-82.87498347352351
 30
0.0
  0
VERTEX
  5
686
  8
LE_ALL
 10
307.06699857
 20
-82.74492326
 30
0.0
  0
SEQEND
  5
727
  8
LE_ALL
  0
POLYLINE
  5
3B8
  8
LE_ALL
 66
     1
 10
0.0
 20
0.0
 30
0.0
  0
VERTEX
  5
687
  8
LE_ALL
 10
300.52626085
 20
-88.51331173
 30
0.0
  0
VERTEX
  5
688
  8
LE_ALL
 10
300.487831410894
 20
-88.38325151676989
 30
0.0
  0
VERTEX
  5
689
  8
LE_ALL
 10
300.374019915366
 20
-88.2581894445842
 30
0.0
  0
VERTEX
  5
68A
  8
LE_ALL
 10
300.189200075353
 20
-88.1429315787305
 30
0.0
  0
VERTEX
  5
68B
  8
LE_ALL
 10
299.9404744136423
 20
-88.04190721434607
 30
0.0
  0
VERTEX
  5
68C
  8
LE_ALL
 10
299.6374013179047
 20
-87.95899866109026
 30
0.0
  0
VERTEX
  5
68D
  8
LE_ALL
 10
299.2916277172176
 20
-87.89739204816178
 30
0.0
  0
VERTEX
  5
68E
  8
LE_ALL
 10
298.916441497113
 20
-87.85945488314067
 30
0.0
  0
VERTEX
  5
68F
  8
LE_ALL
 10
298.5262608535898
 20
-87.84664507
 30
0.0
  0
VERTEX
  5
690
  8
LE_ALL
 10
298.1360802099287
 20
-87.85945488267379
 30
0.0
  0
VERTEX
  5
691
  8
LE_ALL
 10
297.7608939894155
 20
-87.89739204724594
 30
0.0
  0
VERTEX
  5
692
  8
LE_ALL
 10
297.4151203880649
 20
-87.95899865976067
 30
0.0
  0
VERTEX
  5
693
  8
LE_ALL
 10
297.1120472914345
 20
-88.04190721265383
 30
0.0
  0
VERTEX
  5
694
  8
LE_ALL
 10
296.8633216286358
 20
-88.14293157674064
 30
0.0
  0
VERTEX
  5
695
  8
LE_ALL
 10
296.6785017873815
 20
-88.25818944237318
 30
0.0
  0
VERTEX
  5
696
  8
LE_ALL
 10
296.5646902905067
 20
-88.38325151442267
 30
0.0
  0
VERTEX
  5
697
  8
LE_ALL
 10
296.52626085
 20
-88.5133117276068
 30
0.0
  0
SEQEND
  5
728
  8
LE_ALL
  0
POLYLINE
  5
3B9
  8
LE_ALL
 66
     1
 10
0.0
 20
0.0
 30
0.0
  0
VERTEX
  5
698
  8
LE_ALL
 10
296.52626085
 20
-88.5133117276068
 30
0.0
  0
VERTEX
  5
699
  8
LE_ALL
 10
296.5646902878805
 20
-88.6433719411763
 30
0.0
  0
VERTEX
  5
69A
  8
LE_ALL
 10
296.6785017825734
 20
-88.76843401375753
 30
0.0
  0
VERTEX
  5
69B
  8
LE_ALL
 10
296.863321622154
 20
-88.88369188002584
 30
0.0
  0
VERTEX
  5
69C
  8
LE_ALL
 10
297.1120472838194
 20
-88.9847162448078
 30
0.0
  0
VERTEX
  5
69D
  8
LE_ALL
 10
297.4151203798567
 20
-89.06762479841115
 30
0.0
  0
VERTEX
  5
69E
  8
LE_ALL
 10
297.7608939811242
 20
-89.12923141160927
 30
0.0
  0
VERTEX
  5
69F
  8
LE_ALL
 10
298.1360802020068
 20
-89.16716857680096
 30
0.0
  0
VERTEX
  5
6A0
  8
LE_ALL
 10
298.5262608464103
 20
-89.17997839
 30
0.0
  0
VERTEX
  5
6A1
  8
LE_ALL
 10
298.9164414909516
 20
-89.16716857726784
 30
0.0
  0
VERTEX
  5
6A2
  8
LE_ALL
 10
299.2916277122428
 20
-89.1292314125251
 30
0.0
  0
VERTEX
  5
6A3
  8
LE_ALL
 10
299.6374013141738
 20
-89.06762479974073
 30
0.0
  0
VERTEX
  5
6A4
  8
LE_ALL
 10
299.9404744111039
 20
-88.98471624650004
 30
0.0
  0
VERTEX
  5
6A5
  8
LE_ALL
 10
300.1892000738573
 20
-88.8836918820157
 30
0.0
  0
VERTEX
  5
6A6
  8
LE_ALL
 10
300.3740199146791
 20
-88.76843401596855
 30
0.0
  0
VERTEX
  5
6A7
  8
LE_ALL
 10
300.487831410719
 20
-88.64337194352352
 30
0.0
  0
VERTEX
  5
6A8
  8
LE_ALL
 10
300.52626085
 20
-88.51331173
 30
0.0
  0
SEQEND
  5
729
  8
LE_ALL
  0
LINE
  5
3BA
  8
LE_ALL
 10
273.80953094
 20
-91.21953549
 30
0.0
 11
273.80953094
 21
-87.44829932
 31
0.0
  0
LINE
  5
3BB
  8
LE_ALL
 10
307.48444742
 20
-91.69094001
 30
0.0
 11
273.80953094
 21
-87.44829932
 31
0.0
  0
LINE
  5
3BC
  8
LE_ALL
 10
273.80953094
 20
-91.21953549
 30
0.0
 11
307.48444742
 21
-95.46217618
 31
0.0
  0
LINE
  5
3BD
  8
LE_ALL
 10
311.22610481
 20
-88.39110836
 30
0.0
 11
307.48444742
 21
-91.69094001
 31
0.0
  0
LINE
  5
3BE
  8
LE_ALL
 10
284.41613266
 20
-78.09415585
 30
0.0
 11
311.42649223
 21
-81.49714129
 31
0.0
  0
LINE
  5
3BF
  8
LE_ALL
 10
273.80953094
 20
-87.44829932
 30
0.0
 11
284.41613266
 21
-78.09415585
 31
0.0
  0
ENDBLK
  8
0
  0
BLOCK
  8
0
  2
_00072
 70
     0
 10
0.0
 20
0.0
 30
0.0
  0
INSERT
  5
3C2
  8
0
  2
_00073
 10
298.52626085
 20
-87.57050269
 30
0.0
  0
ENDBLK
  8
0
  0
BLOCK
  8
0
  2
_00073
 70
     0
 10
298.52626085
 20
-87.57050269
 30
0.0
  0
LINE
  5
3C5
  8
LE_ALL
  6
STRICHPUNKT2
 62
     1
 10
298.52626085
 20
-87.57050269
 30
0.0
 11
298.52626085
 21
-89.1799784
 31
0.0
  0
LINE
  5
3C6
  8
LE_ALL
  6
STRICHPUNKT2
 62
     1
 10
298.52626085
 20
-88.51331173
 30
0.0
 11
299.58692102
 21
-87.57789738
 31
0.0
  0
LINE
  5
3C7
  8
LE_ALL
  6
STRICHPUNKT2
 62
     1
 10
298.52626085
 20
-88.51331173
 30
0.0
 11
297.46560067
 21
-89.44872608
 31
0.0
  0
LINE
  5
3C8
  8
LE_ALL
  6
STRICHPUNKT2
 62
     1
 10
298.52626085
 20
-88.51331173
 30
0.0
 11
295.72001781
 21
-88.15975834
 31
0.0
  0
LINE
  5
3C9
  8
LE_ALL
  6
STRICHPUNKT2
 62
     1
 10
298.52626085
 20
-88.51331173
 30
0.0
 11
301.33250389
 21
-88.86686512
 31
0.0
  0
LINE
  5
3CA
  8
LE_ALL
  6
STRICHPUNKT2
 62
     1
 10
305.06699857
 20
-81.80211422
 30
0.0
 11
305.06699857
 21
-83.41158993
 31
0.0
  0
LINE
  5
3CB
  8
LE_ALL
  6
STRICHPUNKT2
 62
     1
 10
305.06699857
 20
-82.74492326
 30
0.0
 11
306.12765874
 21
-81.80950891
 31
0.0
  0
LINE
  5
3CC
  8
LE_ALL
  6
STRICHPUNKT2
 62
     1
 10
305.06699857
 20
-82.74492326
 30
0.0
 11
304.0063384
 21
-83.68033761
 31
0.0
  0
LINE
  5
3CD
  8
LE_ALL
  6
STRICHPUNKT2
 62
     1
 10
305.06699857
 20
-82.74492326
 30
0.0
 11
302.26075553
 21
-82.39136987
 31
0.0
  0
LINE
  5
3CE
  8
LE_ALL
  6
STRICHPUNKT2
 62
     1
 10
305.06699857
 20
-82.74492326
 30
0.0
 11
307.87324161
 21
-83.09847665
 31
0.0
  0
LINE
  5
3CF
  8
LE_ALL
  6
STRICHPUNKT2
 62
     1
 10
281.22109543
 20
-85.39025678
 30
0.0
 11
281.22109543
 21
-86.99973249
 31
0.0
  0
LINE
  5
3D0
  8
LE_ALL
  6
STRICHPUNKT2
 62
     1
 10
281.22109543
 20
-86.33306582
 30
0.0
 11
282.2817556
 21
-85.39765148
 31
0.0
  0
LINE
  5
3D1
  8
LE_ALL
  6
STRICHPUNKT2
 62
     1
 10
281.22109543
 20
-86.33306582
 30
0.0
 11
280.16043526
 21
-87.26848017
 31
0.0
  0
LINE
  5
3D2
  8
LE_ALL
  6
STRICHPUNKT2
 62
     1
 10
281.22109543
 20
-86.33306582
 30
0.0
 11
278.41485239
 21
-85.97951243
 31
0.0
  0
LINE
  5
3D3
  8
LE_ALL
  6
STRICHPUNKT2
 62
     1
 10
281.22109543
 20
-86.33306582
 30
0.0
 11
284.02733847
 21
-86.68661921
 31
0.0
  0
LINE
  5
3D4
  8
LE_ALL
  6
STRICHPUNKT2
 62
     1
 10
287.76183316
 20
-79.62186831
 30
0.0
 11
287.76183316
 21
-81.23134402
 31
0.0
  0
LINE
  5
3D5
  8
LE_ALL
  6
STRICHPUNKT2
 62
     1
 10
287.76183316
 20
-80.56467735
 30
0.0
 11
288.82249333
 21
-79.629263
 31
0.0
  0
LINE
  5
3D6
  8
LE_ALL
  6
STRICHPUNKT2
 62
     1
 10
287.76183316
 20
-80.56467735
 30
0.0
 11
286.70117299
 21
-81.5000917
 31
0.0
  0
LINE
  5
3D7
  8
LE_ALL
  6
STRICHPUNKT2
 62
     1
 10
287.76183316
 20
-80.56467735
 30
0.0
 11
284.95559012
 21
-80.21112396
 31
0.0
  0
LINE
  5
3D8
  8
LE_ALL
  6
STRICHPUNKT2
 62
     1
 10
287.76183316
 20
-80.56467735
 30
0.0
 11
290.5680762
 21
-80.91823074
 31
0.0
  0
LINE
  5
3D9
  8
LE_ALL
  6
STRICHPUNKT2
 62
     1
 10
293.144047
 20
-83.12478098
 30
0.0
 11
293.144047
 21
-85.62232787
 31
0.0
  0
LINE
  5
3DA
  8
LE_ALL
  6
STRICHPUNKT2
 62
     1
 10
293.144047
 20
-84.53899454
 30
0.0
 11
297.58726515
 21
-85.09878741
 31
0.0
  0
LINE
  5
3DB
  8
LE_ALL
  6
STRICHPUNKT2
 62
     1
 10
293.144047
 20
-84.53899454
 30
0.0
 11
288.70082886
 21
-83.97920167
 31
0.0
  0
LINE
  5
3DC
  8
LE_ALL
  6
STRICHPUNKT2
 62
     1
 10
293.144047
 20
-84.53899454
 30
0.0
 11
294.82342561
 21
-83.05792183
 31
0.0
  0
LINE
  5
3DD
  8
LE_ALL
  6
STRICHPUNKT2
 62
     1
 10
293.144047
 20
-84.53899454
 30
0.0
 11
291.4646684
 21
-86.02006726
 31
0.0
  0
ENDBLK
  8
0
  0
BLOCK
  8
0
  2
BEND_ZONE_00074
 70
     0
 10
0.0
 20
0.0
 30
0.0
  0
INSERT
  5
3E0
  8
0
  2
BEND_ZONE_00075
 10
323.85419849
 20
-81.02541273
 30
0.0
  0
ENDBLK
  8
0
  0
BLOCK
  8
0
  2
BEND_ZONE_00075
 70
     0
 10
323.85419849
 20
-81.02541273
 30
0.0
  0
LINE
  5
3E3
  8
LE_ALL
 10
323.85419849
 20
-81.02541273
 30
0.0
 11
314.9677622
 21
-88.86251288
 31
0.0
  0
POLYLINE
  5
3E4
  8
LE_ALL
 66
     1
 10
0.0
 20
0.0
 30
0.0
  0
VERTEX
  5
6A9
  8
LE_ALL
 10
323.3825517749243
 20
-84.56556036683806
 30
0.0
  0
VERTEX
  5
6AA
  8
LE_ALL
 10
324.2634376317478
 20
-83.60768627678459
 30
0.0
  0
VERTEX
  5
6AB
  8
LE_ALL
 10
324.934841363208
 20
-82.47868957339914
 30
0.0
  0
VERTEX
  5
6AC
  8
LE_ALL
 10
325.3739764773607
 20
-81.21688680614542
 30
0.0
  0
SEQEND
  5
72A
  8
LE_ALL
  0
POLYLINE
  5
3E5
  8
LE_ALL
 66
     1
 10
0.0
 20
0.0
 30
0.0
  0
VERTEX
  5
3E6
  8
LE_ALL
 10
323.38255176
 20
-84.56556038
 30
0.0
  0
VERTEX
  5
3E7
  8
LE_ALL
 10
312.77595005
 20
-93.91970384
 30
0.0
  0
SEQEND
  5
3E8
  8
LE_ALL
  0
POLYLINE
  5
3E9
  8
LE_ALL
 66
     1
 10
0.0
 20
0.0
 30
0.0
  0
VERTEX
  5
6AD
  8
LE_ALL
 10
312.77595004
 20
-93.91970384
 30
0.0
  0
VERTEX
  5
6AE
  8
LE_ALL
 10
313.7065962435631
 20
-92.89399402873293
 30
0.0
  0
VERTEX
  5
6AF
  8
LE_ALL
 10
314.3981287593199
 20
-91.67712503677544
 30
0.0
  0
VERTEX
  5
6B0
  8
LE_ALL
 10
314.8239723807351
 20
-90.31586045665716
 30
0.0
  0
VERTEX
  5
6B1
  8
LE_ALL
 10
314.9677621763946
 20
-88.86251292233496
 30
0.0
  0
SEQEND
  5
72B
  8
LE_ALL
  0
POLYLINE
  5
3EA
  8
LE_ALL
 66
     1
 10
0.0
 20
0.0
 30
0.0
  0
VERTEX
  5
6B2
  8
LE_ALL
 10
307.4844474058391
 20
-95.46217615396293
 30
0.0
  0
VERTEX
  5
6B3
  8
LE_ALL
 10
308.9443696986241
 20
-95.50118259090524
 30
0.0
  0
VERTEX
  5
6B4
  8
LE_ALL
 10
310.3481879964368
 20
-95.24883704839553
 30
0.0
  0
VERTEX
  5
6B5
  8
LE_ALL
 10
311.6419543488446
 20
-94.71483702420849
 30
0.0
  0
VERTEX
  5
6B6
  8
LE_ALL
 10
312.77595004
 20
-93.91970384
 30
0.0
  0
SEQEND
  5
72C
  8
LE_ALL
  0
POLYLINE
  5
3EB
  8
LE_ALL
 66
     1
 10
0.0
 20
0.0
 30
0.0
  0
VERTEX
  5
6B7
  8
LE_ALL
 10
307.4844474129196
 20
-91.69093999698146
 30
0.0
  0
VERTEX
  5
6B8
  8
LE_ALL
 10
308.2144085593121
 20
-91.71044321545263
 30
0.0
  0
VERTEX
  5
6B9
  8
LE_ALL
 10
308.9163177082184
 20
-91.58427044419777
 30
0.0
  0
VERTEX
  5
6BA
  8
LE_ALL
 10
309.5632008844223
 20
-91.31727043210424
 30
0.0
  0
VERTEX
  5
6BB
  8
LE_ALL
 10
310.13019873
 20
-90.91970384
 30
0.0
  0
SEQEND
  5
72D
  8
LE_ALL
  0
POLYLINE
  5
3EC
  8
LE_ALL
 66
     1
 10
0.0
 20
0.0
 30
0.0
  0
VERTEX
  5
6BC
  8
LE_ALL
 10
310.13019873
 20
-90.91970384
 30
0.0
  0
VERTEX
  5
6BD
  8
LE_ALL
 10
310.5955218317815
 20
-90.40684893436647
 30
0.0
  0
VERTEX
  5
6BE
  8
LE_ALL
 10
310.9412880896599
 20
-89.79841443838771
 30
0.0
  0
VERTEX
  5
6BF
  8
LE_ALL
 10
311.1542099003675
 20
-89.11778214832857
 30
0.0
  0
VERTEX
  5
6C0
  8
LE_ALL
 10
311.2261047981973
 20
-88.39110838116748
 30
0.0
  0
SEQEND
  5
72E
  8
LE_ALL
  0
LINE
  5
3ED
  8
LE_ALL
 10
311.22610481
 20
-88.39110836
 30
0.0
 11
307.48444742
 21
-91.69094001
 31
0.0
  0
ENDBLK
  8
0
  0
BLOCK
  8
0
  2
SHEET_FLANGE_00076
 70
     0
 10
0.0
 20
0.0
 30
0.0
  0
INSERT
  5
3F0
  8
0
  2
SHEET_FLANGE_00077
 10
311.22610481
 20
-88.39110836
 30
0.0
  0
ENDBLK
  8
0
  0
BLOCK
  8
0
  2
SHEET_FLANGE_00077
 70
     0
 10
311.22610481
 20
-88.39110836
 30
0.0
  0
LINE
  5
3F3
  8
LE_ALL
 10
311.22610481
 20
-88.39110836
 30
0.0
 11
311.22610481
 21
-83.20565863
 31
0.0
  0
POLYLINE
  5
3F4
  8
LE_ALL
 66
     1
 10
0.0
 20
0.0
 30
0.0
  0
VERTEX
  5
3F5
  8
LE_ALL
 10
314.9677622
 20
-83.67706316
 30
0.0
  0
VERTEX
  5
3F6
  8
LE_ALL
 10
314.9677622
 20
-88.86251288
 30
0.0
  0
VERTEX
  5
3F7
  8
LE_ALL
 10
323.85419849
 20
-81.02541273
 30
0.0
  0
SEQEND
  5
3F8
  8
LE_ALL
  0
LINE
  5
3F9
  8
LE_ALL
 10
318.70941958
 20
-80.37723151
 30
0.0
 11
314.9677622
 21
-83.67706316
 31
0.0
  0
ENDBLK
  8
0
  0
BLOCK
  8
0
  2
BEND_ZONE_00078
 70
     0
 10
0.0
 20
0.0
 30
0.0
  0
INSERT
  5
3FC
  8
0
  2
BEND_ZONE_00079
 10
318.70941958
 20
-76.60599534
 30
0.0
  0
ENDBLK
  8
0
  0
BLOCK
  8
0
  2
BEND_ZONE_00079
 70
     0
 10
318.70941958
 20
-76.60599534
 30
0.0
  0
LINE
  5
3FF
  8
LE_ALL
 10
318.70941958
 20
-76.60599534
 30
0.0
 11
329.3160213
 21
-67.25185188
 31
0.0
  0
POLYLINE
  5
400
  8
LE_ALL
 66
     1
 10
0.0
 20
0.0
 30
0.0
  0
VERTEX
  5
6C1
  8
LE_ALL
 10
318.7094195672972
 20
-76.60599536265258
 30
0.0
  0
VERTEX
  5
6C2
  8
LE_ALL
 10
317.2494972882022
 20
-76.56698893007614
 30
0.0
  0
VERTEX
  5
6C3
  8
LE_ALL
 10
315.8456790035632
 20
-76.81933447160446
 30
0.0
  0
VERTEX
  5
6C4
  8
LE_ALL
 10
314.5519126623234
 20
-77.35333448967727
 30
0.0
  0
VERTEX
  5
6C5
  8
LE_ALL
 10
313.4179169789954
 20
-78.14846766324763
 30
0.0
  0
SEQEND
  5
72F
  8
LE_ALL
  0
POLYLINE
  5
401
  8
LE_ALL
 66
     1
 10
0.0
 20
0.0
 30
0.0
  0
VERTEX
  5
402
  8
LE_ALL
 10
313.41791696
 20
-78.14846768
 30
0.0
  0
VERTEX
  5
403
  8
LE_ALL
 10
324.02451868
 20
-68.79432421
 30
0.0
  0
SEQEND
  5
404
  8
LE_ALL
  0
POLYLINE
  5
405
  8
LE_ALL
 66
     1
 10
0.0
 20
0.0
 30
0.0
  0
VERTEX
  5
6C6
  8
LE_ALL
 10
329.3160212872972
 20
-67.25185189265258
 30
0.0
  0
VERTEX
  5
6C7
  8
LE_ALL
 10
327.8560990082022
 20
-67.21284546007614
 30
0.0
  0
VERTEX
  5
6C8
  8
LE_ALL
 10
326.4522807235632
 20
-67.46519100160447
 30
0.0
  0
VERTEX
  5
6C9
  8
LE_ALL
 10
325.1585143823235
 20
-67.99919101967727
 30
0.0
  0
VERTEX
  5
6CA
  8
LE_ALL
 10
324.0245186989954
 20
-68.79432419324763
 30
0.0
  0
SEQEND
  5
730
  8
LE_ALL
  0
POLYLINE
  5
406
  8
LE_ALL
 66
     1
 10
0.0
 20
0.0
 30
0.0
  0
VERTEX
  5
6CB
  8
LE_ALL
 10
313.4179169789954
 20
-78.14846766324763
 30
0.0
  0
VERTEX
  5
6CC
  8
LE_ALL
 10
312.4872707609678
 20
-79.17417748500343
 30
0.0
  0
VERTEX
  5
6CD
  8
LE_ALL
 10
311.7957382366416
 20
-80.39104649254256
 30
0.0
  0
VERTEX
  5
6CE
  8
LE_ALL
 10
311.3698946135563
 20
-81.75231109154954
 30
0.0
  0
VERTEX
  5
6CF
  8
LE_ALL
 10
311.2261048236053
 20
-83.20565864601383
 30
0.0
  0
SEQEND
  5
731
  8
LE_ALL
  0
POLYLINE
  5
407
  8
LE_ALL
 66
     1
 10
0.0
 20
0.0
 30
0.0
  0
VERTEX
  5
6D0
  8
LE_ALL
 10
316.0636682794977
 20
-81.1484676716238
 30
0.0
  0
VERTEX
  5
6D1
  8
LE_ALL
 10
315.5983451704839
 20
-81.66132258250171
 30
0.0
  0
VERTEX
  5
6D2
  8
LE_ALL
 10
315.2525789083208
 20
-82.26975708627128
 30
0.0
  0
VERTEX
  5
6D3
  8
LE_ALL
 10
315.0396570967781
 20
-82.95038938577478
 30
0.0
  0
VERTEX
  5
6D4
  8
LE_ALL
 10
314.9677622018027
 20
-83.67706316300692
 30
0.0
  0
SEQEND
  5
732
  8
LE_ALL
  0
POLYLINE
  5
408
  8
LE_ALL
 66
     1
 10
0.0
 20
0.0
 30
0.0
  0
VERTEX
  5
6D5
  8
LE_ALL
 10
318.7094195736486
 20
-80.37723152132628
 30
0.0
  0
VERTEX
  5
6D6
  8
LE_ALL
 10
317.979458434101
 20
-80.35772830503807
 30
0.0
  0
VERTEX
  5
6D7
  8
LE_ALL
 10
317.2775492917816
 20
-80.48390107580222
 30
0.0
  0
VERTEX
  5
6D8
  8
LE_ALL
 10
316.6306661211617
 20
-80.75090108483863
 30
0.0
  0
VERTEX
  5
6D9
  8
LE_ALL
 10
316.0636682794977
 20
-81.1484676716238
 30
0.0
  0
SEQEND
  5
733
  8
LE_ALL
  0
LINE
  5
409
  8
LE_ALL
 10
314.9677622
 20
-83.67706316
 30
0.0
 11
318.70941958
 21
-80.37723151
 31
0.0
  0
ENDBLK
  8
0
  0
BLOCK
  8
0
  2
SHEET_FLANGE_00080
 70
     0
 10
0.0
 20
0.0
 30
0.0
  0
INSERT
  5
40C
  8
0
  2
SHEET_FLANGE_00081
 10
369.86824284
 20
-78.86430844
 30
0.0
  0
INSERT
  5
40D
  8
0
  2
_00082
 10
0.0
 20
0.0
 30
0.0
  0
ENDBLK
  8
0
  0
BLOCK
  8
0
  2
SHEET_FLANGE_00081
 70
     0
 10
369.86824284
 20
-78.86430844
 30
0.0
  0
POLYLINE
  5
410
  8
LE_ALL
 66
     1
 10
0.0
 20
0.0
 30
0.0
  0
VERTEX
  5
6DA
  8
LE_ALL
 10
367.76729136
 20
-77.85094289611106
 30
0.0
  0
VERTEX
  5
6DB
  8
LE_ALL
 10
367.8330936139336
 20
-78.06783629559582
 30
0.0
  0
VERTEX
  5
6DC
  8
LE_ALL
 10
368.0278358039281
 20
-78.27594687981897
 30
0.0
  0
VERTEX
  5
6DD
  8
LE_ALL
 10
368.3436320989113
 20
-78.46684748201409
 30
0.0
  0
VERTEX
  5
6DE
  8
LE_ALL
 10
368.7676947396638
 20
-78.63280783119802
 30
0.0
  0
VERTEX
  5
6DF
  8
LE_ALL
 10
369.2828518624557
 20
-78.76710757941535
 30
0.0
  0
VERTEX
  5
6E0
  8
LE_ALL
 10
369.8682428512791
 20
-78.86430843346662
 30
0.0
  0
SEQEND
  5
734
  8
LE_ALL
  0
POLYLINE
  5
411
  8
LE_ALL
 66
     1
 10
0.0
 20
0.0
 30
0.0
  0
VERTEX
  5
6E1
  8
LE_ALL
 10
372.1663398882085
 20
-76.8375773689886
 30
0.0
  0
VERTEX
  5
6E2
  8
LE_ALL
 10
371.5612097335165
 20
-76.78288897930446
 30
0.0
  0
VERTEX
  5
6E3
  8
LE_ALL
 10
370.9358368096195
 20
-76.76794987934409
 30
0.0
  0
VERTEX
  5
6E4
  8
LE_ALL
 10
370.3134953436478
 20
-76.79331605097414
 30
0.0
  0
VERTEX
  5
6E5
  8
LE_ALL
 10
369.7173467423042
 20
-76.85804345261982
 30
0.0
  0
VERTEX
  5
6E6
  8
LE_ALL
 10
369.1695776040499
 20
-76.95972315324192
 30
0.0
  0
VERTEX
  5
6E7
  8
LE_ALL
 10
368.6905740102956
 20
-77.0945709844565
 30
0.0
  0
VERTEX
  5
6E8
  8
LE_ALL
 10
368.2981628256384
 20
-77.25756837425355
 30
0.0
  0
VERTEX
  5
6E9
  8
LE_ALL
 10
368.0069482433382
 20
-77.4426491209688
 30
0.0
  0
VERTEX
  5
6EA
  8
LE_ALL
 10
367.8277682675252
 20
-77.6429251564243
 30
0.0
  0
VERTEX
  5
6EB
  8
LE_ALL
 10
367.76729136
 20
-77.85094289611106
 30
0.0
  0
SEQEND
  5
735
  8
LE_ALL
  0
POLYLINE
  5
412
  8
LE_ALL
 66
     1
 10
0.0
 20
0.0
 30
0.0
  0
VERTEX
  5
413
  8
LE_ALL
 10
372.16633988
 20
-76.83757736
 30
0.0
  0
VERTEX
  5
414
  8
LE_ALL
 10
384.79443356
 20
-78.42856762
 30
0.0
  0
SEQEND
  5
415
  8
LE_ALL
  0
POLYLINE
  5
416
  8
LE_ALL
 66
     1
 10
0.0
 20
0.0
 30
0.0
  0
VERTEX
  5
6EC
  8
LE_ALL
 10
386.89538504
 20
-79.44193316
 30
0.0
  0
VERTEX
  5
6ED
  8
LE_ALL
 10
386.8295827848151
 20
-79.22503976236297
 30
0.0
  0
VERTEX
  5
6EE
  8
LE_ALL
 10
386.6348405957449
 20
-79.01692917992547
 30
0.0
  0
VERTEX
  5
6EF
  8
LE_ALL
 10
386.3190443036944
 20
-78.82602857924272
 30
0.0
  0
VERTEX
  5
6F0
  8
LE_ALL
 10
385.8949816675533
 20
-78.66006823110924
 30
0.0
  0
VERTEX
  5
6F1
  8
LE_ALL
 10
385.3798245505819
 20
-78.52576848332713
 30
0.0
  0
VERTEX
  5
6F2
  8
LE_ALL
 10
384.7944335682085
 20
-78.4285676289886
 30
0.0
  0
SEQEND
  5
736
  8
LE_ALL
  0
POLYLINE
  5
417
  8
LE_ALL
 66
     1
 10
0.0
 20
0.0
 30
0.0
  0
VERTEX
  5
6F3
  8
LE_ALL
 10
382.4963365312792
 20
-80.45529869346662
 30
0.0
  0
VERTEX
  5
6F4
  8
LE_ALL
 10
383.1014666861192
 20
-80.50998708180663
 30
0.0
  0
VERTEX
  5
6F5
  8
LE_ALL
 10
383.7268396093744
 20
-80.5249261804972
 30
0.0
  0
VERTEX
  5
6F6
  8
LE_ALL
 10
384.3491810740064
 20
-80.49956000772053
 30
0.0
  0
VERTEX
  5
6F7
  8
LE_ALL
 10
384.9453296734294
 20
-80.4348326050914
 30
0.0
  0
VERTEX
  5
6F8
  8
LE_ALL
 10
385.4930988093183
 20
-80.33315290367857
 30
0.0
  0
VERTEX
  5
6F9
  8
LE_ALL
 10
385.9721024004101
 20
-80.19830507188439
 30
0.0
  0
VERTEX
  5
6FA
  8
LE_ALL
 10
386.3645135822581
 20
-80.03530768172585
 30
0.0
  0
VERTEX
  5
6FB
  8
LE_ALL
 10
386.6557281617498
 20
-79.85022693486302
 30
0.0
  0
VERTEX
  5
6FC
  8
LE_ALL
 10
386.8349081348911
 20
-79.64995089945928
 30
0.0
  0
VERTEX
  5
6FD
  8
LE_ALL
 10
386.89538504
 20
-79.44193316
 30
0.0
  0
SEQEND
  5
737
  8
LE_ALL
  0
LINE
  5
418
  8
LE_ALL
 10
382.49633653
 20
-80.4552987
 30
0.0
 11
369.86824284
 21
-78.86430844
 31
0.0
  0
LINE
  5
419
  8
LE_ALL
 10
372.16633988
 20
-79.15384146
 30
0.0
 11
372.16633988
 21
-76.83757736
 31
0.0
  0
LINE
  5
41A
  8
LE_ALL
 10
384.79443356
 20
-80.4552987
 30
0.0
 11
384.79443356
 21
-78.42856762
 31
0.0
  0
POLYLINE
  5
41B
  8
LE_ALL
 66
     1
 10
0.0
 20
0.0
 30
0.0
  0
VERTEX
  5
6FE
  8
LE_ALL
 10
339.0033002
 20
-74.22702064611106
 30
0.0
  0
VERTEX
  5
6FF
  8
LE_ALL
 10
339.0657480365557
 20
-74.4383684931615
 30
0.0
  0
VERTEX
  5
700
  8
LE_ALL
 10
339.2506917154317
 20
-74.64159436110597
 30
0.0
  0
VERTEX
  5
701
  8
LE_ALL
 10
339.5510239547503
 20
-74.82888839379197
 30
0.0
  0
VERTEX
  5
702
  8
LE_ALL
 10
339.9552031549565
 20
-74.99305298656267
 30
0.0
  0
VERTEX
  5
703
  8
LE_ALL
 10
340.4476969360171
 20
-75.1277793861681
 30
0.0
  0
VERTEX
  5
704
  8
LE_ALL
 10
341.0095790380768
 20
-75.22789013261506
 30
0.0
  0
VERTEX
  5
705
  8
LE_ALL
 10
341.6192566470111
 20
-75.28953802605156
 30
0.0
  0
VERTEX
  5
706
  8
LE_ALL
 10
342.2533001941666
 20
-75.3103539725
 30
0.0
  0
VERTEX
  5
707
  8
LE_ALL
 10
342.8873437415463
 20
-75.28953802681025
 30
0.0
  0
VERTEX
  5
708
  8
LE_ALL
 10
343.4970213511445
 20
-75.22789013410329
 30
0.0
  0
VERTEX
  5
709
  8
LE_ALL
 10
344.0589034542823
 20
-75.12777938832869
 30
0.0
  0
VERTEX
  5
70A
  8
LE_ALL
 10
344.5513972367939
 20
-74.99305298931257
 30
0.0
  0
VERTEX
  5
70B
  8
LE_ALL
 10
344.9555764387679
 20
-74.82888839702551
 30
0.0
  0
VERTEX
  5
70C
  8
LE_ALL
 10
345.2559086801036
 20
-74.64159436469889
 30
0.0
  0
VERTEX
  5
70D
  8
LE_ALL
 10
345.4408523611683
 20
-74.43836849697571
 30
0.0
  0
VERTEX
  5
70E
  8
LE_ALL
 10
345.5033002
 20
-74.22702065
 30
0.0
  0
SEQEND
  5
738
  8
LE_ALL
  0
POLYLINE
  5
41C
  8
LE_ALL
 66
     1
 10
0.0
 20
0.0
 30
0.0
  0
VERTEX
  5
70F
  8
LE_ALL
 10
345.5033002
 20
-74.22702065
 30
0.0
  0
VERTEX
  5
710
  8
LE_ALL
 10
345.4408523614528
 20
-74.01567280350106
 30
0.0
  0
VERTEX
  5
711
  8
LE_ALL
 10
345.2559086812198
 20
-73.81244693619934
 30
0.0
  0
VERTEX
  5
712
  8
LE_ALL
 10
344.9555764411986
 20
-73.62515290418706
 30
0.0
  0
VERTEX
  5
713
  8
LE_ALL
 10
344.5513972409187
 20
-73.46098831206237
 30
0.0
  0
VERTEX
  5
714
  8
LE_ALL
 10
344.0589034603452
 20
-73.32626191302168
 30
0.0
  0
VERTEX
  5
715
  8
LE_ALL
 10
343.4970213592286
 20
-73.22615116701289
 30
0.0
  0
VERTEX
  5
716
  8
LE_ALL
 10
342.8873437515586
 20
-73.1645032738536
 30
0.0
  0
VERTEX
  5
717
  8
LE_ALL
 10
342.2533002058334
 20
-73.1436873275
 30
0.0
  0
VERTEX
  5
718
  8
LE_ALL
 10
341.6192566598841
 20
-73.16450327309491
 30
0.0
  0
VERTEX
  5
719
  8
LE_ALL
 10
341.0095790515502
 20
-73.22615116552466
 30
0.0
  0
VERTEX
  5
71A
  8
LE_ALL
 10
340.4476969493555
 20
-73.32626191086109
 30
0.0
  0
VERTEX
  5
71B
  8
LE_ALL
 10
339.955203167331
 20
-73.46098830931247
 30
0.0
  0
VERTEX
  5
71C
  8
LE_ALL
 10
339.5510239652832
 20
-73.62515290095352
 30
0.0
  0
VERTEX
  5
71D
  8
LE_ALL
 10
339.2506917232449
 20
-73.81244693260642
 30
0.0
  0
VERTEX
  5
71E
  8
LE_ALL
 10
339.0657480408233
 20
-74.01567279968684
 30
0.0
  0
VERTEX
  5
71F
  8
LE_ALL
 10
339.0033002
 20
-74.22702064611106
 30
0.0
  0
SEQEND
  5
739
  8
LE_ALL
  0
POLYLINE
  5
41D
  8
LE_ALL
 66
     1
 10
0.0
 20
0.0
 30
0.0
  0
VERTEX
  5
41E
  8
LE_ALL
 10
390.73632428
 20
-85.68053237
 30
0.0
  0
VERTEX
  5
41F
  8
LE_ALL
 10
390.73632428
 20
-89.45176854
 30
0.0
  0
VERTEX
  5
420
  8
LE_ALL
 10
318.70941958
 20
-80.37723151
 30
0.0
  0
SEQEND
  5
421
  8
LE_ALL
  0
POLYLINE
  5
422
  8
LE_ALL
 66
     1
 10
0.0
 20
0.0
 30
0.0
  0
VERTEX
  5
423
  8
LE_ALL
 10
318.70941958
 20
-76.60599534
 30
0.0
  0
VERTEX
  5
424
  8
LE_ALL
 10
390.73632428
 20
-85.68053237
 30
0.0
  0
VERTEX
  5
425
  8
LE_ALL
 10
401.342926
 20
-76.3263889
 30
0.0
  0
VERTEX
  5
426
  8
LE_ALL
 10
401.342926
 20
-80.09762507
 30
0.0
  0
VERTEX
  5
427
  8
LE_ALL
 10
390.73632428
 20
-89.45176854
 30
0.0
  0
SEQEND
  5
428
  8
LE_ALL
  0
POLYLINE
  5
429
  8
LE_ALL
 66
     1
 10
0.0
 20
0.0
 30
0.0
  0
VERTEX
  5
42A
  8
LE_ALL
 10
401.342926
 20
-76.3263889
 30
0.0
  0
VERTEX
  5
42B
  8
LE_ALL
 10
329.3160213
 20
-67.25185188
 30
0.0
  0
VERTEX
  5
42C
  8
LE_ALL
 10
318.70941958
 20
-76.60599534
 30
0.0
  0
SEQEND
  5
42D
  8
LE_ALL
  0
ENDBLK
  8
0
  0
BLOCK
  8
0
  2
_00082
 70
     0
 10
0.0
 20
0.0
 30
0.0
  0
INSERT
  5
430
  8
0
  2
_00083
 10
342.2533002
 20
-75.31035398
 30
0.0
  0
ENDBLK
  8
0
  0
BLOCK
  8
0
  2
_00083
 70
     0
 10
342.2533002
 20
-75.31035398
 30
0.0
  0
LINE
  5
433
  8
LE_ALL
  6
STRICHPUNKT2
 62
     1
 10
342.2533002
 20
-75.31035398
 30
0.0
 11
342.2533002
 21
-72.81280709
 31
0.0
  0
LINE
  5
434
  8
LE_ALL
  6
STRICHPUNKT2
 62
     1
 10
342.2533002
 20
-74.22702065
 30
0.0
 11
346.69651835
 21
-74.78681352
 31
0.0
  0
LINE
  5
435
  8
LE_ALL
  6
STRICHPUNKT2
 62
     1
 10
342.2533002
 20
-74.22702065
 30
0.0
 11
337.81008206
 21
-73.66722778
 31
0.0
  0
LINE
  5
436
  8
LE_ALL
  6
STRICHPUNKT2
 62
     1
 10
342.2533002
 20
-74.22702065
 30
0.0
 11
343.93267881
 21
-72.74594793
 31
0.0
  0
LINE
  5
437
  8
LE_ALL
  6
STRICHPUNKT2
 62
     1
 10
342.2533002
 20
-74.22702065
 30
0.0
 11
340.5739216
 21
-75.70809336
 31
0.0
  0
LINE
  5
438
  8
LE_ALL
  6
STRICHPUNKT2
 62
     1
 10
371.01729136
 20
-79.00907495
 30
0.0
 11
371.01729136
 21
-76.43672934
 31
0.0
  0
LINE
  5
439
  8
LE_ALL
  6
STRICHPUNKT2
 62
     1
 10
383.64538504
 20
-80.52526649
 30
0.0
 11
383.64538504
 21
-78.0277196
 31
0.0
  0
LINE
  5
43A
  8
LE_ALL
  6
STRICHPUNKT2
 62
     1
 10
366.57407322
 20
-77.29115003
 30
0.0
 11
388.08860319
 21
-80.00172603
 31
0.0
  0
LINE
  5
43B
  8
LE_ALL
  6
STRICHPUNKT2
 62
     1
 10
369.33791276
 20
-79.33201562
 30
0.0
 11
372.69666997
 21
-76.36987019
 31
0.0
  0
LINE
  5
43C
  8
LE_ALL
  6
STRICHPUNKT2
 62
     1
 10
381.96600644
 20
-80.92300588
 30
0.0
 11
385.32476365
 21
-77.96086044
 31
0.0
  0
ENDBLK
  8
0
  0
BLOCK
  8
0
  2
DVI_FIGURE_00084
 70
     0
 10
0.0
 20
0.0
 30
0.0
  0
INSERT
  5
43F
  8
0
  2
VIEW_3_00085
 10
0.0
 20
0.0
 30
0.0
  0
INSERT
  5
440
  8
0
  2
VIEW_4_00093
 10
0.0
 20
0.0
 30
0.0
  0
INSERT
  5
441
  8
0
  2
VIEW_5_00096
 10
0.0
 20
0.0
 30
0.0
  0
ENDBLK
  8
0
  0
BLOCK
  8
0
  2
VIEW_3_00085
 70
     0
 10
0.0
 20
0.0
 30
0.0
  0
INSERT
  5
444
  8
0
  2
PART_0_00086
 10
0.0
 20
0.0
 30
0.0
  0
ENDBLK
  8
0
  0
BLOCK
  8
0
  2
PART_0_00086
 70
     0
 10
0.0
 20
0.0
 30
0.0
  0
INSERT
  5
447
  8
0
  2
_D1
 10
289.61561045
 20
-256.2140247
 30
0.0
  0
INSERT
  5
448
  8
0
  2
_D2
 10
68.78327269
 20
-284.29418925
 30
0.0
  0
INSERT
  5
449
  8
0
  2
_D3
 10
148.82335502
 20
-212.79726043
 30
0.0
  0
INSERT
  5
44A
  8
0
  2
_D4
 10
188.82335502
 20
-221.45539064
 30
0.0
  0
INSERT
  5
44B
  8
0
  2
_D5
 10
282.09734668
 20
-264.14524681
 30
0.0
  0
INSERT
  5
44C
  8
0
  2
_D6
 10
282.09734668
 20
-237.75410697
 30
0.0
  0
ENDBLK
  8
0
  0
BLOCK
  8
0
  2
VIEW_4_00093
 70
     0
 10
0.0
 20
0.0
 30
0.0
  0
INSERT
  5
47F
  8
0
  2
PART_0_00094
 10
0.0
 20
0.0
 30
0.0
  0
ENDBLK
  8
0
  0
BLOCK
  8
0
  2
PART_0_00094
 70
     0
 10
0.0
 20
0.0
 30
0.0
  0
INSERT
  5
482
  8
0
  2
_D7
 10
352.70794727
 20
-221.07814227
 30
0.0
  0
ENDBLK
  8
0
  0
BLOCK
  8
0
  2
VIEW_5_00096
 70
     0
 10
0.0
 20
0.0
 30
0.0
  0
INSERT
  5
48D
  8
0
  2
PART_0_00097
 10
0.0
 20
0.0
 30
0.0
  0
ENDBLK
  8
0
  0
BLOCK
  8
0
  2
PART_0_00097
 70
     0
 10
0.0
 20
0.0
 30
0.0
  0
INSERT
  5
490
  8
0
  2
_D8
 10
281.52282966
 20
-149.70482227
 30
0.0
  0
INSERT
  5
491
  8
0
  2
_D9
 10
45.04886791
 20
-183.2918124
 30
0.0
  0
INSERT
  5
492
  8
0
  2
_D10
 10
60.04886791
 20
-183.2918124
 30
0.0
  0
INSERT
  5
493
  8
0
  2
_D11
 10
78.54886791
 20
-183.2918124
 30
0.0
  0
INSERT
  5
494
  8
0
  2
_D12
 10
173.89578673
 20
-132.56848618
 30
0.0
  0
INSERT
  5
495
  8
0
  2
_D13
 10
280.73832329
 20
-180.85090882
 30
0.0
  0
INSERT
  5
496
  8
0
  2
_D14
 10
250.73832329
 20
-180.85090882
 30
0.0
  0
INSERT
  5
497
  8
0
  2
_D15
 10
203.23832329
 20
-180.85090882
 30
0.0
  0
INSERT
  5
498
  8
0
  2
_D16
 10
297.29734584
 20
-162.86228571
 30
0.0
  0
INSERT
  5
499
  8
0
  2
_D17
 10
297.29734584
 20
-132.86228571
 30
0.0
  0
INSERT
  5
49A
  8
0
  2
_D18
 10
68.89578673
 20
-133.38985415
 30
0.0
  0
INSERT
  5
49B
  8
0
  2
_D19
 10
51.35570451
 20
-138.5406815
 30
0.0
  0
INSERT
  5
49C
  8
0
  2
_D20
 10
33.66214805
 20
-173.5517411
 30
0.0
  0
INSERT
  5
49D
  8
0
  2
_D21
 10
33.66214805
 20
-158.5517411
 30
0.0
  0
INSERT
  5
49E
  8
0
  2
_D22
 10
33.66214805
 20
-140.0517411
 30
0.0
  0
INSERT
  5
49F
  8
0
  2
_D23
 10
33.66214805
 20
-125.0517411
 30
0.0
  0
INSERT
  5
4A0
  8
0
  2
_D24
 10
305.52426424
 20
-147.86228571
 30
0.0
  0
ENDBLK
  8
0
  0
ENDSEC
  0
SECTION
  2
ENTITIES
  0
INSERT
  5
52E
  8
0
  2
_ZBL0002_00001
 10
0.0
 20
0.0
 30
0.0
  0
INSERT
  5
52F
  8
0
  2
_ANS0003_00016
 10
0.0
 20
0.0
 30
0.0
  0
INSERT
  5
530
  8
0
  2
_ANS0004_00033
 10
0.0
 20
0.0
 30
0.0
  0
INSERT
  5
531
  8
0
  2
_ANS0005_00050
 10
0.0
 20
0.0
 30
0.0
  0
INSERT
  5
532
  8
0
  2
_ANS0006_00067
 10
0.0
 20
0.0
 30
0.0
  0
INSERT
  5
533
  8
0
  2
DVI_FIGURE_00084
 10
0.0
 20
0.0
 30
0.0
  0
ENDSEC
  0
EOF
