  0
SECTION
  2
HEADER
  9
$ACADVER
  1
AC1006
  9
$DWGCODEPAGE
  3
ansi_1252
  9
$INSBASE
 10
0.0
 20
0.0
 30
0.0
  9
$EXTMIN
 10
-47.97276819
 20
-364.1809936
  9
$EXTMAX
 10
380.42723181
 20
-50.49178735
  9
$LIMMIN
 10
-47.97276819
 20
-364.1809936
  9
$LIMMAX
 10
380.42723181
 20
-50.49178735
  9
$ORTHOMODE
 70
     0
  9
$REGENMODE
 70
     1
  9
$FILLMODE
 70
     1
  9
$QTEXTMODE
 70
     0
  9
$MIRRTEXT
 70
     1
  9
$DRAGMODE
 70
     2
  9
$LTSCALE
 40
1.0
  9
$OSMODE
 70
    37
  9
$ATTMODE
 70
     1
  9
$TEXTSIZE
 40
1.0
  9
$TRACEWID
 40
0.05
  9
$TEXTSTYLE
  7
STANDARD
  9
$CLAYER
  8
0
  9
$CELTYPE
  6
BYBLOCK
  9
$CECOLOR
 62
   256
  9
$DIMSCALE
 40
1.0
  9
$DIMASZ
 40
0.18
  9
$DIMEXO
 40
0.0625
  9
$DIMDLI
 40
0.38
  9
$DIMRND
 40
0.0
  9
$DIMDLE
 40
0.0
  9
$DIMEXE
 40
0.18
  9
$DIMTP
 40
0.0
  9
$DIMTM
 40
0.0
  9
$DIMTXT
 40
0.18
  9
$DIMCEN
 40
0.09
  9
$DIMTSZ
 40
0.0
  9
$DIMTOL
 70
     0
  9
$DIMLIM
 70
     0
  9
$DIMTIH
 70
     1
  9
$DIMTOH
 70
     1
  9
$DIMSE1
 70
     0
  9
$DIMSE2
 70
     0
  9
$DIMTAD
 70
     0
  9
$DIMZIN
 70
     0
  9
$DIMBLK
  1

  9
$DIMASO
 70
     1
  9
$DIMSHO
 70
     1
  9
$DIMPOST
  1

  9
$DIMAPOST
  1

  9
$DIMALT
 70
     0
  9
$DIMALTD
 70
     2
  9
$DIMALTF
 40
25.4
  9
$DIMLFAC
 40
1.0
  9
$DIMTOFL
 70
     0
  9
$DIMTVP
 40
0.0
  9
$DIMTIX
 70
     0
  9
$DIMSOXD
 70
     0
  9
$DIMSAH
 70
     0
  9
$DIMBLK1
  1

  9
$DIMBLK2
  1

  9
$LUNITS
 70
     2
  9
$LUPREC
 70
     4
  9
$SKETCHINC
 40
0.1
  9
$FILLETRAD
 40
0.5
  9
$AUNITS
 70
     0
  9
$AUPREC
 70
     0
  9
$MENU
  1
.
  9
$ELEVATION
 40
0.0
  9
$THICKNESS
 40
0.0
  9
$LIMCHECK
 70
     0
  9
$CHAMFERA
 40
0.0
  9
$CHAMFERB
 40
0.0
  9
$SKPOLY
 70
     0
  9
$TDCREATE
 40
2447893.125
  9
$TDUPDATE
 40
2460791.515309248
  9
$TDINDWG
 40
0.0
  9
$TDUSRTIMER
 40
0.0
  9
$USRTIMER
 70
     1
  9
$ANGBASE
 50
0.0
  9
$ANGDIR
 70
     0
  9
$PDMODE
 70
     0
  9
$PDSIZE
 40
0.0
  9
$PLINEWID
 40
0.0
  9
$COORDS
 70
     1
  9
$SPLFRAME
 70
     0
  9
$SPLINETYPE
 70
     6
  9
$SPLINESEGS
 70
     8
  9
$ATTDIA
 70
     0
  9
$ATTREQ
 70
     1
  9
$HANDLING
 70
     1
  9
$HANDSEED
  5
732
  9
$SURFTAB1
 70
     6
  9
$SURFTAB2
 70
     6
  9
$SURFTYPE
 70
     6
  9
$SURFU
 70
     6
  9
$SURFV
 70
     6
  9
$UCSNAME
  2

  9
$UCSORG
 10
0.0
 20
0.0
 30
0.0
  9
$UCSXDIR
 10
1.0
 20
0.0
 30
0.0
  9
$UCSYDIR
 10
0.0
 20
1.0
 30
0.0
  9
$USERI1
 70
     0
  9
$USERI2
 70
     0
  9
$USERI3
 70
     0
  9
$USERI4
 70
     0
  9
$USERI5
 70
     0
  9
$USERR1
 40
0.0
  9
$USERR2
 40
0.0
  9
$USERR3
 40
0.0
  9
$USERR4
 40
0.0
  9
$USERR5
 40
0.0
  9
$WORLDVIEW
 70
     1
  0
ENDSEC
  0
SECTION
  2
TABLES
  0
TABLE
  2
VPORT
 70
     1
  0
VPORT
  2
*ACTIVE
 70
     0
 10
0.0
 20
0.0
 11
1.0
 21
1.0
 12
166.22723181
 22
-207.33639047
 13
0.0
 23
0.0
 14
1.0
 24
1.0
 15
0.0
 25
0.0
 16
0.0
 26
0.0
 36
1.0
 17
0.0
 27
0.0
 37
0.0
 40
313.68920625
 41
1.365682948
 42
50.0
 43
0.0
 44
0.0
 50
0.0
 51
0.0
 71
     0
 72
   100
 73
     1
 74
     1
 75
     0
 76
     0
 77
     0
 78
     0
  0
ENDTAB
  0
TABLE
  2
LTYPE
 70
    19
  0
LTYPE
  2
CONTINUOUS
 70
     0
  3
Solid line
 72
    65
 73
     0
 40
0.0
  0
LTYPE
  2
DOT
 70
     0
  3
..............
 72
    65
 73
     2
 40
2.0
 49
0.5
 49
-1.5
  0
LTYPE
  2
HIDDEN
 70
     0
  3
-- -- -- -- --
 72
    65
 73
     2
 40
7.0
 49
4.0
 49
-3.0
  0
LTYPE
  2
DASHDOT
 70
     0
  3
--.--.--.--.--
 72
    65
 73
     4
 40
8.5
 49
4.0
 49
-2.0
 49
0.5
 49
-2.0
  0
LTYPE
  2
STRICHPUNKT2
 70
     0
  3
--.--.--.--.--
 72
    65
 73
     4
 40
18.5
 49
10.0
 49
-4.0
 49
0.5
 49
-4.0
  0
LTYPE
  2
STRICHPUNKT3
 70
     0
  3
--.--.--.--.--
 72
    65
 73
     4
 40
35.5
 49
25.0
 49
-5.0
 49
0.5
 49
-5.0
  0
LTYPE
  2
PHANTOM
 70
     0
  3
--..--..--..--
 72
    65
 73
     6
 40
23.0
 49
10.0
 49
-4.0
 49
0.5
 49
-4.0
 49
0.5
 49
-4.0
  0
LTYPE
  2
PHANTOM2
 70
     0
  3
--..--..--..--
 72
    65
 73
     6
 40
33.0
 49
20.0
 49
-4.0
 49
0.5
 49
-4.0
 49
0.5
 49
-4.0
  0
LTYPE
  2
PHANTOM3
 70
     0
  3
--..--..--..--
 72
    65
 73
     6
 40
50.0
 49
37.0
 49
-4.0
 49
0.5
 49
-4.0
 49
0.5
 49
-4.0
  0
LTYPE
  2
STR3PKT
 70
     0
  3
--...--...--...
 72
    65
 73
     8
 40
31.5
 49
20.0
 49
-2.5
 49
0.5
 49
-2.5
 49
0.5
 49
-2.5
 49
0.5
 49
-2.5
  0
LTYPE
  2
2STRPKT
 70
     0
  3
--.--.--.--.--
 72
    65
 73
     6
 40
28.0
 49
10.0
 49
-2.5
 49
10.0
 49
-2.5
 49
0.5
 49
-2.5
  0
LTYPE
  2
GESTRICHELT2
 70
     0
  3
-- -- -- -- --
 72
    65
 73
     2
 40
25.0
 49
10.0
 49
-15.0
  0
LTYPE
  2
2STR2PKT
 70
     0
  3
--..--..--..--
 72
    65
 73
     8
 40
31.0
 49
10.0
 49
-2.5
 49
10.0
 49
-2.5
 49
0.5
 49
-2.5
 49
0.5
 49
-2.5
  0
LTYPE
  2
STR3PKT2
 70
     0
  3
--...--...--...
 72
    65
 73
     8
 40
21.0
 49
10.0
 49
-2.5
 49
0.5
 49
-2.5
 49
0.5
 49
-2.5
 49
0.5
 49
-2.0
  0
LTYPE
  2
2STR3PKT
 70
     0
  3
--...--...--...
 72
    65
 73
    10
 40
34.0
 49
10.0
 49
-2.5
 49
10.0
 49
-2.5
 49
0.5
 49
-2.5
 49
0.5
 49
-2.5
 49
0.5
 49
-2.5
  0
LTYPE
  2
STRKSTR
 70
     0
  3
-- - -- - -- -
 72
    65
 73
     4
 40
30.0
 49
20.0
 49
-2.5
 49
5.0
 49
-2.5
  0
LTYPE
  2
STRKSTR2
 70
     0
  3
-- - -- - -- -
 72
    65
 73
     6
 40
37.5
 49
20.0
 49
-2.5
 49
5.0
 49
-2.5
 49
5.0
 49
-2.5
  0
LTYPE
  2
STRKSTR3
 70
     0
  3
-- - -- - -- -
 72
    65
 73
     8
 40
45.0
 49
20.0
 49
-2.5
 49
5.0
 49
-2.5
 49
5.0
 49
-2.5
 49
5.0
 49
-2.5
  0
LTYPE
  2
PUNKT2
 70
     0
  3
..............
 72
    65
 73
     2
 40
3.5
 49
0.5
 49
-3.0
  0
ENDTAB
  0
TABLE
  2
LAYER
 70
    16
  0
LAYER
  2
0
 70
     0
 62
     7
  6
CONTINUOUS
  0
LAYER
  2
LE_GREEN
 70
     0
 62
     3
  6
CONTINUOUS
  0
LAYER
  2
LE_RED
 70
     0
 62
     1
  6
CONTINUOUS
  0
LAYER
  2
LE_ALL
 70
     0
 62
     7
  6
CONTINUOUS
  0
LAYER
  2
LE_HIDDEN1
 70
     0
 62
     3
  6
HIDDEN
  0
LAYER
  2
LE_HIDDEN
 70
     0
 62
     7
  6
CONTINUOUS
  0
LAYER
  2
LE_MIDDLE
 70
     0
 62
     7
  6
CONTINUOUS
  0
LAYER
  2
TXT_YELLOW
 70
     0
 62
     2
  6
CONTINUOUS
  0
LAYER
  2
TXT_DIM49
 70
     0
 62
     2
  6
CONTINUOUS
  0
LAYER
  2
TXT_ALL
 70
     0
 62
     7
  6
CONTINUOUS
  0
LAYER
  2
DIM49
 70
     0
 62
     4
  6
CONTINUOUS
  0
LAYER
  2
HATCH
 70
     0
 62
     3
  6
CONTINUOUS
  0
LAYER
  2
APPLE
 70
     0
 62
     7
  6
CONTINUOUS
  0
LAYER
  2
10
 70
     0
 62
     7
  6
CONTINUOUS
  0
LAYER
  2
20
 70
     0
 62
     7
  6
CONTINUOUS
  0
LAYER
  2
49
 70
     0
 62
     7
  6
CONTINUOUS
  0
ENDTAB
  0
TABLE
  2
STYLE
 70
     5
  0
STYLE
  2
MONOTXT
 70
     0
 40
0.0
 41
1.0
 50
0.0
 71
     0
 42
1.0
  3
monotxt.shx
  4

  0
STYLE
  2
STANDARD
 70
     0
 40
0.0
 41
1.0
 50
0.0
 71
     0
 42
1.0
  3
txt
  4

  0
STYLE
  2
ARIAL
 70
     0
 40
0.0
 41
1.0
 50
0.0
 71
     0
 42
1.0
  3
arial.ttf
  4

  0
STYLE
  2
ARIAL_NARROW
 70
     0
 40
0.0
 41
1.0
 50
0.0
 71
     0
 42
1.0
  3
ArialN.ttf
  4

  0
STYLE
  2
ISOCPEUR
 70
     0
 40
0.0
 41
1.0
 50
0.0
 71
     0
 42
1.0
  3
ISOCPEUR.ttf
  4

  0
ENDTAB
  0
TABLE
  2
VIEW
 70
     0
  0
ENDTAB
  0
TABLE
  2
UCS
 70
     0
  0
ENDTAB
  0
ENDSEC
  0
SECTION
  2
BLOCKS
  0
BLOCK
  8
0
  2
_D1
 70
     0
 10
119.34654562
 20
-268.01829647
 30
0.0
  0
TEXT
  5
44E
  8
TXT_DIM49
 10
119.34654562
 20
-268.01829647
 30
0.0
 40
2.5
  1
45
 50
284.117472585
  7
ARIAL
  0
TEXT
  5
44F
  8
TXT_DIM49
 10
120.28292942
 20
-271.74203894
 30
0.0
 40
2.5
  1
°
 50
284.117472585
  7
ARIAL
  0
LINE
  5
450
  8
DIM49
 10
113.56123949
 20
-263.64987291
 30
0.0
 11
113.65177255
 21
-260.82289506
 31
0.0
  0
LINE
  5
451
  8
DIM49
 10
119.81963161
 20
-274.71079786
 30
0.0
 11
118.36841261
 21
-276.25804166
 31
0.0
  0
POLYLINE
  5
452
  8
DIM49
 66
     1
 10
0.0
 20
0.0
 30
0.0
  0
VERTEX
  5
608
  8
DIM49
 10
119.0940220626445
 20
-275.4844196999506
 30
0.0
  0
VERTEX
  5
609
  8
DIM49
 10
118.734023688601
 20
-271.8292948898209
 30
0.0
  0
VERTEX
  5
60A
  8
DIM49
 10
117.6678631250555
 20
-268.3146344738578
 30
0.0
  0
VERTEX
  5
60B
  8
DIM49
 10
115.9365123231618
 20
-265.0755048762094
 30
0.0
  0
VERTEX
  5
60C
  8
DIM49
 10
113.6065061210214
 20
-262.2363840265554
 30
0.0
  0
SEQEND
  5
71B
  8
DIM49
  0
LINE
  5
453
  8
DIM49
 10
108.01502252
 20
-267.82786748
 30
0.0
 11
115.02071958
 21
-260.82217043
 31
0.0
  0
LINE
  5
454
  8
DIM49
 10
100.35847025
 20
-275.48441976
 30
0.0
 11
121.09402211
 21
-275.48441976
 31
0.0
  0
ENDBLK
  8
0
  0
BLOCK
  8
0
  2
_D2
 70
     0
 10
128.15800338
 20
-240.73803958
 30
0.0
  0
TEXT
  5
457
  8
TXT_DIM49
 10
128.15800338
 20
-240.73803958
 30
0.0
 40
2.5
  1
288
  7
ARIAL
  0
LINE
  5
458
  8
DIM49
 10
-11.96894675
 20
-241.23803958
 30
0.0
 11
-13.96894675
 21
-243.23803958
 31
0.0
  0
LINE
  5
459
  8
DIM49
 10
274.29445973
 20
-242.98803958
 30
0.0
 11
275.79445973
 21
-241.48803958
 31
0.0
  0
LINE
  5
45A
  8
DIM49
 10
-12.96894675
 20
-242.23803958
 30
0.0
 11
275.04445973
 21
-242.23803958
 31
0.0
  0
LINE
  5
45B
  8
DIM49
 10
-12.96894675
 20
-244.23803958
 30
0.0
 11
-12.96894675
 21
-240.23803958
 31
0.0
  0
LINE
  5
45C
  8
DIM49
 10
275.04445973
 20
-244.23803958
 30
0.0
 11
275.04445973
 21
-240.23803958
 31
0.0
  0
ENDBLK
  8
0
  0
BLOCK
  8
0
  2
_D3
 70
     0
 10
136.24229922
 20
-272.40440622
 30
0.0
  0
TEXT
  5
45F
  8
TXT_DIM49
 10
136.24229922
 20
-272.40440622
 30
0.0
 40
2.5
  1
10
 50
90.00020741
  7
ARIAL
  0
LINE
  5
460
  8
DIM49
 10
136.74229922
 20
-274.48441976
 30
0.0
 11
138.74229922
 21
-276.48441976
 31
0.0
  0
LINE
  5
461
  8
DIM49
 10
138.49229922
 20
-266.23472178
 30
0.0
 11
136.99229922
 21
-264.73472178
 31
0.0
  0
LINE
  5
462
  8
DIM49
 10
137.74229922
 20
-275.48441976
 30
0.0
 11
137.74229922
 21
-265.48472178
 31
0.0
  0
LINE
  5
463
  8
DIM49
 10
135.74229922
 20
-275.48441976
 30
0.0
 11
139.74229922
 21
-275.48441976
 31
0.0
  0
LINE
  5
464
  8
DIM49
 10
139.74229922
 20
-265.48472178
 30
0.0
 11
135.74229922
 21
-265.48472178
 31
0.0
  0
ENDBLK
  8
0
  0
BLOCK
  8
0
  2
_D4
 70
     0
 10
136.24229922
 20
-262.44081655
 30
0.0
  0
TEXT
  5
467
  8
TXT_DIM49
 10
136.24229922
 20
-262.44081655
 30
0.0
 40
2.5
  1
8
 50
90.00020741
  7
ARIAL
  0
LINE
  5
468
  8
DIM49
 10
136.74229922
 20
-264.48472178
 30
0.0
 11
138.74229922
 21
-266.48472178
 31
0.0
  0
LINE
  5
469
  8
DIM49
 10
138.49229922
 20
-258.22707587
 30
0.0
 11
136.99229922
 21
-256.72707587
 31
0.0
  0
LINE
  5
46A
  8
DIM49
 10
137.74229922
 20
-265.48472178
 30
0.0
 11
137.74229922
 21
-257.47707587
 31
0.0
  0
LINE
  5
46B
  8
DIM49
 10
139.74229922
 20
-265.48472178
 30
0.0
 11
135.74229922
 21
-265.48472178
 31
0.0
  0
LINE
  5
46C
  8
DIM49
 10
135.74229922
 20
-257.47707587
 30
0.0
 11
139.74229922
 21
-257.47707587
 31
0.0
  0
ENDBLK
  8
0
  0
BLOCK
  8
0
  2
_D5
 70
     0
 10
39.15815439
 20
-259.79200481
 30
0.0
  0
TEXT
  5
46F
  8
TXT_DIM49
 10
39.15815439
 20
-259.79200481
 30
0.0
 40
2.5
  1
110
  7
ARIAL
  0
LINE
  5
470
  8
DIM49
 10
-11.96894675
 20
-260.29200481
 30
0.0
 11
-13.96894675
 21
-262.29200481
 31
0.0
  0
LINE
  5
471
  8
DIM49
 10
96.29476175
 20
-262.04200481
 30
0.0
 11
97.79476175
 21
-260.54200481
 31
0.0
  0
LINE
  5
472
  8
DIM49
 10
-12.96894675
 20
-261.29200481
 30
0.0
 11
97.04476175
 21
-261.29200481
 31
0.0
  0
LINE
  5
473
  8
DIM49
 10
-12.96894675
 20
-263.29200481
 30
0.0
 11
-12.96894675
 21
-259.29200481
 31
0.0
  0
LINE
  5
474
  8
DIM49
 10
97.04476175
 20
-263.29200481
 30
0.0
 11
97.04476175
 21
-259.29200481
 31
0.0
  0
ENDBLK
  8
0
  0
BLOCK
  8
0
  2
_D6
 70
     0
 10
188.16470661
 20
-248.7234686
 30
0.0
  0
TEXT
  5
477
  8
TXT_DIM49
 10
188.16470661
 20
-248.7234686
 30
0.0
 40
2.5
  1
168
  7
ARIAL
  0
LINE
  5
478
  8
DIM49
 10
274.04445973
 20
-251.2234686
 30
0.0
 11
276.04445973
 21
-249.2234686
 31
0.0
  0
LINE
  5
479
  8
DIM49
 10
107.79445973
 20
-249.4734686
 30
0.0
 11
106.29445973
 21
-250.9734686
 31
0.0
  0
LINE
  5
47A
  8
DIM49
 10
275.04445973
 20
-250.2234686
 30
0.0
 11
107.04445973
 21
-250.2234686
 31
0.0
  0
LINE
  5
47B
  8
DIM49
 10
275.04445973
 20
-252.2234686
 30
0.0
 11
275.04445973
 21
-248.2234686
 31
0.0
  0
LINE
  5
47C
  8
DIM49
 10
107.04445973
 20
-252.2234686
 30
0.0
 11
107.04445973
 21
-248.2234686
 31
0.0
  0
ENDBLK
  8
0
  0
BLOCK
  8
0
  2
_D7
 70
     0
 10
279.49000387
 20
-268.40440622
 30
0.0
  0
TEXT
  5
47F
  8
TXT_DIM49
 10
279.49000387
 20
-268.40440622
 30
0.0
 40
2.5
  1
18
 50
90.00020741
  7
ARIAL
  0
LINE
  5
480
  8
DIM49
 10
281.99000387
 20
-258.48472178
 30
0.0
 11
279.99000387
 21
-256.48472178
 31
0.0
  0
LINE
  5
481
  8
DIM49
 10
280.24000387
 20
-274.73441976
 30
0.0
 11
281.74000387
 21
-276.23441976
 31
0.0
  0
LINE
  5
482
  8
DIM49
 10
280.99000387
 20
-257.48472178
 30
0.0
 11
280.99000387
 21
-275.48441976
 31
0.0
  0
LINE
  5
483
  8
DIM49
 10
278.99000387
 20
-257.48472178
 30
0.0
 11
282.99000387
 21
-257.48472178
 31
0.0
  0
LINE
  5
484
  8
DIM49
 10
278.99000387
 20
-275.48441976
 30
0.0
 11
282.99000387
 21
-275.48441976
 31
0.0
  0
ENDBLK
  8
0
  0
BLOCK
  8
0
  2
_D8
 70
     0
 10
324.88928929
 20
-245.98089883
 30
0.0
  0
TEXT
  5
48D
  8
TXT_DIM49
 10
324.88928929
 20
-245.98089883
 30
0.0
 40
2.5
  1
60
  7
ARIAL
  0
LINE
  5
48E
  8
DIM49
 10
297.80912474
 20
-246.48089883
 30
0.0
 11
295.80912474
 21
-248.48089883
 31
0.0
  0
LINE
  5
48F
  8
DIM49
 10
356.05912474
 20
-248.23089883
 30
0.0
 11
357.55912474
 21
-246.73089883
 31
0.0
  0
LINE
  5
490
  8
DIM49
 10
296.80912474
 20
-247.48089883
 30
0.0
 11
356.80912474
 21
-247.48089883
 31
0.0
  0
LINE
  5
491
  8
DIM49
 10
296.80912474
 20
-249.48089883
 30
0.0
 11
296.80912474
 21
-245.48089883
 31
0.0
  0
LINE
  5
492
  8
DIM49
 10
356.80912474
 20
-249.48089883
 30
0.0
 11
356.80912474
 21
-245.48089883
 31
0.0
  0
ENDBLK
  8
0
  0
BLOCK
  8
0
  2
_D9
 70
     0
 10
289.31492144
 20
-180.29644393
 30
0.0
  0
TEXT
  5
4AB
  8
TXT_DIM49
 10
289.31492144
 20
-180.29644393
 30
0.0
 40
2.5
  1
60
 50
90.00020741
  7
ARIAL
  0
LINE
  5
4AC
  8
DIM49
 10
291.81492144
 20
-149.37660848
 30
0.0
 11
289.81492144
 21
-147.37660848
 31
0.0
  0
LINE
  5
4AD
  8
DIM49
 10
290.06492144
 20
-207.62660848
 30
0.0
 11
291.56492144
 21
-209.12660848
 31
0.0
  0
LINE
  5
4AE
  8
DIM49
 10
290.81492144
 20
-148.37660848
 30
0.0
 11
290.81492144
 21
-208.37660848
 31
0.0
  0
LINE
  5
4AF
  8
DIM49
 10
288.81492144
 20
-148.37660848
 30
0.0
 11
292.81492144
 21
-148.37660848
 31
0.0
  0
LINE
  5
4B0
  8
DIM49
 10
288.81492144
 20
-208.37660848
 30
0.0
 11
292.81492144
 21
-208.37660848
 31
0.0
  0
ENDBLK
  8
0
  0
BLOCK
  8
0
  2
_D10
 70
     0
 10
262.05794328
 20
-182.1389805
 30
0.0
  0
TEXT
  5
4B3
  8
TXT_DIM49
 10
262.05794328
 20
-182.1389805
 30
0.0
 40
2.5
  1
Ø
 50
90.00020741
  7
ARIAL
  0
TEXT
  5
4B4
  8
TXT_DIM49
 10
262.05794328
 20
-178.4539076
 30
0.0
 40
2.5
  1
13
 50
90.00020741
  7
ARIAL
  0
LINE
  5
4B5
  8
DIM49
 10
264.55794328
 20
-172.87660848
 30
0.0
 11
262.55794328
 21
-170.87660848
 31
0.0
  0
LINE
  5
4B6
  8
DIM49
 10
262.80794328
 20
-184.12660848
 30
0.0
 11
264.30794328
 21
-185.62660848
 31
0.0
  0
LINE
  5
4B7
  8
DIM49
 10
263.55794328
 20
-171.87660848
 30
0.0
 11
263.55794328
 21
-184.87660848
 31
0.0
  0
LINE
  5
4B8
  8
DIM49
 10
261.55794328
 20
-171.87660848
 30
0.0
 11
265.55794328
 21
-171.87660848
 31
0.0
  0
LINE
  5
4B9
  8
DIM49
 10
261.55794328
 20
-184.87660848
 30
0.0
 11
265.55794328
 21
-184.87660848
 31
0.0
  0
ENDBLK
  8
0
  0
BLOCK
  8
0
  2
_D11
 70
     0
 10
156.28208771
 20
-165.32545603
 30
0.0
  0
TEXT
  5
4BC
  8
TXT_DIM49
 10
156.28208771
 20
-165.32545603
 30
0.0
 40
2.5
  1
Ø
  7
ARIAL
  0
TEXT
  5
4BD
  8
TXT_DIM49
 10
159.96716061
 20
-165.32545603
 30
0.0
 40
2.5
  1
13
  7
ARIAL
  0
LINE
  5
4BE
  8
DIM49
 10
154.54445973
 20
-165.82545603
 30
0.0
 11
152.54445973
 21
-167.82545603
 31
0.0
  0
LINE
  5
4BF
  8
DIM49
 10
165.79445973
 20
-167.57545603
 30
0.0
 11
167.29445973
 21
-166.07545603
 31
0.0
  0
LINE
  5
4C0
  8
DIM49
 10
153.54445973
 20
-166.82545603
 30
0.0
 11
166.54445973
 21
-166.82545603
 31
0.0
  0
LINE
  5
4C1
  8
DIM49
 10
153.54445973
 20
-168.82545603
 30
0.0
 11
153.54445973
 21
-164.82545603
 31
0.0
  0
LINE
  5
4C2
  8
DIM49
 10
166.54445973
 20
-168.82545603
 30
0.0
 11
166.54445973
 21
-164.82545603
 31
0.0
  0
ENDBLK
  8
0
  0
BLOCK
  8
0
  2
_D12
 70
     0
 10
13.26868123
 20
-165.67749702
 30
0.0
  0
TEXT
  5
4C5
  8
TXT_DIM49
 10
13.26868123
 20
-165.67749702
 30
0.0
 40
2.5
  1
Ø
  7
ARIAL
  0
TEXT
  5
4C6
  8
TXT_DIM49
 10
16.95375413
 20
-165.67749702
 30
0.0
 40
2.5
  1
13
  7
ARIAL
  0
LINE
  5
4C7
  8
DIM49
 10
11.53105325
 20
-166.17749702
 30
0.0
 11
9.53105325
 21
-168.17749702
 31
0.0
  0
LINE
  5
4C8
  8
DIM49
 10
22.78105325
 20
-167.92749702
 30
0.0
 11
24.28105325
 21
-166.42749702
 31
0.0
  0
LINE
  5
4C9
  8
DIM49
 10
10.53105325
 20
-167.17749702
 30
0.0
 11
23.53105325
 21
-167.17749702
 31
0.0
  0
LINE
  5
4CA
  8
DIM49
 10
10.53105325
 20
-169.17749702
 30
0.0
 11
10.53105325
 21
-165.17749702
 31
0.0
  0
LINE
  5
4CB
  8
DIM49
 10
23.53105325
 20
-169.17749702
 30
0.0
 11
23.53105325
 21
-165.17749702
 31
0.0
  0
ENDBLK
  8
0
  0
BLOCK
  8
0
  2
_D13
 70
     0
 10
-4.27140098
 20
-170.61614784
 30
0.0
  0
TEXT
  5
4CE
  8
TXT_DIM49
 10
-4.27140098
 20
-170.61614784
 30
0.0
 40
2.5
  1
Ø
  7
ARIAL
  0
TEXT
  5
4CF
  8
TXT_DIM49
 10
-0.58632808
 20
-170.61614784
 30
0.0
 40
2.5
  1
8
  7
ARIAL
  0
LINE
  5
4D0
  8
DIM49
 10
1.53105325
 20
-173.11614784
 30
0.0
 11
3.53105325
 21
-171.11614784
 31
0.0
  0
LINE
  5
4D1
  8
DIM49
 10
-4.71894675
 20
-171.36614784
 30
0.0
 11
-6.21894675
 21
-172.86614784
 31
0.0
  0
LINE
  5
4D2
  8
DIM49
 10
2.53105325
 20
-172.11614784
 30
0.0
 11
-5.46894675
 21
-172.11614784
 31
0.0
  0
LINE
  5
4D3
  8
DIM49
 10
2.53105325
 20
-170.11614784
 30
0.0
 11
2.53105325
 21
-174.11614784
 31
0.0
  0
LINE
  5
4D4
  8
DIM49
 10
-5.46894675
 20
-170.11614784
 30
0.0
 11
-5.46894675
 21
-174.11614784
 31
0.0
  0
ENDBLK
  8
0
  0
BLOCK
  8
0
  2
_D14
 70
     0
 10
280.42077693
 20
-165.29644393
 30
0.0
  0
TEXT
  5
4D7
  8
TXT_DIM49
 10
280.42077693
 20
-165.29644393
 30
0.0
 40
2.5
  1
30
 50
90.00020741
  7
ARIAL
  0
LINE
  5
4D8
  8
DIM49
 10
282.92077693
 20
-149.37660848
 30
0.0
 11
280.92077693
 21
-147.37660848
 31
0.0
  0
LINE
  5
4D9
  8
DIM49
 10
281.17077693
 20
-177.62660848
 30
0.0
 11
282.67077693
 21
-179.12660848
 31
0.0
  0
LINE
  5
4DA
  8
DIM49
 10
281.92077693
 20
-148.37660848
 30
0.0
 11
281.92077693
 21
-178.37660848
 31
0.0
  0
LINE
  5
4DB
  8
DIM49
 10
279.92077693
 20
-148.37660848
 30
0.0
 11
283.92077693
 21
-148.37660848
 31
0.0
  0
LINE
  5
4DC
  8
DIM49
 10
279.92077693
 20
-178.37660848
 30
0.0
 11
283.92077693
 21
-178.37660848
 31
0.0
  0
ENDBLK
  8
0
  0
BLOCK
  8
0
  2
_D15
 70
     0
 10
280.42077693
 20
-195.29644393
 30
0.0
  0
TEXT
  5
4DF
  8
TXT_DIM49
 10
280.42077693
 20
-195.29644393
 30
0.0
 40
2.5
  1
30
 50
90.00020741
  7
ARIAL
  0
LINE
  5
4E0
  8
DIM49
 10
282.92077693
 20
-179.37660848
 30
0.0
 11
280.92077693
 21
-177.37660848
 31
0.0
  0
LINE
  5
4E1
  8
DIM49
 10
281.17077693
 20
-207.62660848
 30
0.0
 11
282.67077693
 21
-209.12660848
 31
0.0
  0
LINE
  5
4E2
  8
DIM49
 10
281.92077693
 20
-178.37660848
 30
0.0
 11
281.92077693
 21
-208.37660848
 31
0.0
  0
LINE
  5
4E3
  8
DIM49
 10
279.92077693
 20
-178.37660848
 30
0.0
 11
283.92077693
 21
-178.37660848
 31
0.0
  0
LINE
  5
4E4
  8
DIM49
 10
279.92077693
 20
-208.37660848
 30
0.0
 11
283.92077693
 21
-208.37660848
 31
0.0
  0
ENDBLK
  8
0
  0
BLOCK
  8
0
  2
_D16
 70
     0
 10
263.12462428
 20
-213.17556092
 30
0.0
  0
TEXT
  5
4E7
  8
TXT_DIM49
 10
263.12462428
 20
-213.17556092
 30
0.0
 40
2.5
  1
20
  7
ARIAL
  0
LINE
  5
4E8
  8
DIM49
 10
274.04445973
 20
-215.67556092
 30
0.0
 11
276.04445973
 21
-213.67556092
 31
0.0
  0
LINE
  5
4E9
  8
DIM49
 10
255.79445973
 20
-213.92556092
 30
0.0
 11
254.29445973
 21
-215.42556092
 31
0.0
  0
LINE
  5
4EA
  8
DIM49
 10
275.04445973
 20
-214.67556092
 30
0.0
 11
255.04445973
 21
-214.67556092
 31
0.0
  0
LINE
  5
4EB
  8
DIM49
 10
275.04445973
 20
-212.67556092
 30
0.0
 11
275.04445973
 21
-216.67556092
 31
0.0
  0
LINE
  5
4EC
  8
DIM49
 10
255.04445973
 20
-212.67556092
 30
0.0
 11
255.04445973
 21
-216.67556092
 31
0.0
  0
ENDBLK
  8
0
  0
BLOCK
  8
0
  2
_D17
 70
     0
 10
233.12462428
 20
-213.17556092
 30
0.0
  0
TEXT
  5
4EF
  8
TXT_DIM49
 10
233.12462428
 20
-213.17556092
 30
0.0
 40
2.5
  1
40
  7
ARIAL
  0
LINE
  5
4F0
  8
DIM49
 10
254.04445973
 20
-215.67556092
 30
0.0
 11
256.04445973
 21
-213.67556092
 31
0.0
  0
LINE
  5
4F1
  8
DIM49
 10
215.79445973
 20
-213.92556092
 30
0.0
 11
214.29445973
 21
-215.42556092
 31
0.0
  0
LINE
  5
4F2
  8
DIM49
 10
255.04445973
 20
-214.67556092
 30
0.0
 11
215.04445973
 21
-214.67556092
 31
0.0
  0
LINE
  5
4F3
  8
DIM49
 10
255.04445973
 20
-212.67556092
 30
0.0
 11
255.04445973
 21
-216.67556092
 31
0.0
  0
LINE
  5
4F4
  8
DIM49
 10
215.04445973
 20
-212.67556092
 30
0.0
 11
215.04445973
 21
-216.67556092
 31
0.0
  0
ENDBLK
  8
0
  0
BLOCK
  8
0
  2
_D18
 70
     0
 10
185.62462428
 20
-213.17556092
 30
0.0
  0
TEXT
  5
4F7
  8
TXT_DIM49
 10
185.62462428
 20
-213.17556092
 30
0.0
 40
2.5
  1
55
  7
ARIAL
  0
LINE
  5
4F8
  8
DIM49
 10
214.04445973
 20
-215.67556092
 30
0.0
 11
216.04445973
 21
-213.67556092
 31
0.0
  0
LINE
  5
4F9
  8
DIM49
 10
160.79445973
 20
-213.92556092
 30
0.0
 11
159.29445973
 21
-215.42556092
 31
0.0
  0
LINE
  5
4FA
  8
DIM49
 10
215.04445973
 20
-214.67556092
 30
0.0
 11
160.04445973
 21
-214.67556092
 31
0.0
  0
LINE
  5
4FB
  8
DIM49
 10
215.04445973
 20
-212.67556092
 30
0.0
 11
215.04445973
 21
-216.67556092
 31
0.0
  0
LINE
  5
4FC
  8
DIM49
 10
160.04445973
 20
-212.67556092
 30
0.0
 11
160.04445973
 21
-216.67556092
 31
0.0
  0
ENDBLK
  8
0
  0
BLOCK
  8
0
  2
_D19
 70
     0
 10
-22.60466111
 20
-157.48589932
 30
0.0
  0
TEXT
  5
4FF
  8
TXT_DIM49
 10
-22.60466111
 20
-157.48589932
 30
0.0
 40
2.5
  1
11,5
 50
90.00020741
  7
ARIAL
  0
LINE
  5
500
  8
DIM49
 10
-20.10466111
 20
-149.37660848
 30
0.0
 11
-22.10466111
 21
-147.37660848
 31
0.0
  0
LINE
  5
501
  8
DIM49
 10
-21.85466111
 20
-159.12660848
 30
0.0
 11
-20.35466111
 21
-160.62660848
 31
0.0
  0
LINE
  5
502
  8
DIM49
 10
-21.10466111
 20
-148.37660848
 30
0.0
 11
-21.10466111
 21
-159.87660848
 31
0.0
  0
LINE
  5
503
  8
DIM49
 10
-19.10466111
 20
-148.37660848
 30
0.0
 11
-23.10466111
 21
-148.37660848
 31
0.0
  0
LINE
  5
504
  8
DIM49
 10
-19.10466111
 20
-159.87660848
 30
0.0
 11
-23.10466111
 21
-159.87660848
 31
0.0
  0
ENDBLK
  8
0
  0
BLOCK
  8
0
  2
_D20
 70
     0
 10
-22.60466111
 20
-172.48589932
 30
0.0
  0
TEXT
  5
507
  8
TXT_DIM49
 10
-22.60466111
 20
-172.48589932
 30
0.0
 40
2.5
  1
18,5
 50
90.00020741
  7
ARIAL
  0
LINE
  5
508
  8
DIM49
 10
-20.10466111
 20
-160.87660848
 30
0.0
 11
-22.10466111
 21
-158.87660848
 31
0.0
  0
LINE
  5
509
  8
DIM49
 10
-21.85466111
 20
-177.62660848
 30
0.0
 11
-20.35466111
 21
-179.12660848
 31
0.0
  0
LINE
  5
50A
  8
DIM49
 10
-21.10466111
 20
-159.87660848
 30
0.0
 11
-21.10466111
 21
-178.37660848
 31
0.0
  0
LINE
  5
50B
  8
DIM49
 10
-19.10466111
 20
-159.87660848
 30
0.0
 11
-23.10466111
 21
-159.87660848
 31
0.0
  0
LINE
  5
50C
  8
DIM49
 10
-19.10466111
 20
-178.37660848
 30
0.0
 11
-23.10466111
 21
-178.37660848
 31
0.0
  0
ENDBLK
  8
0
  0
BLOCK
  8
0
  2
_D21
 70
     0
 10
-22.60466111
 20
-190.98589932
 30
0.0
  0
TEXT
  5
50F
  8
TXT_DIM49
 10
-22.60466111
 20
-190.98589932
 30
0.0
 40
2.5
  1
18,5
 50
90.00020741
  7
ARIAL
  0
LINE
  5
510
  8
DIM49
 10
-20.10466111
 20
-179.37660848
 30
0.0
 11
-22.10466111
 21
-177.37660848
 31
0.0
  0
LINE
  5
511
  8
DIM49
 10
-21.85466111
 20
-196.12660848
 30
0.0
 11
-20.35466111
 21
-197.62660848
 31
0.0
  0
LINE
  5
512
  8
DIM49
 10
-21.10466111
 20
-178.37660848
 30
0.0
 11
-21.10466111
 21
-196.87660848
 31
0.0
  0
LINE
  5
513
  8
DIM49
 10
-19.10466111
 20
-178.37660848
 30
0.0
 11
-23.10466111
 21
-178.37660848
 31
0.0
  0
LINE
  5
514
  8
DIM49
 10
-19.10466111
 20
-196.87660848
 30
0.0
 11
-23.10466111
 21
-196.87660848
 31
0.0
  0
ENDBLK
  8
0
  0
BLOCK
  8
0
  2
_D22
 70
     0
 10
-22.60466111
 20
-205.98589932
 30
0.0
  0
TEXT
  5
517
  8
TXT_DIM49
 10
-22.60466111
 20
-205.98589932
 30
0.0
 40
2.5
  1
11,5
 50
90.00020741
  7
ARIAL
  0
LINE
  5
518
  8
DIM49
 10
-20.10466111
 20
-197.87660848
 30
0.0
 11
-22.10466111
 21
-195.87660848
 31
0.0
  0
LINE
  5
519
  8
DIM49
 10
-21.85466111
 20
-207.62660848
 30
0.0
 11
-20.35466111
 21
-209.12660848
 31
0.0
  0
LINE
  5
51A
  8
DIM49
 10
-21.10466111
 20
-196.87660848
 30
0.0
 11
-21.10466111
 21
-208.37660848
 31
0.0
  0
LINE
  5
51B
  8
DIM49
 10
-19.10466111
 20
-196.87660848
 30
0.0
 11
-23.10466111
 21
-196.87660848
 31
0.0
  0
LINE
  5
51C
  8
DIM49
 10
-19.10466111
 20
-208.37660848
 30
0.0
 11
-23.10466111
 21
-208.37660848
 31
0.0
  0
ENDBLK
  8
0
  0
BLOCK
  8
0
  2
_D23
 70
     0
 10
-10.57823759
 20
-216.87660848
 30
0.0
  0
TEXT
  5
51F
  8
TXT_DIM49
 10
-10.57823759
 20
-216.87660848
 30
0.0
 40
2.5
  1
11,5
  7
ARIAL
  0
LINE
  5
520
  8
DIM49
 10
-11.96894675
 20
-217.37660848
 30
0.0
 11
-13.96894675
 21
-219.37660848
 31
0.0
  0
LINE
  5
521
  8
DIM49
 10
-2.21894675
 20
-219.12660848
 30
0.0
 11
-0.71894675
 21
-217.62660848
 31
0.0
  0
LINE
  5
522
  8
DIM49
 10
-12.96894675
 20
-218.37660848
 30
0.0
 11
-1.46894675
 21
-218.37660848
 31
0.0
  0
LINE
  5
523
  8
DIM49
 10
-12.96894675
 20
-216.37660848
 30
0.0
 11
-12.96894675
 21
-220.37660848
 31
0.0
  0
LINE
  5
524
  8
DIM49
 10
-1.46894675
 20
-216.37660848
 30
0.0
 11
-1.46894675
 21
-220.37660848
 31
0.0
  0
ENDBLK
  8
0
  0
BLOCK
  8
0
  2
_D24
 70
     0
 10
4.42176241
 20
-216.87660848
 30
0.0
  0
TEXT
  5
527
  8
TXT_DIM49
 10
4.42176241
 20
-216.87660848
 30
0.0
 40
2.5
  1
18,5
  7
ARIAL
  0
LINE
  5
528
  8
DIM49
 10
-0.46894675
 20
-217.37660848
 30
0.0
 11
-2.46894675
 21
-219.37660848
 31
0.0
  0
LINE
  5
529
  8
DIM49
 10
16.28105325
 20
-219.12660848
 30
0.0
 11
17.78105325
 21
-217.62660848
 31
0.0
  0
LINE
  5
52A
  8
DIM49
 10
-1.46894675
 20
-218.37660848
 30
0.0
 11
17.03105325
 21
-218.37660848
 31
0.0
  0
LINE
  5
52B
  8
DIM49
 10
-1.46894675
 20
-216.37660848
 30
0.0
 11
-1.46894675
 21
-220.37660848
 31
0.0
  0
LINE
  5
52C
  8
DIM49
 10
17.03105325
 20
-216.37660848
 30
0.0
 11
17.03105325
 21
-220.37660848
 31
0.0
  0
ENDBLK
  8
0
  0
BLOCK
  8
0
  2
_D25
 70
     0
 10
22.92176241
 20
-216.87660848
 30
0.0
  0
TEXT
  5
52F
  8
TXT_DIM49
 10
22.92176241
 20
-216.87660848
 30
0.0
 40
2.5
  1
18,5
  7
ARIAL
  0
LINE
  5
530
  8
DIM49
 10
18.03105325
 20
-217.37660848
 30
0.0
 11
16.03105325
 21
-219.37660848
 31
0.0
  0
LINE
  5
531
  8
DIM49
 10
34.78105325
 20
-219.12660848
 30
0.0
 11
36.28105325
 21
-217.62660848
 31
0.0
  0
LINE
  5
532
  8
DIM49
 10
17.03105325
 20
-218.37660848
 30
0.0
 11
35.53105325
 21
-218.37660848
 31
0.0
  0
LINE
  5
533
  8
DIM49
 10
17.03105325
 20
-216.37660848
 30
0.0
 11
17.03105325
 21
-220.37660848
 31
0.0
  0
LINE
  5
534
  8
DIM49
 10
35.53105325
 20
-216.37660848
 30
0.0
 11
35.53105325
 21
-220.37660848
 31
0.0
  0
ENDBLK
  8
0
  0
BLOCK
  8
0
  2
_ZBL0002_00001
 70
     0
 10
0.0
 20
0.0
 30
0.0
  0
INSERT
  5
1C8
  8
0
  2
DINA3_00002
 10
-43.77276819
 20
-355.83639047
 30
0.0
  0
ENDBLK
  8
0
  0
BLOCK
  8
0
  2
DINA3_00002
 70
     0
 10
-43.77276819
 20
-355.83639047
 30
0.0
  0
POLYLINE
  5
1CB
  8
0
 66
     1
 10
0.0
 20
0.0
 30
0.0
 70
     1
  0
VERTEX
  5
1CC
  8
0
 10
-43.77276819
 20
-355.83639047
 30
0.0
  0
VERTEX
  5
1CD
  8
0
 10
376.22723181
 20
-355.83639047
 30
0.0
  0
VERTEX
  5
1CE
  8
0
 10
376.22723181
 20
-58.83639047
 30
0.0
  0
VERTEX
  5
1CF
  8
0
 10
-43.77276819
 20
-58.83639047
 30
0.0
  0
SEQEND
  5
1D0
  8
0
  0
POLYLINE
  5
1D1
  8
0
 66
     1
 10
0.0
 20
0.0
 30
0.0
 70
     1
  0
VERTEX
  5
1D2
  8
0
 10
-38.77276819
 20
-350.83639047
 30
0.0
  0
VERTEX
  5
1D3
  8
0
 10
371.22723181
 20
-350.83639047
 30
0.0
  0
VERTEX
  5
1D4
  8
0
 10
371.22723181
 20
-63.83639047
 30
0.0
  0
VERTEX
  5
1D5
  8
0
 10
-38.77276819
 20
-63.83639047
 30
0.0
  0
SEQEND
  5
1D6
  8
0
  0
LINE
  5
1D7
  8
0
 10
186.22723181
 20
-350.83639047
 30
0.0
 11
186.22723181
 21
-355.83639047
 31
0.0
  0
LINE
  5
1D8
  8
0
 10
186.22723181
 20
-63.83639047
 30
0.0
 11
186.22723181
 21
-58.83639047
 31
0.0
  0
LINE
  5
1D9
  8
0
 10
-23.77276819
 20
-350.83639047
 30
0.0
 11
-23.77276819
 21
-355.83639047
 31
0.0
  0
LINE
  5
1DA
  8
0
 10
-23.77276819
 20
-63.83639047
 30
0.0
 11
-23.77276819
 21
-58.83639047
 31
0.0
  0
TEXT
  5
1DB
  8
TXT_ALL
 62
     4
 10
375.22723181
 20
-354.83639047
 30
0.0
 40
2.5
  1

 50
90.00020741
  0
POLYLINE
  5
1DC
  8
0
 66
     1
 10
0.0
 20
0.0
 30
0.0
  0
VERTEX
  5
1DD
  8
0
 10
371.22723181
 20
-73.83639047
 30
0.0
  0
VERTEX
  5
1DE
  8
0
 10
302.23393181
 20
-73.83639047
 30
0.0
  0
VERTEX
  5
1DF
  8
0
 10
302.23393181
 20
-63.83639047
 30
0.0
  0
SEQEND
  5
1E0
  8
0
  0
LINE
  5
1E1
  8
0
 10
304.13723181
 20
-331.33639047
 30
0.0
 11
164.24723181
 21
-331.33639047
 31
0.0
  0
LINE
  5
1E2
  8
0
 10
164.24723181
 20
-341.08639047
 30
0.0
 11
304.13723181
 21
-341.08639047
 31
0.0
  0
POLYLINE
  5
1E3
  8
0
 66
     1
 10
0.0
 20
0.0
 30
0.0
  0
VERTEX
  5
1E4
  8
0
 10
164.24723181
 20
-331.33639047
 30
0.0
  0
VERTEX
  5
1E5
  8
0
 10
164.24723181
 20
-341.08639047
 30
0.0
  0
VERTEX
  5
1E6
  8
0
 10
164.24723181
 20
-350.83639047
 30
0.0
  0
SEQEND
  5
1E7
  8
0
  0
POLYLINE
  5
1E8
  8
0
 66
     1
 10
0.0
 20
0.0
 30
0.0
  0
VERTEX
  5
1E9
  8
0
 10
234.19223181
 20
-331.33639047
 30
0.0
  0
VERTEX
  5
1EA
  8
0
 10
234.19223181
 20
-341.08639047
 30
0.0
  0
VERTEX
  5
1EB
  8
0
 10
234.19223181
 20
-350.83639047
 30
0.0
  0
SEQEND
  5
1EC
  8
0
  0
INSERT
  5
1ED
  8
0
  2
FLEX_00003
 10
166.24723181
 20
-336.21139047
 30
0.0
  0
INSERT
  5
1EE
  8
0
  2
FLEX_00005
 10
166.24723181
 20
-345.96139047
 30
0.0
  0
INSERT
  5
1EF
  8
0
  2
FLEX_00007
 10
236.19223181
 20
-345.96139047
 30
0.0
  0
INSERT
  5
1F0
  8
0
  2
FLEX_00009
 10
236.19223181
 20
-336.21139047
 30
0.0
  0
INSERT
  5
1F1
  8
0
  2
SCHRIFE_00011
 10
-35.33080793
 20
-68.83639047
 30
0.0
  0
INSERT
  5
1F2
  8
0
  2
_B_M_P___00015
 10
353.06965789
 20
-355.72639047
 30
0.0
  0
ENDBLK
  8
0
  0
BLOCK
  8
0
  2
FLEX_00003
 70
     0
 10
166.24723181
 20
-336.21139047
 30
0.0
  0
INSERT
  5
1F5
  8
0
  2
TFIELD_00004
 10
166.24723181
 20
-336.21139047
 30
0.0
  0
ENDBLK
  8
0
  0
BLOCK
  8
0
  2
TFIELD_00004
 70
     0
 10
166.24723181
 20
-336.21139047
 30
0.0
  0
TEXT
  5
1F8
  8
TXT_ALL
 10
166.24723181
 20
-337.51139042
 30
0.0
 40
2.5999999
  1
E-mail: verkoop@jonkers-bouwmetaal.nl
  7
ARIAL
  0
ENDBLK
  8
0
  0
BLOCK
  8
0
  2
FLEX_00005
 70
     0
 10
166.24723181
 20
-345.96139047
 30
0.0
  0
INSERT
  5
1FB
  8
0
  2
TFIELD_00006
 10
166.24723181
 20
-345.96139047
 30
0.0
  0
ENDBLK
  8
0
  0
BLOCK
  8
0
  2
TFIELD_00006
 70
     0
 10
166.24723181
 20
-345.96139047
 30
0.0
  0
TEXT
  5
1FE
  8
TXT_ALL
 10
166.24723181
 20
-347.26139042
 30
0.0
 40
2.5999999
  1
Telefoon: 0527-685156
  7
ARIAL
  0
ENDBLK
  8
0
  0
BLOCK
  8
0
  2
FLEX_00007
 70
     0
 10
236.19223181
 20
-345.96139047
 30
0.0
  0
INSERT
  5
201
  8
0
  2
TFIELD_00008
 10
236.19223181
 20
-345.96139047
 30
0.0
  0
ENDBLK
  8
0
  0
BLOCK
  8
0
  2
TFIELD_00008
 70
     0
 10
236.19223181
 20
-345.96139047
 30
0.0
  0
TEXT
  5
204
  8
TXT_ALL
 10
236.19223181
 20
-347.26139042
 30
0.0
 40
2.5999999
  1
Website: www.jonkers-bouwmetaal.nl
  7
ARIAL
  0
ENDBLK
  8
0
  0
BLOCK
  8
0
  2
FLEX_00009
 70
     0
 10
236.19223181
 20
-336.21139047
 30
0.0
  0
INSERT
  5
207
  8
0
  2
TFIELD_00010
 10
236.19223181
 20
-336.21139047
 30
0.0
  0
ENDBLK
  8
0
  0
BLOCK
  8
0
  2
TFIELD_00010
 70
     0
 10
236.19223181
 20
-336.21139047
 30
0.0
  0
TEXT
  5
20A
  8
TXT_ALL
 10
236.19223181
 20
-337.51139042
 30
0.0
 40
2.5999999
  1
Adres: Hoornse Hop 10, 8321 WX Urk
  7
ARIAL
  0
ENDBLK
  8
0
  0
BLOCK
  8
0
  2
SCHRIFE_00011
 70
     0
 10
-35.33080793
 20
-68.83639047
 30
0.0
  0
TEXT
  5
20D
  8
TXT_ALL
 10
-35.33080793
 20
-70.08639047
 30
0.0
 40
2.5
  1
Art. nr. 91017454
  7
ARIAL
  0
TEXT
  5
20E
  8
TXT_ALL
 10
7.40722888
 20
-70.08639047
 30
0.0
 40
2.5
  1
Omschrijving: Z04-anker 170x18x110 60x8 (sprong 10mm)
  7
ARIAL
  0
LINE
  5
20F
  8
0
 10
371.22723181
 20
-73.83639047
 30
0.0
 11
-38.77276819
 21
-73.83639047
 31
0.0
  0
LINE
  5
210
  8
0
 10
4.24723181
 20
-73.83639047
 30
0.0
 11
4.24723181
 21
-63.83639047
 31
0.0
  0
LINE
  5
211
  8
0
 10
164.24723181
 20
-73.83639047
 30
0.0
 11
164.24723181
 21
-63.83639047
 31
0.0
  0
TEXT
  5
212
  8
TXT_ALL
 10
235.24093181
 20
-70.08639047
 30
0.0
 40
2.5
  1
Behandeling: Thermisch verzinkt
  7
ARIAL
  0
LINE
  5
213
  8
0
 10
304.13723181
 20
-331.33639047
 30
0.0
 11
371.22723181
 21
-331.33639047
 31
0.0
  0
LINE
  5
214
  8
0
 10
304.13723181
 20
-350.83639047
 30
0.0
 11
304.13723181
 21
-331.33639047
 31
0.0
  0
LINE
  5
215
  8
0
 10
304.13723181
 20
-350.83639047
 30
0.0
 11
304.13723181
 21
-331.33639047
 31
0.0
  0
TEXT
  5
216
  8
TXT_ALL
 10
98.59242991
 20
-349.68185706
 30
0.0
 40
2.5
  1

  0
TEXT
  5
217
  8
TXT_ALL
 10
219.72761287
 20
-339.58639047
 30
0.0
 40
2.5
  1

  0
POLYLINE
  5
218
  8
0
 66
     1
 10
0.0
 20
0.0
 30
0.0
  0
VERTEX
  5
219
  8
0
 10
302.23393181
 20
-73.83639047
 30
0.0
  0
VERTEX
  5
21A
  8
0
 10
233.24093181
 20
-73.83639047
 30
0.0
  0
VERTEX
  5
21B
  8
0
 10
233.24093181
 20
-63.83639047
 30
0.0
  0
SEQEND
  5
21C
  8
0
  0
TEXT
  5
21D
  8
TXT_ALL
 10
304.23393181
 20
-70.08639047
 30
0.0
 40
2.5
  1
Verpakkingshoeveelheid: 1 st.
  7
ARIAL
  0
TEXT
  5
21E
  8
TXT_ALL
 10
166.24723181
 20
-70.08639047
 30
0.0
 40
2.5
  1
Materiaal: S355
  7
ARIAL
  0
INSERT
  5
21F
  8
0
  2
FLEX_00012
 10
345.80246723
 20
-354.83590032
 30
0.0
  0
INSERT
  5
220
  8
0
  2
_B_M_P___00014
 10
304.89659913
 20
-350.04370841
 30
0.0
  0
ENDBLK
  8
0
  0
BLOCK
  8
0
  2
FLEX_00012
 70
     0
 10
345.80246723
 20
-354.83590032
 30
0.0
  0
INSERT
  5
223
  8
0
  2
TFIELD_00013
 10
339.00887904
 20
-353.33590032
 30
0.0
  0
ENDBLK
  8
0
  0
BLOCK
  8
0
  2
TFIELD_00013
 70
     0
 10
339.00887904
 20
-353.33590032
 30
0.0
  0
TEXT
  5
226
  8
TXT_ALL
 10
339.00887904
 20
-354.08590032
 30
0.0
 40
1.5
  1
Onderdeel van
  7
ARIAL
  0
ENDBLK
  8
0
  0
BLOCK
  8
0
  2
_B_M_P___00014
 70
     0
 10
304.89659913
 20
-350.04370841
 30
0.0
  0
ENDBLK
  8
0
  0
BLOCK
  8
0
  2
_B_M_P___00015
 70
     0
 10
353.06965789
 20
-355.72639047
 30
0.0
  0
ENDBLK
  8
0
  0
BLOCK
  8
0
  2
_ANS0003_00016
 70
     0
 10
0.0
 20
0.0
 30
0.0
  0
INSERT
  5
22D
  8
0
  2
_A3D0003_00017
 10
0.0
 20
0.0
 30
0.0
  0
ENDBLK
  8
0
  0
BLOCK
  8
0
  2
_A3D0003_00017
 70
     0
 10
0.0
 20
0.0
 30
0.0
  0
INSERT
  5
230
  8
0
  2
PLAATWERK__D___8MM_00018
 10
0.0
 20
0.0
 30
0.0
  0
ENDBLK
  8
0
  0
BLOCK
  8
0
  2
PLAATWERK__D___8MM_00018
 70
     0
 10
0.0
 20
0.0
 30
0.0
  0
INSERT
  5
233
  8
0
  2
SHEET_FLANGE_00019
 10
0.0
 20
0.0
 30
0.0
  0
INSERT
  5
234
  8
0
  2
BEND_ZONE_00023
 10
0.0
 20
0.0
 30
0.0
  0
INSERT
  5
235
  8
0
  2
SHEET_FLANGE_00025
 10
0.0
 20
0.0
 30
0.0
  0
INSERT
  5
236
  8
0
  2
BEND_ZONE_00027
 10
0.0
 20
0.0
 30
0.0
  0
INSERT
  5
237
  8
0
  2
SHEET_FLANGE_00029
 10
0.0
 20
0.0
 30
0.0
  0
ENDBLK
  8
0
  0
BLOCK
  8
0
  2
SHEET_FLANGE_00019
 70
     0
 10
0.0
 20
0.0
 30
0.0
  0
INSERT
  5
23A
  8
0
  2
SHEET_FLANGE_00020
 10
-12.96894675
 20
-275.48441976
 30
0.0
  0
INSERT
  5
23B
  8
0
  2
_00021
 10
0.0
 20
0.0
 30
0.0
  0
ENDBLK
  8
0
  0
BLOCK
  8
0
  2
SHEET_FLANGE_00020
 70
     0
 10
-12.96894675
 20
-275.48441976
 30
0.0
  0
LINE
  5
23E
  8
LE_ALL
  6
DOT
 62
     3
 10
-12.96894675
 20
-275.48441976
 30
0.0
 11
-12.96894675
 21
-275.48441976
 31
0.0
  0
LINE
  5
23F
  8
LE_ALL
  6
DOT
 62
     3
 10
-12.96894675
 20
-267.48441976
 30
0.0
 11
-12.96894675
 21
-267.48441976
 31
0.0
  0
LINE
  5
240
  8
LE_ALL
  6
DOT
 62
     3
 10
93.73105325
 20
-275.48441976
 30
0.0
 11
93.73105325
 21
-275.48441976
 31
0.0
  0
LINE
  5
241
  8
LE_ALL
  6
DOT
 62
     3
 10
93.73105325
 20
-267.48441976
 30
0.0
 11
93.73105325
 21
-267.48441976
 31
0.0
  0
LINE
  5
242
  8
LE_ALL
  6
DOT
 62
     3
 10
31.53105325
 20
-267.48441976
 30
0.0
 11
31.53105325
 21
-275.48441976
 31
0.0
  0
LINE
  5
243
  8
LE_ALL
  6
DOT
 62
     3
 10
39.53105325
 20
-267.48441976
 30
0.0
 11
39.53105325
 21
-275.48441976
 31
0.0
  0
LINE
  5
244
  8
LE_ALL
  6
DOT
 62
     3
 10
-5.46894675
 20
-267.48441976
 30
0.0
 11
-5.46894675
 21
-275.48441976
 31
0.0
  0
LINE
  5
245
  8
LE_ALL
  6
DOT
 62
     3
 10
2.53105325
 20
-267.48441976
 30
0.0
 11
2.53105325
 21
-275.48441976
 31
0.0
  0
LINE
  5
246
  8
LE_ALL
  6
DOT
 62
     3
 10
10.53105325
 20
-267.48441976
 30
0.0
 11
10.53105325
 21
-275.48441976
 31
0.0
  0
LINE
  5
247
  8
LE_ALL
  6
DOT
 62
     3
 10
23.53105325
 20
-267.48441976
 30
0.0
 11
23.53105325
 21
-275.48441976
 31
0.0
  0
LINE
  5
248
  8
LE_ALL
 10
-12.96894675
 20
-275.48441976
 30
0.0
 11
-12.96894675
 21
-267.48441976
 31
0.0
  0
LINE
  5
249
  8
LE_ALL
 10
93.73105325
 20
-267.48441976
 30
0.0
 11
-12.96894675
 21
-267.48441976
 31
0.0
  0
LINE
  5
24A
  8
LE_ALL
 10
-12.96894675
 20
-275.48441976
 30
0.0
 11
93.73105325
 21
-275.48441976
 31
0.0
  0
ENDBLK
  8
0
  0
BLOCK
  8
0
  2
_00021
 70
     0
 10
0.0
 20
0.0
 30
0.0
  0
INSERT
  5
24D
  8
0
  2
_00022
 10
35.53105325
 20
-265.48441976
 30
0.0
  0
ENDBLK
  8
0
  0
BLOCK
  8
0
  2
_00022
 70
     0
 10
35.53105325
 20
-265.48441976
 30
0.0
  0
LINE
  5
250
  8
LE_ALL
  6
STRICHPUNKT2
 62
     1
 10
35.53105325
 20
-265.48441976
 30
0.0
 11
35.53105325
 21
-277.48441976
 31
0.0
  0
LINE
  5
251
  8
LE_ALL
  6
STRICHPUNKT2
 62
     1
 10
-1.46894675
 20
-265.48441976
 30
0.0
 11
-1.46894675
 21
-277.48441976
 31
0.0
  0
LINE
  5
252
  8
LE_ALL
  6
STRICHPUNKT2
 62
     1
 10
-1.46894675
 20
-265.48441976
 30
0.0
 11
-1.46894675
 21
-277.48441976
 31
0.0
  0
LINE
  5
253
  8
LE_ALL
  6
STRICHPUNKT2
 62
     1
 10
17.03105325
 20
-264.48441976
 30
0.0
 11
17.03105325
 21
-278.48441976
 31
0.0
  0
LINE
  5
254
  8
LE_ALL
  6
STRICHPUNKT2
 62
     1
 10
35.53105325
 20
-265.48441976
 30
0.0
 11
35.53105325
 21
-277.48441976
 31
0.0
  0
ENDBLK
  8
0
  0
BLOCK
  8
0
  2
BEND_ZONE_00023
 70
     0
 10
0.0
 20
0.0
 30
0.0
  0
INSERT
  5
257
  8
0
  2
BEND_ZONE_00024
 10
105.04476175
 20
-270.79812826
 30
0.0
  0
ENDBLK
  8
0
  0
BLOCK
  8
0
  2
BEND_ZONE_00024
 70
     0
 10
105.04476175
 20
-270.79812826
 30
0.0
  0
LINE
  5
25A
  8
LE_ALL
  6
DOT
 62
     3
 10
105.04476175
 20
-270.79812826
 30
0.0
 11
105.04476175
 21
-270.79812826
 31
0.0
  0
LINE
  5
25B
  8
LE_ALL
  6
DOT
 62
     3
 10
99.3879075
 20
-265.14127401
 30
0.0
 11
99.3879075
 21
-265.14127401
 31
0.0
  0
LINE
  5
25C
  8
LE_ALL
  6
DOT
 62
     3
 10
93.73105325
 20
-275.48441976
 30
0.0
 11
93.73105325
 21
-275.48441976
 31
0.0
  0
LINE
  5
25D
  8
LE_ALL
  6
DOT
 62
     3
 10
93.73105325
 20
-267.48441976
 30
0.0
 11
93.73105325
 21
-267.48441976
 31
0.0
  0
ARC
  5
25E
  8
LE_ALL
 10
93.73105325
 20
-259.48441976
 30
0.0
 40
16.0
 50
-90.0
 51
-45.0
  0
ARC
  5
25F
  8
LE_ALL
 10
93.73105325
 20
-259.48441976
 30
0.0
 40
8.0
 50
-90.0
 51
-45.0
  0
ENDBLK
  8
0
  0
BLOCK
  8
0
  2
SHEET_FLANGE_00025
 70
     0
 10
0.0
 20
0.0
 30
0.0
  0
INSERT
  5
262
  8
0
  2
SHEET_FLANGE_00026
 10
105.04476175
 20
-270.79812826
 30
0.0
  0
ENDBLK
  8
0
  0
BLOCK
  8
0
  2
SHEET_FLANGE_00026
 70
     0
 10
105.04476175
 20
-270.79812826
 30
0.0
  0
LINE
  5
265
  8
LE_ALL
  6
DOT
 62
     3
 10
105.04476175
 20
-270.79812826
 30
0.0
 11
105.04476175
 21
-270.79812826
 31
0.0
  0
LINE
  5
266
  8
LE_ALL
  6
DOT
 62
     3
 10
99.3879075
 20
-265.14127401
 30
0.0
 11
99.3879075
 21
-265.14127401
 31
0.0
  0
LINE
  5
267
  8
LE_ALL
  6
DOT
 62
     3
 10
108.01502248
 20
-267.82786753
 30
0.0
 11
108.01502248
 21
-267.82786753
 31
0.0
  0
LINE
  5
268
  8
LE_ALL
  6
DOT
 62
     3
 10
102.35816823
 20
-262.17101328
 30
0.0
 11
102.35816823
 21
-262.17101328
 31
0.0
  0
LINE
  5
269
  8
LE_ALL
 10
99.3879075
 20
-265.14127401
 30
0.0
 11
102.35816823
 21
-262.17101328
 31
0.0
  0
LINE
  5
26A
  8
LE_ALL
 10
108.01502248
 20
-267.82786753
 30
0.0
 11
105.04476175
 21
-270.79812826
 31
0.0
  0
ENDBLK
  8
0
  0
BLOCK
  8
0
  2
BEND_ZONE_00027
 70
     0
 10
0.0
 20
0.0
 30
0.0
  0
INSERT
  5
26D
  8
0
  2
BEND_ZONE_00028
 10
113.67187673
 20
-257.48472178
 30
0.0
  0
ENDBLK
  8
0
  0
BLOCK
  8
0
  2
BEND_ZONE_00028
 70
     0
 10
113.67187673
 20
-257.48472178
 30
0.0
  0
LINE
  5
270
  8
LE_ALL
  6
DOT
 62
     3
 10
113.67187673
 20
-257.48472178
 30
0.0
 11
113.67187673
 21
-257.48472178
 31
0.0
  0
LINE
  5
271
  8
LE_ALL
  6
DOT
 62
     3
 10
113.67187673
 20
-265.48472178
 30
0.0
 11
113.67187673
 21
-265.48472178
 31
0.0
  0
LINE
  5
272
  8
LE_ALL
  6
DOT
 62
     3
 10
102.35816823
 20
-262.17101328
 30
0.0
 11
102.35816823
 21
-262.17101328
 31
0.0
  0
LINE
  5
273
  8
LE_ALL
  6
DOT
 62
     3
 10
108.01502248
 20
-267.82786753
 30
0.0
 11
108.01502248
 21
-267.82786753
 31
0.0
  0
ARC
  5
274
  8
LE_ALL
 10
113.67187673
 20
-273.48472178
 30
0.0
 40
16.0
 50
90.0
 51
135.0
  0
ARC
  5
275
  8
LE_ALL
 10
113.67187673
 20
-273.48472178
 30
0.0
 40
8.0
 50
90.0
 51
135.0
  0
ENDBLK
  8
0
  0
BLOCK
  8
0
  2
SHEET_FLANGE_00029
 70
     0
 10
0.0
 20
0.0
 30
0.0
  0
INSERT
  5
278
  8
0
  2
SHEET_FLANGE_00030
 10
113.67187673
 20
-257.48472178
 30
0.0
  0
INSERT
  5
279
  8
0
  2
_00031
 10
0.0
 20
0.0
 30
0.0
  0
ENDBLK
  8
0
  0
BLOCK
  8
0
  2
SHEET_FLANGE_00030
 70
     0
 10
113.67187673
 20
-257.48472178
 30
0.0
  0
LINE
  5
27C
  8
LE_ALL
  6
DOT
 62
     3
 10
113.67187673
 20
-257.48472178
 30
0.0
 11
113.67187673
 21
-257.48472178
 31
0.0
  0
LINE
  5
27D
  8
LE_ALL
  6
DOT
 62
     3
 10
113.67187673
 20
-265.48472178
 30
0.0
 11
113.67187673
 21
-265.48472178
 31
0.0
  0
LINE
  5
27E
  8
LE_ALL
  6
DOT
 62
     3
 10
275.04445973
 20
-257.48472178
 30
0.0
 11
275.04445973
 21
-257.48472178
 31
0.0
  0
LINE
  5
27F
  8
LE_ALL
  6
DOT
 62
     3
 10
275.04445973
 20
-265.48472178
 30
0.0
 11
275.04445973
 21
-265.48472178
 31
0.0
  0
LINE
  5
280
  8
LE_ALL
  6
DOT
 62
     3
 10
248.54445973
 20
-265.48472178
 30
0.0
 11
248.54445973
 21
-257.48472178
 31
0.0
  0
LINE
  5
281
  8
LE_ALL
  6
DOT
 62
     3
 10
221.54445973
 20
-265.48472178
 30
0.0
 11
221.54445973
 21
-257.48472178
 31
0.0
  0
LINE
  5
282
  8
LE_ALL
  6
DOT
 62
     3
 10
153.54445973
 20
-257.48472178
 30
0.0
 11
153.54445973
 21
-265.48472178
 31
0.0
  0
LINE
  5
283
  8
LE_ALL
  6
DOT
 62
     3
 10
166.54445973
 20
-257.48472178
 30
0.0
 11
166.54445973
 21
-265.48472178
 31
0.0
  0
LINE
  5
284
  8
LE_ALL
  6
DOT
 62
     3
 10
215.04445973
 20
-265.48472178
 30
0.0
 11
215.04445973
 21
-257.48472178
 31
0.0
  0
LINE
  5
285
  8
LE_ALL
  6
DOT
 62
     3
 10
255.04445973
 20
-265.48472178
 30
0.0
 11
255.04445973
 21
-257.48472178
 31
0.0
  0
POLYLINE
  5
286
  8
LE_ALL
 66
     1
 10
0.0
 20
0.0
 30
0.0
  0
VERTEX
  5
287
  8
LE_ALL
 10
275.04445973
 20
-257.48472178
 30
0.0
  0
VERTEX
  5
288
  8
LE_ALL
 10
275.04445973
 20
-265.48472178
 30
0.0
  0
VERTEX
  5
289
  8
LE_ALL
 10
113.67187673
 20
-265.48472178
 30
0.0
  0
SEQEND
  5
28A
  8
LE_ALL
  0
LINE
  5
28B
  8
LE_ALL
 10
113.67187673
 20
-257.48472178
 30
0.0
 11
275.04445973
 21
-257.48472178
 31
0.0
  0
ENDBLK
  8
0
  0
BLOCK
  8
0
  2
_00031
 70
     0
 10
0.0
 20
0.0
 30
0.0
  0
INSERT
  5
28E
  8
0
  2
_00032
 10
160.04445973
 20
-254.48472178
 30
0.0
  0
ENDBLK
  8
0
  0
BLOCK
  8
0
  2
_00032
 70
     0
 10
160.04445973
 20
-254.48472178
 30
0.0
  0
LINE
  5
291
  8
LE_ALL
  6
STRICHPUNKT2
 62
     1
 10
160.04445973
 20
-254.48472178
 30
0.0
 11
160.04445973
 21
-268.48472178
 31
0.0
  0
LINE
  5
292
  8
LE_ALL
  6
STRICHPUNKT2
 62
     1
 10
221.54445973
 20
-254.48472178
 30
0.0
 11
221.54445973
 21
-268.48472178
 31
0.0
  0
LINE
  5
293
  8
LE_ALL
  6
STRICHPUNKT2
 62
     1
 10
248.54445973
 20
-254.48472178
 30
0.0
 11
248.54445973
 21
-268.48472178
 31
0.0
  0
ENDBLK
  8
0
  0
BLOCK
  8
0
  2
_ANS0004_00033
 70
     0
 10
0.0
 20
0.0
 30
0.0
  0
INSERT
  5
296
  8
0
  2
_A3D0004_00034
 10
0.0
 20
0.0
 30
0.0
  0
ENDBLK
  8
0
  0
BLOCK
  8
0
  2
_A3D0004_00034
 70
     0
 10
0.0
 20
0.0
 30
0.0
  0
INSERT
  5
299
  8
0
  2
PLAATWERK__D___8MM_00035
 10
0.0
 20
0.0
 30
0.0
  0
ENDBLK
  8
0
  0
BLOCK
  8
0
  2
PLAATWERK__D___8MM_00035
 70
     0
 10
0.0
 20
0.0
 30
0.0
  0
INSERT
  5
29C
  8
0
  2
SHEET_FLANGE_00036
 10
0.0
 20
0.0
 30
0.0
  0
INSERT
  5
29D
  8
0
  2
BEND_ZONE_00040
 10
0.0
 20
0.0
 30
0.0
  0
INSERT
  5
29E
  8
0
  2
SHEET_FLANGE_00042
 10
0.0
 20
0.0
 30
0.0
  0
INSERT
  5
29F
  8
0
  2
BEND_ZONE_00044
 10
0.0
 20
0.0
 30
0.0
  0
INSERT
  5
2A0
  8
0
  2
SHEET_FLANGE_00046
 10
0.0
 20
0.0
 30
0.0
  0
ENDBLK
  8
0
  0
BLOCK
  8
0
  2
SHEET_FLANGE_00036
 70
     0
 10
0.0
 20
0.0
 30
0.0
  0
INSERT
  5
2A3
  8
0
  2
SHEET_FLANGE_00037
 10
296.80912474
 20
-275.48441976
 30
0.0
  0
INSERT
  5
2A4
  8
0
  2
_00038
 10
0.0
 20
0.0
 30
0.0
  0
ENDBLK
  8
0
  0
BLOCK
  8
0
  2
SHEET_FLANGE_00037
 70
     0
 10
296.80912474
 20
-275.48441976
 30
0.0
  0
LINE
  5
2A7
  8
LE_ALL
  6
DOT
 62
     3
 10
296.80912474
 20
-275.48441976
 30
0.0
 11
296.80912474
 21
-275.48441976
 31
0.0
  0
LINE
  5
2A8
  8
LE_ALL
  6
DOT
 62
     3
 10
296.80912474
 20
-267.48441976
 30
0.0
 11
296.80912474
 21
-267.48441976
 31
0.0
  0
LINE
  5
2A9
  8
LE_ALL
  6
DOT
 62
     3
 10
356.80912474
 20
-275.48441976
 30
0.0
 11
356.80912474
 21
-275.48441976
 31
0.0
  0
LINE
  5
2AA
  8
LE_ALL
  6
DOT
 62
     3
 10
356.80912474
 20
-267.48441976
 30
0.0
 11
356.80912474
 21
-267.48441976
 31
0.0
  0
LINE
  5
2AB
  8
LE_ALL
  6
DOT
 62
     3
 10
304.30912474
 20
-267.48441976
 30
0.0
 11
304.30912474
 21
-275.48441976
 31
0.0
  0
LINE
  5
2AC
  8
LE_ALL
  6
DOT
 62
     3
 10
312.30912474
 20
-267.48441976
 30
0.0
 11
312.30912474
 21
-275.48441976
 31
0.0
  0
LINE
  5
2AD
  8
LE_ALL
  6
DOT
 62
     3
 10
341.30912474
 20
-267.48441976
 30
0.0
 11
341.30912474
 21
-275.48441976
 31
0.0
  0
LINE
  5
2AE
  8
LE_ALL
  6
DOT
 62
     3
 10
349.30912474
 20
-267.48441976
 30
0.0
 11
349.30912474
 21
-275.48441976
 31
0.0
  0
LINE
  5
2AF
  8
LE_ALL
  6
DOT
 62
     3
 10
320.30912474
 20
-267.48441976
 30
0.0
 11
320.30912474
 21
-275.48441976
 31
0.0
  0
LINE
  5
2B0
  8
LE_ALL
  6
DOT
 62
     3
 10
333.30912474
 20
-267.48441976
 30
0.0
 11
333.30912474
 21
-275.48441976
 31
0.0
  0
LINE
  5
2B1
  8
LE_ALL
  6
DOT
 62
     3
 10
356.80912474
 20
-267.48441976
 30
0.0
 11
296.80912474
 21
-267.48441976
 31
0.0
  0
LINE
  5
2B2
  8
LE_ALL
 10
296.80912474
 20
-275.48441976
 30
0.0
 11
356.80912474
 21
-275.48441976
 31
0.0
  0
ENDBLK
  8
0
  0
BLOCK
  8
0
  2
_00038
 70
     0
 10
0.0
 20
0.0
 30
0.0
  0
INSERT
  5
2B5
  8
0
  2
_00039
 10
308.30912474
 20
-265.48441976
 30
0.0
  0
ENDBLK
  8
0
  0
BLOCK
  8
0
  2
_00039
 70
     0
 10
308.30912474
 20
-265.48441976
 30
0.0
  0
LINE
  5
2B8
  8
LE_ALL
  6
STRICHPUNKT2
 62
     1
 10
308.30912474
 20
-265.48441976
 30
0.0
 11
308.30912474
 21
-277.48441976
 31
0.0
  0
LINE
  5
2B9
  8
LE_ALL
  6
STRICHPUNKT2
 62
     1
 10
308.30912474
 20
-265.48441976
 30
0.0
 11
308.30912474
 21
-277.48441976
 31
0.0
  0
LINE
  5
2BA
  8
LE_ALL
  6
STRICHPUNKT2
 62
     1
 10
345.30912474
 20
-265.48441976
 30
0.0
 11
345.30912474
 21
-277.48441976
 31
0.0
  0
LINE
  5
2BB
  8
LE_ALL
  6
STRICHPUNKT2
 62
     1
 10
326.80912474
 20
-264.48441976
 30
0.0
 11
326.80912474
 21
-278.48441976
 31
0.0
  0
LINE
  5
2BC
  8
LE_ALL
  6
STRICHPUNKT2
 62
     1
 10
345.30912474
 20
-265.48441976
 30
0.0
 11
345.30912474
 21
-277.48441976
 31
0.0
  0
ENDBLK
  8
0
  0
BLOCK
  8
0
  2
BEND_ZONE_00040
 70
     0
 10
0.0
 20
0.0
 30
0.0
  0
INSERT
  5
2BF
  8
0
  2
BEND_ZONE_00041
 10
356.80912474
 20
-267.48441976
 30
0.0
  0
ENDBLK
  8
0
  0
BLOCK
  8
0
  2
BEND_ZONE_00041
 70
     0
 10
356.80912474
 20
-267.48441976
 30
0.0
  0
LINE
  5
2C2
  8
LE_ALL
  6
DOT
 62
     3
 10
356.80912474
 20
-267.48441976
 30
0.0
 11
296.80912474
 21
-267.48441976
 31
0.0
  0
LINE
  5
2C3
  8
LE_ALL
 10
356.80912474
 20
-270.79812826
 30
0.0
 11
296.80912474
 21
-270.79812826
 31
0.0
  0
LINE
  5
2C4
  8
LE_ALL
  6
DOT
 62
     3
 10
356.80912474
 20
-265.14127401
 30
0.0
 11
296.80912474
 21
-265.14127401
 31
0.0
  0
POLYLINE
  5
2C5
  8
LE_ALL
 66
     1
 10
0.0
 20
0.0
 30
0.0
  0
VERTEX
  5
2C6
  8
LE_ALL
 10
356.80912474
 20
-270.79812826
 30
0.0
  0
VERTEX
  5
2C7
  8
LE_ALL
 10
356.80912474
 20
-275.48441976
 30
0.0
  0
VERTEX
  5
2C8
  8
LE_ALL
 10
296.80912474
 20
-275.48441976
 30
0.0
  0
VERTEX
  5
2C9
  8
LE_ALL
 10
296.80912474
 20
-270.79812826
 30
0.0
  0
SEQEND
  5
2CA
  8
LE_ALL
  0
ENDBLK
  8
0
  0
BLOCK
  8
0
  2
SHEET_FLANGE_00042
 70
     0
 10
0.0
 20
0.0
 30
0.0
  0
INSERT
  5
2CD
  8
0
  2
SHEET_FLANGE_00043
 10
356.80912474
 20
-265.14127401
 30
0.0
  0
ENDBLK
  8
0
  0
BLOCK
  8
0
  2
SHEET_FLANGE_00043
 70
     0
 10
356.80912474
 20
-265.14127401
 30
0.0
  0
LINE
  5
2D0
  8
LE_ALL
  6
DOT
 62
     3
 10
356.80912474
 20
-265.14127401
 30
0.0
 11
296.80912474
 21
-265.14127401
 31
0.0
  0
LINE
  5
2D1
  8
LE_ALL
  6
DOT
 62
     3
 10
296.80912474
 20
-262.17101328
 30
0.0
 11
356.80912474
 21
-262.17101328
 31
0.0
  0
POLYLINE
  5
2D2
  8
LE_ALL
 66
     1
 10
0.0
 20
0.0
 30
0.0
 70
     1
  0
VERTEX
  5
2D3
  8
LE_ALL
 10
356.80912474
 20
-267.82786753
 30
0.0
  0
VERTEX
  5
2D4
  8
LE_ALL
 10
296.80912474
 20
-267.82786753
 30
0.0
  0
VERTEX
  5
2D5
  8
LE_ALL
 10
296.80912474
 20
-270.79812826
 30
0.0
  0
VERTEX
  5
2D6
  8
LE_ALL
 10
356.80912474
 20
-270.79812826
 30
0.0
  0
SEQEND
  5
2D7
  8
LE_ALL
  0
ENDBLK
  8
0
  0
BLOCK
  8
0
  2
BEND_ZONE_00044
 70
     0
 10
0.0
 20
0.0
 30
0.0
  0
INSERT
  5
2DA
  8
0
  2
BEND_ZONE_00045
 10
296.80912474
 20
-262.17101328
 30
0.0
  0
ENDBLK
  8
0
  0
BLOCK
  8
0
  2
BEND_ZONE_00045
 70
     0
 10
296.80912474
 20
-262.17101328
 30
0.0
  0
LINE
  5
2DD
  8
LE_ALL
  6
DOT
 62
     3
 10
296.80912474
 20
-262.17101328
 30
0.0
 11
356.80912474
 21
-262.17101328
 31
0.0
  0
LINE
  5
2DE
  8
LE_ALL
  6
DOT
 62
     3
 10
296.80912474
 20
-265.48472178
 30
0.0
 11
356.80912474
 21
-265.48472178
 31
0.0
  0
POLYLINE
  5
2DF
  8
LE_ALL
 66
     1
 10
0.0
 20
0.0
 30
0.0
  0
VERTEX
  5
2E0
  8
LE_ALL
 10
296.80912474
 20
-265.48472178
 30
0.0
  0
VERTEX
  5
2E1
  8
LE_ALL
 10
296.80912474
 20
-267.82786753
 30
0.0
  0
VERTEX
  5
2E2
  8
LE_ALL
 10
356.80912474
 20
-267.82786753
 30
0.0
  0
VERTEX
  5
2E3
  8
LE_ALL
 10
356.80912474
 20
-265.48472178
 30
0.0
  0
SEQEND
  5
2E4
  8
LE_ALL
  0
ENDBLK
  8
0
  0
BLOCK
  8
0
  2
SHEET_FLANGE_00046
 70
     0
 10
0.0
 20
0.0
 30
0.0
  0
INSERT
  5
2E7
  8
0
  2
SHEET_FLANGE_00047
 10
356.80912474
 20
-257.48472178
 30
0.0
  0
INSERT
  5
2E8
  8
0
  2
_00048
 10
0.0
 20
0.0
 30
0.0
  0
ENDBLK
  8
0
  0
BLOCK
  8
0
  2
SHEET_FLANGE_00047
 70
     0
 10
356.80912474
 20
-257.48472178
 30
0.0
  0
LINE
  5
2EB
  8
LE_ALL
  6
DOT
 62
     3
 10
356.80912474
 20
-257.48472178
 30
0.0
 11
356.80912474
 21
-257.48472178
 31
0.0
  0
LINE
  5
2EC
  8
LE_ALL
  6
DOT
 62
     3
 10
356.80912474
 20
-265.48472178
 30
0.0
 11
356.80912474
 21
-265.48472178
 31
0.0
  0
LINE
  5
2ED
  8
LE_ALL
  6
DOT
 62
     3
 10
296.80912474
 20
-257.48472178
 30
0.0
 11
296.80912474
 21
-257.48472178
 31
0.0
  0
LINE
  5
2EE
  8
LE_ALL
  6
DOT
 62
     3
 10
296.80912474
 20
-265.48472178
 30
0.0
 11
296.80912474
 21
-265.48472178
 31
0.0
  0
LINE
  5
2EF
  8
LE_ALL
  6
DOT
 62
     3
 10
333.30912474
 20
-257.48472178
 30
0.0
 11
333.30912474
 21
-257.48472178
 31
0.0
  0
LINE
  5
2F0
  8
LE_ALL
  6
DOT
 62
     3
 10
320.30912474
 20
-257.48472178
 30
0.0
 11
320.30912474
 21
-257.48472178
 31
0.0
  0
LINE
  5
2F1
  8
LE_ALL
  6
DOT
 62
     3
 10
320.30912474
 20
-265.48472178
 30
0.0
 11
320.30912474
 21
-265.48472178
 31
0.0
  0
LINE
  5
2F2
  8
LE_ALL
  6
DOT
 62
     3
 10
333.30912474
 20
-265.48472178
 30
0.0
 11
333.30912474
 21
-265.48472178
 31
0.0
  0
LINE
  5
2F3
  8
LE_ALL
  6
DOT
 62
     3
 10
320.30912474
 20
-265.48472178
 30
0.0
 11
320.30912474
 21
-257.48472178
 31
0.0
  0
LINE
  5
2F4
  8
LE_ALL
  6
DOT
 62
     3
 10
333.30912474
 20
-265.48472178
 30
0.0
 11
333.30912474
 21
-257.48472178
 31
0.0
  0
POLYLINE
  5
2F5
  8
LE_ALL
 66
     1
 10
0.0
 20
0.0
 30
0.0
  0
VERTEX
  5
2F6
  8
LE_ALL
 10
356.80912474
 20
-257.48472178
 30
0.0
  0
VERTEX
  5
2F7
  8
LE_ALL
 10
356.80912474
 20
-265.48472178
 30
0.0
  0
VERTEX
  5
2F8
  8
LE_ALL
 10
296.80912474
 20
-265.48472178
 30
0.0
  0
SEQEND
  5
2F9
  8
LE_ALL
  0
LINE
  5
2FA
  8
LE_ALL
 10
296.80912474
 20
-257.48472178
 30
0.0
 11
296.80912474
 21
-265.48472178
 31
0.0
  0
LINE
  5
2FB
  8
LE_ALL
 10
296.80912474
 20
-257.48472178
 30
0.0
 11
356.80912474
 21
-257.48472178
 31
0.0
  0
ENDBLK
  8
0
  0
BLOCK
  8
0
  2
_00048
 70
     0
 10
0.0
 20
0.0
 30
0.0
  0
INSERT
  5
2FE
  8
0
  2
_00049
 10
326.80912474
 20
-254.48472178
 30
0.0
  0
ENDBLK
  8
0
  0
BLOCK
  8
0
  2
_00049
 70
     0
 10
326.80912474
 20
-254.48472178
 30
0.0
  0
LINE
  5
301
  8
LE_ALL
  6
STRICHPUNKT2
 62
     1
 10
326.80912474
 20
-254.48472178
 30
0.0
 11
326.80912474
 21
-268.48472178
 31
0.0
  0
LINE
  5
302
  8
LE_ALL
  6
STRICHPUNKT2
 62
     1
 10
326.80912474
 20
-254.48472178
 30
0.0
 11
326.80912474
 21
-268.48472178
 31
0.0
  0
LINE
  5
303
  8
LE_ALL
  6
STRICHPUNKT2
 62
     1
 10
326.80912474
 20
-254.48472178
 30
0.0
 11
326.80912474
 21
-268.48472178
 31
0.0
  0
ENDBLK
  8
0
  0
BLOCK
  8
0
  2
_ANS0005_00050
 70
     0
 10
0.0
 20
0.0
 30
0.0
  0
INSERT
  5
306
  8
0
  2
_A3D0005_00051
 10
0.0
 20
0.0
 30
0.0
  0
ENDBLK
  8
0
  0
BLOCK
  8
0
  2
_A3D0005_00051
 70
     0
 10
0.0
 20
0.0
 30
0.0
  0
INSERT
  5
309
  8
0
  2
PLAATWERK__D___8MM_00052
 10
0.0
 20
0.0
 30
0.0
  0
ENDBLK
  8
0
  0
BLOCK
  8
0
  2
PLAATWERK__D___8MM_00052
 70
     0
 10
0.0
 20
0.0
 30
0.0
  0
INSERT
  5
30C
  8
0
  2
SHEET_FLANGE_00053
 10
0.0
 20
0.0
 30
0.0
  0
INSERT
  5
30D
  8
0
  2
BEND_ZONE_00057
 10
0.0
 20
0.0
 30
0.0
  0
INSERT
  5
30E
  8
0
  2
SHEET_FLANGE_00059
 10
0.0
 20
0.0
 30
0.0
  0
INSERT
  5
30F
  8
0
  2
BEND_ZONE_00061
 10
0.0
 20
0.0
 30
0.0
  0
INSERT
  5
310
  8
0
  2
SHEET_FLANGE_00063
 10
0.0
 20
0.0
 30
0.0
  0
ENDBLK
  8
0
  0
BLOCK
  8
0
  2
SHEET_FLANGE_00053
 70
     0
 10
0.0
 20
0.0
 30
0.0
  0
INSERT
  5
313
  8
0
  2
SHEET_FLANGE_00054
 10
-12.96894675
 20
-208.37660848
 30
0.0
  0
INSERT
  5
314
  8
0
  2
_00055
 10
0.0
 20
0.0
 30
0.0
  0
ENDBLK
  8
0
  0
BLOCK
  8
0
  2
SHEET_FLANGE_00054
 70
     0
 10
-12.96894675
 20
-208.37660848
 30
0.0
  0
LINE
  5
317
  8
LE_ALL
  6
DOT
 62
     3
 10
-12.96894675
 20
-208.37660848
 30
0.0
 11
-12.96894675
 21
-208.37660848
 31
0.0
  0
LINE
  5
318
  8
LE_ALL
  6
DOT
 62
     3
 10
-12.96894675
 20
-148.37660848
 30
0.0
 11
-12.96894675
 21
-148.37660848
 31
0.0
  0
CIRCLE
  5
319
  8
LE_ALL
 10
17.03105325
 20
-178.37660848
 30
0.0
 40
6.5
  0
CIRCLE
  5
31A
  8
LE_ALL
 10
-1.46894675
 20
-159.87660848
 30
0.0
 40
4.0
  0
CIRCLE
  5
31B
  8
LE_ALL
 10
-1.46894675
 20
-196.87660848
 30
0.0
 40
4.0
  0
CIRCLE
  5
31C
  8
LE_ALL
 10
35.53105325
 20
-159.87660848
 30
0.0
 40
4.0
  0
CIRCLE
  5
31D
  8
LE_ALL
 10
35.53105325
 20
-196.87660848
 30
0.0
 40
4.0
  0
POLYLINE
  5
31E
  8
LE_ALL
 66
     1
 10
0.0
 20
0.0
 30
0.0
 70
     1
  0
VERTEX
  5
31F
  8
LE_ALL
 10
93.73105325
 20
-208.37660848
 30
0.0
  0
VERTEX
  5
320
  8
LE_ALL
 10
-12.96894675
 20
-208.37660848
 30
0.0
  0
VERTEX
  5
321
  8
LE_ALL
 10
-12.96894675
 20
-148.37660848
 30
0.0
  0
VERTEX
  5
322
  8
LE_ALL
 10
93.73105325
 20
-148.37660848
 30
0.0
  0
SEQEND
  5
323
  8
LE_ALL
  0
ENDBLK
  8
0
  0
BLOCK
  8
0
  2
_00055
 70
     0
 10
0.0
 20
0.0
 30
0.0
  0
INSERT
  5
326
  8
0
  2
_00056
 10
35.53105325
 20
-196.87660848
 30
0.0
  0
ENDBLK
  8
0
  0
BLOCK
  8
0
  2
_00056
 70
     0
 10
35.53105325
 20
-196.87660848
 30
0.0
  0
LINE
  5
329
  8
LE_ALL
  6
STRICHPUNKT2
 62
     1
 10
35.53105325
 20
-196.87660848
 30
0.0
 11
35.53105325
 21
-190.87660848
 31
0.0
  0
LINE
  5
32A
  8
LE_ALL
  6
STRICHPUNKT2
 62
     1
 10
35.53105325
 20
-196.87660848
 30
0.0
 11
35.53105325
 21
-202.87660848
 31
0.0
  0
LINE
  5
32B
  8
LE_ALL
  6
STRICHPUNKT2
 62
     1
 10
35.53105325
 20
-196.87660848
 30
0.0
 11
29.53105325
 21
-196.87660848
 31
0.0
  0
LINE
  5
32C
  8
LE_ALL
  6
STRICHPUNKT2
 62
     1
 10
35.53105325
 20
-196.87660848
 30
0.0
 11
41.53105325
 21
-196.87660848
 31
0.0
  0
LINE
  5
32D
  8
LE_ALL
  6
STRICHPUNKT2
 62
     1
 10
35.53105325
 20
-196.87660848
 30
0.0
 11
35.53105325
 21
-190.87660848
 31
0.0
  0
LINE
  5
32E
  8
LE_ALL
  6
STRICHPUNKT2
 62
     1
 10
35.53105325
 20
-196.87660848
 30
0.0
 11
35.53105325
 21
-202.87660848
 31
0.0
  0
LINE
  5
32F
  8
LE_ALL
  6
STRICHPUNKT2
 62
     1
 10
35.53105325
 20
-196.87660848
 30
0.0
 11
29.53105325
 21
-196.87660848
 31
0.0
  0
LINE
  5
330
  8
LE_ALL
  6
STRICHPUNKT2
 62
     1
 10
35.53105325
 20
-196.87660848
 30
0.0
 11
41.53105325
 21
-196.87660848
 31
0.0
  0
LINE
  5
331
  8
LE_ALL
  6
STRICHPUNKT2
 62
     1
 10
35.53105325
 20
-159.87660848
 30
0.0
 11
35.53105325
 21
-153.87660848
 31
0.0
  0
LINE
  5
332
  8
LE_ALL
  6
STRICHPUNKT2
 62
     1
 10
35.53105325
 20
-159.87660848
 30
0.0
 11
35.53105325
 21
-165.87660848
 31
0.0
  0
LINE
  5
333
  8
LE_ALL
  6
STRICHPUNKT2
 62
     1
 10
35.53105325
 20
-159.87660848
 30
0.0
 11
29.53105325
 21
-159.87660848
 31
0.0
  0
LINE
  5
334
  8
LE_ALL
  6
STRICHPUNKT2
 62
     1
 10
35.53105325
 20
-159.87660848
 30
0.0
 11
41.53105325
 21
-159.87660848
 31
0.0
  0
LINE
  5
335
  8
LE_ALL
  6
STRICHPUNKT2
 62
     1
 10
35.53105325
 20
-159.87660848
 30
0.0
 11
35.53105325
 21
-153.87660848
 31
0.0
  0
LINE
  5
336
  8
LE_ALL
  6
STRICHPUNKT2
 62
     1
 10
35.53105325
 20
-159.87660848
 30
0.0
 11
35.53105325
 21
-165.87660848
 31
0.0
  0
LINE
  5
337
  8
LE_ALL
  6
STRICHPUNKT2
 62
     1
 10
35.53105325
 20
-159.87660848
 30
0.0
 11
29.53105325
 21
-159.87660848
 31
0.0
  0
LINE
  5
338
  8
LE_ALL
  6
STRICHPUNKT2
 62
     1
 10
35.53105325
 20
-159.87660848
 30
0.0
 11
41.53105325
 21
-159.87660848
 31
0.0
  0
LINE
  5
339
  8
LE_ALL
  6
STRICHPUNKT2
 62
     1
 10
-1.46894675
 20
-196.87660848
 30
0.0
 11
-1.46894675
 21
-190.87660848
 31
0.0
  0
LINE
  5
33A
  8
LE_ALL
  6
STRICHPUNKT2
 62
     1
 10
-1.46894675
 20
-196.87660848
 30
0.0
 11
-1.46894675
 21
-202.87660848
 31
0.0
  0
LINE
  5
33B
  8
LE_ALL
  6
STRICHPUNKT2
 62
     1
 10
-1.46894675
 20
-196.87660848
 30
0.0
 11
-7.46894675
 21
-196.87660848
 31
0.0
  0
LINE
  5
33C
  8
LE_ALL
  6
STRICHPUNKT2
 62
     1
 10
-1.46894675
 20
-196.87660848
 30
0.0
 11
4.53105325
 21
-196.87660848
 31
0.0
  0
LINE
  5
33D
  8
LE_ALL
  6
STRICHPUNKT2
 62
     1
 10
-1.46894675
 20
-196.87660848
 30
0.0
 11
-1.46894675
 21
-190.87660848
 31
0.0
  0
LINE
  5
33E
  8
LE_ALL
  6
STRICHPUNKT2
 62
     1
 10
-1.46894675
 20
-196.87660848
 30
0.0
 11
-1.46894675
 21
-202.87660848
 31
0.0
  0
LINE
  5
33F
  8
LE_ALL
  6
STRICHPUNKT2
 62
     1
 10
-1.46894675
 20
-196.87660848
 30
0.0
 11
-7.46894675
 21
-196.87660848
 31
0.0
  0
LINE
  5
340
  8
LE_ALL
  6
STRICHPUNKT2
 62
     1
 10
-1.46894675
 20
-196.87660848
 30
0.0
 11
4.53105325
 21
-196.87660848
 31
0.0
  0
LINE
  5
341
  8
LE_ALL
  6
STRICHPUNKT2
 62
     1
 10
-1.46894675
 20
-159.87660848
 30
0.0
 11
-1.46894675
 21
-153.87660848
 31
0.0
  0
LINE
  5
342
  8
LE_ALL
  6
STRICHPUNKT2
 62
     1
 10
-1.46894675
 20
-159.87660848
 30
0.0
 11
-1.46894675
 21
-165.87660848
 31
0.0
  0
LINE
  5
343
  8
LE_ALL
  6
STRICHPUNKT2
 62
     1
 10
-1.46894675
 20
-159.87660848
 30
0.0
 11
-7.46894675
 21
-159.87660848
 31
0.0
  0
LINE
  5
344
  8
LE_ALL
  6
STRICHPUNKT2
 62
     1
 10
-1.46894675
 20
-159.87660848
 30
0.0
 11
4.53105325
 21
-159.87660848
 31
0.0
  0
LINE
  5
345
  8
LE_ALL
  6
STRICHPUNKT2
 62
     1
 10
-1.46894675
 20
-159.87660848
 30
0.0
 11
-1.46894675
 21
-153.87660848
 31
0.0
  0
LINE
  5
346
  8
LE_ALL
  6
STRICHPUNKT2
 62
     1
 10
-1.46894675
 20
-159.87660848
 30
0.0
 11
-1.46894675
 21
-165.87660848
 31
0.0
  0
LINE
  5
347
  8
LE_ALL
  6
STRICHPUNKT2
 62
     1
 10
-1.46894675
 20
-159.87660848
 30
0.0
 11
-7.46894675
 21
-159.87660848
 31
0.0
  0
LINE
  5
348
  8
LE_ALL
  6
STRICHPUNKT2
 62
     1
 10
-1.46894675
 20
-159.87660848
 30
0.0
 11
4.53105325
 21
-159.87660848
 31
0.0
  0
LINE
  5
349
  8
LE_ALL
  6
STRICHPUNKT2
 62
     1
 10
17.03105325
 20
-178.37660848
 30
0.0
 11
17.03105325
 21
-168.87660848
 31
0.0
  0
LINE
  5
34A
  8
LE_ALL
  6
STRICHPUNKT2
 62
     1
 10
17.03105325
 20
-178.37660848
 30
0.0
 11
17.03105325
 21
-187.87660848
 31
0.0
  0
LINE
  5
34B
  8
LE_ALL
  6
STRICHPUNKT2
 62
     1
 10
17.03105325
 20
-178.37660848
 30
0.0
 11
7.53105325
 21
-178.37660848
 31
0.0
  0
LINE
  5
34C
  8
LE_ALL
  6
STRICHPUNKT2
 62
     1
 10
17.03105325
 20
-178.37660848
 30
0.0
 11
26.53105325
 21
-178.37660848
 31
0.0
  0
LINE
  5
34D
  8
LE_ALL
  6
STRICHPUNKT2
 62
     1
 10
17.03105325
 20
-178.37660848
 30
0.0
 11
17.03105325
 21
-168.87660848
 31
0.0
  0
LINE
  5
34E
  8
LE_ALL
  6
STRICHPUNKT2
 62
     1
 10
17.03105325
 20
-178.37660848
 30
0.0
 11
17.03105325
 21
-187.87660848
 31
0.0
  0
LINE
  5
34F
  8
LE_ALL
  6
STRICHPUNKT2
 62
     1
 10
17.03105325
 20
-178.37660848
 30
0.0
 11
7.53105325
 21
-178.37660848
 31
0.0
  0
LINE
  5
350
  8
LE_ALL
  6
STRICHPUNKT2
 62
     1
 10
17.03105325
 20
-178.37660848
 30
0.0
 11
26.53105325
 21
-178.37660848
 31
0.0
  0
ENDBLK
  8
0
  0
BLOCK
  8
0
  2
BEND_ZONE_00057
 70
     0
 10
0.0
 20
0.0
 30
0.0
  0
INSERT
  5
353
  8
0
  2
BEND_ZONE_00058
 10
105.04476175
 20
-148.37660848
 30
0.0
  0
ENDBLK
  8
0
  0
BLOCK
  8
0
  2
BEND_ZONE_00058
 70
     0
 10
105.04476175
 20
-148.37660848
 30
0.0
  0
LINE
  5
356
  8
LE_ALL
  6
DOT
 62
     3
 10
105.04476175
 20
-148.37660848
 30
0.0
 11
105.04476175
 21
-208.37660848
 31
0.0
  0
LINE
  5
357
  8
LE_ALL
 10
99.3879075
 20
-148.37660848
 30
0.0
 11
99.3879075
 21
-208.37660848
 31
0.0
  0
POLYLINE
  5
358
  8
LE_ALL
 66
     1
 10
0.0
 20
0.0
 30
0.0
  0
VERTEX
  5
359
  8
LE_ALL
 10
99.3879075
 20
-148.37660848
 30
0.0
  0
VERTEX
  5
35A
  8
LE_ALL
 10
93.73105325
 20
-148.37660848
 30
0.0
  0
VERTEX
  5
35B
  8
LE_ALL
 10
93.73105325
 20
-208.37660848
 30
0.0
  0
VERTEX
  5
35C
  8
LE_ALL
 10
99.3879075
 20
-208.37660848
 30
0.0
  0
SEQEND
  5
35D
  8
LE_ALL
  0
ENDBLK
  8
0
  0
BLOCK
  8
0
  2
SHEET_FLANGE_00059
 70
     0
 10
0.0
 20
0.0
 30
0.0
  0
INSERT
  5
360
  8
0
  2
SHEET_FLANGE_00060
 10
105.04476175
 20
-208.37660848
 30
0.0
  0
ENDBLK
  8
0
  0
BLOCK
  8
0
  2
SHEET_FLANGE_00060
 70
     0
 10
105.04476175
 20
-208.37660848
 30
0.0
  0
LINE
  5
363
  8
LE_ALL
  6
DOT
 62
     3
 10
105.04476175
 20
-208.37660848
 30
0.0
 11
105.04476175
 21
-148.37660848
 31
0.0
  0
LINE
  5
364
  8
LE_ALL
 10
102.35816823
 20
-208.37660848
 30
0.0
 11
102.35816823
 21
-148.37660848
 31
0.0
  0
LINE
  5
365
  8
LE_ALL
  6
DOT
 62
     3
 10
108.01502248
 20
-148.37660848
 30
0.0
 11
108.01502248
 21
-208.37660848
 31
0.0
  0
POLYLINE
  5
366
  8
LE_ALL
 66
     1
 10
0.0
 20
0.0
 30
0.0
  0
VERTEX
  5
367
  8
LE_ALL
 10
102.35816823
 20
-148.37660848
 30
0.0
  0
VERTEX
  5
368
  8
LE_ALL
 10
99.3879075
 20
-148.37660848
 30
0.0
  0
VERTEX
  5
369
  8
LE_ALL
 10
99.3879075
 20
-208.37660848
 30
0.0
  0
VERTEX
  5
36A
  8
LE_ALL
 10
102.35816823
 20
-208.37660848
 30
0.0
  0
SEQEND
  5
36B
  8
LE_ALL
  0
ENDBLK
  8
0
  0
BLOCK
  8
0
  2
BEND_ZONE_00061
 70
     0
 10
0.0
 20
0.0
 30
0.0
  0
INSERT
  5
36E
  8
0
  2
BEND_ZONE_00062
 10
108.01502248
 20
-208.37660848
 30
0.0
  0
ENDBLK
  8
0
  0
BLOCK
  8
0
  2
BEND_ZONE_00062
 70
     0
 10
108.01502248
 20
-208.37660848
 30
0.0
  0
LINE
  5
371
  8
LE_ALL
  6
DOT
 62
     3
 10
108.01502248
 20
-208.37660848
 30
0.0
 11
108.01502248
 21
-148.37660848
 31
0.0
  0
POLYLINE
  5
372
  8
LE_ALL
 66
     1
 10
0.0
 20
0.0
 30
0.0
  0
VERTEX
  5
373
  8
LE_ALL
 10
102.35816823
 20
-208.37660848
 30
0.0
  0
VERTEX
  5
374
  8
LE_ALL
 10
102.35816823
 20
-148.37660848
 30
0.0
  0
VERTEX
  5
375
  8
LE_ALL
 10
113.67187673
 20
-148.37660848
 30
0.0
  0
SEQEND
  5
376
  8
LE_ALL
  0
LINE
  5
377
  8
LE_ALL
 10
113.67187673
 20
-208.37660848
 30
0.0
 11
113.67187673
 21
-148.37660848
 31
0.0
  0
LINE
  5
378
  8
LE_ALL
 10
113.67187673
 20
-208.37660848
 30
0.0
 11
102.35816823
 21
-208.37660848
 31
0.0
  0
ENDBLK
  8
0
  0
BLOCK
  8
0
  2
SHEET_FLANGE_00063
 70
     0
 10
0.0
 20
0.0
 30
0.0
  0
INSERT
  5
37B
  8
0
  2
SHEET_FLANGE_00064
 10
275.04445973
 20
-148.37660848
 30
0.0
  0
INSERT
  5
37C
  8
0
  2
_00065
 10
0.0
 20
0.0
 30
0.0
  0
ENDBLK
  8
0
  0
BLOCK
  8
0
  2
SHEET_FLANGE_00064
 70
     0
 10
275.04445973
 20
-148.37660848
 30
0.0
  0
LINE
  5
37F
  8
LE_ALL
  6
DOT
 62
     3
 10
275.04445973
 20
-148.37660848
 30
0.0
 11
275.04445973
 21
-148.37660848
 31
0.0
  0
LINE
  5
380
  8
LE_ALL
  6
DOT
 62
     3
 10
275.04445973
 20
-208.37660848
 30
0.0
 11
275.04445973
 21
-208.37660848
 31
0.0
  0
LINE
  5
381
  8
LE_ALL
  6
DOT
 62
     3
 10
248.54445973
 20
-184.87660848
 30
0.0
 11
248.54445973
 21
-184.87660848
 31
0.0
  0
LINE
  5
382
  8
LE_ALL
  6
DOT
 62
     3
 10
221.54445973
 20
-184.87660848
 30
0.0
 11
221.54445973
 21
-184.87660848
 31
0.0
  0
LINE
  5
383
  8
LE_ALL
  6
DOT
 62
     3
 10
248.54445973
 20
-171.87660848
 30
0.0
 11
248.54445973
 21
-171.87660848
 31
0.0
  0
LINE
  5
384
  8
LE_ALL
  6
DOT
 62
     3
 10
221.54445973
 20
-171.87660848
 30
0.0
 11
221.54445973
 21
-171.87660848
 31
0.0
  0
POLYLINE
  5
385
  8
LE_ALL
 66
     1
 10
0.0
 20
0.0
 30
0.0
 70
     1
  0
VERTEX
  5
386
  8
LE_ALL
 10
221.54445973
 20
-184.87660848
 30
0.0
 42
-1.0
  0
VERTEX
  5
387
  8
LE_ALL
 10
221.54445973
 20
-171.87660848
 30
0.0
  0
VERTEX
  5
388
  8
LE_ALL
 10
248.54445973
 20
-171.87660848
 30
0.0
 42
-1.0
  0
VERTEX
  5
389
  8
LE_ALL
 10
248.54445973
 20
-184.87660848
 30
0.0
  0
SEQEND
  5
38A
  8
LE_ALL
  0
CIRCLE
  5
38B
  8
LE_ALL
 10
160.04445973
 20
-178.37660848
 30
0.0
 40
6.5
  0
POLYLINE
  5
38C
  8
LE_ALL
 66
     1
 10
0.0
 20
0.0
 30
0.0
 70
     1
  0
VERTEX
  5
38D
  8
LE_ALL
 10
113.67187673
 20
-148.37660848
 30
0.0
  0
VERTEX
  5
38E
  8
LE_ALL
 10
113.67187673
 20
-208.37660848
 30
0.0
  0
VERTEX
  5
38F
  8
LE_ALL
 10
275.04445973
 20
-208.37660848
 30
0.0
  0
VERTEX
  5
390
  8
LE_ALL
 10
275.04445973
 20
-148.37660848
 30
0.0
  0
SEQEND
  5
391
  8
LE_ALL
  0
ENDBLK
  8
0
  0
BLOCK
  8
0
  2
_00065
 70
     0
 10
0.0
 20
0.0
 30
0.0
  0
INSERT
  5
394
  8
0
  2
_00066
 10
160.04445973
 20
-178.37660848
 30
0.0
  0
ENDBLK
  8
0
  0
BLOCK
  8
0
  2
_00066
 70
     0
 10
160.04445973
 20
-178.37660848
 30
0.0
  0
LINE
  5
397
  8
LE_ALL
  6
STRICHPUNKT2
 62
     1
 10
160.04445973
 20
-178.37660848
 30
0.0
 11
169.54445973
 21
-178.37660848
 31
0.0
  0
LINE
  5
398
  8
LE_ALL
  6
STRICHPUNKT2
 62
     1
 10
160.04445973
 20
-178.37660848
 30
0.0
 11
150.54445973
 21
-178.37660848
 31
0.0
  0
LINE
  5
399
  8
LE_ALL
  6
STRICHPUNKT2
 62
     1
 10
160.04445973
 20
-178.37660848
 30
0.0
 11
160.04445973
 21
-168.87660848
 31
0.0
  0
LINE
  5
39A
  8
LE_ALL
  6
STRICHPUNKT2
 62
     1
 10
160.04445973
 20
-178.37660848
 30
0.0
 11
160.04445973
 21
-187.87660848
 31
0.0
  0
LINE
  5
39B
  8
LE_ALL
  6
STRICHPUNKT2
 62
     1
 10
160.04445973
 20
-178.37660848
 30
0.0
 11
169.54445973
 21
-178.37660848
 31
0.0
  0
LINE
  5
39C
  8
LE_ALL
  6
STRICHPUNKT2
 62
     1
 10
160.04445973
 20
-178.37660848
 30
0.0
 11
150.54445973
 21
-178.37660848
 31
0.0
  0
LINE
  5
39D
  8
LE_ALL
  6
STRICHPUNKT2
 62
     1
 10
160.04445973
 20
-178.37660848
 30
0.0
 11
160.04445973
 21
-168.87660848
 31
0.0
  0
LINE
  5
39E
  8
LE_ALL
  6
STRICHPUNKT2
 62
     1
 10
160.04445973
 20
-178.37660848
 30
0.0
 11
160.04445973
 21
-187.87660848
 31
0.0
  0
LINE
  5
39F
  8
LE_ALL
  6
STRICHPUNKT2
 62
     1
 10
212.04445973
 20
-178.37660848
 30
0.0
 11
258.04445973
 21
-178.37660848
 31
0.0
  0
LINE
  5
3A0
  8
LE_ALL
  6
STRICHPUNKT2
 62
     1
 10
221.54445973
 20
-187.87660848
 30
0.0
 11
221.54445973
 21
-168.87660848
 31
0.0
  0
LINE
  5
3A1
  8
LE_ALL
  6
STRICHPUNKT2
 62
     1
 10
248.54445973
 20
-187.87660848
 30
0.0
 11
248.54445973
 21
-168.87660848
 31
0.0
  0
LINE
  5
3A2
  8
LE_ALL
  6
STRICHPUNKT2
 62
     1
 10
212.04445973
 20
-178.37660848
 30
0.0
 11
258.04445973
 21
-178.37660848
 31
0.0
  0
LINE
  5
3A3
  8
LE_ALL
  6
STRICHPUNKT2
 62
     1
 10
221.54445973
 20
-187.87660848
 30
0.0
 11
221.54445973
 21
-168.87660848
 31
0.0
  0
LINE
  5
3A4
  8
LE_ALL
  6
STRICHPUNKT2
 62
     1
 10
248.54445973
 20
-187.87660848
 30
0.0
 11
248.54445973
 21
-168.87660848
 31
0.0
  0
ENDBLK
  8
0
  0
BLOCK
  8
0
  2
_ANS0006_00067
 70
     0
 10
0.0
 20
0.0
 30
0.0
  0
INSERT
  5
3A7
  8
0
  2
_A3D0006_00068
 10
0.0
 20
0.0
 30
0.0
  0
ENDBLK
  8
0
  0
BLOCK
  8
0
  2
_A3D0006_00068
 70
     0
 10
0.0
 20
0.0
 30
0.0
  0
INSERT
  5
3AA
  8
0
  2
PLAATWERK__D___8MM_00069
 10
0.0
 20
0.0
 30
0.0
  0
ENDBLK
  8
0
  0
BLOCK
  8
0
  2
PLAATWERK__D___8MM_00069
 70
     0
 10
0.0
 20
0.0
 30
0.0
  0
INSERT
  5
3AD
  8
0
  2
SHEET_FLANGE_00070
 10
0.0
 20
0.0
 30
0.0
  0
INSERT
  5
3AE
  8
0
  2
BEND_ZONE_00074
 10
0.0
 20
0.0
 30
0.0
  0
INSERT
  5
3AF
  8
0
  2
SHEET_FLANGE_00076
 10
0.0
 20
0.0
 30
0.0
  0
INSERT
  5
3B0
  8
0
  2
BEND_ZONE_00078
 10
0.0
 20
0.0
 30
0.0
  0
INSERT
  5
3B1
  8
0
  2
SHEET_FLANGE_00080
 10
0.0
 20
0.0
 30
0.0
  0
ENDBLK
  8
0
  0
BLOCK
  8
0
  2
SHEET_FLANGE_00070
 70
     0
 10
0.0
 20
0.0
 30
0.0
  0
INSERT
  5
3B4
  8
0
  2
SHEET_FLANGE_00071
 10
228.89542004
 20
-108.83482775
 30
0.0
  0
INSERT
  5
3B5
  8
0
  2
_00072
 10
0.0
 20
0.0
 30
0.0
  0
ENDBLK
  8
0
  0
BLOCK
  8
0
  2
SHEET_FLANGE_00071
 70
     0
 10
228.89542004
 20
-108.83482775
 30
0.0
  0
POLYLINE
  5
3B8
  8
LE_ALL
 66
     1
 10
0.0
 20
0.0
 30
0.0
  0
VERTEX
  5
60D
  8
LE_ALL
 10
228.89542004
 20
-108.83482775
 30
0.0
  0
VERTEX
  5
60E
  8
LE_ALL
 10
228.8329722014527
 20
-108.6234799035011
 30
0.0
  0
VERTEX
  5
60F
  8
LE_ALL
 10
228.6480285212198
 20
-108.4202540361993
 30
0.0
  0
VERTEX
  5
610
  8
LE_ALL
 10
228.3476962811986
 20
-108.2329600041871
 30
0.0
  0
VERTEX
  5
611
  8
LE_ALL
 10
227.9435170809187
 20
-108.0687954120624
 30
0.0
  0
VERTEX
  5
612
  8
LE_ALL
 10
227.4510233003452
 20
-107.9340690130217
 30
0.0
  0
VERTEX
  5
613
  8
LE_ALL
 10
226.8891411992286
 20
-107.8339582670129
 30
0.0
  0
VERTEX
  5
614
  8
LE_ALL
 10
226.2794635915586
 20
-107.7723103738536
 30
0.0
  0
VERTEX
  5
615
  8
LE_ALL
 10
225.6454200458334
 20
-107.7514944275
 30
0.0
  0
VERTEX
  5
616
  8
LE_ALL
 10
225.0113764998841
 20
-107.7723103730949
 30
0.0
  0
VERTEX
  5
617
  8
LE_ALL
 10
224.4016988915502
 20
-107.8339582655247
 30
0.0
  0
VERTEX
  5
618
  8
LE_ALL
 10
223.8398167893555
 20
-107.9340690108611
 30
0.0
  0
VERTEX
  5
619
  8
LE_ALL
 10
223.347323007331
 20
-108.0687954093125
 30
0.0
  0
VERTEX
  5
61A
  8
LE_ALL
 10
222.9431438052831
 20
-108.2329600009535
 30
0.0
  0
VERTEX
  5
61B
  8
LE_ALL
 10
222.6428115632449
 20
-108.4202540326064
 30
0.0
  0
VERTEX
  5
61C
  8
LE_ALL
 10
222.4578678808233
 20
-108.6234798996868
 30
0.0
  0
VERTEX
  5
61D
  8
LE_ALL
 10
222.39542004
 20
-108.8348277461111
 30
0.0
  0
SEQEND
  5
71C
  8
LE_ALL
  0
POLYLINE
  5
3B9
  8
LE_ALL
 66
     1
 10
0.0
 20
0.0
 30
0.0
  0
VERTEX
  5
61E
  8
LE_ALL
 10
222.39542004
 20
-108.8348277461111
 30
0.0
  0
VERTEX
  5
61F
  8
LE_ALL
 10
222.4578678765557
 20
-109.0461755931615
 30
0.0
  0
VERTEX
  5
620
  8
LE_ALL
 10
222.6428115554317
 20
-109.249401461106
 30
0.0
  0
VERTEX
  5
621
  8
LE_ALL
 10
222.9431437947503
 20
-109.436695493792
 30
0.0
  0
VERTEX
  5
622
  8
LE_ALL
 10
223.3473229949564
 20
-109.6008600865627
 30
0.0
  0
VERTEX
  5
623
  8
LE_ALL
 10
223.8398167760171
 20
-109.7355864861681
 30
0.0
  0
VERTEX
  5
624
  8
LE_ALL
 10
224.4016988780768
 20
-109.8356972326151
 30
0.0
  0
VERTEX
  5
625
  8
LE_ALL
 10
225.0113764870111
 20
-109.8973451260516
 30
0.0
  0
VERTEX
  5
626
  8
LE_ALL
 10
225.6454200341666
 20
-109.9181610725
 30
0.0
  0
VERTEX
  5
627
  8
LE_ALL
 10
226.2794635815463
 20
-109.8973451268103
 30
0.0
  0
VERTEX
  5
628
  8
LE_ALL
 10
226.8891411911445
 20
-109.8356972341033
 30
0.0
  0
VERTEX
  5
629
  8
LE_ALL
 10
227.4510232942823
 20
-109.7355864883287
 30
0.0
  0
VERTEX
  5
62A
  8
LE_ALL
 10
227.9435170767939
 20
-109.6008600893126
 30
0.0
  0
VERTEX
  5
62B
  8
LE_ALL
 10
228.347696278768
 20
-109.4366954970255
 30
0.0
  0
VERTEX
  5
62C
  8
LE_ALL
 10
228.6480285201036
 20
-109.2494014646989
 30
0.0
  0
VERTEX
  5
62D
  8
LE_ALL
 10
228.8329722011682
 20
-109.0461755969757
 30
0.0
  0
VERTEX
  5
62E
  8
LE_ALL
 10
228.89542004
 20
-108.83482775
 30
0.0
  0
SEQEND
  5
71D
  8
LE_ALL
  0
POLYLINE
  5
3BA
  8
LE_ALL
 66
     1
 10
0.0
 20
0.0
 30
0.0
  0
VERTEX
  5
62F
  8
LE_ALL
 10
222.2632062
 20
-104.86051056
 30
0.0
  0
VERTEX
  5
630
  8
LE_ALL
 10
222.224776760894
 20
-104.7304503467699
 30
0.0
  0
VERTEX
  5
631
  8
LE_ALL
 10
222.110965265366
 20
-104.6053882745842
 30
0.0
  0
VERTEX
  5
632
  8
LE_ALL
 10
221.926145425353
 20
-104.4901304087305
 30
0.0
  0
VERTEX
  5
633
  8
LE_ALL
 10
221.6774197636423
 20
-104.3891060443461
 30
0.0
  0
VERTEX
  5
634
  8
LE_ALL
 10
221.3743466679047
 20
-104.3061974910903
 30
0.0
  0
VERTEX
  5
635
  8
LE_ALL
 10
221.0285730672176
 20
-104.2445908781618
 30
0.0
  0
VERTEX
  5
636
  8
LE_ALL
 10
220.653386847113
 20
-104.2066537131407
 30
0.0
  0
VERTEX
  5
637
  8
LE_ALL
 10
220.2632062035898
 20
-104.1938439
 30
0.0
  0
VERTEX
  5
638
  8
LE_ALL
 10
219.8730255599287
 20
-104.2066537126738
 30
0.0
  0
VERTEX
  5
639
  8
LE_ALL
 10
219.4978393394155
 20
-104.2445908772459
 30
0.0
  0
VERTEX
  5
63A
  8
LE_ALL
 10
219.1520657380649
 20
-104.3061974897607
 30
0.0
  0
VERTEX
  5
63B
  8
LE_ALL
 10
218.8489926414345
 20
-104.3891060426538
 30
0.0
  0
VERTEX
  5
63C
  8
LE_ALL
 10
218.6002669786358
 20
-104.4901304067406
 30
0.0
  0
VERTEX
  5
63D
  8
LE_ALL
 10
218.4154471373815
 20
-104.6053882723732
 30
0.0
  0
VERTEX
  5
63E
  8
LE_ALL
 10
218.3016356405067
 20
-104.7304503444227
 30
0.0
  0
VERTEX
  5
63F
  8
LE_ALL
 10
218.2632062
 20
-104.8605105576068
 30
0.0
  0
SEQEND
  5
71E
  8
LE_ALL
  0
POLYLINE
  5
3BB
  8
LE_ALL
 66
     1
 10
0.0
 20
0.0
 30
0.0
  0
VERTEX
  5
640
  8
LE_ALL
 10
218.2632062
 20
-104.8605105576068
 30
0.0
  0
VERTEX
  5
641
  8
LE_ALL
 10
218.3016356378804
 20
-104.9905707711763
 30
0.0
  0
VERTEX
  5
642
  8
LE_ALL
 10
218.4154471325734
 20
-105.1156328437575
 30
0.0
  0
VERTEX
  5
643
  8
LE_ALL
 10
218.6002669721541
 20
-105.2308907100258
 30
0.0
  0
VERTEX
  5
644
  8
LE_ALL
 10
218.8489926338194
 20
-105.3319150748078
 30
0.0
  0
VERTEX
  5
645
  8
LE_ALL
 10
219.1520657298567
 20
-105.4148236284111
 30
0.0
  0
VERTEX
  5
646
  8
LE_ALL
 10
219.4978393311242
 20
-105.4764302416093
 30
0.0
  0
VERTEX
  5
647
  8
LE_ALL
 10
219.8730255520069
 20
-105.514367406801
 30
0.0
  0
VERTEX
  5
648
  8
LE_ALL
 10
220.2632061964102
 20
-105.52717722
 30
0.0
  0
VERTEX
  5
649
  8
LE_ALL
 10
220.6533868409516
 20
-105.5143674072678
 30
0.0
  0
VERTEX
  5
64A
  8
LE_ALL
 10
221.0285730622428
 20
-105.4764302425251
 30
0.0
  0
VERTEX
  5
64B
  8
LE_ALL
 10
221.3743466641737
 20
-105.4148236297407
 30
0.0
  0
VERTEX
  5
64C
  8
LE_ALL
 10
221.6774197611039
 20
-105.3319150765
 30
0.0
  0
VERTEX
  5
64D
  8
LE_ALL
 10
221.9261454238572
 20
-105.2308907120157
 30
0.0
  0
VERTEX
  5
64E
  8
LE_ALL
 10
222.1109652646792
 20
-105.1156328459685
 30
0.0
  0
VERTEX
  5
64F
  8
LE_ALL
 10
222.2247767607189
 20
-104.9905707735235
 30
0.0
  0
VERTEX
  5
650
  8
LE_ALL
 10
222.2632062
 20
-104.86051056
 30
0.0
  0
SEQEND
  5
71F
  8
LE_ALL
  0
POLYLINE
  5
3BC
  8
LE_ALL
 66
     1
 10
0.0
 20
0.0
 30
0.0
  0
VERTEX
  5
651
  8
LE_ALL
 10
215.72246847
 20
-110.62889903
 30
0.0
  0
VERTEX
  5
652
  8
LE_ALL
 10
215.684039030894
 20
-110.4988388167699
 30
0.0
  0
VERTEX
  5
653
  8
LE_ALL
 10
215.570227535366
 20
-110.3737767445842
 30
0.0
  0
VERTEX
  5
654
  8
LE_ALL
 10
215.385407695353
 20
-110.2585188787305
 30
0.0
  0
VERTEX
  5
655
  8
LE_ALL
 10
215.1366820336423
 20
-110.1574945143461
 30
0.0
  0
VERTEX
  5
656
  8
LE_ALL
 10
214.8336089379047
 20
-110.0745859610903
 30
0.0
  0
VERTEX
  5
657
  8
LE_ALL
 10
214.4878353372176
 20
-110.0129793481618
 30
0.0
  0
VERTEX
  5
658
  8
LE_ALL
 10
214.112649117113
 20
-109.9750421831407
 30
0.0
  0
VERTEX
  5
659
  8
LE_ALL
 10
213.7224684735898
 20
-109.96223237
 30
0.0
  0
VERTEX
  5
65A
  8
LE_ALL
 10
213.3322878299286
 20
-109.9750421826738
 30
0.0
  0
VERTEX
  5
65B
  8
LE_ALL
 10
212.9571016094155
 20
-110.0129793472459
 30
0.0
  0
VERTEX
  5
65C
  8
LE_ALL
 10
212.6113280080649
 20
-110.0745859597607
 30
0.0
  0
VERTEX
  5
65D
  8
LE_ALL
 10
212.3082549114345
 20
-110.1574945126538
 30
0.0
  0
VERTEX
  5
65E
  8
LE_ALL
 10
212.0595292486358
 20
-110.2585188767406
 30
0.0
  0
VERTEX
  5
65F
  8
LE_ALL
 10
211.8747094073815
 20
-110.3737767423732
 30
0.0
  0
VERTEX
  5
660
  8
LE_ALL
 10
211.7608979105067
 20
-110.4988388144227
 30
0.0
  0
VERTEX
  5
661
  8
LE_ALL
 10
211.72246847
 20
-110.6288990276068
 30
0.0
  0
SEQEND
  5
720
  8
LE_ALL
  0
POLYLINE
  5
3BD
  8
LE_ALL
 66
     1
 10
0.0
 20
0.0
 30
0.0
  0
VERTEX
  5
662
  8
LE_ALL
 10
211.72246847
 20
-110.6288990276068
 30
0.0
  0
VERTEX
  5
663
  8
LE_ALL
 10
211.7608979078804
 20
-110.7589592411763
 30
0.0
  0
VERTEX
  5
664
  8
LE_ALL
 10
211.8747094025734
 20
-110.8840213137575
 30
0.0
  0
VERTEX
  5
665
  8
LE_ALL
 10
212.059529242154
 20
-110.9992791800258
 30
0.0
  0
VERTEX
  5
666
  8
LE_ALL
 10
212.3082549038193
 20
-111.1003035448078
 30
0.0
  0
VERTEX
  5
667
  8
LE_ALL
 10
212.6113279998567
 20
-111.1832120984111
 30
0.0
  0
VERTEX
  5
668
  8
LE_ALL
 10
212.9571016011242
 20
-111.2448187116093
 30
0.0
  0
VERTEX
  5
669
  8
LE_ALL
 10
213.3322878220068
 20
-111.282755876801
 30
0.0
  0
VERTEX
  5
66A
  8
LE_ALL
 10
213.7224684664102
 20
-111.29556569
 30
0.0
  0
VERTEX
  5
66B
  8
LE_ALL
 10
214.1126491109515
 20
-111.2827558772678
 30
0.0
  0
VERTEX
  5
66C
  8
LE_ALL
 10
214.4878353322428
 20
-111.2448187125251
 30
0.0
  0
VERTEX
  5
66D
  8
LE_ALL
 10
214.8336089341737
 20
-111.1832120997407
 30
0.0
  0
VERTEX
  5
66E
  8
LE_ALL
 10
215.1366820311039
 20
-111.1003035465
 30
0.0
  0
VERTEX
  5
66F
  8
LE_ALL
 10
215.3854076938572
 20
-110.9992791820157
 30
0.0
  0
VERTEX
  5
670
  8
LE_ALL
 10
215.5702275346791
 20
-110.8840213159686
 30
0.0
  0
VERTEX
  5
671
  8
LE_ALL
 10
215.6840390307189
 20
-110.7589592435235
 30
0.0
  0
VERTEX
  5
672
  8
LE_ALL
 10
215.72246847
 20
-110.62889903
 30
0.0
  0
SEQEND
  5
721
  8
LE_ALL
  0
POLYLINE
  5
3BE
  8
LE_ALL
 66
     1
 10
0.0
 20
0.0
 30
0.0
  0
VERTEX
  5
673
  8
LE_ALL
 10
239.56837161
 20
-107.04075647
 30
0.0
  0
VERTEX
  5
674
  8
LE_ALL
 10
239.529942170894
 20
-106.9106962567699
 30
0.0
  0
VERTEX
  5
675
  8
LE_ALL
 10
239.416130675366
 20
-106.7856341845842
 30
0.0
  0
VERTEX
  5
676
  8
LE_ALL
 10
239.231310835353
 20
-106.6703763187305
 30
0.0
  0
VERTEX
  5
677
  8
LE_ALL
 10
238.9825851736423
 20
-106.5693519543461
 30
0.0
  0
VERTEX
  5
678
  8
LE_ALL
 10
238.6795120779047
 20
-106.4864434010903
 30
0.0
  0
VERTEX
  5
679
  8
LE_ALL
 10
238.3337384772176
 20
-106.4248367881618
 30
0.0
  0
VERTEX
  5
67A
  8
LE_ALL
 10
237.958552257113
 20
-106.3868996231407
 30
0.0
  0
VERTEX
  5
67B
  8
LE_ALL
 10
237.5683716135898
 20
-106.37408981
 30
0.0
  0
VERTEX
  5
67C
  8
LE_ALL
 10
237.1781909699287
 20
-106.3868996226738
 30
0.0
  0
VERTEX
  5
67D
  8
LE_ALL
 10
236.8030047494155
 20
-106.424836787246
 30
0.0
  0
VERTEX
  5
67E
  8
LE_ALL
 10
236.4572311480649
 20
-106.4864433997607
 30
0.0
  0
VERTEX
  5
67F
  8
LE_ALL
 10
236.1541580514345
 20
-106.5693519526538
 30
0.0
  0
VERTEX
  5
680
  8
LE_ALL
 10
235.9054323886358
 20
-106.6703763167406
 30
0.0
  0
VERTEX
  5
681
  8
LE_ALL
 10
235.7206125473815
 20
-106.7856341823732
 30
0.0
  0
VERTEX
  5
682
  8
LE_ALL
 10
235.6068010505067
 20
-106.9106962544227
 30
0.0
  0
VERTEX
  5
683
  8
LE_ALL
 10
235.56837161
 20
-107.0407564676068
 30
0.0
  0
SEQEND
  5
722
  8
LE_ALL
  0
POLYLINE
  5
3BF
  8
LE_ALL
 66
     1
 10
0.0
 20
0.0
 30
0.0
  0
VERTEX
  5
684
  8
LE_ALL
 10
235.56837161
 20
-107.0407564676068
 30
0.0
  0
VERTEX
  5
685
  8
LE_ALL
 10
235.6068010478804
 20
-107.1708166811763
 30
0.0
  0
VERTEX
  5
686
  8
LE_ALL
 10
235.7206125425734
 20
-107.2958787537575
 30
0.0
  0
VERTEX
  5
687
  8
LE_ALL
 10
235.9054323821541
 20
-107.4111366200258
 30
0.0
  0
VERTEX
  5
688
  8
LE_ALL
 10
236.1541580438194
 20
-107.5121609848078
 30
0.0
  0
VERTEX
  5
689
  8
LE_ALL
 10
236.4572311398567
 20
-107.5950695384112
 30
0.0
  0
VERTEX
  5
68A
  8
LE_ALL
 10
236.8030047411242
 20
-107.6566761516093
 30
0.0
  0
VERTEX
  5
68B
  8
LE_ALL
 10
237.1781909620069
 20
-107.694613316801
 30
0.0
  0
VERTEX
  5
68C
  8
LE_ALL
 10
237.5683716064102
 20
-107.70742313
 30
0.0
  0
VERTEX
  5
68D
  8
LE_ALL
 10
237.9585522509516
 20
-107.6946133172679
 30
0.0
  0
VERTEX
  5
68E
  8
LE_ALL
 10
238.3337384722428
 20
-107.6566761525251
 30
0.0
  0
VERTEX
  5
68F
  8
LE_ALL
 10
238.6795120741737
 20
-107.5950695397407
 30
0.0
  0
VERTEX
  5
690
  8
LE_ALL
 10
238.9825851711039
 20
-107.5121609865
 30
0.0
  0
VERTEX
  5
691
  8
LE_ALL
 10
239.2313108338572
 20
-107.4111366220157
 30
0.0
  0
VERTEX
  5
692
  8
LE_ALL
 10
239.4161306746792
 20
-107.2958787559686
 30
0.0
  0
VERTEX
  5
693
  8
LE_ALL
 10
239.5299421707189
 20
-107.1708166835235
 30
0.0
  0
VERTEX
  5
694
  8
LE_ALL
 10
239.56837161
 20
-107.04075647
 30
0.0
  0
SEQEND
  5
723
  8
LE_ALL
  0
POLYLINE
  5
3C0
  8
LE_ALL
 66
     1
 10
0.0
 20
0.0
 30
0.0
  0
VERTEX
  5
695
  8
LE_ALL
 10
233.02763388
 20
-112.80914494
 30
0.0
  0
VERTEX
  5
696
  8
LE_ALL
 10
232.989204440894
 20
-112.6790847267699
 30
0.0
  0
VERTEX
  5
697
  8
LE_ALL
 10
232.875392945366
 20
-112.5540226545842
 30
0.0
  0
VERTEX
  5
698
  8
LE_ALL
 10
232.690573105353
 20
-112.4387647887305
 30
0.0
  0
VERTEX
  5
699
  8
LE_ALL
 10
232.4418474436423
 20
-112.3377404243461
 30
0.0
  0
VERTEX
  5
69A
  8
LE_ALL
 10
232.1387743479047
 20
-112.2548318710903
 30
0.0
  0
VERTEX
  5
69B
  8
LE_ALL
 10
231.7930007472176
 20
-112.1932252581618
 30
0.0
  0
VERTEX
  5
69C
  8
LE_ALL
 10
231.417814527113
 20
-112.1552880931407
 30
0.0
  0
VERTEX
  5
69D
  8
LE_ALL
 10
231.0276338835898
 20
-112.14247828
 30
0.0
  0
VERTEX
  5
69E
  8
LE_ALL
 10
230.6374532399286
 20
-112.1552880926738
 30
0.0
  0
VERTEX
  5
69F
  8
LE_ALL
 10
230.2622670194155
 20
-112.1932252572459
 30
0.0
  0
VERTEX
  5
6A0
  8
LE_ALL
 10
229.9164934180649
 20
-112.2548318697607
 30
0.0
  0
VERTEX
  5
6A1
  8
LE_ALL
 10
229.6134203214345
 20
-112.3377404226538
 30
0.0
  0
VERTEX
  5
6A2
  8
LE_ALL
 10
229.3646946586358
 20
-112.4387647867406
 30
0.0
  0
VERTEX
  5
6A3
  8
LE_ALL
 10
229.1798748173815
 20
-112.5540226523732
 30
0.0
  0
VERTEX
  5
6A4
  8
LE_ALL
 10
229.0660633205067
 20
-112.6790847244227
 30
0.0
  0
VERTEX
  5
6A5
  8
LE_ALL
 10
229.02763388
 20
-112.8091449376068
 30
0.0
  0
SEQEND
  5
724
  8
LE_ALL
  0
POLYLINE
  5
3C1
  8
LE_ALL
 66
     1
 10
0.0
 20
0.0
 30
0.0
  0
VERTEX
  5
6A6
  8
LE_ALL
 10
229.02763388
 20
-112.8091449376068
 30
0.0
  0
VERTEX
  5
6A7
  8
LE_ALL
 10
229.0660633178804
 20
-112.9392051511763
 30
0.0
  0
VERTEX
  5
6A8
  8
LE_ALL
 10
229.1798748125734
 20
-113.0642672237575
 30
0.0
  0
VERTEX
  5
6A9
  8
LE_ALL
 10
229.364694652154
 20
-113.1795250900258
 30
0.0
  0
VERTEX
  5
6AA
  8
LE_ALL
 10
229.6134203138193
 20
-113.2805494548078
 30
0.0
  0
VERTEX
  5
6AB
  8
LE_ALL
 10
229.9164934098567
 20
-113.3634580084111
 30
0.0
  0
VERTEX
  5
6AC
  8
LE_ALL
 10
230.2622670111242
 20
-113.4250646216093
 30
0.0
  0
VERTEX
  5
6AD
  8
LE_ALL
 10
230.6374532320068
 20
-113.463001786801
 30
0.0
  0
VERTEX
  5
6AE
  8
LE_ALL
 10
231.0276338764102
 20
-113.4758116
 30
0.0
  0
VERTEX
  5
6AF
  8
LE_ALL
 10
231.4178145209515
 20
-113.4630017872678
 30
0.0
  0
VERTEX
  5
6B0
  8
LE_ALL
 10
231.7930007422428
 20
-113.4250646225251
 30
0.0
  0
VERTEX
  5
6B1
  8
LE_ALL
 10
232.1387743441737
 20
-113.3634580097407
 30
0.0
  0
VERTEX
  5
6B2
  8
LE_ALL
 10
232.4418474411039
 20
-113.2805494565
 30
0.0
  0
VERTEX
  5
6B3
  8
LE_ALL
 10
232.6905731038572
 20
-113.1795250920157
 30
0.0
  0
VERTEX
  5
6B4
  8
LE_ALL
 10
232.8753929446791
 20
-113.0642672259685
 30
0.0
  0
VERTEX
  5
6B5
  8
LE_ALL
 10
232.9892044407189
 20
-112.9392051535235
 30
0.0
  0
VERTEX
  5
6B6
  8
LE_ALL
 10
233.02763388
 20
-112.80914494
 30
0.0
  0
SEQEND
  5
725
  8
LE_ALL
  0
LINE
  5
3C2
  8
LE_ALL
 10
206.31090398
 20
-115.5153687
 30
0.0
 11
206.31090398
 21
-111.74413253
 31
0.0
  0
LINE
  5
3C3
  8
LE_ALL
 10
256.21525938
 20
-118.03149033
 30
0.0
 11
206.31090398
 21
-111.74413253
 31
0.0
  0
LINE
  5
3C4
  8
LE_ALL
 10
206.31090398
 20
-115.5153687
 30
0.0
 11
256.21525938
 21
-121.80272649
 31
0.0
  0
LINE
  5
3C5
  8
LE_ALL
 10
266.8218611
 20
-108.67734686
 30
0.0
 11
256.21525938
 21
-118.03149033
 31
0.0
  0
LINE
  5
3C6
  8
LE_ALL
 10
216.9175057
 20
-102.38998907
 30
0.0
 11
266.8218611
 21
-108.67734686
 31
0.0
  0
LINE
  5
3C7
  8
LE_ALL
 10
206.31090398
 20
-111.74413253
 30
0.0
 11
216.9175057
 21
-102.38998907
 31
0.0
  0
ENDBLK
  8
0
  0
BLOCK
  8
0
  2
_00072
 70
     0
 10
0.0
 20
0.0
 30
0.0
  0
INSERT
  5
3CA
  8
0
  2
_00073
 10
231.02763388
 20
-111.8663359
 30
0.0
  0
ENDBLK
  8
0
  0
BLOCK
  8
0
  2
_00073
 70
     0
 10
231.02763388
 20
-111.8663359
 30
0.0
  0
LINE
  5
3CD
  8
LE_ALL
  6
STRICHPUNKT2
 62
     1
 10
231.02763388
 20
-111.8663359
 30
0.0
 11
231.02763388
 21
-113.47581161
 31
0.0
  0
LINE
  5
3CE
  8
LE_ALL
  6
STRICHPUNKT2
 62
     1
 10
231.02763388
 20
-112.80914494
 30
0.0
 11
232.08829406
 21
-111.87373059
 31
0.0
  0
LINE
  5
3CF
  8
LE_ALL
  6
STRICHPUNKT2
 62
     1
 10
231.02763388
 20
-112.80914494
 30
0.0
 11
229.96697371
 21
-113.74455929
 31
0.0
  0
LINE
  5
3D0
  8
LE_ALL
  6
STRICHPUNKT2
 62
     1
 10
231.02763388
 20
-112.80914494
 30
0.0
 11
228.22139084
 21
-112.45559155
 31
0.0
  0
LINE
  5
3D1
  8
LE_ALL
  6
STRICHPUNKT2
 62
     1
 10
231.02763388
 20
-112.80914494
 30
0.0
 11
233.83387692
 21
-113.16269833
 31
0.0
  0
LINE
  5
3D2
  8
LE_ALL
  6
STRICHPUNKT2
 62
     1
 10
237.56837161
 20
-106.09794743
 30
0.0
 11
237.56837161
 21
-107.70742314
 31
0.0
  0
LINE
  5
3D3
  8
LE_ALL
  6
STRICHPUNKT2
 62
     1
 10
237.56837161
 20
-107.04075647
 30
0.0
 11
238.62903178
 21
-106.10534212
 31
0.0
  0
LINE
  5
3D4
  8
LE_ALL
  6
STRICHPUNKT2
 62
     1
 10
237.56837161
 20
-107.04075647
 30
0.0
 11
236.50771144
 21
-107.97617082
 31
0.0
  0
LINE
  5
3D5
  8
LE_ALL
  6
STRICHPUNKT2
 62
     1
 10
237.56837161
 20
-107.04075647
 30
0.0
 11
234.76212857
 21
-106.68720308
 31
0.0
  0
LINE
  5
3D6
  8
LE_ALL
  6
STRICHPUNKT2
 62
     1
 10
237.56837161
 20
-107.04075647
 30
0.0
 11
240.37461465
 21
-107.39430986
 31
0.0
  0
LINE
  5
3D7
  8
LE_ALL
  6
STRICHPUNKT2
 62
     1
 10
213.72246847
 20
-109.68608999
 30
0.0
 11
213.72246847
 21
-111.2955657
 31
0.0
  0
LINE
  5
3D8
  8
LE_ALL
  6
STRICHPUNKT2
 62
     1
 10
213.72246847
 20
-110.62889903
 30
0.0
 11
214.78312864
 21
-109.69348469
 31
0.0
  0
LINE
  5
3D9
  8
LE_ALL
  6
STRICHPUNKT2
 62
     1
 10
213.72246847
 20
-110.62889903
 30
0.0
 11
212.6618083
 21
-111.56431338
 31
0.0
  0
LINE
  5
3DA
  8
LE_ALL
  6
STRICHPUNKT2
 62
     1
 10
213.72246847
 20
-110.62889903
 30
0.0
 11
210.91622543
 21
-110.27534564
 31
0.0
  0
LINE
  5
3DB
  8
LE_ALL
  6
STRICHPUNKT2
 62
     1
 10
213.72246847
 20
-110.62889903
 30
0.0
 11
216.52871151
 21
-110.98245242
 31
0.0
  0
LINE
  5
3DC
  8
LE_ALL
  6
STRICHPUNKT2
 62
     1
 10
220.2632062
 20
-103.91770152
 30
0.0
 11
220.2632062
 21
-105.52717723
 31
0.0
  0
LINE
  5
3DD
  8
LE_ALL
  6
STRICHPUNKT2
 62
     1
 10
220.2632062
 20
-104.86051056
 30
0.0
 11
221.32386637
 21
-103.92509621
 31
0.0
  0
LINE
  5
3DE
  8
LE_ALL
  6
STRICHPUNKT2
 62
     1
 10
220.2632062
 20
-104.86051056
 30
0.0
 11
219.20254602
 21
-105.79592491
 31
0.0
  0
LINE
  5
3DF
  8
LE_ALL
  6
STRICHPUNKT2
 62
     1
 10
220.2632062
 20
-104.86051056
 30
0.0
 11
217.45696316
 21
-104.50695717
 31
0.0
  0
LINE
  5
3E0
  8
LE_ALL
  6
STRICHPUNKT2
 62
     1
 10
220.2632062
 20
-104.86051056
 30
0.0
 11
223.06944924
 21
-105.21406395
 31
0.0
  0
LINE
  5
3E1
  8
LE_ALL
  6
STRICHPUNKT2
 62
     1
 10
225.64542004
 20
-107.42061419
 30
0.0
 11
225.64542004
 21
-109.91816108
 31
0.0
  0
LINE
  5
3E2
  8
LE_ALL
  6
STRICHPUNKT2
 62
     1
 10
225.64542004
 20
-108.83482775
 30
0.0
 11
227.32479865
 21
-107.35375504
 31
0.0
  0
LINE
  5
3E3
  8
LE_ALL
  6
STRICHPUNKT2
 62
     1
 10
225.64542004
 20
-108.83482775
 30
0.0
 11
223.96604144
 21
-110.31590047
 31
0.0
  0
LINE
  5
3E4
  8
LE_ALL
  6
STRICHPUNKT2
 62
     1
 10
225.64542004
 20
-108.83482775
 30
0.0
 11
221.20220189
 21
-108.27503488
 31
0.0
  0
LINE
  5
3E5
  8
LE_ALL
  6
STRICHPUNKT2
 62
     1
 10
225.64542004
 20
-108.83482775
 30
0.0
 11
230.08863819
 21
-109.39462062
 31
0.0
  0
ENDBLK
  8
0
  0
BLOCK
  8
0
  2
BEND_ZONE_00074
 70
     0
 10
0.0
 20
0.0
 30
0.0
  0
INSERT
  5
3E8
  8
0
  2
BEND_ZONE_00075
 10
269.46761241
 20
-107.90611069
 30
0.0
  0
ENDBLK
  8
0
  0
BLOCK
  8
0
  2
BEND_ZONE_00075
 70
     0
 10
269.46761241
 20
-107.90611069
 30
0.0
  0
LINE
  5
3EB
  8
LE_ALL
 10
269.46761241
 20
-107.90611069
 30
0.0
 11
258.86101069
 21
-117.26025416
 31
0.0
  0
POLYLINE
  5
3EC
  8
LE_ALL
 66
     1
 10
0.0
 20
0.0
 30
0.0
  0
VERTEX
  5
6B7
  8
LE_ALL
 10
266.8218610929196
 20
-108.6773468469815
 30
0.0
  0
VERTEX
  5
6B8
  8
LE_ALL
 10
267.5518222418996
 20
-108.6968500652599
 30
0.0
  0
VERTEX
  5
6B9
  8
LE_ALL
 10
268.2537313930932
 20
-108.5706772927768
 30
0.0
  0
VERTEX
  5
6BA
  8
LE_ALL
 10
268.9006145710032
 20
-108.3036772785014
 30
0.0
  0
VERTEX
  5
6BB
  8
LE_ALL
 10
269.4676124174621
 20
-107.906110683419
 30
0.0
  0
SEQEND
  5
726
  8
LE_ALL
  0
POLYLINE
  5
3ED
  8
LE_ALL
 66
     1
 10
0.0
 20
0.0
 30
0.0
  0
VERTEX
  5
3EE
  8
LE_ALL
 10
266.8218611
 20
-108.67734686
 30
0.0
  0
VERTEX
  5
3EF
  8
LE_ALL
 10
256.21525938
 20
-118.03149033
 30
0.0
  0
SEQEND
  5
3F0
  8
LE_ALL
  0
POLYLINE
  5
3F1
  8
LE_ALL
 66
     1
 10
0.0
 20
0.0
 30
0.0
  0
VERTEX
  5
6BC
  8
LE_ALL
 10
256.2152593729197
 20
-118.0314903169815
 30
0.0
  0
VERTEX
  5
6BD
  8
LE_ALL
 10
256.9452205218997
 20
-118.0509935352599
 30
0.0
  0
VERTEX
  5
6BE
  8
LE_ALL
 10
257.6471296730933
 20
-117.9248207627767
 30
0.0
  0
VERTEX
  5
6BF
  8
LE_ALL
 10
258.2940128510032
 20
-117.6578207485014
 30
0.0
  0
VERTEX
  5
6C0
  8
LE_ALL
 10
258.8610106974621
 20
-117.260254153419
 30
0.0
  0
SEQEND
  5
727
  8
LE_ALL
  0
POLYLINE
  5
3F2
  8
LE_ALL
 66
     1
 10
0.0
 20
0.0
 30
0.0
  0
VERTEX
  5
6C1
  8
LE_ALL
 10
256.2152593658392
 20
-121.8027264739629
 30
0.0
  0
VERTEX
  5
6C2
  8
LE_ALL
 10
257.6751816586242
 20
-121.8417329109053
 30
0.0
  0
VERTEX
  5
6C3
  8
LE_ALL
 10
259.0789999564368
 20
-121.5893873683955
 30
0.0
  0
VERTEX
  5
6C4
  8
LE_ALL
 10
260.3727663088447
 20
-121.0553873442085
 30
0.0
  0
VERTEX
  5
6C5
  8
LE_ALL
 10
261.506762
 20
-120.26025416
 30
0.0
  0
SEQEND
  5
728
  8
LE_ALL
  0
ENDBLK
  8
0
  0
BLOCK
  8
0
  2
SHEET_FLANGE_00076
 70
     0
 10
0.0
 20
0.0
 30
0.0
  0
INSERT
  5
3F5
  8
0
  2
SHEET_FLANGE_00077
 10
258.86101069
 20
-117.26025416
 30
0.0
  0
ENDBLK
  8
0
  0
BLOCK
  8
0
  2
SHEET_FLANGE_00077
 70
     0
 10
258.86101069
 20
-117.26025416
 30
0.0
  0
LINE
  5
3F8
  8
LE_ALL
 10
258.86101069
 20
-117.26025416
 30
0.0
 11
260.25022294
 21
-116.03508412
 31
0.0
  0
LINE
  5
3F9
  8
LE_ALL
 10
262.89597425
 20
-119.03508412
 30
0.0
 11
261.506762
 21
-120.26025416
 31
0.0
  0
LINE
  5
3FA
  8
LE_ALL
 10
260.25022294
 20
-116.03508412
 30
0.0
 11
270.85682465
 21
-106.68094065
 31
0.0
  0
ENDBLK
  8
0
  0
BLOCK
  8
0
  2
BEND_ZONE_00078
 70
     0
 10
0.0
 20
0.0
 30
0.0
  0
INSERT
  5
3FD
  8
0
  2
BEND_ZONE_00079
 10
265.54172556
 20
-114.49261179
 30
0.0
  0
ENDBLK
  8
0
  0
BLOCK
  8
0
  2
BEND_ZONE_00079
 70
     0
 10
265.54172556
 20
-114.49261179
 30
0.0
  0
LINE
  5
400
  8
LE_ALL
 10
265.54172556
 20
-114.49261179
 30
0.0
 11
276.14832728
 21
-105.13846832
 31
0.0
  0
POLYLINE
  5
401
  8
LE_ALL
 66
     1
 10
0.0
 20
0.0
 30
0.0
  0
VERTEX
  5
6C6
  8
LE_ALL
 10
265.5417255472972
 20
-114.4926118026526
 30
0.0
  0
VERTEX
  5
6C7
  8
LE_ALL
 10
264.0818032682022
 20
-114.4536053700761
 30
0.0
  0
VERTEX
  5
6C8
  8
LE_ALL
 10
262.6779849835632
 20
-114.7059509116045
 30
0.0
  0
VERTEX
  5
6C9
  8
LE_ALL
 10
261.3842186423234
 20
-115.2399509296773
 30
0.0
  0
VERTEX
  5
6CA
  8
LE_ALL
 10
260.2502229589954
 20
-116.0350841032476
 30
0.0
  0
SEQEND
  5
729
  8
LE_ALL
  0
POLYLINE
  5
402
  8
LE_ALL
 66
     1
 10
0.0
 20
0.0
 30
0.0
  0
VERTEX
  5
403
  8
LE_ALL
 10
260.25022294
 20
-116.03508412
 30
0.0
  0
VERTEX
  5
404
  8
LE_ALL
 10
270.85682465
 20
-106.68094065
 30
0.0
  0
SEQEND
  5
405
  8
LE_ALL
  0
POLYLINE
  5
406
  8
LE_ALL
 66
     1
 10
0.0
 20
0.0
 30
0.0
  0
VERTEX
  5
6CB
  8
LE_ALL
 10
276.1483272672972
 20
-105.1384683326526
 30
0.0
  0
VERTEX
  5
6CC
  8
LE_ALL
 10
274.6884049882022
 20
-105.0994619000761
 30
0.0
  0
VERTEX
  5
6CD
  8
LE_ALL
 10
273.2845867035632
 20
-105.3518074416045
 30
0.0
  0
VERTEX
  5
6CE
  8
LE_ALL
 10
271.9908203623235
 20
-105.8858074596773
 30
0.0
  0
VERTEX
  5
6CF
  8
LE_ALL
 10
270.8568246789954
 20
-106.6809406332476
 30
0.0
  0
SEQEND
  5
72A
  8
LE_ALL
  0
POLYLINE
  5
407
  8
LE_ALL
 66
     1
 10
0.0
 20
0.0
 30
0.0
  0
VERTEX
  5
6D0
  8
LE_ALL
 10
265.5417255536486
 20
-118.2638479613263
 30
0.0
  0
VERTEX
  5
6D1
  8
LE_ALL
 10
264.811764414101
 20
-118.2443447450381
 30
0.0
  0
VERTEX
  5
6D2
  8
LE_ALL
 10
264.1098552717816
 20
-118.3705175158022
 30
0.0
  0
VERTEX
  5
6D3
  8
LE_ALL
 10
263.4629721011617
 20
-118.6375175248386
 30
0.0
  0
VERTEX
  5
6D4
  8
LE_ALL
 10
262.8959742594977
 20
-119.0350841116238
 30
0.0
  0
SEQEND
  5
72B
  8
LE_ALL
  0
ENDBLK
  8
0
  0
BLOCK
  8
0
  2
SHEET_FLANGE_00080
 70
     0
 10
0.0
 20
0.0
 30
0.0
  0
INSERT
  5
40A
  8
0
  2
SHEET_FLANGE_00081
 10
320.14875878
 20
-117.18535851
 30
0.0
  0
INSERT
  5
40B
  8
0
  2
_00082
 10
0.0
 20
0.0
 30
0.0
  0
ENDBLK
  8
0
  0
BLOCK
  8
0
  2
SHEET_FLANGE_00081
 70
     0
 10
320.14875878
 20
-117.18535851
 30
0.0
  0
POLYLINE
  5
40E
  8
LE_ALL
 66
     1
 10
0.0
 20
0.0
 30
0.0
  0
VERTEX
  5
6D5
  8
LE_ALL
 10
318.04780729
 20
-116.1719929661111
 30
0.0
  0
VERTEX
  5
6D6
  8
LE_ALL
 10
318.1136095439335
 20
-116.3888863655958
 30
0.0
  0
VERTEX
  5
6D7
  8
LE_ALL
 10
318.3083517339281
 20
-116.596996949819
 30
0.0
  0
VERTEX
  5
6D8
  8
LE_ALL
 10
318.6241480289112
 20
-116.7878975520141
 30
0.0
  0
VERTEX
  5
6D9
  8
LE_ALL
 10
319.0482106696638
 20
-116.953857901198
 30
0.0
  0
VERTEX
  5
6DA
  8
LE_ALL
 10
319.5633677924557
 20
-117.0881576494154
 30
0.0
  0
VERTEX
  5
6DB
  8
LE_ALL
 10
320.1487587812791
 20
-117.1853585034666
 30
0.0
  0
SEQEND
  5
72C
  8
LE_ALL
  0
POLYLINE
  5
40F
  8
LE_ALL
 66
     1
 10
0.0
 20
0.0
 30
0.0
  0
VERTEX
  5
6DC
  8
LE_ALL
 10
322.4468558182085
 20
-115.1586274389886
 30
0.0
  0
VERTEX
  5
6DD
  8
LE_ALL
 10
321.8417256635165
 20
-115.1039390493045
 30
0.0
  0
VERTEX
  5
6DE
  8
LE_ALL
 10
321.2163527396195
 20
-115.0889999493441
 30
0.0
  0
VERTEX
  5
6DF
  8
LE_ALL
 10
320.5940112736478
 20
-115.1143661209742
 30
0.0
  0
VERTEX
  5
6E0
  8
LE_ALL
 10
319.9978626723042
 20
-115.1790935226198
 30
0.0
  0
VERTEX
  5
6E1
  8
LE_ALL
 10
319.4500935340499
 20
-115.2807732232419
 30
0.0
  0
VERTEX
  5
6E2
  8
LE_ALL
 10
318.9710899402955
 20
-115.4156210544565
 30
0.0
  0
VERTEX
  5
6E3
  8
LE_ALL
 10
318.5786787556384
 20
-115.5786184442536
 30
0.0
  0
VERTEX
  5
6E4
  8
LE_ALL
 10
318.2874641733382
 20
-115.7636991909688
 30
0.0
  0
VERTEX
  5
6E5
  8
LE_ALL
 10
318.1082841975252
 20
-115.9639752264243
 30
0.0
  0
VERTEX
  5
6E6
  8
LE_ALL
 10
318.04780729
 20
-116.1719929661111
 30
0.0
  0
SEQEND
  5
72D
  8
LE_ALL
  0
POLYLINE
  5
410
  8
LE_ALL
 66
     1
 10
0.0
 20
0.0
 30
0.0
  0
VERTEX
  5
411
  8
LE_ALL
 10
322.44685581
 20
-115.15862742
 30
0.0
  0
VERTEX
  5
412
  8
LE_ALL
 10
335.07494949
 20
-116.74961768
 30
0.0
  0
SEQEND
  5
413
  8
LE_ALL
  0
POLYLINE
  5
414
  8
LE_ALL
 66
     1
 10
0.0
 20
0.0
 30
0.0
  0
VERTEX
  5
6E7
  8
LE_ALL
 10
337.17590098
 20
-117.76298322
 30
0.0
  0
VERTEX
  5
6E8
  8
LE_ALL
 10
337.1100987248151
 20
-117.546089822363
 30
0.0
  0
VERTEX
  5
6E9
  8
LE_ALL
 10
336.9153565357449
 20
-117.3379792399255
 30
0.0
  0
VERTEX
  5
6EA
  8
LE_ALL
 10
336.5995602436944
 20
-117.1470786392427
 30
0.0
  0
VERTEX
  5
6EB
  8
LE_ALL
 10
336.1754976075533
 20
-116.9811182911092
 30
0.0
  0
VERTEX
  5
6EC
  8
LE_ALL
 10
335.6603404905819
 20
-116.8468185433271
 30
0.0
  0
VERTEX
  5
6ED
  8
LE_ALL
 10
335.0749495082085
 20
-116.7496176889886
 30
0.0
  0
SEQEND
  5
72E
  8
LE_ALL
  0
POLYLINE
  5
415
  8
LE_ALL
 66
     1
 10
0.0
 20
0.0
 30
0.0
  0
VERTEX
  5
6EE
  8
LE_ALL
 10
332.7768524712791
 20
-118.7763487534666
 30
0.0
  0
VERTEX
  5
6EF
  8
LE_ALL
 10
333.3819826261192
 20
-118.8310371418066
 30
0.0
  0
VERTEX
  5
6F0
  8
LE_ALL
 10
334.0073555493744
 20
-118.8459762404972
 30
0.0
  0
VERTEX
  5
6F1
  8
LE_ALL
 10
334.6296970140064
 20
-118.8206100677205
 30
0.0
  0
VERTEX
  5
6F2
  8
LE_ALL
 10
335.2258456134294
 20
-118.7558826650914
 30
0.0
  0
VERTEX
  5
6F3
  8
LE_ALL
 10
335.7736147493183
 20
-118.6542029636786
 30
0.0
  0
VERTEX
  5
6F4
  8
LE_ALL
 10
336.25261834041
 20
-118.5193551318844
 30
0.0
  0
VERTEX
  5
6F5
  8
LE_ALL
 10
336.6450295222581
 20
-118.3563577417258
 30
0.0
  0
VERTEX
  5
6F6
  8
LE_ALL
 10
336.9362441017498
 20
-118.171276994863
 30
0.0
  0
VERTEX
  5
6F7
  8
LE_ALL
 10
337.1154240748911
 20
-117.9710009594593
 30
0.0
  0
VERTEX
  5
6F8
  8
LE_ALL
 10
337.17590098
 20
-117.76298322
 30
0.0
  0
SEQEND
  5
72F
  8
LE_ALL
  0
LINE
  5
416
  8
LE_ALL
 10
332.77685246
 20
-118.77634877
 30
0.0
 11
320.14875878
 21
-117.18535851
 31
0.0
  0
LINE
  5
417
  8
LE_ALL
 10
322.44685581
 20
-117.47489152
 30
0.0
 11
322.44685581
 21
-115.15862742
 31
0.0
  0
LINE
  5
418
  8
LE_ALL
 10
335.07494949
 20
-118.77634877
 30
0.0
 11
335.07494949
 21
-116.74961768
 31
0.0
  0
POLYLINE
  5
419
  8
LE_ALL
 66
     1
 10
0.0
 20
0.0
 30
0.0
  0
VERTEX
  5
6F9
  8
LE_ALL
 10
289.28381613
 20
-112.5480707061111
 30
0.0
  0
VERTEX
  5
6FA
  8
LE_ALL
 10
289.3462639665557
 20
-112.7594185531615
 30
0.0
  0
VERTEX
  5
6FB
  8
LE_ALL
 10
289.5312076454317
 20
-112.962644421106
 30
0.0
  0
VERTEX
  5
6FC
  8
LE_ALL
 10
289.8315398847503
 20
-113.149938453792
 30
0.0
  0
VERTEX
  5
6FD
  8
LE_ALL
 10
290.2357190849564
 20
-113.3141030465627
 30
0.0
  0
VERTEX
  5
6FE
  8
LE_ALL
 10
290.7282128660171
 20
-113.4488294461681
 30
0.0
  0
VERTEX
  5
6FF
  8
LE_ALL
 10
291.2900949680767
 20
-113.5489401926151
 30
0.0
  0
VERTEX
  5
700
  8
LE_ALL
 10
291.8997725770111
 20
-113.6105880860516
 30
0.0
  0
VERTEX
  5
701
  8
LE_ALL
 10
292.5338161241665
 20
-113.6314040325
 30
0.0
  0
VERTEX
  5
702
  8
LE_ALL
 10
293.1678596715462
 20
-113.6105880868103
 30
0.0
  0
VERTEX
  5
703
  8
LE_ALL
 10
293.7775372811445
 20
-113.5489401941033
 30
0.0
  0
VERTEX
  5
704
  8
LE_ALL
 10
294.3394193842823
 20
-113.4488294483287
 30
0.0
  0
VERTEX
  5
705
  8
LE_ALL
 10
294.8319131667939
 20
-113.3141030493126
 30
0.0
  0
VERTEX
  5
706
  8
LE_ALL
 10
295.2360923687679
 20
-113.1499384570255
 30
0.0
  0
VERTEX
  5
707
  8
LE_ALL
 10
295.5364246101036
 20
-112.9626444246989
 30
0.0
  0
VERTEX
  5
708
  8
LE_ALL
 10
295.7213682911682
 20
-112.7594185569757
 30
0.0
  0
VERTEX
  5
709
  8
LE_ALL
 10
295.78381613
 20
-112.54807071
 30
0.0
  0
SEQEND
  5
730
  8
LE_ALL
  0
POLYLINE
  5
41A
  8
LE_ALL
 66
     1
 10
0.0
 20
0.0
 30
0.0
  0
VERTEX
  5
70A
  8
LE_ALL
 10
295.78381613
 20
-112.54807071
 30
0.0
  0
VERTEX
  5
70B
  8
LE_ALL
 10
295.7213682914527
 20
-112.3367228635011
 30
0.0
  0
VERTEX
  5
70C
  8
LE_ALL
 10
295.5364246112198
 20
-112.1334969961993
 30
0.0
  0
VERTEX
  5
70D
  8
LE_ALL
 10
295.2360923711986
 20
-111.9462029641871
 30
0.0
  0
VERTEX
  5
70E
  8
LE_ALL
 10
294.8319131709187
 20
-111.7820383720624
 30
0.0
  0
VERTEX
  5
70F
  8
LE_ALL
 10
294.3394193903451
 20
-111.6473119730217
 30
0.0
  0
VERTEX
  5
710
  8
LE_ALL
 10
293.7775372892286
 20
-111.5472012270129
 30
0.0
  0
VERTEX
  5
711
  8
LE_ALL
 10
293.1678596815586
 20
-111.4855533338536
 30
0.0
  0
VERTEX
  5
712
  8
LE_ALL
 10
292.5338161358334
 20
-111.4647373875
 30
0.0
  0
VERTEX
  5
713
  8
LE_ALL
 10
291.8997725898841
 20
-111.4855533330949
 30
0.0
  0
VERTEX
  5
714
  8
LE_ALL
 10
291.2900949815502
 20
-111.5472012255247
 30
0.0
  0
VERTEX
  5
715
  8
LE_ALL
 10
290.7282128793555
 20
-111.6473119708611
 30
0.0
  0
VERTEX
  5
716
  8
LE_ALL
 10
290.235719097331
 20
-111.7820383693125
 30
0.0
  0
VERTEX
  5
717
  8
LE_ALL
 10
289.8315398952831
 20
-111.9462029609535
 30
0.0
  0
VERTEX
  5
718
  8
LE_ALL
 10
289.5312076532449
 20
-112.1334969926064
 30
0.0
  0
VERTEX
  5
719
  8
LE_ALL
 10
289.3462639708233
 20
-112.3367228596868
 30
0.0
  0
VERTEX
  5
71A
  8
LE_ALL
 10
289.28381613
 20
-112.5480707061111
 30
0.0
  0
SEQEND
  5
731
  8
LE_ALL
  0
POLYLINE
  5
41B
  8
LE_ALL
 66
     1
 10
0.0
 20
0.0
 30
0.0
  0
VERTEX
  5
41C
  8
LE_ALL
 10
341.01684021
 20
-124.00158243
 30
0.0
  0
VERTEX
  5
41D
  8
LE_ALL
 10
341.01684021
 20
-127.7728186
 30
0.0
  0
VERTEX
  5
41E
  8
LE_ALL
 10
265.54172556
 20
-118.26384795
 30
0.0
  0
SEQEND
  5
41F
  8
LE_ALL
  0
POLYLINE
  5
420
  8
LE_ALL
 66
     1
 10
0.0
 20
0.0
 30
0.0
  0
VERTEX
  5
421
  8
LE_ALL
 10
265.54172556
 20
-114.49261179
 30
0.0
  0
VERTEX
  5
422
  8
LE_ALL
 10
341.01684021
 20
-124.00158243
 30
0.0
  0
VERTEX
  5
423
  8
LE_ALL
 10
351.62344193
 20
-114.64743896
 30
0.0
  0
VERTEX
  5
424
  8
LE_ALL
 10
351.62344193
 20
-118.41867513
 30
0.0
  0
VERTEX
  5
425
  8
LE_ALL
 10
341.01684021
 20
-127.7728186
 30
0.0
  0
SEQEND
  5
426
  8
LE_ALL
  0
POLYLINE
  5
427
  8
LE_ALL
 66
     1
 10
0.0
 20
0.0
 30
0.0
  0
VERTEX
  5
428
  8
LE_ALL
 10
351.62344193
 20
-114.64743896
 30
0.0
  0
VERTEX
  5
429
  8
LE_ALL
 10
276.14832728
 20
-105.13846832
 30
0.0
  0
VERTEX
  5
42A
  8
LE_ALL
 10
265.54172556
 20
-114.49261179
 30
0.0
  0
SEQEND
  5
42B
  8
LE_ALL
  0
ENDBLK
  8
0
  0
BLOCK
  8
0
  2
_00082
 70
     0
 10
0.0
 20
0.0
 30
0.0
  0
INSERT
  5
42E
  8
0
  2
_00083
 10
292.53381613
 20
-111.13385715
 30
0.0
  0
ENDBLK
  8
0
  0
BLOCK
  8
0
  2
_00083
 70
     0
 10
292.53381613
 20
-111.13385715
 30
0.0
  0
LINE
  5
431
  8
LE_ALL
  6
STRICHPUNKT2
 62
     1
 10
292.53381613
 20
-111.13385715
 30
0.0
 11
292.53381613
 21
-113.63140405
 31
0.0
  0
LINE
  5
432
  8
LE_ALL
  6
STRICHPUNKT2
 62
     1
 10
292.53381613
 20
-112.54807071
 30
0.0
 11
296.97703428
 21
-113.10786358
 31
0.0
  0
LINE
  5
433
  8
LE_ALL
  6
STRICHPUNKT2
 62
     1
 10
292.53381613
 20
-112.54807071
 30
0.0
 11
288.09059799
 21
-111.98827784
 31
0.0
  0
LINE
  5
434
  8
LE_ALL
  6
STRICHPUNKT2
 62
     1
 10
292.53381613
 20
-112.54807071
 30
0.0
 11
294.21319474
 21
-111.066998
 31
0.0
  0
LINE
  5
435
  8
LE_ALL
  6
STRICHPUNKT2
 62
     1
 10
292.53381613
 20
-112.54807071
 30
0.0
 11
290.85443753
 21
-114.02914343
 31
0.0
  0
LINE
  5
436
  8
LE_ALL
  6
STRICHPUNKT2
 62
     1
 10
321.29780729
 20
-114.7577794
 30
0.0
 11
321.29780729
 21
-117.33012501
 31
0.0
  0
LINE
  5
437
  8
LE_ALL
  6
STRICHPUNKT2
 62
     1
 10
333.92590098
 20
-116.34876966
 30
0.0
 11
333.92590098
 21
-118.84631656
 31
0.0
  0
LINE
  5
438
  8
LE_ALL
  6
STRICHPUNKT2
 62
     1
 10
316.85458915
 20
-115.6122001
 30
0.0
 11
338.36911912
 21
-118.32277609
 31
0.0
  0
LINE
  5
439
  8
LE_ALL
  6
STRICHPUNKT2
 62
     1
 10
319.61842869
 20
-117.65306568
 30
0.0
 11
322.9771859
 21
-114.69092025
 31
0.0
  0
LINE
  5
43A
  8
LE_ALL
  6
STRICHPUNKT2
 62
     1
 10
332.24652237
 20
-119.24405594
 30
0.0
 11
335.60527958
 21
-116.28191051
 31
0.0
  0
ENDBLK
  8
0
  0
BLOCK
  8
0
  2
DVI_FIGURE_00084
 70
     0
 10
0.0
 20
0.0
 30
0.0
  0
INSERT
  5
43D
  8
0
  2
VIEW_3_00085
 10
0.0
 20
0.0
 30
0.0
  0
INSERT
  5
43E
  8
0
  2
VIEW_4_00094
 10
0.0
 20
0.0
 30
0.0
  0
INSERT
  5
43F
  8
0
  2
VIEW_5_00097
 10
0.0
 20
0.0
 30
0.0
  0
ENDBLK
  8
0
  0
BLOCK
  8
0
  2
VIEW_3_00085
 70
     0
 10
0.0
 20
0.0
 30
0.0
  0
INSERT
  5
442
  8
0
  2
PART_2_00086
 10
0.0
 20
0.0
 30
0.0
  0
ENDBLK
  8
0
  0
BLOCK
  8
0
  2
PART_2_00086
 70
     0
 10
0.0
 20
0.0
 30
0.0
  0
INSERT
  5
445
  8
0
  2
_D1
 10
119.34654562
 20
-268.01829647
 30
0.0
  0
INSERT
  5
446
  8
0
  2
_D2
 10
128.15800338
 20
-240.73803958
 30
0.0
  0
INSERT
  5
447
  8
0
  2
_D3
 10
136.24229922
 20
-272.40440622
 30
0.0
  0
INSERT
  5
448
  8
0
  2
_D4
 10
136.24229922
 20
-262.44081655
 30
0.0
  0
INSERT
  5
449
  8
0
  2
_D5
 10
39.15815439
 20
-259.79200481
 30
0.0
  0
INSERT
  5
44A
  8
0
  2
_D6
 10
188.16470661
 20
-248.7234686
 30
0.0
  0
INSERT
  5
44B
  8
0
  2
_D7
 10
279.49000387
 20
-268.40440622
 30
0.0
  0
ENDBLK
  8
0
  0
BLOCK
  8
0
  2
VIEW_4_00094
 70
     0
 10
0.0
 20
0.0
 30
0.0
  0
INSERT
  5
487
  8
0
  2
PART_2_00095
 10
0.0
 20
0.0
 30
0.0
  0
ENDBLK
  8
0
  0
BLOCK
  8
0
  2
PART_2_00095
 70
     0
 10
0.0
 20
0.0
 30
0.0
  0
INSERT
  5
48A
  8
0
  2
_D8
 10
324.88928929
 20
-245.98089883
 30
0.0
  0
ENDBLK
  8
0
  0
BLOCK
  8
0
  2
VIEW_5_00097
 70
     0
 10
0.0
 20
0.0
 30
0.0
  0
INSERT
  5
495
  8
0
  2
PART_2_00098
 10
0.0
 20
0.0
 30
0.0
  0
ENDBLK
  8
0
  0
BLOCK
  8
0
  2
PART_2_00098
 70
     0
 10
0.0
 20
0.0
 30
0.0
  0
INSERT
  5
498
  8
0
  2
_D9
 10
289.31492144
 20
-180.29644393
 30
0.0
  0
INSERT
  5
499
  8
0
  2
_D10
 10
262.05794328
 20
-182.1389805
 30
0.0
  0
INSERT
  5
49A
  8
0
  2
_D11
 10
156.28208771
 20
-165.32545603
 30
0.0
  0
INSERT
  5
49B
  8
0
  2
_D12
 10
13.26868123
 20
-165.67749702
 30
0.0
  0
INSERT
  5
49C
  8
0
  2
_D13
 10
-4.27140098
 20
-170.61614784
 30
0.0
  0
INSERT
  5
49D
  8
0
  2
_D14
 10
280.42077693
 20
-165.29644393
 30
0.0
  0
INSERT
  5
49E
  8
0
  2
_D15
 10
280.42077693
 20
-195.29644393
 30
0.0
  0
INSERT
  5
49F
  8
0
  2
_D16
 10
263.12462428
 20
-213.17556092
 30
0.0
  0
INSERT
  5
4A0
  8
0
  2
_D17
 10
233.12462428
 20
-213.17556092
 30
0.0
  0
INSERT
  5
4A1
  8
0
  2
_D18
 10
185.62462428
 20
-213.17556092
 30
0.0
  0
INSERT
  5
4A2
  8
0
  2
_D19
 10
-22.60466111
 20
-157.48589932
 30
0.0
  0
INSERT
  5
4A3
  8
0
  2
_D20
 10
-22.60466111
 20
-172.48589932
 30
0.0
  0
INSERT
  5
4A4
  8
0
  2
_D21
 10
-22.60466111
 20
-190.98589932
 30
0.0
  0
INSERT
  5
4A5
  8
0
  2
_D22
 10
-22.60466111
 20
-205.98589932
 30
0.0
  0
INSERT
  5
4A6
  8
0
  2
_D23
 10
-10.57823759
 20
-216.87660848
 30
0.0
  0
INSERT
  5
4A7
  8
0
  2
_D24
 10
4.42176241
 20
-216.87660848
 30
0.0
  0
INSERT
  5
4A8
  8
0
  2
_D25
 10
22.92176241
 20
-216.87660848
 30
0.0
  0
ENDBLK
  8
0
  0
ENDSEC
  0
SECTION
  2
ENTITIES
  0
INSERT
  5
536
  8
0
  2
_ZBL0002_00001
 10
0.0
 20
0.0
 30
0.0
  0
INSERT
  5
537
  8
0
  2
_ANS0003_00016
 10
0.0
 20
0.0
 30
0.0
  0
INSERT
  5
538
  8
0
  2
_ANS0004_00033
 10
0.0
 20
0.0
 30
0.0
  0
INSERT
  5
539
  8
0
  2
_ANS0005_00050
 10
0.0
 20
0.0
 30
0.0
  0
INSERT
  5
53A
  8
0
  2
_ANS0006_00067
 10
0.0
 20
0.0
 30
0.0
  0
INSERT
  5
53B
  8
0
  2
DVI_FIGURE_00084
 10
0.0
 20
0.0
 30
0.0
  0
ENDSEC
  0
EOF
