  0
SECTION
  2
HEADER
  9
$ACADVER
  1
AC1006
  9
$DWGCODEPAGE
  3
ansi_1252
  9
$INSBASE
 10
0.0
 20
0.0
 30
0.0
  9
$EXTMIN
 10
-47.97276819
 20
-364.1809936
  9
$EXTMAX
 10
380.42723181
 20
-50.49178735
  9
$LIMMIN
 10
-47.97276819
 20
-364.1809936
  9
$LIMMAX
 10
380.42723181
 20
-50.49178735
  9
$ORTHOMODE
 70
     0
  9
$REGENMODE
 70
     1
  9
$FILLMODE
 70
     1
  9
$QTEXTMODE
 70
     0
  9
$MIRRTEXT
 70
     1
  9
$DRAGMODE
 70
     2
  9
$LTSCALE
 40
1.0
  9
$OSMODE
 70
    37
  9
$ATTMODE
 70
     1
  9
$TEXTSIZE
 40
1.0
  9
$TRACEWID
 40
0.05
  9
$TEXTSTYLE
  7
STANDARD
  9
$CLAYER
  8
0
  9
$CELTYPE
  6
BYBLOCK
  9
$CECOLOR
 62
   256
  9
$DIMSCALE
 40
1.0
  9
$DIMASZ
 40
0.18
  9
$DIMEXO
 40
0.0625
  9
$DIMDLI
 40
0.38
  9
$DIMRND
 40
0.0
  9
$DIMDLE
 40
0.0
  9
$DIMEXE
 40
0.18
  9
$DIMTP
 40
0.0
  9
$DIMTM
 40
0.0
  9
$DIMTXT
 40
0.18
  9
$DIMCEN
 40
0.09
  9
$DIMTSZ
 40
0.0
  9
$DIMTOL
 70
     0
  9
$DIMLIM
 70
     0
  9
$DIMTIH
 70
     1
  9
$DIMTOH
 70
     1
  9
$DIMSE1
 70
     0
  9
$DIMSE2
 70
     0
  9
$DIMTAD
 70
     0
  9
$DIMZIN
 70
     0
  9
$DIMBLK
  1

  9
$DIMASO
 70
     1
  9
$DIMSHO
 70
     1
  9
$DIMPOST
  1

  9
$DIMAPOST
  1

  9
$DIMALT
 70
     0
  9
$DIMALTD
 70
     2
  9
$DIMALTF
 40
25.4
  9
$DIMLFAC
 40
1.0
  9
$DIMTOFL
 70
     0
  9
$DIMTVP
 40
0.0
  9
$DIMTIX
 70
     0
  9
$DIMSOXD
 70
     0
  9
$DIMSAH
 70
     0
  9
$DIMBLK1
  1

  9
$DIMBLK2
  1

  9
$LUNITS
 70
     2
  9
$LUPREC
 70
     4
  9
$SKETCHINC
 40
0.1
  9
$FILLETRAD
 40
0.5
  9
$AUNITS
 70
     0
  9
$AUPREC
 70
     0
  9
$MENU
  1
.
  9
$ELEVATION
 40
0.0
  9
$THICKNESS
 40
0.0
  9
$LIMCHECK
 70
     0
  9
$CHAMFERA
 40
0.0
  9
$CHAMFERB
 40
0.0
  9
$SKPOLY
 70
     0
  9
$TDCREATE
 40
2447893.125
  9
$TDUPDATE
 40
2460791.515211979
  9
$TDINDWG
 40
0.0
  9
$TDUSRTIMER
 40
0.0
  9
$USRTIMER
 70
     1
  9
$ANGBASE
 50
0.0
  9
$ANGDIR
 70
     0
  9
$PDMODE
 70
     0
  9
$PDSIZE
 40
0.0
  9
$PLINEWID
 40
0.0
  9
$COORDS
 70
     1
  9
$SPLFRAME
 70
     0
  9
$SPLINETYPE
 70
     6
  9
$SPLINESEGS
 70
     8
  9
$ATTDIA
 70
     0
  9
$ATTREQ
 70
     1
  9
$HANDLING
 70
     1
  9
$HANDSEED
  5
744
  9
$SURFTAB1
 70
     6
  9
$SURFTAB2
 70
     6
  9
$SURFTYPE
 70
     6
  9
$SURFU
 70
     6
  9
$SURFV
 70
     6
  9
$UCSNAME
  2

  9
$UCSORG
 10
0.0
 20
0.0
 30
0.0
  9
$UCSXDIR
 10
1.0
 20
0.0
 30
0.0
  9
$UCSYDIR
 10
0.0
 20
1.0
 30
0.0
  9
$USERI1
 70
     0
  9
$USERI2
 70
     0
  9
$USERI3
 70
     0
  9
$USERI4
 70
     0
  9
$USERI5
 70
     0
  9
$USERR1
 40
0.0
  9
$USERR2
 40
0.0
  9
$USERR3
 40
0.0
  9
$USERR4
 40
0.0
  9
$USERR5
 40
0.0
  9
$WORLDVIEW
 70
     1
  0
ENDSEC
  0
SECTION
  2
TABLES
  0
TABLE
  2
VPORT
 70
     1
  0
VPORT
  2
*ACTIVE
 70
     0
 10
0.0
 20
0.0
 11
1.0
 21
1.0
 12
166.22723181
 22
-207.33639047
 13
0.0
 23
0.0
 14
1.0
 24
1.0
 15
0.0
 25
0.0
 16
0.0
 26
0.0
 36
1.0
 17
0.0
 27
0.0
 37
0.0
 40
313.68920625
 41
1.365682948
 42
50.0
 43
0.0
 44
0.0
 50
0.0
 51
0.0
 71
     0
 72
   100
 73
     1
 74
     1
 75
     0
 76
     0
 77
     0
 78
     0
  0
ENDTAB
  0
TABLE
  2
LTYPE
 70
    19
  0
LTYPE
  2
CONTINUOUS
 70
     0
  3
Solid line
 72
    65
 73
     0
 40
0.0
  0
LTYPE
  2
DOT
 70
     0
  3
..............
 72
    65
 73
     2
 40
2.0
 49
0.5
 49
-1.5
  0
LTYPE
  2
HIDDEN
 70
     0
  3
-- -- -- -- --
 72
    65
 73
     2
 40
7.0
 49
4.0
 49
-3.0
  0
LTYPE
  2
DASHDOT
 70
     0
  3
--.--.--.--.--
 72
    65
 73
     4
 40
8.5
 49
4.0
 49
-2.0
 49
0.5
 49
-2.0
  0
LTYPE
  2
STRICHPUNKT2
 70
     0
  3
--.--.--.--.--
 72
    65
 73
     4
 40
18.5
 49
10.0
 49
-4.0
 49
0.5
 49
-4.0
  0
LTYPE
  2
STRICHPUNKT3
 70
     0
  3
--.--.--.--.--
 72
    65
 73
     4
 40
35.5
 49
25.0
 49
-5.0
 49
0.5
 49
-5.0
  0
LTYPE
  2
PHANTOM
 70
     0
  3
--..--..--..--
 72
    65
 73
     6
 40
23.0
 49
10.0
 49
-4.0
 49
0.5
 49
-4.0
 49
0.5
 49
-4.0
  0
LTYPE
  2
PHANTOM2
 70
     0
  3
--..--..--..--
 72
    65
 73
     6
 40
33.0
 49
20.0
 49
-4.0
 49
0.5
 49
-4.0
 49
0.5
 49
-4.0
  0
LTYPE
  2
PHANTOM3
 70
     0
  3
--..--..--..--
 72
    65
 73
     6
 40
50.0
 49
37.0
 49
-4.0
 49
0.5
 49
-4.0
 49
0.5
 49
-4.0
  0
LTYPE
  2
STR3PKT
 70
     0
  3
--...--...--...
 72
    65
 73
     8
 40
31.5
 49
20.0
 49
-2.5
 49
0.5
 49
-2.5
 49
0.5
 49
-2.5
 49
0.5
 49
-2.5
  0
LTYPE
  2
2STRPKT
 70
     0
  3
--.--.--.--.--
 72
    65
 73
     6
 40
28.0
 49
10.0
 49
-2.5
 49
10.0
 49
-2.5
 49
0.5
 49
-2.5
  0
LTYPE
  2
GESTRICHELT2
 70
     0
  3
-- -- -- -- --
 72
    65
 73
     2
 40
25.0
 49
10.0
 49
-15.0
  0
LTYPE
  2
2STR2PKT
 70
     0
  3
--..--..--..--
 72
    65
 73
     8
 40
31.0
 49
10.0
 49
-2.5
 49
10.0
 49
-2.5
 49
0.5
 49
-2.5
 49
0.5
 49
-2.5
  0
LTYPE
  2
STR3PKT2
 70
     0
  3
--...--...--...
 72
    65
 73
     8
 40
21.0
 49
10.0
 49
-2.5
 49
0.5
 49
-2.5
 49
0.5
 49
-2.5
 49
0.5
 49
-2.0
  0
LTYPE
  2
2STR3PKT
 70
     0
  3
--...--...--...
 72
    65
 73
    10
 40
34.0
 49
10.0
 49
-2.5
 49
10.0
 49
-2.5
 49
0.5
 49
-2.5
 49
0.5
 49
-2.5
 49
0.5
 49
-2.5
  0
LTYPE
  2
STRKSTR
 70
     0
  3
-- - -- - -- -
 72
    65
 73
     4
 40
30.0
 49
20.0
 49
-2.5
 49
5.0
 49
-2.5
  0
LTYPE
  2
STRKSTR2
 70
     0
  3
-- - -- - -- -
 72
    65
 73
     6
 40
37.5
 49
20.0
 49
-2.5
 49
5.0
 49
-2.5
 49
5.0
 49
-2.5
  0
LTYPE
  2
STRKSTR3
 70
     0
  3
-- - -- - -- -
 72
    65
 73
     8
 40
45.0
 49
20.0
 49
-2.5
 49
5.0
 49
-2.5
 49
5.0
 49
-2.5
 49
5.0
 49
-2.5
  0
LTYPE
  2
PUNKT2
 70
     0
  3
..............
 72
    65
 73
     2
 40
3.5
 49
0.5
 49
-3.0
  0
ENDTAB
  0
TABLE
  2
LAYER
 70
    16
  0
LAYER
  2
0
 70
     0
 62
     7
  6
CONTINUOUS
  0
LAYER
  2
LE_GREEN
 70
     0
 62
     3
  6
CONTINUOUS
  0
LAYER
  2
LE_RED
 70
     0
 62
     1
  6
CONTINUOUS
  0
LAYER
  2
LE_ALL
 70
     0
 62
     7
  6
CONTINUOUS
  0
LAYER
  2
LE_HIDDEN1
 70
     0
 62
     3
  6
HIDDEN
  0
LAYER
  2
LE_HIDDEN
 70
     0
 62
     7
  6
CONTINUOUS
  0
LAYER
  2
LE_MIDDLE
 70
     0
 62
     7
  6
CONTINUOUS
  0
LAYER
  2
TXT_YELLOW
 70
     0
 62
     2
  6
CONTINUOUS
  0
LAYER
  2
TXT_DIM49
 70
     0
 62
     2
  6
CONTINUOUS
  0
LAYER
  2
TXT_ALL
 70
     0
 62
     7
  6
CONTINUOUS
  0
LAYER
  2
DIM49
 70
     0
 62
     4
  6
CONTINUOUS
  0
LAYER
  2
HATCH
 70
     0
 62
     3
  6
CONTINUOUS
  0
LAYER
  2
APPLE
 70
     0
 62
     7
  6
CONTINUOUS
  0
LAYER
  2
10
 70
     0
 62
     7
  6
CONTINUOUS
  0
LAYER
  2
20
 70
     0
 62
     7
  6
CONTINUOUS
  0
LAYER
  2
49
 70
     0
 62
     7
  6
CONTINUOUS
  0
ENDTAB
  0
TABLE
  2
STYLE
 70
     5
  0
STYLE
  2
MONOTXT
 70
     0
 40
0.0
 41
1.0
 50
0.0
 71
     0
 42
1.0
  3
monotxt.shx
  4

  0
STYLE
  2
STANDARD
 70
     0
 40
0.0
 41
1.0
 50
0.0
 71
     0
 42
1.0
  3
txt
  4

  0
STYLE
  2
ARIAL
 70
     0
 40
0.0
 41
1.0
 50
0.0
 71
     0
 42
1.0
  3
arial.ttf
  4

  0
STYLE
  2
ARIAL_NARROW
 70
     0
 40
0.0
 41
1.0
 50
0.0
 71
     0
 42
1.0
  3
ArialN.ttf
  4

  0
STYLE
  2
ISOCPEUR
 70
     0
 40
0.0
 41
1.0
 50
0.0
 71
     0
 42
1.0
  3
ISOCPEUR.ttf
  4

  0
ENDTAB
  0
TABLE
  2
VIEW
 70
     0
  0
ENDTAB
  0
TABLE
  2
UCS
 70
     0
  0
ENDTAB
  0
ENDSEC
  0
SECTION
  2
BLOCKS
  0
BLOCK
  8
0
  2
_D1
 70
     0
 10
25.6174434
 20
-282.996757
 30
0.0
  0
TEXT
  5
453
  8
TXT_DIM49
 10
25.6174434
 20
-282.996757
 30
0.0
 40
2.5
  1
70
  7
ARIAL
  0
LINE
  5
454
  8
DIM49
 10
-6.21734206
 20
-283.496757
 30
0.0
 11
-8.21734206
 21
-285.496757
 31
0.0
  0
LINE
  5
455
  8
DIM49
 10
61.54189975
 20
-285.246757
 30
0.0
 11
63.04189975
 21
-283.746757
 31
0.0
  0
LINE
  5
456
  8
DIM49
 10
-7.21734206
 20
-284.496757
 30
0.0
 11
62.29189975
 21
-284.496757
 31
0.0
  0
LINE
  5
457
  8
DIM49
 10
-7.21734206
 20
-282.496757
 30
0.0
 11
-7.21734206
 21
-286.496757
 31
0.0
  0
LINE
  5
458
  8
DIM49
 10
62.29189975
 20
-282.496757
 30
0.0
 11
62.29189975
 21
-286.496757
 31
0.0
  0
ENDBLK
  8
0
  0
BLOCK
  8
0
  2
_D2
 70
     0
 10
104.71627267
 20
-253.69449455
 30
0.0
  0
TEXT
  5
45B
  8
TXT_DIM49
 10
104.71627267
 20
-253.69449455
 30
0.0
 40
2.5
  1
38
 50
293.26188011
  7
ARIAL
  0
TEXT
  5
45C
  8
TXT_DIM49
 10
106.23276979
 20
-257.22200204
 30
0.0
 40
2.5
  1
°
 50
293.26188011
  7
ARIAL
  0
LINE
  5
45D
  8
DIM49
 10
98.19267036
 20
-247.97756438
 30
0.0
 11
98.57411301
 21
-245.17497603
 31
0.0
  0
LINE
  5
45E
  8
DIM49
 10
108.83277176
 20
-274.01427412
 30
0.0
 11
107.35254909
 21
-275.53379407
 31
0.0
  0
POLYLINE
  5
45F
  8
DIM49
 66
     1
 10
0.0
 20
0.0
 30
0.0
  0
VERTEX
  5
621
  8
DIM49
 10
108.0926602119924
 20
-274.7740339432038
 30
0.0
  0
VERTEX
  5
622
  8
DIM49
 10
106.9779741236048
 20
-264.730906191245
 30
0.0
  0
VERTEX
  5
623
  8
DIM49
 10
103.6881737572859
 20
-255.1766320965807
 30
0.0
  0
VERTEX
  5
624
  8
DIM49
 10
98.38339158939719
 20
-246.5762701430873
 30
0.0
  0
SEQEND
  5
72D
  8
DIM49
  0
LINE
  5
460
  8
DIM49
 10
72.93004493
 20
-266.46260417
 30
0.0
 11
99.95941319
 21
-245.34494725
 31
0.0
  0
LINE
  5
461
  8
DIM49
 10
62.29189975
 20
-274.77403409
 30
0.0
 11
110.09266042
 21
-274.77403409
 31
0.0
  0
ENDBLK
  8
0
  0
BLOCK
  8
0
  2
_D3
 70
     0
 10
114.93462331
 20
-237.02004069
 30
0.0
  0
TEXT
  5
464
  8
TXT_DIM49
 10
114.93462331
 20
-237.02004069
 30
0.0
 40
2.5
  1
250
  7
ARIAL
  0
LINE
  5
465
  8
DIM49
 10
-6.21734206
 20
-237.52004069
 30
0.0
 11
-8.21734206
 21
-239.52004069
 31
0.0
  0
LINE
  5
466
  8
DIM49
 10
242.09609492
 20
-239.27004069
 30
0.0
 11
243.59609492
 21
-237.77004069
 31
0.0
  0
LINE
  5
467
  8
DIM49
 10
-7.21734206
 20
-238.52004069
 30
0.0
 11
242.84609492
 21
-238.52004069
 31
0.0
  0
LINE
  5
468
  8
DIM49
 10
-7.21734206
 20
-240.52004069
 30
0.0
 11
-7.21734206
 21
-236.52004069
 31
0.0
  0
LINE
  5
469
  8
DIM49
 10
242.84609492
 20
-240.52004069
 30
0.0
 11
242.84609492
 21
-236.52004069
 31
0.0
  0
ENDBLK
  8
0
  0
BLOCK
  8
0
  2
_D4
 70
     0
 10
249.74639218
 20
-271.6901976
 30
0.0
  0
TEXT
  5
46C
  8
TXT_DIM49
 10
249.74639218
 20
-271.6901976
 30
0.0
 40
2.5
  1
10
 50
90.00020741
  7
ARIAL
  0
LINE
  5
46D
  8
DIM49
 10
250.24639218
 20
-273.77403409
 30
0.0
 11
252.24639218
 21
-275.77403409
 31
0.0
  0
LINE
  5
46E
  8
DIM49
 10
251.99639218
 20
-265.5166902
 30
0.0
 11
250.49639218
 21
-264.0166902
 31
0.0
  0
LINE
  5
46F
  8
DIM49
 10
251.24639218
 20
-274.77403409
 30
0.0
 11
251.24639218
 21
-264.7666902
 31
0.0
  0
LINE
  5
470
  8
DIM49
 10
249.24639218
 20
-274.77403409
 30
0.0
 11
253.24639218
 21
-274.77403409
 31
0.0
  0
LINE
  5
471
  8
DIM49
 10
249.24639218
 20
-264.7666902
 30
0.0
 11
253.24639218
 21
-264.7666902
 31
0.0
  0
ENDBLK
  8
0
  0
BLOCK
  8
0
  2
_D5
 70
     0
 10
249.74639218
 20
-261.72660793
 30
0.0
  0
TEXT
  5
474
  8
TXT_DIM49
 10
249.74639218
 20
-261.72660793
 30
0.0
 40
2.5
  1
8
 50
90.00020741
  7
ARIAL
  0
LINE
  5
475
  8
DIM49
 10
250.24639218
 20
-263.7666902
 30
0.0
 11
252.24639218
 21
-265.7666902
 31
0.0
  0
LINE
  5
476
  8
DIM49
 10
251.99639218
 20
-257.5166902
 30
0.0
 11
250.49639218
 21
-256.0166902
 31
0.0
  0
LINE
  5
477
  8
DIM49
 10
251.24639218
 20
-264.7666902
 30
0.0
 11
251.24639218
 21
-256.7666902
 31
0.0
  0
LINE
  5
478
  8
DIM49
 10
249.24639218
 20
-264.7666902
 30
0.0
 11
253.24639218
 21
-264.7666902
 31
0.0
  0
LINE
  5
479
  8
DIM49
 10
249.24639218
 20
-256.7666902
 30
0.0
 11
253.24639218
 21
-256.7666902
 31
0.0
  0
ENDBLK
  8
0
  0
BLOCK
  8
0
  2
_D6
 70
     0
 10
154.7163418
 20
-246.64530139
 30
0.0
  0
TEXT
  5
47C
  8
TXT_DIM49
 10
154.7163418
 20
-246.64530139
 30
0.0
 40
2.5
  1
171
  7
ARIAL
  0
LINE
  5
47D
  8
DIM49
 10
241.84609492
 20
-249.14530139
 30
0.0
 11
243.84609492
 21
-247.14530139
 31
0.0
  0
LINE
  5
47E
  8
DIM49
 10
73.09609492
 20
-247.39530139
 30
0.0
 11
71.59609492
 21
-248.89530139
 31
0.0
  0
LINE
  5
47F
  8
DIM49
 10
242.84609492
 20
-248.14530139
 30
0.0
 11
72.34609492
 21
-248.14530139
 31
0.0
  0
LINE
  5
480
  8
DIM49
 10
242.84609492
 20
-250.14530139
 30
0.0
 11
242.84609492
 21
-246.14530139
 31
0.0
  0
LINE
  5
481
  8
DIM49
 10
72.34609492
 20
-250.14530139
 30
0.0
 11
72.34609492
 21
-246.14530139
 31
0.0
  0
ENDBLK
  8
0
  0
BLOCK
  8
0
  2
_D7
 70
     0
 10
257.2440419
 20
-267.6901976
 30
0.0
  0
TEXT
  5
484
  8
TXT_DIM49
 10
257.2440419
 20
-267.6901976
 30
0.0
 40
2.5
  1
18
 50
90.00020741
  7
ARIAL
  0
LINE
  5
485
  8
DIM49
 10
259.7440419
 20
-257.7666902
 30
0.0
 11
257.7440419
 21
-255.7666902
 31
0.0
  0
LINE
  5
486
  8
DIM49
 10
257.9940419
 20
-274.02403409
 30
0.0
 11
259.4940419
 21
-275.52403409
 31
0.0
  0
LINE
  5
487
  8
DIM49
 10
258.7440419
 20
-256.7666902
 30
0.0
 11
258.7440419
 21
-274.77403409
 31
0.0
  0
LINE
  5
488
  8
DIM49
 10
256.7440419
 20
-256.7666902
 30
0.0
 11
260.7440419
 21
-256.7666902
 31
0.0
  0
LINE
  5
489
  8
DIM49
 10
256.7440419
 20
-274.77403409
 30
0.0
 11
260.7440419
 21
-274.77403409
 31
0.0
  0
ENDBLK
  8
0
  0
BLOCK
  8
0
  2
_D8
 70
     0
 10
304.32036215
 20
-247.24405638
 30
0.0
  0
TEXT
  5
492
  8
TXT_DIM49
 10
304.32036215
 20
-247.24405638
 30
0.0
 40
2.5
  1
60
  7
ARIAL
  0
LINE
  5
493
  8
DIM49
 10
277.2401976
 20
-247.74405638
 30
0.0
 11
275.2401976
 21
-249.74405638
 31
0.0
  0
LINE
  5
494
  8
DIM49
 10
335.4901976
 20
-249.49405638
 30
0.0
 11
336.9901976
 21
-247.99405638
 31
0.0
  0
LINE
  5
495
  8
DIM49
 10
276.2401976
 20
-248.74405638
 30
0.0
 11
336.2401976
 21
-248.74405638
 31
0.0
  0
LINE
  5
496
  8
DIM49
 10
276.2401976
 20
-250.74405638
 30
0.0
 11
276.2401976
 21
-246.74405638
 31
0.0
  0
LINE
  5
497
  8
DIM49
 10
336.2401976
 20
-250.74405638
 30
0.0
 11
336.2401976
 21
-246.74405638
 31
0.0
  0
ENDBLK
  8
0
  0
BLOCK
  8
0
  2
_D9
 70
     0
 10
230.88058938
 20
-168.85640534
 30
0.0
  0
TEXT
  5
4B2
  8
TXT_DIM49
 10
230.88058938
 20
-168.85640534
 30
0.0
 40
2.5
  1
Ø
 50
90.00020741
  7
ARIAL
  0
TEXT
  5
4B3
  8
TXT_DIM49
 10
230.88058938
 20
-165.17133244
 30
0.0
 40
2.5
  1
13
 50
90.00020741
  7
ARIAL
  0
LINE
  5
4B4
  8
DIM49
 10
233.38058938
 20
-159.59403332
 30
0.0
 11
231.38058938
 21
-157.59403332
 31
0.0
  0
LINE
  5
4B5
  8
DIM49
 10
231.63058938
 20
-170.84403332
 30
0.0
 11
233.13058938
 21
-172.34403332
 31
0.0
  0
LINE
  5
4B6
  8
DIM49
 10
232.38058938
 20
-158.59403332
 30
0.0
 11
232.38058938
 21
-171.59403332
 31
0.0
  0
LINE
  5
4B7
  8
DIM49
 10
230.38058938
 20
-158.59403332
 30
0.0
 11
234.38058938
 21
-158.59403332
 31
0.0
  0
LINE
  5
4B8
  8
DIM49
 10
230.38058938
 20
-171.59403332
 30
0.0
 11
234.38058938
 21
-171.59403332
 31
0.0
  0
ENDBLK
  8
0
  0
BLOCK
  8
0
  2
_D10
 70
     0
 10
258.06522164
 20
-167.01386877
 30
0.0
  0
TEXT
  5
4BB
  8
TXT_DIM49
 10
258.06522164
 20
-167.01386877
 30
0.0
 40
2.5
  1
60
 50
90.00020741
  7
ARIAL
  0
LINE
  5
4BC
  8
DIM49
 10
260.56522164
 20
-136.09403332
 30
0.0
 11
258.56522164
 21
-134.09403332
 31
0.0
  0
LINE
  5
4BD
  8
DIM49
 10
258.81522164
 20
-194.34403332
 30
0.0
 11
260.31522164
 21
-195.84403332
 31
0.0
  0
LINE
  5
4BE
  8
DIM49
 10
259.56522164
 20
-135.09403332
 30
0.0
 11
259.56522164
 21
-195.09403332
 31
0.0
  0
LINE
  5
4BF
  8
DIM49
 10
257.56522164
 20
-135.09403332
 30
0.0
 11
261.56522164
 21
-135.09403332
 31
0.0
  0
LINE
  5
4C0
  8
DIM49
 10
257.56522164
 20
-195.09403332
 30
0.0
 11
261.56522164
 21
-195.09403332
 31
0.0
  0
ENDBLK
  8
0
  0
BLOCK
  8
0
  2
_D11
 70
     0
 10
124.0837229
 20
-151.2802695
 30
0.0
  0
TEXT
  5
4C3
  8
TXT_DIM49
 10
124.0837229
 20
-151.2802695
 30
0.0
 40
2.5
  1
Ø
  7
ARIAL
  0
TEXT
  5
4C4
  8
TXT_DIM49
 10
127.7687958
 20
-151.2802695
 30
0.0
 40
2.5
  1
13
  7
ARIAL
  0
LINE
  5
4C5
  8
DIM49
 10
122.34609492
 20
-151.7802695
 30
0.0
 11
120.34609492
 21
-153.7802695
 31
0.0
  0
LINE
  5
4C6
  8
DIM49
 10
133.59609492
 20
-153.5302695
 30
0.0
 11
135.09609492
 21
-152.0302695
 31
0.0
  0
LINE
  5
4C7
  8
DIM49
 10
121.34609492
 20
-152.7802695
 30
0.0
 11
134.34609492
 21
-152.7802695
 31
0.0
  0
LINE
  5
4C8
  8
DIM49
 10
121.34609492
 20
-154.7802695
 30
0.0
 11
121.34609492
 21
-150.7802695
 31
0.0
  0
LINE
  5
4C9
  8
DIM49
 10
134.34609492
 20
-154.7802695
 30
0.0
 11
134.34609492
 21
-150.7802695
 31
0.0
  0
ENDBLK
  8
0
  0
BLOCK
  8
0
  2
_D12
 70
     0
 10
157.47096271
 20
-125.67466599
 30
0.0
  0
TEXT
  5
4CC
  8
TXT_DIM49
 10
157.47096271
 20
-125.67466599
 30
0.0
 40
2.5
  1
165
  7
ARIAL
  0
LINE
  5
4CD
  8
DIM49
 10
241.84609492
 20
-128.17466599
 30
0.0
 11
243.84609492
 21
-126.17466599
 31
0.0
  0
LINE
  5
4CE
  8
DIM49
 10
78.60533673
 20
-126.42466599
 30
0.0
 11
77.10533673
 21
-127.92466599
 31
0.0
  0
LINE
  5
4CF
  8
DIM49
 10
242.84609492
 20
-127.17466599
 30
0.0
 11
77.85533673
 21
-127.17466599
 31
0.0
  0
LINE
  5
4D0
  8
DIM49
 10
242.84609492
 20
-129.17466599
 30
0.0
 11
242.84609492
 21
-125.17466599
 31
0.0
  0
LINE
  5
4D1
  8
DIM49
 10
77.85533673
 20
-129.17466599
 30
0.0
 11
77.85533673
 21
-125.17466599
 31
0.0
  0
ENDBLK
  8
0
  0
BLOCK
  8
0
  2
_D13
 70
     0
 10
22.86282249
 20
-125.01437953
 30
0.0
  0
TEXT
  5
4D4
  8
TXT_DIM49
 10
22.86282249
 20
-125.01437953
 30
0.0
 40
2.5
  1
64
  7
ARIAL
  0
LINE
  5
4D5
  8
DIM49
 10
-6.21734206
 20
-125.51437953
 30
0.0
 11
-8.21734206
 21
-127.51437953
 31
0.0
  0
LINE
  5
4D6
  8
DIM49
 10
56.03265794
 20
-127.26437953
 30
0.0
 11
57.53265794
 21
-125.76437953
 31
0.0
  0
LINE
  5
4D7
  8
DIM49
 10
-7.21734206
 20
-126.51437953
 30
0.0
 11
56.78265794
 21
-126.51437953
 31
0.0
  0
LINE
  5
4D8
  8
DIM49
 10
-7.21734206
 20
-128.51437953
 30
0.0
 11
-7.21734206
 21
-124.51437953
 31
0.0
  0
LINE
  5
4D9
  8
DIM49
 10
56.78265794
 20
-128.51437953
 30
0.0
 11
56.78265794
 21
-124.51437953
 31
0.0
  0
ENDBLK
  8
0
  0
BLOCK
  8
0
  2
_D14
 70
     0
 10
19.02028592
 20
-151.71410186
 30
0.0
  0
TEXT
  5
4DC
  8
TXT_DIM49
 10
19.02028592
 20
-151.71410186
 30
0.0
 40
2.5
  1
Ø
  7
ARIAL
  0
TEXT
  5
4DD
  8
TXT_DIM49
 10
22.70535882
 20
-151.71410186
 30
0.0
 40
2.5
  1
13
  7
ARIAL
  0
LINE
  5
4DE
  8
DIM49
 10
17.28265794
 20
-152.21410186
 30
0.0
 11
15.28265794
 21
-154.21410186
 31
0.0
  0
LINE
  5
4DF
  8
DIM49
 10
28.53265794
 20
-153.96410186
 30
0.0
 11
30.03265794
 21
-152.46410186
 31
0.0
  0
LINE
  5
4E0
  8
DIM49
 10
16.28265794
 20
-153.21410186
 30
0.0
 11
29.28265794
 21
-153.21410186
 31
0.0
  0
LINE
  5
4E1
  8
DIM49
 10
16.28265794
 20
-155.21410186
 30
0.0
 11
16.28265794
 21
-151.21410186
 31
0.0
  0
LINE
  5
4E2
  8
DIM49
 10
29.28265794
 20
-155.21410186
 30
0.0
 11
29.28265794
 21
-151.21410186
 31
0.0
  0
ENDBLK
  8
0
  0
BLOCK
  8
0
  2
_D15
 70
     0
 10
1.48020371
 20
-157.10716253
 30
0.0
  0
TEXT
  5
4E5
  8
TXT_DIM49
 10
1.48020371
 20
-157.10716253
 30
0.0
 40
2.5
  1
Ø
  7
ARIAL
  0
TEXT
  5
4E6
  8
TXT_DIM49
 10
5.1652766
 20
-157.10716253
 30
0.0
 40
2.5
  1
8
  7
ARIAL
  0
LINE
  5
4E7
  8
DIM49
 10
7.28265794
 20
-159.60716253
 30
0.0
 11
9.28265794
 21
-157.60716253
 31
0.0
  0
LINE
  5
4E8
  8
DIM49
 10
1.03265794
 20
-157.85716253
 30
0.0
 11
-0.46734206
 21
-159.35716253
 31
0.0
  0
LINE
  5
4E9
  8
DIM49
 10
8.28265794
 20
-158.60716253
 30
0.0
 11
0.28265794
 21
-158.60716253
 31
0.0
  0
LINE
  5
4EA
  8
DIM49
 10
8.28265794
 20
-156.60716253
 30
0.0
 11
8.28265794
 21
-160.60716253
 31
0.0
  0
LINE
  5
4EB
  8
DIM49
 10
0.28265794
 20
-156.60716253
 30
0.0
 11
0.28265794
 21
-160.60716253
 31
0.0
  0
ENDBLK
  8
0
  0
BLOCK
  8
0
  2
_D16
 70
     0
 10
247.8182358
 20
-152.01386877
 30
0.0
  0
TEXT
  5
4EE
  8
TXT_DIM49
 10
247.8182358
 20
-152.01386877
 30
0.0
 40
2.5
  1
30
 50
90.00020741
  7
ARIAL
  0
LINE
  5
4EF
  8
DIM49
 10
250.3182358
 20
-136.09403332
 30
0.0
 11
248.3182358
 21
-134.09403332
 31
0.0
  0
LINE
  5
4F0
  8
DIM49
 10
248.5682358
 20
-164.34403332
 30
0.0
 11
250.0682358
 21
-165.84403332
 31
0.0
  0
LINE
  5
4F1
  8
DIM49
 10
249.3182358
 20
-135.09403332
 30
0.0
 11
249.3182358
 21
-165.09403332
 31
0.0
  0
LINE
  5
4F2
  8
DIM49
 10
247.3182358
 20
-135.09403332
 30
0.0
 11
251.3182358
 21
-135.09403332
 31
0.0
  0
LINE
  5
4F3
  8
DIM49
 10
247.3182358
 20
-165.09403332
 30
0.0
 11
251.3182358
 21
-165.09403332
 31
0.0
  0
ENDBLK
  8
0
  0
BLOCK
  8
0
  2
_D17
 70
     0
 10
247.8182358
 20
-182.01386877
 30
0.0
  0
TEXT
  5
4F6
  8
TXT_DIM49
 10
247.8182358
 20
-182.01386877
 30
0.0
 40
2.5
  1
30
 50
90.00020741
  7
ARIAL
  0
LINE
  5
4F7
  8
DIM49
 10
250.3182358
 20
-166.09403332
 30
0.0
 11
248.3182358
 21
-164.09403332
 31
0.0
  0
LINE
  5
4F8
  8
DIM49
 10
248.5682358
 20
-194.34403332
 30
0.0
 11
250.0682358
 21
-195.84403332
 31
0.0
  0
LINE
  5
4F9
  8
DIM49
 10
249.3182358
 20
-165.09403332
 30
0.0
 11
249.3182358
 21
-195.09403332
 31
0.0
  0
LINE
  5
4FA
  8
DIM49
 10
247.3182358
 20
-165.09403332
 30
0.0
 11
251.3182358
 21
-165.09403332
 31
0.0
  0
LINE
  5
4FB
  8
DIM49
 10
247.3182358
 20
-195.09403332
 30
0.0
 11
251.3182358
 21
-195.09403332
 31
0.0
  0
ENDBLK
  8
0
  0
BLOCK
  8
0
  2
_D18
 70
     0
 10
230.92625947
 20
-200.59046513
 30
0.0
  0
TEXT
  5
4FE
  8
TXT_DIM49
 10
230.92625947
 20
-200.59046513
 30
0.0
 40
2.5
  1
20
  7
ARIAL
  0
LINE
  5
4FF
  8
DIM49
 10
241.84609492
 20
-203.09046513
 30
0.0
 11
243.84609492
 21
-201.09046513
 31
0.0
  0
LINE
  5
500
  8
DIM49
 10
223.59609492
 20
-201.34046513
 30
0.0
 11
222.09609492
 21
-202.84046513
 31
0.0
  0
LINE
  5
501
  8
DIM49
 10
242.84609492
 20
-202.09046513
 30
0.0
 11
222.84609492
 21
-202.09046513
 31
0.0
  0
LINE
  5
502
  8
DIM49
 10
242.84609492
 20
-200.09046513
 30
0.0
 11
242.84609492
 21
-204.09046513
 31
0.0
  0
LINE
  5
503
  8
DIM49
 10
222.84609492
 20
-200.09046513
 30
0.0
 11
222.84609492
 21
-204.09046513
 31
0.0
  0
ENDBLK
  8
0
  0
BLOCK
  8
0
  2
_D19
 70
     0
 10
200.92625947
 20
-200.59046513
 30
0.0
  0
TEXT
  5
506
  8
TXT_DIM49
 10
200.92625947
 20
-200.59046513
 30
0.0
 40
2.5
  1
40
  7
ARIAL
  0
LINE
  5
507
  8
DIM49
 10
221.84609492
 20
-203.09046513
 30
0.0
 11
223.84609492
 21
-201.09046513
 31
0.0
  0
LINE
  5
508
  8
DIM49
 10
183.59609492
 20
-201.34046513
 30
0.0
 11
182.09609492
 21
-202.84046513
 31
0.0
  0
LINE
  5
509
  8
DIM49
 10
222.84609492
 20
-202.09046513
 30
0.0
 11
182.84609492
 21
-202.09046513
 31
0.0
  0
LINE
  5
50A
  8
DIM49
 10
222.84609492
 20
-200.09046513
 30
0.0
 11
222.84609492
 21
-204.09046513
 31
0.0
  0
LINE
  5
50B
  8
DIM49
 10
182.84609492
 20
-200.09046513
 30
0.0
 11
182.84609492
 21
-204.09046513
 31
0.0
  0
ENDBLK
  8
0
  0
BLOCK
  8
0
  2
_D20
 70
     0
 10
153.42625947
 20
-200.59046513
 30
0.0
  0
TEXT
  5
50E
  8
TXT_DIM49
 10
153.42625947
 20
-200.59046513
 30
0.0
 40
2.5
  1
55
  7
ARIAL
  0
LINE
  5
50F
  8
DIM49
 10
181.84609492
 20
-203.09046513
 30
0.0
 11
183.84609492
 21
-201.09046513
 31
0.0
  0
LINE
  5
510
  8
DIM49
 10
128.59609492
 20
-201.34046513
 30
0.0
 11
127.09609492
 21
-202.84046513
 31
0.0
  0
LINE
  5
511
  8
DIM49
 10
182.84609492
 20
-202.09046513
 30
0.0
 11
127.84609492
 21
-202.09046513
 31
0.0
  0
LINE
  5
512
  8
DIM49
 10
182.84609492
 20
-200.09046513
 30
0.0
 11
182.84609492
 21
-204.09046513
 31
0.0
  0
LINE
  5
513
  8
DIM49
 10
127.84609492
 20
-200.09046513
 30
0.0
 11
127.84609492
 21
-204.09046513
 31
0.0
  0
ENDBLK
  8
0
  0
BLOCK
  8
0
  2
_D21
 70
     0
 10
-15.4566084
 20
-144.20332416
 30
0.0
  0
TEXT
  5
516
  8
TXT_DIM49
 10
-15.4566084
 20
-144.20332416
 30
0.0
 40
2.5
  1
11,5
 50
90.00020741
  7
ARIAL
  0
LINE
  5
517
  8
DIM49
 10
-12.9566084
 20
-136.09403332
 30
0.0
 11
-14.9566084
 21
-134.09403332
 31
0.0
  0
LINE
  5
518
  8
DIM49
 10
-14.7066084
 20
-145.84403332
 30
0.0
 11
-13.2066084
 21
-147.34403332
 31
0.0
  0
LINE
  5
519
  8
DIM49
 10
-13.9566084
 20
-135.09403332
 30
0.0
 11
-13.9566084
 21
-146.59403332
 31
0.0
  0
LINE
  5
51A
  8
DIM49
 10
-11.9566084
 20
-135.09403332
 30
0.0
 11
-15.9566084
 21
-135.09403332
 31
0.0
  0
LINE
  5
51B
  8
DIM49
 10
-11.9566084
 20
-146.59403332
 30
0.0
 11
-15.9566084
 21
-146.59403332
 31
0.0
  0
ENDBLK
  8
0
  0
BLOCK
  8
0
  2
_D22
 70
     0
 10
-15.4566084
 20
-159.20332416
 30
0.0
  0
TEXT
  5
51E
  8
TXT_DIM49
 10
-15.4566084
 20
-159.20332416
 30
0.0
 40
2.5
  1
18,5
 50
90.00020741
  7
ARIAL
  0
LINE
  5
51F
  8
DIM49
 10
-12.9566084
 20
-147.59403332
 30
0.0
 11
-14.9566084
 21
-145.59403332
 31
0.0
  0
LINE
  5
520
  8
DIM49
 10
-14.7066084
 20
-164.34403332
 30
0.0
 11
-13.2066084
 21
-165.84403332
 31
0.0
  0
LINE
  5
521
  8
DIM49
 10
-13.9566084
 20
-146.59403332
 30
0.0
 11
-13.9566084
 21
-165.09403332
 31
0.0
  0
LINE
  5
522
  8
DIM49
 10
-11.9566084
 20
-146.59403332
 30
0.0
 11
-15.9566084
 21
-146.59403332
 31
0.0
  0
LINE
  5
523
  8
DIM49
 10
-11.9566084
 20
-165.09403332
 30
0.0
 11
-15.9566084
 21
-165.09403332
 31
0.0
  0
ENDBLK
  8
0
  0
BLOCK
  8
0
  2
_D23
 70
     0
 10
-15.4566084
 20
-177.70332416
 30
0.0
  0
TEXT
  5
526
  8
TXT_DIM49
 10
-15.4566084
 20
-177.70332416
 30
0.0
 40
2.5
  1
18,5
 50
90.00020741
  7
ARIAL
  0
LINE
  5
527
  8
DIM49
 10
-12.9566084
 20
-166.09403332
 30
0.0
 11
-14.9566084
 21
-164.09403332
 31
0.0
  0
LINE
  5
528
  8
DIM49
 10
-14.7066084
 20
-182.84403332
 30
0.0
 11
-13.2066084
 21
-184.34403332
 31
0.0
  0
LINE
  5
529
  8
DIM49
 10
-13.9566084
 20
-165.09403332
 30
0.0
 11
-13.9566084
 21
-183.59403332
 31
0.0
  0
LINE
  5
52A
  8
DIM49
 10
-11.9566084
 20
-165.09403332
 30
0.0
 11
-15.9566084
 21
-165.09403332
 31
0.0
  0
LINE
  5
52B
  8
DIM49
 10
-11.9566084
 20
-183.59403332
 30
0.0
 11
-15.9566084
 21
-183.59403332
 31
0.0
  0
ENDBLK
  8
0
  0
BLOCK
  8
0
  2
_D24
 70
     0
 10
-15.4566084
 20
-192.70332416
 30
0.0
  0
TEXT
  5
52E
  8
TXT_DIM49
 10
-15.4566084
 20
-192.70332416
 30
0.0
 40
2.5
  1
11,5
 50
90.00020741
  7
ARIAL
  0
LINE
  5
52F
  8
DIM49
 10
-12.9566084
 20
-184.59403332
 30
0.0
 11
-14.9566084
 21
-182.59403332
 31
0.0
  0
LINE
  5
530
  8
DIM49
 10
-14.7066084
 20
-194.34403332
 30
0.0
 11
-13.2066084
 21
-195.84403332
 31
0.0
  0
LINE
  5
531
  8
DIM49
 10
-13.9566084
 20
-183.59403332
 30
0.0
 11
-13.9566084
 21
-195.09403332
 31
0.0
  0
LINE
  5
532
  8
DIM49
 10
-11.9566084
 20
-183.59403332
 30
0.0
 11
-15.9566084
 21
-183.59403332
 31
0.0
  0
LINE
  5
533
  8
DIM49
 10
-11.9566084
 20
-195.09403332
 30
0.0
 11
-15.9566084
 21
-195.09403332
 31
0.0
  0
ENDBLK
  8
0
  0
BLOCK
  8
0
  2
_D25
 70
     0
 10
-4.8266329
 20
-201.95318849
 30
0.0
  0
TEXT
  5
536
  8
TXT_DIM49
 10
-4.8266329
 20
-201.95318849
 30
0.0
 40
2.5
  1
11,5
  7
ARIAL
  0
LINE
  5
537
  8
DIM49
 10
-6.21734206
 20
-202.45318849
 30
0.0
 11
-8.21734206
 21
-204.45318849
 31
0.0
  0
LINE
  5
538
  8
DIM49
 10
3.53265794
 20
-204.20318849
 30
0.0
 11
5.03265794
 21
-202.70318849
 31
0.0
  0
LINE
  5
539
  8
DIM49
 10
-7.21734206
 20
-203.45318849
 30
0.0
 11
4.28265794
 21
-203.45318849
 31
0.0
  0
LINE
  5
53A
  8
DIM49
 10
-7.21734206
 20
-201.45318849
 30
0.0
 11
-7.21734206
 21
-205.45318849
 31
0.0
  0
LINE
  5
53B
  8
DIM49
 10
4.28265794
 20
-201.45318849
 30
0.0
 11
4.28265794
 21
-205.45318849
 31
0.0
  0
ENDBLK
  8
0
  0
BLOCK
  8
0
  2
_D26
 70
     0
 10
10.1733671
 20
-201.95318849
 30
0.0
  0
TEXT
  5
53E
  8
TXT_DIM49
 10
10.1733671
 20
-201.95318849
 30
0.0
 40
2.5
  1
18,5
  7
ARIAL
  0
LINE
  5
53F
  8
DIM49
 10
5.28265794
 20
-202.45318849
 30
0.0
 11
3.28265794
 21
-204.45318849
 31
0.0
  0
LINE
  5
540
  8
DIM49
 10
22.03265794
 20
-204.20318849
 30
0.0
 11
23.53265794
 21
-202.70318849
 31
0.0
  0
LINE
  5
541
  8
DIM49
 10
4.28265794
 20
-203.45318849
 30
0.0
 11
22.78265794
 21
-203.45318849
 31
0.0
  0
LINE
  5
542
  8
DIM49
 10
4.28265794
 20
-201.45318849
 30
0.0
 11
4.28265794
 21
-205.45318849
 31
0.0
  0
LINE
  5
543
  8
DIM49
 10
22.78265794
 20
-201.45318849
 30
0.0
 11
22.78265794
 21
-205.45318849
 31
0.0
  0
ENDBLK
  8
0
  0
BLOCK
  8
0
  2
_D27
 70
     0
 10
28.6733671
 20
-201.95318849
 30
0.0
  0
TEXT
  5
546
  8
TXT_DIM49
 10
28.6733671
 20
-201.95318849
 30
0.0
 40
2.5
  1
18,5
  7
ARIAL
  0
LINE
  5
547
  8
DIM49
 10
23.78265794
 20
-202.45318849
 30
0.0
 11
21.78265794
 21
-204.45318849
 31
0.0
  0
LINE
  5
548
  8
DIM49
 10
40.53265794
 20
-204.20318849
 30
0.0
 11
42.03265794
 21
-202.70318849
 31
0.0
  0
LINE
  5
549
  8
DIM49
 10
22.78265794
 20
-203.45318849
 30
0.0
 11
41.28265794
 21
-203.45318849
 31
0.0
  0
LINE
  5
54A
  8
DIM49
 10
22.78265794
 20
-201.45318849
 30
0.0
 11
22.78265794
 21
-205.45318849
 31
0.0
  0
LINE
  5
54B
  8
DIM49
 10
41.28265794
 20
-201.45318849
 30
0.0
 11
41.28265794
 21
-205.45318849
 31
0.0
  0
ENDBLK
  8
0
  0
BLOCK
  8
0
  2
_ZBL0002_00001
 70
     0
 10
0.0
 20
0.0
 30
0.0
  0
INSERT
  5
1C8
  8
0
  2
DINA3_00002
 10
-43.77276819
 20
-355.83639047
 30
0.0
  0
ENDBLK
  8
0
  0
BLOCK
  8
0
  2
DINA3_00002
 70
     0
 10
-43.77276819
 20
-355.83639047
 30
0.0
  0
POLYLINE
  5
1CB
  8
0
 66
     1
 10
0.0
 20
0.0
 30
0.0
 70
     1
  0
VERTEX
  5
1CC
  8
0
 10
-43.77276819
 20
-355.83639047
 30
0.0
  0
VERTEX
  5
1CD
  8
0
 10
376.22723181
 20
-355.83639047
 30
0.0
  0
VERTEX
  5
1CE
  8
0
 10
376.22723181
 20
-58.83639047
 30
0.0
  0
VERTEX
  5
1CF
  8
0
 10
-43.77276819
 20
-58.83639047
 30
0.0
  0
SEQEND
  5
1D0
  8
0
  0
POLYLINE
  5
1D1
  8
0
 66
     1
 10
0.0
 20
0.0
 30
0.0
 70
     1
  0
VERTEX
  5
1D2
  8
0
 10
-38.77276819
 20
-350.83639047
 30
0.0
  0
VERTEX
  5
1D3
  8
0
 10
371.22723181
 20
-350.83639047
 30
0.0
  0
VERTEX
  5
1D4
  8
0
 10
371.22723181
 20
-63.83639047
 30
0.0
  0
VERTEX
  5
1D5
  8
0
 10
-38.77276819
 20
-63.83639047
 30
0.0
  0
SEQEND
  5
1D6
  8
0
  0
LINE
  5
1D7
  8
0
 10
186.22723181
 20
-350.83639047
 30
0.0
 11
186.22723181
 21
-355.83639047
 31
0.0
  0
LINE
  5
1D8
  8
0
 10
186.22723181
 20
-63.83639047
 30
0.0
 11
186.22723181
 21
-58.83639047
 31
0.0
  0
LINE
  5
1D9
  8
0
 10
-23.77276819
 20
-350.83639047
 30
0.0
 11
-23.77276819
 21
-355.83639047
 31
0.0
  0
LINE
  5
1DA
  8
0
 10
-23.77276819
 20
-63.83639047
 30
0.0
 11
-23.77276819
 21
-58.83639047
 31
0.0
  0
TEXT
  5
1DB
  8
TXT_ALL
 62
     4
 10
375.22723181
 20
-354.83639047
 30
0.0
 40
2.5
  1

 50
90.00020741
  0
POLYLINE
  5
1DC
  8
0
 66
     1
 10
0.0
 20
0.0
 30
0.0
  0
VERTEX
  5
1DD
  8
0
 10
371.22723181
 20
-73.83639047
 30
0.0
  0
VERTEX
  5
1DE
  8
0
 10
302.23393181
 20
-73.83639047
 30
0.0
  0
VERTEX
  5
1DF
  8
0
 10
302.23393181
 20
-63.83639047
 30
0.0
  0
SEQEND
  5
1E0
  8
0
  0
LINE
  5
1E1
  8
0
 10
304.13723181
 20
-331.33639047
 30
0.0
 11
164.24723181
 21
-331.33639047
 31
0.0
  0
LINE
  5
1E2
  8
0
 10
164.24723181
 20
-341.08639047
 30
0.0
 11
304.13723181
 21
-341.08639047
 31
0.0
  0
POLYLINE
  5
1E3
  8
0
 66
     1
 10
0.0
 20
0.0
 30
0.0
  0
VERTEX
  5
1E4
  8
0
 10
164.24723181
 20
-331.33639047
 30
0.0
  0
VERTEX
  5
1E5
  8
0
 10
164.24723181
 20
-341.08639047
 30
0.0
  0
VERTEX
  5
1E6
  8
0
 10
164.24723181
 20
-350.83639047
 30
0.0
  0
SEQEND
  5
1E7
  8
0
  0
POLYLINE
  5
1E8
  8
0
 66
     1
 10
0.0
 20
0.0
 30
0.0
  0
VERTEX
  5
1E9
  8
0
 10
234.19223181
 20
-331.33639047
 30
0.0
  0
VERTEX
  5
1EA
  8
0
 10
234.19223181
 20
-341.08639047
 30
0.0
  0
VERTEX
  5
1EB
  8
0
 10
234.19223181
 20
-350.83639047
 30
0.0
  0
SEQEND
  5
1EC
  8
0
  0
INSERT
  5
1ED
  8
0
  2
FLEX_00003
 10
166.24723181
 20
-336.21139047
 30
0.0
  0
INSERT
  5
1EE
  8
0
  2
FLEX_00005
 10
166.24723181
 20
-345.96139047
 30
0.0
  0
INSERT
  5
1EF
  8
0
  2
FLEX_00007
 10
236.19223181
 20
-345.96139047
 30
0.0
  0
INSERT
  5
1F0
  8
0
  2
FLEX_00009
 10
236.19223181
 20
-336.21139047
 30
0.0
  0
INSERT
  5
1F1
  8
0
  2
SCHRIFE_00011
 10
-35.33080793
 20
-68.83639047
 30
0.0
  0
INSERT
  5
1F2
  8
0
  2
_B_M_P___00015
 10
353.06965789
 20
-355.72639047
 30
0.0
  0
ENDBLK
  8
0
  0
BLOCK
  8
0
  2
FLEX_00003
 70
     0
 10
166.24723181
 20
-336.21139047
 30
0.0
  0
INSERT
  5
1F5
  8
0
  2
TFIELD_00004
 10
166.24723181
 20
-336.21139047
 30
0.0
  0
ENDBLK
  8
0
  0
BLOCK
  8
0
  2
TFIELD_00004
 70
     0
 10
166.24723181
 20
-336.21139047
 30
0.0
  0
TEXT
  5
1F8
  8
TXT_ALL
 10
166.24723181
 20
-337.51139042
 30
0.0
 40
2.5999999
  1
E-mail: verkoop@jonkers-bouwmetaal.nl
  7
ARIAL
  0
ENDBLK
  8
0
  0
BLOCK
  8
0
  2
FLEX_00005
 70
     0
 10
166.24723181
 20
-345.96139047
 30
0.0
  0
INSERT
  5
1FB
  8
0
  2
TFIELD_00006
 10
166.24723181
 20
-345.96139047
 30
0.0
  0
ENDBLK
  8
0
  0
BLOCK
  8
0
  2
TFIELD_00006
 70
     0
 10
166.24723181
 20
-345.96139047
 30
0.0
  0
TEXT
  5
1FE
  8
TXT_ALL
 10
166.24723181
 20
-347.26139042
 30
0.0
 40
2.5999999
  1
Telefoon: 0527-685156
  7
ARIAL
  0
ENDBLK
  8
0
  0
BLOCK
  8
0
  2
FLEX_00007
 70
     0
 10
236.19223181
 20
-345.96139047
 30
0.0
  0
INSERT
  5
201
  8
0
  2
TFIELD_00008
 10
236.19223181
 20
-345.96139047
 30
0.0
  0
ENDBLK
  8
0
  0
BLOCK
  8
0
  2
TFIELD_00008
 70
     0
 10
236.19223181
 20
-345.96139047
 30
0.0
  0
TEXT
  5
204
  8
TXT_ALL
 10
236.19223181
 20
-347.26139042
 30
0.0
 40
2.5999999
  1
Website: www.jonkers-bouwmetaal.nl
  7
ARIAL
  0
ENDBLK
  8
0
  0
BLOCK
  8
0
  2
FLEX_00009
 70
     0
 10
236.19223181
 20
-336.21139047
 30
0.0
  0
INSERT
  5
207
  8
0
  2
TFIELD_00010
 10
236.19223181
 20
-336.21139047
 30
0.0
  0
ENDBLK
  8
0
  0
BLOCK
  8
0
  2
TFIELD_00010
 70
     0
 10
236.19223181
 20
-336.21139047
 30
0.0
  0
TEXT
  5
20A
  8
TXT_ALL
 10
236.19223181
 20
-337.51139042
 30
0.0
 40
2.5999999
  1
Adres: Hoornse Hop 10, 8321 WX Urk
  7
ARIAL
  0
ENDBLK
  8
0
  0
BLOCK
  8
0
  2
SCHRIFE_00011
 70
     0
 10
-35.33080793
 20
-68.83639047
 30
0.0
  0
TEXT
  5
20D
  8
TXT_ALL
 10
-35.33080793
 20
-70.08639047
 30
0.0
 40
2.5
  1
Art. nr. 91017453
  7
ARIAL
  0
TEXT
  5
20E
  8
TXT_ALL
 10
7.40722888
 20
-70.08639047
 30
0.0
 40
2.5
  1
Omschrijving: Z03-anker 165x18x64 60x8 (sprong 10mm)
  7
ARIAL
  0
LINE
  5
20F
  8
0
 10
371.22723181
 20
-73.83639047
 30
0.0
 11
-38.77276819
 21
-73.83639047
 31
0.0
  0
LINE
  5
210
  8
0
 10
4.24723181
 20
-73.83639047
 30
0.0
 11
4.24723181
 21
-63.83639047
 31
0.0
  0
LINE
  5
211
  8
0
 10
164.24723181
 20
-73.83639047
 30
0.0
 11
164.24723181
 21
-63.83639047
 31
0.0
  0
TEXT
  5
212
  8
TXT_ALL
 10
235.24093181
 20
-70.08639047
 30
0.0
 40
2.5
  1
Behandeling: Thermisch verzinkt
  7
ARIAL
  0
LINE
  5
213
  8
0
 10
304.13723181
 20
-331.33639047
 30
0.0
 11
371.22723181
 21
-331.33639047
 31
0.0
  0
LINE
  5
214
  8
0
 10
304.13723181
 20
-350.83639047
 30
0.0
 11
304.13723181
 21
-331.33639047
 31
0.0
  0
LINE
  5
215
  8
0
 10
304.13723181
 20
-350.83639047
 30
0.0
 11
304.13723181
 21
-331.33639047
 31
0.0
  0
TEXT
  5
216
  8
TXT_ALL
 10
98.59242991
 20
-349.68185706
 30
0.0
 40
2.5
  1

  0
TEXT
  5
217
  8
TXT_ALL
 10
219.72761287
 20
-339.58639047
 30
0.0
 40
2.5
  1

  0
POLYLINE
  5
218
  8
0
 66
     1
 10
0.0
 20
0.0
 30
0.0
  0
VERTEX
  5
219
  8
0
 10
302.23393181
 20
-73.83639047
 30
0.0
  0
VERTEX
  5
21A
  8
0
 10
233.24093181
 20
-73.83639047
 30
0.0
  0
VERTEX
  5
21B
  8
0
 10
233.24093181
 20
-63.83639047
 30
0.0
  0
SEQEND
  5
21C
  8
0
  0
TEXT
  5
21D
  8
TXT_ALL
 10
304.23393181
 20
-70.08639047
 30
0.0
 40
2.5
  1
Verpakkingshoeveelheid: 1 st.
  7
ARIAL
  0
TEXT
  5
21E
  8
TXT_ALL
 10
166.24723181
 20
-70.08639047
 30
0.0
 40
2.5
  1
Materiaal: S355
  7
ARIAL
  0
INSERT
  5
21F
  8
0
  2
FLEX_00012
 10
345.80246723
 20
-354.83590032
 30
0.0
  0
INSERT
  5
220
  8
0
  2
_B_M_P___00014
 10
304.89659913
 20
-350.04370841
 30
0.0
  0
ENDBLK
  8
0
  0
BLOCK
  8
0
  2
FLEX_00012
 70
     0
 10
345.80246723
 20
-354.83590032
 30
0.0
  0
INSERT
  5
223
  8
0
  2
TFIELD_00013
 10
339.00887904
 20
-353.33590032
 30
0.0
  0
ENDBLK
  8
0
  0
BLOCK
  8
0
  2
TFIELD_00013
 70
     0
 10
339.00887904
 20
-353.33590032
 30
0.0
  0
TEXT
  5
226
  8
TXT_ALL
 10
339.00887904
 20
-354.08590032
 30
0.0
 40
1.5
  1
Onderdeel van
  7
ARIAL
  0
ENDBLK
  8
0
  0
BLOCK
  8
0
  2
_B_M_P___00014
 70
     0
 10
304.89659913
 20
-350.04370841
 30
0.0
  0
ENDBLK
  8
0
  0
BLOCK
  8
0
  2
_B_M_P___00015
 70
     0
 10
353.06965789
 20
-355.72639047
 30
0.0
  0
ENDBLK
  8
0
  0
BLOCK
  8
0
  2
_ANS0003_00016
 70
     0
 10
0.0
 20
0.0
 30
0.0
  0
INSERT
  5
22D
  8
0
  2
_A3D0003_00017
 10
0.0
 20
0.0
 30
0.0
  0
ENDBLK
  8
0
  0
BLOCK
  8
0
  2
_A3D0003_00017
 70
     0
 10
0.0
 20
0.0
 30
0.0
  0
INSERT
  5
230
  8
0
  2
PLAATWERK__D___8MM_00018
 10
0.0
 20
0.0
 30
0.0
  0
ENDBLK
  8
0
  0
BLOCK
  8
0
  2
PLAATWERK__D___8MM_00018
 70
     0
 10
0.0
 20
0.0
 30
0.0
  0
INSERT
  5
233
  8
0
  2
SHEET_FLANGE_00019
 10
0.0
 20
0.0
 30
0.0
  0
INSERT
  5
234
  8
0
  2
BEND_ZONE_00023
 10
0.0
 20
0.0
 30
0.0
  0
INSERT
  5
235
  8
0
  2
SHEET_FLANGE_00025
 10
0.0
 20
0.0
 30
0.0
  0
INSERT
  5
236
  8
0
  2
BEND_ZONE_00027
 10
0.0
 20
0.0
 30
0.0
  0
INSERT
  5
237
  8
0
  2
SHEET_FLANGE_00029
 10
0.0
 20
0.0
 30
0.0
  0
ENDBLK
  8
0
  0
BLOCK
  8
0
  2
SHEET_FLANGE_00019
 70
     0
 10
0.0
 20
0.0
 30
0.0
  0
INSERT
  5
23A
  8
0
  2
SHEET_FLANGE_00020
 10
-7.21734206
 20
-274.77403409
 30
0.0
  0
INSERT
  5
23B
  8
0
  2
_00021
 10
0.0
 20
0.0
 30
0.0
  0
ENDBLK
  8
0
  0
BLOCK
  8
0
  2
SHEET_FLANGE_00020
 70
     0
 10
-7.21734206
 20
-274.77403409
 30
0.0
  0
LINE
  5
23E
  8
LE_ALL
  6
DOT
 62
     3
 10
-7.21734206
 20
-274.77403409
 30
0.0
 11
-7.21734206
 21
-274.77403409
 31
0.0
  0
LINE
  5
23F
  8
LE_ALL
  6
DOT
 62
     3
 10
-7.21734206
 20
-266.77403409
 30
0.0
 11
-7.21734206
 21
-266.77403409
 31
0.0
  0
LINE
  5
240
  8
LE_ALL
  6
DOT
 62
     3
 10
56.78265794
 20
-274.77403409
 30
0.0
 11
56.78265794
 21
-274.77403409
 31
0.0
  0
LINE
  5
241
  8
LE_ALL
  6
DOT
 62
     3
 10
56.78265794
 20
-266.77403409
 30
0.0
 11
56.78265794
 21
-266.77403409
 31
0.0
  0
LINE
  5
242
  8
LE_ALL
  6
DOT
 62
     3
 10
37.28265794
 20
-266.77403409
 30
0.0
 11
37.28265794
 21
-274.77403409
 31
0.0
  0
LINE
  5
243
  8
LE_ALL
  6
DOT
 62
     3
 10
45.28265794
 20
-266.77403409
 30
0.0
 11
45.28265794
 21
-274.77403409
 31
0.0
  0
LINE
  5
244
  8
LE_ALL
  6
DOT
 62
     3
 10
0.28265794
 20
-266.77403409
 30
0.0
 11
0.28265794
 21
-274.77403409
 31
0.0
  0
LINE
  5
245
  8
LE_ALL
  6
DOT
 62
     3
 10
8.28265794
 20
-266.77403409
 30
0.0
 11
8.28265794
 21
-274.77403409
 31
0.0
  0
LINE
  5
246
  8
LE_ALL
  6
DOT
 62
     3
 10
16.28265794
 20
-266.77403409
 30
0.0
 11
16.28265794
 21
-274.77403409
 31
0.0
  0
LINE
  5
247
  8
LE_ALL
  6
DOT
 62
     3
 10
29.28265794
 20
-266.77403409
 30
0.0
 11
29.28265794
 21
-274.77403409
 31
0.0
  0
LINE
  5
248
  8
LE_ALL
 10
-7.21734206
 20
-274.77403409
 30
0.0
 11
-7.21734206
 21
-266.77403409
 31
0.0
  0
LINE
  5
249
  8
LE_ALL
 10
56.78265794
 20
-266.77403409
 30
0.0
 11
-7.21734206
 21
-266.77403409
 31
0.0
  0
LINE
  5
24A
  8
LE_ALL
 10
-7.21734206
 20
-274.77403409
 30
0.0
 11
56.78265794
 21
-274.77403409
 31
0.0
  0
ENDBLK
  8
0
  0
BLOCK
  8
0
  2
_00021
 70
     0
 10
0.0
 20
0.0
 30
0.0
  0
INSERT
  5
24D
  8
0
  2
_00022
 10
41.28265794
 20
-264.77403409
 30
0.0
  0
ENDBLK
  8
0
  0
BLOCK
  8
0
  2
_00022
 70
     0
 10
41.28265794
 20
-264.77403409
 30
0.0
  0
LINE
  5
250
  8
LE_ALL
  6
STRICHPUNKT2
 62
     1
 10
41.28265794
 20
-264.77403409
 30
0.0
 11
41.28265794
 21
-276.77403409
 31
0.0
  0
LINE
  5
251
  8
LE_ALL
  6
STRICHPUNKT2
 62
     1
 10
22.78265794
 20
-263.77403409
 30
0.0
 11
22.78265794
 21
-277.77403409
 31
0.0
  0
LINE
  5
252
  8
LE_ALL
  6
STRICHPUNKT2
 62
     1
 10
4.28265794
 20
-264.77403409
 30
0.0
 11
4.28265794
 21
-276.77403409
 31
0.0
  0
LINE
  5
253
  8
LE_ALL
  6
STRICHPUNKT2
 62
     1
 10
4.28265794
 20
-264.77403409
 30
0.0
 11
4.28265794
 21
-276.77403409
 31
0.0
  0
LINE
  5
254
  8
LE_ALL
  6
STRICHPUNKT2
 62
     1
 10
41.28265794
 20
-264.77403409
 30
0.0
 11
41.28265794
 21
-276.77403409
 31
0.0
  0
ENDBLK
  8
0
  0
BLOCK
  8
0
  2
BEND_ZONE_00023
 70
     0
 10
0.0
 20
0.0
 30
0.0
  0
INSERT
  5
257
  8
0
  2
BEND_ZONE_00024
 10
66.63324154
 20
-271.38220615
 30
0.0
  0
ENDBLK
  8
0
  0
BLOCK
  8
0
  2
BEND_ZONE_00024
 70
     0
 10
66.63324154
 20
-271.38220615
 30
0.0
  0
LINE
  5
25A
  8
LE_ALL
  6
DOT
 62
     3
 10
66.63324154
 20
-271.38220615
 30
0.0
 11
66.63324154
 21
-271.38220615
 31
0.0
  0
LINE
  5
25B
  8
LE_ALL
  6
DOT
 62
     3
 10
61.70794974
 20
-265.07812012
 30
0.0
 11
61.70794974
 21
-265.07812012
 31
0.0
  0
LINE
  5
25C
  8
LE_ALL
  6
DOT
 62
     3
 10
56.78265794
 20
-274.77403409
 30
0.0
 11
56.78265794
 21
-274.77403409
 31
0.0
  0
LINE
  5
25D
  8
LE_ALL
  6
DOT
 62
     3
 10
56.78265794
 20
-266.77403409
 30
0.0
 11
56.78265794
 21
-266.77403409
 31
0.0
  0
ARC
  5
25E
  8
LE_ALL
 10
56.78265794
 20
-258.77403409
 30
0.0
 40
16.0
 50
-90.0
 51
-52.00000000000001
  0
ARC
  5
25F
  8
LE_ALL
 10
56.78265794
 20
-258.77403409
 30
0.0
 40
8.0
 50
-90.0
 51
-52.00000000000001
  0
ENDBLK
  8
0
  0
BLOCK
  8
0
  2
SHEET_FLANGE_00025
 70
     0
 10
0.0
 20
0.0
 30
0.0
  0
INSERT
  5
262
  8
0
  2
SHEET_FLANGE_00026
 10
66.63324154
 20
-271.38220615
 30
0.0
  0
ENDBLK
  8
0
  0
BLOCK
  8
0
  2
SHEET_FLANGE_00026
 70
     0
 10
66.63324154
 20
-271.38220615
 30
0.0
  0
LINE
  5
265
  8
LE_ALL
  6
DOT
 62
     3
 10
66.63324154
 20
-271.38220615
 30
0.0
 11
66.63324154
 21
-271.38220615
 31
0.0
  0
LINE
  5
266
  8
LE_ALL
  6
DOT
 62
     3
 10
61.70794974
 20
-265.07812012
 30
0.0
 11
61.70794974
 21
-265.07812012
 31
0.0
  0
LINE
  5
267
  8
LE_ALL
  6
DOT
 62
     3
 10
72.93004493
 20
-266.46260417
 30
0.0
 11
72.93004493
 21
-266.46260417
 31
0.0
  0
LINE
  5
268
  8
LE_ALL
  6
DOT
 62
     3
 10
68.00475312
 20
-260.15851815
 30
0.0
 11
68.00475312
 21
-260.15851815
 31
0.0
  0
LINE
  5
269
  8
LE_ALL
 10
61.70794974
 20
-265.07812012
 30
0.0
 11
68.00475312
 21
-260.15851815
 31
0.0
  0
LINE
  5
26A
  8
LE_ALL
 10
72.93004493
 20
-266.46260417
 30
0.0
 11
66.63324154
 21
-271.38220615
 31
0.0
  0
ENDBLK
  8
0
  0
BLOCK
  8
0
  2
BEND_ZONE_00027
 70
     0
 10
0.0
 20
0.0
 30
0.0
  0
INSERT
  5
26D
  8
0
  2
BEND_ZONE_00028
 10
77.85533673
 20
-256.7666902
 30
0.0
  0
ENDBLK
  8
0
  0
BLOCK
  8
0
  2
BEND_ZONE_00028
 70
     0
 10
77.85533673
 20
-256.7666902
 30
0.0
  0
LINE
  5
270
  8
LE_ALL
  6
DOT
 62
     3
 10
77.85533673
 20
-256.7666902
 30
0.0
 11
77.85533673
 21
-256.7666902
 31
0.0
  0
LINE
  5
271
  8
LE_ALL
  6
DOT
 62
     3
 10
77.85533673
 20
-264.7666902
 30
0.0
 11
77.85533673
 21
-264.7666902
 31
0.0
  0
LINE
  5
272
  8
LE_ALL
  6
DOT
 62
     3
 10
68.00475312
 20
-260.15851815
 30
0.0
 11
68.00475312
 21
-260.15851815
 31
0.0
  0
LINE
  5
273
  8
LE_ALL
  6
DOT
 62
     3
 10
72.93004493
 20
-266.46260417
 30
0.0
 11
72.93004493
 21
-266.46260417
 31
0.0
  0
ARC
  5
274
  8
LE_ALL
 10
77.85533673
 20
-272.7666902
 30
0.0
 40
16.0
 50
90.0
 51
128.0
  0
ARC
  5
275
  8
LE_ALL
 10
77.85533673
 20
-272.7666902
 30
0.0
 40
8.0
 50
90.0
 51
128.0
  0
ENDBLK
  8
0
  0
BLOCK
  8
0
  2
SHEET_FLANGE_00029
 70
     0
 10
0.0
 20
0.0
 30
0.0
  0
INSERT
  5
278
  8
0
  2
SHEET_FLANGE_00030
 10
77.85533673
 20
-256.7666902
 30
0.0
  0
INSERT
  5
279
  8
0
  2
_00031
 10
0.0
 20
0.0
 30
0.0
  0
ENDBLK
  8
0
  0
BLOCK
  8
0
  2
SHEET_FLANGE_00030
 70
     0
 10
77.85533673
 20
-256.7666902
 30
0.0
  0
LINE
  5
27C
  8
LE_ALL
  6
DOT
 62
     3
 10
77.85533673
 20
-256.7666902
 30
0.0
 11
77.85533673
 21
-256.7666902
 31
0.0
  0
LINE
  5
27D
  8
LE_ALL
  6
DOT
 62
     3
 10
77.85533673
 20
-264.7666902
 30
0.0
 11
77.85533673
 21
-264.7666902
 31
0.0
  0
LINE
  5
27E
  8
LE_ALL
  6
DOT
 62
     3
 10
242.84609492
 20
-256.7666902
 30
0.0
 11
242.84609492
 21
-256.7666902
 31
0.0
  0
LINE
  5
27F
  8
LE_ALL
  6
DOT
 62
     3
 10
242.84609492
 20
-264.7666902
 30
0.0
 11
242.84609492
 21
-264.7666902
 31
0.0
  0
LINE
  5
280
  8
LE_ALL
  6
DOT
 62
     3
 10
216.34609492
 20
-264.7666902
 30
0.0
 11
216.34609492
 21
-256.7666902
 31
0.0
  0
LINE
  5
281
  8
LE_ALL
  6
DOT
 62
     3
 10
189.34609492
 20
-264.7666902
 30
0.0
 11
189.34609492
 21
-256.7666902
 31
0.0
  0
LINE
  5
282
  8
LE_ALL
  6
DOT
 62
     3
 10
121.34609492
 20
-256.7666902
 30
0.0
 11
121.34609492
 21
-264.7666902
 31
0.0
  0
LINE
  5
283
  8
LE_ALL
  6
DOT
 62
     3
 10
134.34609492
 20
-256.7666902
 30
0.0
 11
134.34609492
 21
-264.7666902
 31
0.0
  0
LINE
  5
284
  8
LE_ALL
  6
DOT
 62
     3
 10
182.84609492
 20
-264.7666902
 30
0.0
 11
182.84609492
 21
-256.7666902
 31
0.0
  0
LINE
  5
285
  8
LE_ALL
  6
DOT
 62
     3
 10
222.84609492
 20
-264.7666902
 30
0.0
 11
222.84609492
 21
-256.7666902
 31
0.0
  0
POLYLINE
  5
286
  8
LE_ALL
 66
     1
 10
0.0
 20
0.0
 30
0.0
  0
VERTEX
  5
287
  8
LE_ALL
 10
242.84609492
 20
-256.7666902
 30
0.0
  0
VERTEX
  5
288
  8
LE_ALL
 10
242.84609492
 20
-264.7666902
 30
0.0
  0
VERTEX
  5
289
  8
LE_ALL
 10
77.85533673
 20
-264.7666902
 30
0.0
  0
SEQEND
  5
28A
  8
LE_ALL
  0
LINE
  5
28B
  8
LE_ALL
 10
77.85533673
 20
-256.7666902
 30
0.0
 11
242.84609492
 21
-256.7666902
 31
0.0
  0
ENDBLK
  8
0
  0
BLOCK
  8
0
  2
_00031
 70
     0
 10
0.0
 20
0.0
 30
0.0
  0
INSERT
  5
28E
  8
0
  2
_00032
 10
127.84609492
 20
-253.7666902
 30
0.0
  0
ENDBLK
  8
0
  0
BLOCK
  8
0
  2
_00032
 70
     0
 10
127.84609492
 20
-253.7666902
 30
0.0
  0
LINE
  5
291
  8
LE_ALL
  6
STRICHPUNKT2
 62
     1
 10
127.84609492
 20
-253.7666902
 30
0.0
 11
127.84609492
 21
-267.7666902
 31
0.0
  0
LINE
  5
292
  8
LE_ALL
  6
STRICHPUNKT2
 62
     1
 10
189.34609492
 20
-253.7666902
 30
0.0
 11
189.34609492
 21
-267.7666902
 31
0.0
  0
LINE
  5
293
  8
LE_ALL
  6
STRICHPUNKT2
 62
     1
 10
216.34609492
 20
-253.7666902
 30
0.0
 11
216.34609492
 21
-267.7666902
 31
0.0
  0
ENDBLK
  8
0
  0
BLOCK
  8
0
  2
_ANS0004_00033
 70
     0
 10
0.0
 20
0.0
 30
0.0
  0
INSERT
  5
296
  8
0
  2
_A3D0004_00034
 10
0.0
 20
0.0
 30
0.0
  0
ENDBLK
  8
0
  0
BLOCK
  8
0
  2
_A3D0004_00034
 70
     0
 10
0.0
 20
0.0
 30
0.0
  0
INSERT
  5
299
  8
0
  2
PLAATWERK__D___8MM_00035
 10
0.0
 20
0.0
 30
0.0
  0
ENDBLK
  8
0
  0
BLOCK
  8
0
  2
PLAATWERK__D___8MM_00035
 70
     0
 10
0.0
 20
0.0
 30
0.0
  0
INSERT
  5
29C
  8
0
  2
SHEET_FLANGE_00036
 10
0.0
 20
0.0
 30
0.0
  0
INSERT
  5
29D
  8
0
  2
BEND_ZONE_00040
 10
0.0
 20
0.0
 30
0.0
  0
INSERT
  5
29E
  8
0
  2
SHEET_FLANGE_00042
 10
0.0
 20
0.0
 30
0.0
  0
INSERT
  5
29F
  8
0
  2
BEND_ZONE_00044
 10
0.0
 20
0.0
 30
0.0
  0
INSERT
  5
2A0
  8
0
  2
SHEET_FLANGE_00046
 10
0.0
 20
0.0
 30
0.0
  0
ENDBLK
  8
0
  0
BLOCK
  8
0
  2
SHEET_FLANGE_00036
 70
     0
 10
0.0
 20
0.0
 30
0.0
  0
INSERT
  5
2A3
  8
0
  2
SHEET_FLANGE_00037
 10
276.2401976
 20
-274.77403409
 30
0.0
  0
INSERT
  5
2A4
  8
0
  2
_00038
 10
0.0
 20
0.0
 30
0.0
  0
ENDBLK
  8
0
  0
BLOCK
  8
0
  2
SHEET_FLANGE_00037
 70
     0
 10
276.2401976
 20
-274.77403409
 30
0.0
  0
LINE
  5
2A7
  8
LE_ALL
  6
DOT
 62
     3
 10
276.2401976
 20
-274.77403409
 30
0.0
 11
276.2401976
 21
-274.77403409
 31
0.0
  0
LINE
  5
2A8
  8
LE_ALL
  6
DOT
 62
     3
 10
276.2401976
 20
-266.77403409
 30
0.0
 11
276.2401976
 21
-266.77403409
 31
0.0
  0
LINE
  5
2A9
  8
LE_ALL
  6
DOT
 62
     3
 10
336.2401976
 20
-274.77403409
 30
0.0
 11
336.2401976
 21
-274.77403409
 31
0.0
  0
LINE
  5
2AA
  8
LE_ALL
  6
DOT
 62
     3
 10
336.2401976
 20
-266.77403409
 30
0.0
 11
336.2401976
 21
-266.77403409
 31
0.0
  0
LINE
  5
2AB
  8
LE_ALL
  6
DOT
 62
     3
 10
283.7401976
 20
-266.77403409
 30
0.0
 11
283.7401976
 21
-274.77403409
 31
0.0
  0
LINE
  5
2AC
  8
LE_ALL
  6
DOT
 62
     3
 10
291.7401976
 20
-266.77403409
 30
0.0
 11
291.7401976
 21
-274.77403409
 31
0.0
  0
LINE
  5
2AD
  8
LE_ALL
  6
DOT
 62
     3
 10
320.7401976
 20
-266.77403409
 30
0.0
 11
320.7401976
 21
-274.77403409
 31
0.0
  0
LINE
  5
2AE
  8
LE_ALL
  6
DOT
 62
     3
 10
328.7401976
 20
-266.77403409
 30
0.0
 11
328.7401976
 21
-274.77403409
 31
0.0
  0
LINE
  5
2AF
  8
LE_ALL
  6
DOT
 62
     3
 10
299.7401976
 20
-266.77403409
 30
0.0
 11
299.7401976
 21
-274.77403409
 31
0.0
  0
LINE
  5
2B0
  8
LE_ALL
  6
DOT
 62
     3
 10
312.7401976
 20
-266.77403409
 30
0.0
 11
312.7401976
 21
-274.77403409
 31
0.0
  0
LINE
  5
2B1
  8
LE_ALL
  6
DOT
 62
     3
 10
336.2401976
 20
-266.77403409
 30
0.0
 11
276.2401976
 21
-266.77403409
 31
0.0
  0
LINE
  5
2B2
  8
LE_ALL
 10
276.2401976
 20
-274.77403409
 30
0.0
 11
336.2401976
 21
-274.77403409
 31
0.0
  0
ENDBLK
  8
0
  0
BLOCK
  8
0
  2
_00038
 70
     0
 10
0.0
 20
0.0
 30
0.0
  0
INSERT
  5
2B5
  8
0
  2
_00039
 10
287.7401976
 20
-264.77403409
 30
0.0
  0
ENDBLK
  8
0
  0
BLOCK
  8
0
  2
_00039
 70
     0
 10
287.7401976
 20
-264.77403409
 30
0.0
  0
LINE
  5
2B8
  8
LE_ALL
  6
STRICHPUNKT2
 62
     1
 10
287.7401976
 20
-264.77403409
 30
0.0
 11
287.7401976
 21
-276.77403409
 31
0.0
  0
LINE
  5
2B9
  8
LE_ALL
  6
STRICHPUNKT2
 62
     1
 10
287.7401976
 20
-264.77403409
 30
0.0
 11
287.7401976
 21
-276.77403409
 31
0.0
  0
LINE
  5
2BA
  8
LE_ALL
  6
STRICHPUNKT2
 62
     1
 10
324.7401976
 20
-264.77403409
 30
0.0
 11
324.7401976
 21
-276.77403409
 31
0.0
  0
LINE
  5
2BB
  8
LE_ALL
  6
STRICHPUNKT2
 62
     1
 10
306.2401976
 20
-263.77403409
 30
0.0
 11
306.2401976
 21
-277.77403409
 31
0.0
  0
LINE
  5
2BC
  8
LE_ALL
  6
STRICHPUNKT2
 62
     1
 10
324.7401976
 20
-264.77403409
 30
0.0
 11
324.7401976
 21
-276.77403409
 31
0.0
  0
ENDBLK
  8
0
  0
BLOCK
  8
0
  2
BEND_ZONE_00040
 70
     0
 10
0.0
 20
0.0
 30
0.0
  0
INSERT
  5
2BF
  8
0
  2
BEND_ZONE_00041
 10
336.2401976
 20
-266.77403409
 30
0.0
  0
ENDBLK
  8
0
  0
BLOCK
  8
0
  2
BEND_ZONE_00041
 70
     0
 10
336.2401976
 20
-266.77403409
 30
0.0
  0
LINE
  5
2C2
  8
LE_ALL
  6
DOT
 62
     3
 10
336.2401976
 20
-266.77403409
 30
0.0
 11
276.2401976
 21
-266.77403409
 31
0.0
  0
LINE
  5
2C3
  8
LE_ALL
 10
336.2401976
 20
-271.38220615
 30
0.0
 11
276.2401976
 21
-271.38220615
 31
0.0
  0
LINE
  5
2C4
  8
LE_ALL
  6
DOT
 62
     3
 10
336.2401976
 20
-265.07812012
 30
0.0
 11
276.2401976
 21
-265.07812012
 31
0.0
  0
POLYLINE
  5
2C5
  8
LE_ALL
 66
     1
 10
0.0
 20
0.0
 30
0.0
  0
VERTEX
  5
2C6
  8
LE_ALL
 10
336.2401976
 20
-271.38220615
 30
0.0
  0
VERTEX
  5
2C7
  8
LE_ALL
 10
336.2401976
 20
-274.77403409
 30
0.0
  0
VERTEX
  5
2C8
  8
LE_ALL
 10
276.2401976
 20
-274.77403409
 30
0.0
  0
VERTEX
  5
2C9
  8
LE_ALL
 10
276.2401976
 20
-271.38220615
 30
0.0
  0
SEQEND
  5
2CA
  8
LE_ALL
  0
ENDBLK
  8
0
  0
BLOCK
  8
0
  2
SHEET_FLANGE_00042
 70
     0
 10
0.0
 20
0.0
 30
0.0
  0
INSERT
  5
2CD
  8
0
  2
SHEET_FLANGE_00043
 10
336.2401976
 20
-265.07812012
 30
0.0
  0
ENDBLK
  8
0
  0
BLOCK
  8
0
  2
SHEET_FLANGE_00043
 70
     0
 10
336.2401976
 20
-265.07812012
 30
0.0
  0
LINE
  5
2D0
  8
LE_ALL
  6
DOT
 62
     3
 10
336.2401976
 20
-265.07812012
 30
0.0
 11
276.2401976
 21
-265.07812012
 31
0.0
  0
LINE
  5
2D1
  8
LE_ALL
  6
DOT
 62
     3
 10
276.2401976
 20
-260.15851815
 30
0.0
 11
336.2401976
 21
-260.15851815
 31
0.0
  0
POLYLINE
  5
2D2
  8
LE_ALL
 66
     1
 10
0.0
 20
0.0
 30
0.0
 70
     1
  0
VERTEX
  5
2D3
  8
LE_ALL
 10
336.2401976
 20
-266.46260417
 30
0.0
  0
VERTEX
  5
2D4
  8
LE_ALL
 10
276.2401976
 20
-266.46260417
 30
0.0
  0
VERTEX
  5
2D5
  8
LE_ALL
 10
276.2401976
 20
-271.38220615
 30
0.0
  0
VERTEX
  5
2D6
  8
LE_ALL
 10
336.2401976
 20
-271.38220615
 30
0.0
  0
SEQEND
  5
2D7
  8
LE_ALL
  0
ENDBLK
  8
0
  0
BLOCK
  8
0
  2
BEND_ZONE_00044
 70
     0
 10
0.0
 20
0.0
 30
0.0
  0
INSERT
  5
2DA
  8
0
  2
BEND_ZONE_00045
 10
276.2401976
 20
-260.15851815
 30
0.0
  0
ENDBLK
  8
0
  0
BLOCK
  8
0
  2
BEND_ZONE_00045
 70
     0
 10
276.2401976
 20
-260.15851815
 30
0.0
  0
LINE
  5
2DD
  8
LE_ALL
  6
DOT
 62
     3
 10
276.2401976
 20
-260.15851815
 30
0.0
 11
336.2401976
 21
-260.15851815
 31
0.0
  0
LINE
  5
2DE
  8
LE_ALL
  6
DOT
 62
     3
 10
276.2401976
 20
-264.7666902
 30
0.0
 11
336.2401976
 21
-264.7666902
 31
0.0
  0
POLYLINE
  5
2DF
  8
LE_ALL
 66
     1
 10
0.0
 20
0.0
 30
0.0
  0
VERTEX
  5
2E0
  8
LE_ALL
 10
276.2401976
 20
-264.7666902
 30
0.0
  0
VERTEX
  5
2E1
  8
LE_ALL
 10
276.2401976
 20
-266.46260417
 30
0.0
  0
VERTEX
  5
2E2
  8
LE_ALL
 10
336.2401976
 20
-266.46260417
 30
0.0
  0
VERTEX
  5
2E3
  8
LE_ALL
 10
336.2401976
 20
-264.7666902
 30
0.0
  0
SEQEND
  5
2E4
  8
LE_ALL
  0
ENDBLK
  8
0
  0
BLOCK
  8
0
  2
SHEET_FLANGE_00046
 70
     0
 10
0.0
 20
0.0
 30
0.0
  0
INSERT
  5
2E7
  8
0
  2
SHEET_FLANGE_00047
 10
336.2401976
 20
-256.7666902
 30
0.0
  0
INSERT
  5
2E8
  8
0
  2
_00048
 10
0.0
 20
0.0
 30
0.0
  0
ENDBLK
  8
0
  0
BLOCK
  8
0
  2
SHEET_FLANGE_00047
 70
     0
 10
336.2401976
 20
-256.7666902
 30
0.0
  0
LINE
  5
2EB
  8
LE_ALL
  6
DOT
 62
     3
 10
336.2401976
 20
-256.7666902
 30
0.0
 11
336.2401976
 21
-256.7666902
 31
0.0
  0
LINE
  5
2EC
  8
LE_ALL
  6
DOT
 62
     3
 10
336.2401976
 20
-264.7666902
 30
0.0
 11
336.2401976
 21
-264.7666902
 31
0.0
  0
LINE
  5
2ED
  8
LE_ALL
  6
DOT
 62
     3
 10
276.2401976
 20
-256.7666902
 30
0.0
 11
276.2401976
 21
-256.7666902
 31
0.0
  0
LINE
  5
2EE
  8
LE_ALL
  6
DOT
 62
     3
 10
276.2401976
 20
-264.7666902
 30
0.0
 11
276.2401976
 21
-264.7666902
 31
0.0
  0
LINE
  5
2EF
  8
LE_ALL
  6
DOT
 62
     3
 10
312.7401976
 20
-256.7666902
 30
0.0
 11
312.7401976
 21
-256.7666902
 31
0.0
  0
LINE
  5
2F0
  8
LE_ALL
  6
DOT
 62
     3
 10
299.7401976
 20
-256.7666902
 30
0.0
 11
299.7401976
 21
-256.7666902
 31
0.0
  0
LINE
  5
2F1
  8
LE_ALL
  6
DOT
 62
     3
 10
299.7401976
 20
-264.7666902
 30
0.0
 11
299.7401976
 21
-264.7666902
 31
0.0
  0
LINE
  5
2F2
  8
LE_ALL
  6
DOT
 62
     3
 10
312.7401976
 20
-264.7666902
 30
0.0
 11
312.7401976
 21
-264.7666902
 31
0.0
  0
LINE
  5
2F3
  8
LE_ALL
  6
DOT
 62
     3
 10
299.7401976
 20
-264.7666902
 30
0.0
 11
299.7401976
 21
-256.7666902
 31
0.0
  0
LINE
  5
2F4
  8
LE_ALL
  6
DOT
 62
     3
 10
312.7401976
 20
-264.7666902
 30
0.0
 11
312.7401976
 21
-256.7666902
 31
0.0
  0
POLYLINE
  5
2F5
  8
LE_ALL
 66
     1
 10
0.0
 20
0.0
 30
0.0
  0
VERTEX
  5
2F6
  8
LE_ALL
 10
336.2401976
 20
-256.7666902
 30
0.0
  0
VERTEX
  5
2F7
  8
LE_ALL
 10
336.2401976
 20
-264.7666902
 30
0.0
  0
VERTEX
  5
2F8
  8
LE_ALL
 10
276.2401976
 20
-264.7666902
 30
0.0
  0
SEQEND
  5
2F9
  8
LE_ALL
  0
LINE
  5
2FA
  8
LE_ALL
 10
276.2401976
 20
-256.7666902
 30
0.0
 11
276.2401976
 21
-264.7666902
 31
0.0
  0
LINE
  5
2FB
  8
LE_ALL
 10
276.2401976
 20
-256.7666902
 30
0.0
 11
336.2401976
 21
-256.7666902
 31
0.0
  0
ENDBLK
  8
0
  0
BLOCK
  8
0
  2
_00048
 70
     0
 10
0.0
 20
0.0
 30
0.0
  0
INSERT
  5
2FE
  8
0
  2
_00049
 10
306.2401976
 20
-253.7666902
 30
0.0
  0
ENDBLK
  8
0
  0
BLOCK
  8
0
  2
_00049
 70
     0
 10
306.2401976
 20
-253.7666902
 30
0.0
  0
LINE
  5
301
  8
LE_ALL
  6
STRICHPUNKT2
 62
     1
 10
306.2401976
 20
-253.7666902
 30
0.0
 11
306.2401976
 21
-267.7666902
 31
0.0
  0
LINE
  5
302
  8
LE_ALL
  6
STRICHPUNKT2
 62
     1
 10
306.2401976
 20
-253.7666902
 30
0.0
 11
306.2401976
 21
-267.7666902
 31
0.0
  0
LINE
  5
303
  8
LE_ALL
  6
STRICHPUNKT2
 62
     1
 10
306.2401976
 20
-253.7666902
 30
0.0
 11
306.2401976
 21
-267.7666902
 31
0.0
  0
ENDBLK
  8
0
  0
BLOCK
  8
0
  2
_ANS0005_00050
 70
     0
 10
0.0
 20
0.0
 30
0.0
  0
INSERT
  5
306
  8
0
  2
_A3D0005_00051
 10
0.0
 20
0.0
 30
0.0
  0
ENDBLK
  8
0
  0
BLOCK
  8
0
  2
_A3D0005_00051
 70
     0
 10
0.0
 20
0.0
 30
0.0
  0
INSERT
  5
309
  8
0
  2
PLAATWERK__D___8MM_00052
 10
0.0
 20
0.0
 30
0.0
  0
ENDBLK
  8
0
  0
BLOCK
  8
0
  2
PLAATWERK__D___8MM_00052
 70
     0
 10
0.0
 20
0.0
 30
0.0
  0
INSERT
  5
30C
  8
0
  2
SHEET_FLANGE_00053
 10
0.0
 20
0.0
 30
0.0
  0
INSERT
  5
30D
  8
0
  2
BEND_ZONE_00057
 10
0.0
 20
0.0
 30
0.0
  0
INSERT
  5
30E
  8
0
  2
SHEET_FLANGE_00059
 10
0.0
 20
0.0
 30
0.0
  0
INSERT
  5
30F
  8
0
  2
BEND_ZONE_00061
 10
0.0
 20
0.0
 30
0.0
  0
INSERT
  5
310
  8
0
  2
SHEET_FLANGE_00063
 10
0.0
 20
0.0
 30
0.0
  0
ENDBLK
  8
0
  0
BLOCK
  8
0
  2
SHEET_FLANGE_00053
 70
     0
 10
0.0
 20
0.0
 30
0.0
  0
INSERT
  5
313
  8
0
  2
SHEET_FLANGE_00054
 10
-7.21734206
 20
-195.09403332
 30
0.0
  0
INSERT
  5
314
  8
0
  2
_00055
 10
0.0
 20
0.0
 30
0.0
  0
ENDBLK
  8
0
  0
BLOCK
  8
0
  2
SHEET_FLANGE_00054
 70
     0
 10
-7.21734206
 20
-195.09403332
 30
0.0
  0
LINE
  5
317
  8
LE_ALL
  6
DOT
 62
     3
 10
-7.21734206
 20
-195.09403332
 30
0.0
 11
-7.21734206
 21
-195.09403332
 31
0.0
  0
LINE
  5
318
  8
LE_ALL
  6
DOT
 62
     3
 10
-7.21734206
 20
-135.09403332
 30
0.0
 11
-7.21734206
 21
-135.09403332
 31
0.0
  0
CIRCLE
  5
319
  8
LE_ALL
 10
22.78265794
 20
-165.09403332
 30
0.0
 40
6.5
  0
CIRCLE
  5
31A
  8
LE_ALL
 10
4.28265794
 20
-146.59403332
 30
0.0
 40
4.0
  0
CIRCLE
  5
31B
  8
LE_ALL
 10
4.28265794
 20
-183.59403332
 30
0.0
 40
4.0
  0
CIRCLE
  5
31C
  8
LE_ALL
 10
41.28265794
 20
-146.59403332
 30
0.0
 40
4.0
  0
CIRCLE
  5
31D
  8
LE_ALL
 10
41.28265794
 20
-183.59403332
 30
0.0
 40
4.0
  0
POLYLINE
  5
31E
  8
LE_ALL
 66
     1
 10
0.0
 20
0.0
 30
0.0
 70
     1
  0
VERTEX
  5
31F
  8
LE_ALL
 10
56.78265794
 20
-195.09403332
 30
0.0
  0
VERTEX
  5
320
  8
LE_ALL
 10
-7.21734206
 20
-195.09403332
 30
0.0
  0
VERTEX
  5
321
  8
LE_ALL
 10
-7.21734206
 20
-135.09403332
 30
0.0
  0
VERTEX
  5
322
  8
LE_ALL
 10
56.78265794
 20
-135.09403332
 30
0.0
  0
SEQEND
  5
323
  8
LE_ALL
  0
ENDBLK
  8
0
  0
BLOCK
  8
0
  2
_00055
 70
     0
 10
0.0
 20
0.0
 30
0.0
  0
INSERT
  5
326
  8
0
  2
_00056
 10
41.28265794
 20
-183.59403332
 30
0.0
  0
ENDBLK
  8
0
  0
BLOCK
  8
0
  2
_00056
 70
     0
 10
41.28265794
 20
-183.59403332
 30
0.0
  0
LINE
  5
329
  8
LE_ALL
  6
STRICHPUNKT2
 62
     1
 10
41.28265794
 20
-183.59403332
 30
0.0
 11
41.28265794
 21
-177.59403332
 31
0.0
  0
LINE
  5
32A
  8
LE_ALL
  6
STRICHPUNKT2
 62
     1
 10
41.28265794
 20
-183.59403332
 30
0.0
 11
41.28265794
 21
-189.59403332
 31
0.0
  0
LINE
  5
32B
  8
LE_ALL
  6
STRICHPUNKT2
 62
     1
 10
41.28265794
 20
-183.59403332
 30
0.0
 11
35.28265794
 21
-183.59403332
 31
0.0
  0
LINE
  5
32C
  8
LE_ALL
  6
STRICHPUNKT2
 62
     1
 10
41.28265794
 20
-183.59403332
 30
0.0
 11
47.28265794
 21
-183.59403332
 31
0.0
  0
LINE
  5
32D
  8
LE_ALL
  6
STRICHPUNKT2
 62
     1
 10
41.28265794
 20
-183.59403332
 30
0.0
 11
41.28265794
 21
-177.59403332
 31
0.0
  0
LINE
  5
32E
  8
LE_ALL
  6
STRICHPUNKT2
 62
     1
 10
41.28265794
 20
-183.59403332
 30
0.0
 11
41.28265794
 21
-189.59403332
 31
0.0
  0
LINE
  5
32F
  8
LE_ALL
  6
STRICHPUNKT2
 62
     1
 10
41.28265794
 20
-183.59403332
 30
0.0
 11
35.28265794
 21
-183.59403332
 31
0.0
  0
LINE
  5
330
  8
LE_ALL
  6
STRICHPUNKT2
 62
     1
 10
41.28265794
 20
-183.59403332
 30
0.0
 11
47.28265794
 21
-183.59403332
 31
0.0
  0
LINE
  5
331
  8
LE_ALL
  6
STRICHPUNKT2
 62
     1
 10
41.28265794
 20
-146.59403332
 30
0.0
 11
41.28265794
 21
-140.59403332
 31
0.0
  0
LINE
  5
332
  8
LE_ALL
  6
STRICHPUNKT2
 62
     1
 10
41.28265794
 20
-146.59403332
 30
0.0
 11
41.28265794
 21
-152.59403332
 31
0.0
  0
LINE
  5
333
  8
LE_ALL
  6
STRICHPUNKT2
 62
     1
 10
41.28265794
 20
-146.59403332
 30
0.0
 11
35.28265794
 21
-146.59403332
 31
0.0
  0
LINE
  5
334
  8
LE_ALL
  6
STRICHPUNKT2
 62
     1
 10
41.28265794
 20
-146.59403332
 30
0.0
 11
47.28265794
 21
-146.59403332
 31
0.0
  0
LINE
  5
335
  8
LE_ALL
  6
STRICHPUNKT2
 62
     1
 10
41.28265794
 20
-146.59403332
 30
0.0
 11
41.28265794
 21
-140.59403332
 31
0.0
  0
LINE
  5
336
  8
LE_ALL
  6
STRICHPUNKT2
 62
     1
 10
41.28265794
 20
-146.59403332
 30
0.0
 11
41.28265794
 21
-152.59403332
 31
0.0
  0
LINE
  5
337
  8
LE_ALL
  6
STRICHPUNKT2
 62
     1
 10
41.28265794
 20
-146.59403332
 30
0.0
 11
35.28265794
 21
-146.59403332
 31
0.0
  0
LINE
  5
338
  8
LE_ALL
  6
STRICHPUNKT2
 62
     1
 10
41.28265794
 20
-146.59403332
 30
0.0
 11
47.28265794
 21
-146.59403332
 31
0.0
  0
LINE
  5
339
  8
LE_ALL
  6
STRICHPUNKT2
 62
     1
 10
4.28265794
 20
-183.59403332
 30
0.0
 11
4.28265794
 21
-177.59403332
 31
0.0
  0
LINE
  5
33A
  8
LE_ALL
  6
STRICHPUNKT2
 62
     1
 10
4.28265794
 20
-183.59403332
 30
0.0
 11
4.28265794
 21
-189.59403332
 31
0.0
  0
LINE
  5
33B
  8
LE_ALL
  6
STRICHPUNKT2
 62
     1
 10
4.28265794
 20
-183.59403332
 30
0.0
 11
-1.71734206
 21
-183.59403332
 31
0.0
  0
LINE
  5
33C
  8
LE_ALL
  6
STRICHPUNKT2
 62
     1
 10
4.28265794
 20
-183.59403332
 30
0.0
 11
10.28265794
 21
-183.59403332
 31
0.0
  0
LINE
  5
33D
  8
LE_ALL
  6
STRICHPUNKT2
 62
     1
 10
4.28265794
 20
-183.59403332
 30
0.0
 11
4.28265794
 21
-177.59403332
 31
0.0
  0
LINE
  5
33E
  8
LE_ALL
  6
STRICHPUNKT2
 62
     1
 10
4.28265794
 20
-183.59403332
 30
0.0
 11
4.28265794
 21
-189.59403332
 31
0.0
  0
LINE
  5
33F
  8
LE_ALL
  6
STRICHPUNKT2
 62
     1
 10
4.28265794
 20
-183.59403332
 30
0.0
 11
-1.71734206
 21
-183.59403332
 31
0.0
  0
LINE
  5
340
  8
LE_ALL
  6
STRICHPUNKT2
 62
     1
 10
4.28265794
 20
-183.59403332
 30
0.0
 11
10.28265794
 21
-183.59403332
 31
0.0
  0
LINE
  5
341
  8
LE_ALL
  6
STRICHPUNKT2
 62
     1
 10
4.28265794
 20
-146.59403332
 30
0.0
 11
4.28265794
 21
-140.59403332
 31
0.0
  0
LINE
  5
342
  8
LE_ALL
  6
STRICHPUNKT2
 62
     1
 10
4.28265794
 20
-146.59403332
 30
0.0
 11
4.28265794
 21
-152.59403332
 31
0.0
  0
LINE
  5
343
  8
LE_ALL
  6
STRICHPUNKT2
 62
     1
 10
4.28265794
 20
-146.59403332
 30
0.0
 11
-1.71734206
 21
-146.59403332
 31
0.0
  0
LINE
  5
344
  8
LE_ALL
  6
STRICHPUNKT2
 62
     1
 10
4.28265794
 20
-146.59403332
 30
0.0
 11
10.28265794
 21
-146.59403332
 31
0.0
  0
LINE
  5
345
  8
LE_ALL
  6
STRICHPUNKT2
 62
     1
 10
4.28265794
 20
-146.59403332
 30
0.0
 11
4.28265794
 21
-140.59403332
 31
0.0
  0
LINE
  5
346
  8
LE_ALL
  6
STRICHPUNKT2
 62
     1
 10
4.28265794
 20
-146.59403332
 30
0.0
 11
4.28265794
 21
-152.59403332
 31
0.0
  0
LINE
  5
347
  8
LE_ALL
  6
STRICHPUNKT2
 62
     1
 10
4.28265794
 20
-146.59403332
 30
0.0
 11
-1.71734206
 21
-146.59403332
 31
0.0
  0
LINE
  5
348
  8
LE_ALL
  6
STRICHPUNKT2
 62
     1
 10
4.28265794
 20
-146.59403332
 30
0.0
 11
10.28265794
 21
-146.59403332
 31
0.0
  0
LINE
  5
349
  8
LE_ALL
  6
STRICHPUNKT2
 62
     1
 10
22.78265794
 20
-165.09403332
 30
0.0
 11
22.78265794
 21
-155.59403332
 31
0.0
  0
LINE
  5
34A
  8
LE_ALL
  6
STRICHPUNKT2
 62
     1
 10
22.78265794
 20
-165.09403332
 30
0.0
 11
22.78265794
 21
-174.59403332
 31
0.0
  0
LINE
  5
34B
  8
LE_ALL
  6
STRICHPUNKT2
 62
     1
 10
22.78265794
 20
-165.09403332
 30
0.0
 11
13.28265794
 21
-165.09403332
 31
0.0
  0
LINE
  5
34C
  8
LE_ALL
  6
STRICHPUNKT2
 62
     1
 10
22.78265794
 20
-165.09403332
 30
0.0
 11
32.28265794
 21
-165.09403332
 31
0.0
  0
LINE
  5
34D
  8
LE_ALL
  6
STRICHPUNKT2
 62
     1
 10
22.78265794
 20
-165.09403332
 30
0.0
 11
22.78265794
 21
-155.59403332
 31
0.0
  0
LINE
  5
34E
  8
LE_ALL
  6
STRICHPUNKT2
 62
     1
 10
22.78265794
 20
-165.09403332
 30
0.0
 11
22.78265794
 21
-174.59403332
 31
0.0
  0
LINE
  5
34F
  8
LE_ALL
  6
STRICHPUNKT2
 62
     1
 10
22.78265794
 20
-165.09403332
 30
0.0
 11
13.28265794
 21
-165.09403332
 31
0.0
  0
LINE
  5
350
  8
LE_ALL
  6
STRICHPUNKT2
 62
     1
 10
22.78265794
 20
-165.09403332
 30
0.0
 11
32.28265794
 21
-165.09403332
 31
0.0
  0
ENDBLK
  8
0
  0
BLOCK
  8
0
  2
BEND_ZONE_00057
 70
     0
 10
0.0
 20
0.0
 30
0.0
  0
INSERT
  5
353
  8
0
  2
BEND_ZONE_00058
 10
66.63324154
 20
-135.09403332
 30
0.0
  0
ENDBLK
  8
0
  0
BLOCK
  8
0
  2
BEND_ZONE_00058
 70
     0
 10
66.63324154
 20
-135.09403332
 30
0.0
  0
LINE
  5
356
  8
LE_ALL
  6
DOT
 62
     3
 10
66.63324154
 20
-135.09403332
 30
0.0
 11
66.63324154
 21
-195.09403332
 31
0.0
  0
LINE
  5
357
  8
LE_ALL
 10
61.70794974
 20
-135.09403332
 30
0.0
 11
61.70794974
 21
-195.09403332
 31
0.0
  0
POLYLINE
  5
358
  8
LE_ALL
 66
     1
 10
0.0
 20
0.0
 30
0.0
  0
VERTEX
  5
359
  8
LE_ALL
 10
61.70794974
 20
-135.09403332
 30
0.0
  0
VERTEX
  5
35A
  8
LE_ALL
 10
56.78265794
 20
-135.09403332
 30
0.0
  0
VERTEX
  5
35B
  8
LE_ALL
 10
56.78265794
 20
-195.09403332
 30
0.0
  0
VERTEX
  5
35C
  8
LE_ALL
 10
61.70794974
 20
-195.09403332
 30
0.0
  0
SEQEND
  5
35D
  8
LE_ALL
  0
ENDBLK
  8
0
  0
BLOCK
  8
0
  2
SHEET_FLANGE_00059
 70
     0
 10
0.0
 20
0.0
 30
0.0
  0
INSERT
  5
360
  8
0
  2
SHEET_FLANGE_00060
 10
66.63324154
 20
-195.09403332
 30
0.0
  0
ENDBLK
  8
0
  0
BLOCK
  8
0
  2
SHEET_FLANGE_00060
 70
     0
 10
66.63324154
 20
-195.09403332
 30
0.0
  0
LINE
  5
363
  8
LE_ALL
  6
DOT
 62
     3
 10
66.63324154
 20
-195.09403332
 30
0.0
 11
66.63324154
 21
-135.09403332
 31
0.0
  0
LINE
  5
364
  8
LE_ALL
 10
68.00475312
 20
-195.09403332
 30
0.0
 11
68.00475312
 21
-135.09403332
 31
0.0
  0
LINE
  5
365
  8
LE_ALL
  6
DOT
 62
     3
 10
72.93004493
 20
-135.09403332
 30
0.0
 11
72.93004493
 21
-195.09403332
 31
0.0
  0
POLYLINE
  5
366
  8
LE_ALL
 66
     1
 10
0.0
 20
0.0
 30
0.0
  0
VERTEX
  5
367
  8
LE_ALL
 10
68.00475312
 20
-135.09403332
 30
0.0
  0
VERTEX
  5
368
  8
LE_ALL
 10
61.70794974
 20
-135.09403332
 30
0.0
  0
VERTEX
  5
369
  8
LE_ALL
 10
61.70794974
 20
-195.09403332
 30
0.0
  0
VERTEX
  5
36A
  8
LE_ALL
 10
68.00475312
 20
-195.09403332
 30
0.0
  0
SEQEND
  5
36B
  8
LE_ALL
  0
ENDBLK
  8
0
  0
BLOCK
  8
0
  2
BEND_ZONE_00061
 70
     0
 10
0.0
 20
0.0
 30
0.0
  0
INSERT
  5
36E
  8
0
  2
BEND_ZONE_00062
 10
72.93004493
 20
-195.09403332
 30
0.0
  0
ENDBLK
  8
0
  0
BLOCK
  8
0
  2
BEND_ZONE_00062
 70
     0
 10
72.93004493
 20
-195.09403332
 30
0.0
  0
LINE
  5
371
  8
LE_ALL
  6
DOT
 62
     3
 10
72.93004493
 20
-195.09403332
 30
0.0
 11
72.93004493
 21
-135.09403332
 31
0.0
  0
POLYLINE
  5
372
  8
LE_ALL
 66
     1
 10
0.0
 20
0.0
 30
0.0
  0
VERTEX
  5
373
  8
LE_ALL
 10
68.00475312
 20
-195.09403332
 30
0.0
  0
VERTEX
  5
374
  8
LE_ALL
 10
68.00475312
 20
-135.09403332
 30
0.0
  0
VERTEX
  5
375
  8
LE_ALL
 10
77.85533673
 20
-135.09403332
 30
0.0
  0
SEQEND
  5
376
  8
LE_ALL
  0
LINE
  5
377
  8
LE_ALL
 10
77.85533673
 20
-195.09403332
 30
0.0
 11
77.85533673
 21
-135.09403332
 31
0.0
  0
LINE
  5
378
  8
LE_ALL
 10
77.85533673
 20
-195.09403332
 30
0.0
 11
68.00475312
 21
-195.09403332
 31
0.0
  0
ENDBLK
  8
0
  0
BLOCK
  8
0
  2
SHEET_FLANGE_00063
 70
     0
 10
0.0
 20
0.0
 30
0.0
  0
INSERT
  5
37B
  8
0
  2
SHEET_FLANGE_00064
 10
242.84609492
 20
-135.09403332
 30
0.0
  0
INSERT
  5
37C
  8
0
  2
_00065
 10
0.0
 20
0.0
 30
0.0
  0
ENDBLK
  8
0
  0
BLOCK
  8
0
  2
SHEET_FLANGE_00064
 70
     0
 10
242.84609492
 20
-135.09403332
 30
0.0
  0
LINE
  5
37F
  8
LE_ALL
  6
DOT
 62
     3
 10
242.84609492
 20
-135.09403332
 30
0.0
 11
242.84609492
 21
-135.09403332
 31
0.0
  0
LINE
  5
380
  8
LE_ALL
  6
DOT
 62
     3
 10
242.84609492
 20
-195.09403332
 30
0.0
 11
242.84609492
 21
-195.09403332
 31
0.0
  0
LINE
  5
381
  8
LE_ALL
  6
DOT
 62
     3
 10
216.34609492
 20
-171.59403332
 30
0.0
 11
216.34609492
 21
-171.59403332
 31
0.0
  0
LINE
  5
382
  8
LE_ALL
  6
DOT
 62
     3
 10
189.34609492
 20
-171.59403332
 30
0.0
 11
189.34609492
 21
-171.59403332
 31
0.0
  0
LINE
  5
383
  8
LE_ALL
  6
DOT
 62
     3
 10
216.34609492
 20
-158.59403332
 30
0.0
 11
216.34609492
 21
-158.59403332
 31
0.0
  0
LINE
  5
384
  8
LE_ALL
  6
DOT
 62
     3
 10
189.34609492
 20
-158.59403332
 30
0.0
 11
189.34609492
 21
-158.59403332
 31
0.0
  0
POLYLINE
  5
385
  8
LE_ALL
 66
     1
 10
0.0
 20
0.0
 30
0.0
 70
     1
  0
VERTEX
  5
386
  8
LE_ALL
 10
189.34609492
 20
-171.59403332
 30
0.0
 42
-1.0
  0
VERTEX
  5
387
  8
LE_ALL
 10
189.34609492
 20
-158.59403332
 30
0.0
  0
VERTEX
  5
388
  8
LE_ALL
 10
216.34609492
 20
-158.59403332
 30
0.0
 42
-1.0
  0
VERTEX
  5
389
  8
LE_ALL
 10
216.34609492
 20
-171.59403332
 30
0.0
  0
SEQEND
  5
38A
  8
LE_ALL
  0
CIRCLE
  5
38B
  8
LE_ALL
 10
127.84609492
 20
-165.09403332
 30
0.0
 40
6.5
  0
POLYLINE
  5
38C
  8
LE_ALL
 66
     1
 10
0.0
 20
0.0
 30
0.0
 70
     1
  0
VERTEX
  5
38D
  8
LE_ALL
 10
77.85533673
 20
-135.09403332
 30
0.0
  0
VERTEX
  5
38E
  8
LE_ALL
 10
77.85533673
 20
-195.09403332
 30
0.0
  0
VERTEX
  5
38F
  8
LE_ALL
 10
242.84609492
 20
-195.09403332
 30
0.0
  0
VERTEX
  5
390
  8
LE_ALL
 10
242.84609492
 20
-135.09403332
 30
0.0
  0
SEQEND
  5
391
  8
LE_ALL
  0
ENDBLK
  8
0
  0
BLOCK
  8
0
  2
_00065
 70
     0
 10
0.0
 20
0.0
 30
0.0
  0
INSERT
  5
394
  8
0
  2
_00066
 10
127.84609492
 20
-165.09403332
 30
0.0
  0
ENDBLK
  8
0
  0
BLOCK
  8
0
  2
_00066
 70
     0
 10
127.84609492
 20
-165.09403332
 30
0.0
  0
LINE
  5
397
  8
LE_ALL
  6
STRICHPUNKT2
 62
     1
 10
127.84609492
 20
-165.09403332
 30
0.0
 11
137.34609492
 21
-165.09403332
 31
0.0
  0
LINE
  5
398
  8
LE_ALL
  6
STRICHPUNKT2
 62
     1
 10
127.84609492
 20
-165.09403332
 30
0.0
 11
118.34609492
 21
-165.09403332
 31
0.0
  0
LINE
  5
399
  8
LE_ALL
  6
STRICHPUNKT2
 62
     1
 10
127.84609492
 20
-165.09403332
 30
0.0
 11
127.84609492
 21
-155.59403332
 31
0.0
  0
LINE
  5
39A
  8
LE_ALL
  6
STRICHPUNKT2
 62
     1
 10
127.84609492
 20
-165.09403332
 30
0.0
 11
127.84609492
 21
-174.59403332
 31
0.0
  0
LINE
  5
39B
  8
LE_ALL
  6
STRICHPUNKT2
 62
     1
 10
127.84609492
 20
-165.09403332
 30
0.0
 11
137.34609492
 21
-165.09403332
 31
0.0
  0
LINE
  5
39C
  8
LE_ALL
  6
STRICHPUNKT2
 62
     1
 10
127.84609492
 20
-165.09403332
 30
0.0
 11
118.34609492
 21
-165.09403332
 31
0.0
  0
LINE
  5
39D
  8
LE_ALL
  6
STRICHPUNKT2
 62
     1
 10
127.84609492
 20
-165.09403332
 30
0.0
 11
127.84609492
 21
-155.59403332
 31
0.0
  0
LINE
  5
39E
  8
LE_ALL
  6
STRICHPUNKT2
 62
     1
 10
127.84609492
 20
-165.09403332
 30
0.0
 11
127.84609492
 21
-174.59403332
 31
0.0
  0
LINE
  5
39F
  8
LE_ALL
  6
STRICHPUNKT2
 62
     1
 10
179.84609492
 20
-165.09403332
 30
0.0
 11
225.84609492
 21
-165.09403332
 31
0.0
  0
LINE
  5
3A0
  8
LE_ALL
  6
STRICHPUNKT2
 62
     1
 10
189.34609492
 20
-174.59403332
 30
0.0
 11
189.34609492
 21
-155.59403332
 31
0.0
  0
LINE
  5
3A1
  8
LE_ALL
  6
STRICHPUNKT2
 62
     1
 10
216.34609492
 20
-174.59403332
 30
0.0
 11
216.34609492
 21
-155.59403332
 31
0.0
  0
LINE
  5
3A2
  8
LE_ALL
  6
STRICHPUNKT2
 62
     1
 10
179.84609492
 20
-165.09403332
 30
0.0
 11
225.84609492
 21
-165.09403332
 31
0.0
  0
LINE
  5
3A3
  8
LE_ALL
  6
STRICHPUNKT2
 62
     1
 10
189.34609492
 20
-174.59403332
 30
0.0
 11
189.34609492
 21
-155.59403332
 31
0.0
  0
LINE
  5
3A4
  8
LE_ALL
  6
STRICHPUNKT2
 62
     1
 10
216.34609492
 20
-174.59403332
 30
0.0
 11
216.34609492
 21
-155.59403332
 31
0.0
  0
ENDBLK
  8
0
  0
BLOCK
  8
0
  2
_ANS0006_00067
 70
     0
 10
0.0
 20
0.0
 30
0.0
  0
INSERT
  5
3A7
  8
0
  2
_A3D0006_00068
 10
0.0
 20
0.0
 30
0.0
  0
ENDBLK
  8
0
  0
BLOCK
  8
0
  2
_A3D0006_00068
 70
     0
 10
0.0
 20
0.0
 30
0.0
  0
INSERT
  5
3AA
  8
0
  2
PLAATWERK__D___8MM_00069
 10
0.0
 20
0.0
 30
0.0
  0
ENDBLK
  8
0
  0
BLOCK
  8
0
  2
PLAATWERK__D___8MM_00069
 70
     0
 10
0.0
 20
0.0
 30
0.0
  0
INSERT
  5
3AD
  8
0
  2
SHEET_FLANGE_00070
 10
0.0
 20
0.0
 30
0.0
  0
INSERT
  5
3AE
  8
0
  2
BEND_ZONE_00074
 10
0.0
 20
0.0
 30
0.0
  0
INSERT
  5
3AF
  8
0
  2
SHEET_FLANGE_00076
 10
0.0
 20
0.0
 30
0.0
  0
INSERT
  5
3B0
  8
0
  2
BEND_ZONE_00078
 10
0.0
 20
0.0
 30
0.0
  0
INSERT
  5
3B1
  8
0
  2
SHEET_FLANGE_00080
 10
0.0
 20
0.0
 30
0.0
  0
ENDBLK
  8
0
  0
BLOCK
  8
0
  2
SHEET_FLANGE_00070
 70
     0
 10
0.0
 20
0.0
 30
0.0
  0
INSERT
  5
3B4
  8
0
  2
SHEET_FLANGE_00071
 10
254.17992633
 20
-97.00514122
 30
0.0
  0
INSERT
  5
3B5
  8
0
  2
_00072
 10
0.0
 20
0.0
 30
0.0
  0
ENDBLK
  8
0
  0
BLOCK
  8
0
  2
SHEET_FLANGE_00071
 70
     0
 10
254.17992633
 20
-97.00514122
 30
0.0
  0
POLYLINE
  5
3B8
  8
LE_ALL
 66
     1
 10
0.0
 20
0.0
 30
0.0
  0
VERTEX
  5
625
  8
LE_ALL
 10
254.17992633
 20
-97.00514122
 30
0.0
  0
VERTEX
  5
626
  8
LE_ALL
 10
254.1174784914527
 20
-96.79379337350106
 30
0.0
  0
VERTEX
  5
627
  8
LE_ALL
 10
253.9325348112198
 20
-96.59056750619933
 30
0.0
  0
VERTEX
  5
628
  8
LE_ALL
 10
253.6322025711986
 20
-96.40327347418706
 30
0.0
  0
VERTEX
  5
629
  8
LE_ALL
 10
253.2280233709187
 20
-96.23910888206237
 30
0.0
  0
VERTEX
  5
62A
  8
LE_ALL
 10
252.7355295903452
 20
-96.10438248302168
 30
0.0
  0
VERTEX
  5
62B
  8
LE_ALL
 10
252.1736474892286
 20
-96.00427173701289
 30
0.0
  0
VERTEX
  5
62C
  8
LE_ALL
 10
251.5639698815586
 20
-95.9426238438536
 30
0.0
  0
VERTEX
  5
62D
  8
LE_ALL
 10
250.9299263358334
 20
-95.9218078975
 30
0.0
  0
VERTEX
  5
62E
  8
LE_ALL
 10
250.2958827898841
 20
-95.9426238430949
 30
0.0
  0
VERTEX
  5
62F
  8
LE_ALL
 10
249.6862051815502
 20
-96.00427173552465
 30
0.0
  0
VERTEX
  5
630
  8
LE_ALL
 10
249.1243230793555
 20
-96.10438248086109
 30
0.0
  0
VERTEX
  5
631
  8
LE_ALL
 10
248.631829297331
 20
-96.23910887931247
 30
0.0
  0
VERTEX
  5
632
  8
LE_ALL
 10
248.2276500952831
 20
-96.40327347095352
 30
0.0
  0
VERTEX
  5
633
  8
LE_ALL
 10
247.9273178532449
 20
-96.59056750260642
 30
0.0
  0
VERTEX
  5
634
  8
LE_ALL
 10
247.7423741708233
 20
-96.79379336968684
 30
0.0
  0
VERTEX
  5
635
  8
LE_ALL
 10
247.67992633
 20
-97.00514121611106
 30
0.0
  0
SEQEND
  5
72E
  8
LE_ALL
  0
POLYLINE
  5
3B9
  8
LE_ALL
 66
     1
 10
0.0
 20
0.0
 30
0.0
  0
VERTEX
  5
636
  8
LE_ALL
 10
247.67992633
 20
-97.00514121611106
 30
0.0
  0
VERTEX
  5
637
  8
LE_ALL
 10
247.7423741665557
 20
-97.2164890631615
 30
0.0
  0
VERTEX
  5
638
  8
LE_ALL
 10
247.9273178454317
 20
-97.41971493110597
 30
0.0
  0
VERTEX
  5
639
  8
LE_ALL
 10
248.2276500847503
 20
-97.60700896379197
 30
0.0
  0
VERTEX
  5
63A
  8
LE_ALL
 10
248.6318292849564
 20
-97.77117355656267
 30
0.0
  0
VERTEX
  5
63B
  8
LE_ALL
 10
249.1243230660171
 20
-97.9058999561681
 30
0.0
  0
VERTEX
  5
63C
  8
LE_ALL
 10
249.6862051680768
 20
-98.00601070261506
 30
0.0
  0
VERTEX
  5
63D
  8
LE_ALL
 10
250.2958827770111
 20
-98.06765859605156
 30
0.0
  0
VERTEX
  5
63E
  8
LE_ALL
 10
250.9299263241666
 20
-98.0884745425
 30
0.0
  0
VERTEX
  5
63F
  8
LE_ALL
 10
251.5639698715462
 20
-98.06765859681025
 30
0.0
  0
VERTEX
  5
640
  8
LE_ALL
 10
252.1736474811445
 20
-98.00601070410329
 30
0.0
  0
VERTEX
  5
641
  8
LE_ALL
 10
252.7355295842823
 20
-97.90589995832869
 30
0.0
  0
VERTEX
  5
642
  8
LE_ALL
 10
253.2280233667938
 20
-97.77117355931257
 30
0.0
  0
VERTEX
  5
643
  8
LE_ALL
 10
253.632202568768
 20
-97.60700896702551
 30
0.0
  0
VERTEX
  5
644
  8
LE_ALL
 10
253.9325348101036
 20
-97.41971493469889
 30
0.0
  0
VERTEX
  5
645
  8
LE_ALL
 10
254.1174784911682
 20
-97.21648906697571
 30
0.0
  0
VERTEX
  5
646
  8
LE_ALL
 10
254.17992633
 20
-97.00514122
 30
0.0
  0
SEQEND
  5
72F
  8
LE_ALL
  0
POLYLINE
  5
3BA
  8
LE_ALL
 66
     1
 10
0.0
 20
0.0
 30
0.0
  0
VERTEX
  5
647
  8
LE_ALL
 10
247.54771248
 20
-93.03082403
 30
0.0
  0
VERTEX
  5
648
  8
LE_ALL
 10
247.509283040894
 20
-92.9007638167699
 30
0.0
  0
VERTEX
  5
649
  8
LE_ALL
 10
247.395471545366
 20
-92.77570174458421
 30
0.0
  0
VERTEX
  5
64A
  8
LE_ALL
 10
247.210651705353
 20
-92.6604438787305
 30
0.0
  0
VERTEX
  5
64B
  8
LE_ALL
 10
246.9619260436423
 20
-92.55941951434608
 30
0.0
  0
VERTEX
  5
64C
  8
LE_ALL
 10
246.6588529479047
 20
-92.47651096109027
 30
0.0
  0
VERTEX
  5
64D
  8
LE_ALL
 10
246.3130793472176
 20
-92.41490434816178
 30
0.0
  0
VERTEX
  5
64E
  8
LE_ALL
 10
245.937893127113
 20
-92.37696718314068
 30
0.0
  0
VERTEX
  5
64F
  8
LE_ALL
 10
245.5477124835898
 20
-92.36415737
 30
0.0
  0
VERTEX
  5
650
  8
LE_ALL
 10
245.1575318399287
 20
-92.3769671826738
 30
0.0
  0
VERTEX
  5
651
  8
LE_ALL
 10
244.7823456194155
 20
-92.41490434724595
 30
0.0
  0
VERTEX
  5
652
  8
LE_ALL
 10
244.4365720180649
 20
-92.47651095976067
 30
0.0
  0
VERTEX
  5
653
  8
LE_ALL
 10
244.1334989214345
 20
-92.55941951265383
 30
0.0
  0
VERTEX
  5
654
  8
LE_ALL
 10
243.8847732586358
 20
-92.66044387674064
 30
0.0
  0
VERTEX
  5
655
  8
LE_ALL
 10
243.6999534173815
 20
-92.77570174237319
 30
0.0
  0
VERTEX
  5
656
  8
LE_ALL
 10
243.5861419205067
 20
-92.90076381442267
 30
0.0
  0
VERTEX
  5
657
  8
LE_ALL
 10
243.54771248
 20
-93.03082402760681
 30
0.0
  0
SEQEND
  5
730
  8
LE_ALL
  0
POLYLINE
  5
3BB
  8
LE_ALL
 66
     1
 10
0.0
 20
0.0
 30
0.0
  0
VERTEX
  5
658
  8
LE_ALL
 10
243.54771248
 20
-93.03082402760681
 30
0.0
  0
VERTEX
  5
659
  8
LE_ALL
 10
243.5861419178804
 20
-93.1608842411763
 30
0.0
  0
VERTEX
  5
65A
  8
LE_ALL
 10
243.6999534125734
 20
-93.28594631375753
 30
0.0
  0
VERTEX
  5
65B
  8
LE_ALL
 10
243.884773252154
 20
-93.40120418002584
 30
0.0
  0
VERTEX
  5
65C
  8
LE_ALL
 10
244.1334989138194
 20
-93.5022285448078
 30
0.0
  0
VERTEX
  5
65D
  8
LE_ALL
 10
244.4365720098567
 20
-93.58513709841115
 30
0.0
  0
VERTEX
  5
65E
  8
LE_ALL
 10
244.7823456111242
 20
-93.64674371160928
 30
0.0
  0
VERTEX
  5
65F
  8
LE_ALL
 10
245.1575318320068
 20
-93.68468087680097
 30
0.0
  0
VERTEX
  5
660
  8
LE_ALL
 10
245.5477124764102
 20
-93.69749069000001
 30
0.0
  0
VERTEX
  5
661
  8
LE_ALL
 10
245.9378931209515
 20
-93.68468087726785
 30
0.0
  0
VERTEX
  5
662
  8
LE_ALL
 10
246.3130793422428
 20
-93.64674371252511
 30
0.0
  0
VERTEX
  5
663
  8
LE_ALL
 10
246.6588529441737
 20
-93.58513709974073
 30
0.0
  0
VERTEX
  5
664
  8
LE_ALL
 10
246.9619260411039
 20
-93.50222854650005
 30
0.0
  0
VERTEX
  5
665
  8
LE_ALL
 10
247.2106517038572
 20
-93.4012041820157
 30
0.0
  0
VERTEX
  5
666
  8
LE_ALL
 10
247.3954715446791
 20
-93.28594631596856
 30
0.0
  0
VERTEX
  5
667
  8
LE_ALL
 10
247.5092830407189
 20
-93.16088424352353
 30
0.0
  0
VERTEX
  5
668
  8
LE_ALL
 10
247.54771248
 20
-93.03082403
 30
0.0
  0
SEQEND
  5
731
  8
LE_ALL
  0
POLYLINE
  5
3BC
  8
LE_ALL
 66
     1
 10
0.0
 20
0.0
 30
0.0
  0
VERTEX
  5
669
  8
LE_ALL
 10
241.00697476
 20
-98.7992125
 30
0.0
  0
VERTEX
  5
66A
  8
LE_ALL
 10
240.968545320894
 20
-98.66915228676989
 30
0.0
  0
VERTEX
  5
66B
  8
LE_ALL
 10
240.854733825366
 20
-98.5440902145842
 30
0.0
  0
VERTEX
  5
66C
  8
LE_ALL
 10
240.669913985353
 20
-98.4288323487305
 30
0.0
  0
VERTEX
  5
66D
  8
LE_ALL
 10
240.4211883236423
 20
-98.32780798434607
 30
0.0
  0
VERTEX
  5
66E
  8
LE_ALL
 10
240.1181152279047
 20
-98.24489943109026
 30
0.0
  0
VERTEX
  5
66F
  8
LE_ALL
 10
239.7723416272176
 20
-98.18329281816177
 30
0.0
  0
VERTEX
  5
670
  8
LE_ALL
 10
239.397155407113
 20
-98.14535565314067
 30
0.0
  0
VERTEX
  5
671
  8
LE_ALL
 10
239.0069747635898
 20
-98.13254583999999
 30
0.0
  0
VERTEX
  5
672
  8
LE_ALL
 10
238.6167941199286
 20
-98.14535565267379
 30
0.0
  0
VERTEX
  5
673
  8
LE_ALL
 10
238.2416078994155
 20
-98.18329281724594
 30
0.0
  0
VERTEX
  5
674
  8
LE_ALL
 10
237.8958342980649
 20
-98.24489942976066
 30
0.0
  0
VERTEX
  5
675
  8
LE_ALL
 10
237.5927612014345
 20
-98.32780798265382
 30
0.0
  0
VERTEX
  5
676
  8
LE_ALL
 10
237.3440355386358
 20
-98.42883234674063
 30
0.0
  0
VERTEX
  5
677
  8
LE_ALL
 10
237.1592156973815
 20
-98.54409021237318
 30
0.0
  0
VERTEX
  5
678
  8
LE_ALL
 10
237.0454042005067
 20
-98.66915228442267
 30
0.0
  0
VERTEX
  5
679
  8
LE_ALL
 10
237.00697476
 20
-98.7992124976068
 30
0.0
  0
SEQEND
  5
732
  8
LE_ALL
  0
POLYLINE
  5
3BD
  8
LE_ALL
 66
     1
 10
0.0
 20
0.0
 30
0.0
  0
VERTEX
  5
67A
  8
LE_ALL
 10
237.00697476
 20
-98.7992124976068
 30
0.0
  0
VERTEX
  5
67B
  8
LE_ALL
 10
237.0454041978804
 20
-98.9292727111763
 30
0.0
  0
VERTEX
  5
67C
  8
LE_ALL
 10
237.1592156925734
 20
-99.05433478375753
 30
0.0
  0
VERTEX
  5
67D
  8
LE_ALL
 10
237.344035532154
 20
-99.16959265002583
 30
0.0
  0
VERTEX
  5
67E
  8
LE_ALL
 10
237.5927611938193
 20
-99.2706170148078
 30
0.0
  0
VERTEX
  5
67F
  8
LE_ALL
 10
237.8958342898567
 20
-99.35352556841114
 30
0.0
  0
VERTEX
  5
680
  8
LE_ALL
 10
238.2416078911241
 20
-99.41513218160927
 30
0.0
  0
VERTEX
  5
681
  8
LE_ALL
 10
238.6167941120068
 20
-99.45306934680096
 30
0.0
  0
VERTEX
  5
682
  8
LE_ALL
 10
239.0069747564102
 20
-99.46587916
 30
0.0
  0
VERTEX
  5
683
  8
LE_ALL
 10
239.3971554009515
 20
-99.45306934726784
 30
0.0
  0
VERTEX
  5
684
  8
LE_ALL
 10
239.7723416222428
 20
-99.4151321825251
 30
0.0
  0
VERTEX
  5
685
  8
LE_ALL
 10
240.1181152241737
 20
-99.35352556974073
 30
0.0
  0
VERTEX
  5
686
  8
LE_ALL
 10
240.4211883211039
 20
-99.27061701650004
 30
0.0
  0
VERTEX
  5
687
  8
LE_ALL
 10
240.6699139838572
 20
-99.1695926520157
 30
0.0
  0
VERTEX
  5
688
  8
LE_ALL
 10
240.8547338246791
 20
-99.05433478596855
 30
0.0
  0
VERTEX
  5
689
  8
LE_ALL
 10
240.9685453207189
 20
-98.92927271352352
 30
0.0
  0
VERTEX
  5
68A
  8
LE_ALL
 10
241.00697476
 20
-98.7992125
 30
0.0
  0
SEQEND
  5
733
  8
LE_ALL
  0
POLYLINE
  5
3BE
  8
LE_ALL
 66
     1
 10
0.0
 20
0.0
 30
0.0
  0
VERTEX
  5
68B
  8
LE_ALL
 10
264.8528779
 20
-95.21106994
 30
0.0
  0
VERTEX
  5
68C
  8
LE_ALL
 10
264.814448460894
 20
-95.08100972676989
 30
0.0
  0
VERTEX
  5
68D
  8
LE_ALL
 10
264.700636965366
 20
-94.95594765458421
 30
0.0
  0
VERTEX
  5
68E
  8
LE_ALL
 10
264.515817125353
 20
-94.8406897887305
 30
0.0
  0
VERTEX
  5
68F
  8
LE_ALL
 10
264.2670914636423
 20
-94.73966542434607
 30
0.0
  0
VERTEX
  5
690
  8
LE_ALL
 10
263.9640183679047
 20
-94.65675687109027
 30
0.0
  0
VERTEX
  5
691
  8
LE_ALL
 10
263.6182447672176
 20
-94.59515025816178
 30
0.0
  0
VERTEX
  5
692
  8
LE_ALL
 10
263.243058547113
 20
-94.55721309314067
 30
0.0
  0
VERTEX
  5
693
  8
LE_ALL
 10
262.8528779035898
 20
-94.54440328
 30
0.0
  0
VERTEX
  5
694
  8
LE_ALL
 10
262.4626972599287
 20
-94.55721309267379
 30
0.0
  0
VERTEX
  5
695
  8
LE_ALL
 10
262.0875110394155
 20
-94.59515025724595
 30
0.0
  0
VERTEX
  5
696
  8
LE_ALL
 10
261.7417374380649
 20
-94.65675686976067
 30
0.0
  0
VERTEX
  5
697
  8
LE_ALL
 10
261.4386643414344
 20
-94.73966542265383
 30
0.0
  0
VERTEX
  5
698
  8
LE_ALL
 10
261.1899386786358
 20
-94.84068978674064
 30
0.0
  0
VERTEX
  5
699
  8
LE_ALL
 10
261.0051188373815
 20
-94.95594765237318
 30
0.0
  0
VERTEX
  5
69A
  8
LE_ALL
 10
260.8913073405067
 20
-95.08100972442267
 30
0.0
  0
VERTEX
  5
69B
  8
LE_ALL
 10
260.8528779
 20
-95.21106993760681
 30
0.0
  0
SEQEND
  5
734
  8
LE_ALL
  0
POLYLINE
  5
3BF
  8
LE_ALL
 66
     1
 10
0.0
 20
0.0
 30
0.0
  0
VERTEX
  5
69C
  8
LE_ALL
 10
260.8528779
 20
-95.21106993760681
 30
0.0
  0
VERTEX
  5
69D
  8
LE_ALL
 10
260.8913073378804
 20
-95.3411301511763
 30
0.0
  0
VERTEX
  5
69E
  8
LE_ALL
 10
261.0051188325734
 20
-95.46619222375753
 30
0.0
  0
VERTEX
  5
69F
  8
LE_ALL
 10
261.189938672154
 20
-95.58145009002584
 30
0.0
  0
VERTEX
  5
6A0
  8
LE_ALL
 10
261.4386643338194
 20
-95.6824744548078
 30
0.0
  0
VERTEX
  5
6A1
  8
LE_ALL
 10
261.7417374298567
 20
-95.76538300841115
 30
0.0
  0
VERTEX
  5
6A2
  8
LE_ALL
 10
262.0875110311242
 20
-95.82698962160927
 30
0.0
  0
VERTEX
  5
6A3
  8
LE_ALL
 10
262.4626972520068
 20
-95.86492678680096
 30
0.0
  0
VERTEX
  5
6A4
  8
LE_ALL
 10
262.8528778964102
 20
-95.8777366
 30
0.0
  0
VERTEX
  5
6A5
  8
LE_ALL
 10
263.2430585409516
 20
-95.86492678726785
 30
0.0
  0
VERTEX
  5
6A6
  8
LE_ALL
 10
263.6182447622428
 20
-95.8269896225251
 30
0.0
  0
VERTEX
  5
6A7
  8
LE_ALL
 10
263.9640183641737
 20
-95.76538300974073
 30
0.0
  0
VERTEX
  5
6A8
  8
LE_ALL
 10
264.2670914611039
 20
-95.68247445650005
 30
0.0
  0
VERTEX
  5
6A9
  8
LE_ALL
 10
264.5158171238572
 20
-95.5814500920157
 30
0.0
  0
VERTEX
  5
6AA
  8
LE_ALL
 10
264.7006369646791
 20
-95.46619222596856
 30
0.0
  0
VERTEX
  5
6AB
  8
LE_ALL
 10
264.8144484607189
 20
-95.34113015352352
 30
0.0
  0
VERTEX
  5
6AC
  8
LE_ALL
 10
264.8528779
 20
-95.21106994
 30
0.0
  0
SEQEND
  5
735
  8
LE_ALL
  0
POLYLINE
  5
3C0
  8
LE_ALL
 66
     1
 10
0.0
 20
0.0
 30
0.0
  0
VERTEX
  5
6AD
  8
LE_ALL
 10
258.31214017
 20
-100.97945841
 30
0.0
  0
VERTEX
  5
6AE
  8
LE_ALL
 10
258.273710730894
 20
-100.8493981967699
 30
0.0
  0
VERTEX
  5
6AF
  8
LE_ALL
 10
258.159899235366
 20
-100.7243361245842
 30
0.0
  0
VERTEX
  5
6B0
  8
LE_ALL
 10
257.975079395353
 20
-100.6090782587305
 30
0.0
  0
VERTEX
  5
6B1
  8
LE_ALL
 10
257.7263537336423
 20
-100.5080538943461
 30
0.0
  0
VERTEX
  5
6B2
  8
LE_ALL
 10
257.4232806379047
 20
-100.4251453410903
 30
0.0
  0
VERTEX
  5
6B3
  8
LE_ALL
 10
257.0775070372176
 20
-100.3635387281618
 30
0.0
  0
VERTEX
  5
6B4
  8
LE_ALL
 10
256.702320817113
 20
-100.3256015631407
 30
0.0
  0
VERTEX
  5
6B5
  8
LE_ALL
 10
256.3121401735898
 20
-100.31279175
 30
0.0
  0
VERTEX
  5
6B6
  8
LE_ALL
 10
255.9219595299287
 20
-100.3256015626738
 30
0.0
  0
VERTEX
  5
6B7
  8
LE_ALL
 10
255.5467733094155
 20
-100.363538727246
 30
0.0
  0
VERTEX
  5
6B8
  8
LE_ALL
 10
255.2009997080649
 20
-100.4251453397607
 30
0.0
  0
VERTEX
  5
6B9
  8
LE_ALL
 10
254.8979266114345
 20
-100.5080538926538
 30
0.0
  0
VERTEX
  5
6BA
  8
LE_ALL
 10
254.6492009486358
 20
-100.6090782567406
 30
0.0
  0
VERTEX
  5
6BB
  8
LE_ALL
 10
254.4643811073815
 20
-100.7243361223732
 30
0.0
  0
VERTEX
  5
6BC
  8
LE_ALL
 10
254.3505696105067
 20
-100.8493981944227
 30
0.0
  0
VERTEX
  5
6BD
  8
LE_ALL
 10
254.31214017
 20
-100.9794584076068
 30
0.0
  0
SEQEND
  5
736
  8
LE_ALL
  0
POLYLINE
  5
3C1
  8
LE_ALL
 66
     1
 10
0.0
 20
0.0
 30
0.0
  0
VERTEX
  5
6BE
  8
LE_ALL
 10
254.31214017
 20
-100.9794584076068
 30
0.0
  0
VERTEX
  5
6BF
  8
LE_ALL
 10
254.3505696078804
 20
-101.1095186211763
 30
0.0
  0
VERTEX
  5
6C0
  8
LE_ALL
 10
254.4643811025734
 20
-101.2345806937575
 30
0.0
  0
VERTEX
  5
6C1
  8
LE_ALL
 10
254.6492009421541
 20
-101.3498385600258
 30
0.0
  0
VERTEX
  5
6C2
  8
LE_ALL
 10
254.8979266038194
 20
-101.4508629248078
 30
0.0
  0
VERTEX
  5
6C3
  8
LE_ALL
 10
255.2009996998567
 20
-101.5337714784112
 30
0.0
  0
VERTEX
  5
6C4
  8
LE_ALL
 10
255.5467733011242
 20
-101.5953780916093
 30
0.0
  0
VERTEX
  5
6C5
  8
LE_ALL
 10
255.9219595220069
 20
-101.633315256801
 30
0.0
  0
VERTEX
  5
6C6
  8
LE_ALL
 10
256.3121401664102
 20
-101.64612507
 30
0.0
  0
VERTEX
  5
6C7
  8
LE_ALL
 10
256.7023208109516
 20
-101.6333152572679
 30
0.0
  0
VERTEX
  5
6C8
  8
LE_ALL
 10
257.0775070322428
 20
-101.5953780925251
 30
0.0
  0
VERTEX
  5
6C9
  8
LE_ALL
 10
257.4232806341738
 20
-101.5337714797407
 30
0.0
  0
VERTEX
  5
6CA
  8
LE_ALL
 10
257.7263537311039
 20
-101.4508629265001
 30
0.0
  0
VERTEX
  5
6CB
  8
LE_ALL
 10
257.9750793938572
 20
-101.3498385620157
 30
0.0
  0
VERTEX
  5
6CC
  8
LE_ALL
 10
258.1598992346791
 20
-101.2345806959686
 30
0.0
  0
VERTEX
  5
6CD
  8
LE_ALL
 10
258.273710730719
 20
-101.1095186235235
 30
0.0
  0
VERTEX
  5
6CE
  8
LE_ALL
 10
258.31214017
 20
-100.97945841
 30
0.0
  0
SEQEND
  5
737
  8
LE_ALL
  0
LINE
  5
3C2
  8
LE_ALL
 10
231.59541027
 20
-103.68568217
 30
0.0
 11
231.59541027
 21
-99.914446
 31
0.0
  0
LINE
  5
3C3
  8
LE_ALL
 10
261.52866936
 20
-103.68568217
 30
0.0
 11
231.59541027
 21
-99.914446
 31
0.0
  0
LINE
  5
3C4
  8
LE_ALL
 10
231.59541027
 20
-103.68568217
 30
0.0
 11
261.52866936
 21
-107.45691833
 31
0.0
  0
LINE
  5
3C5
  8
LE_ALL
 10
272.13527108
 20
-94.3315387
 30
0.0
 11
261.52866936
 21
-103.68568217
 31
0.0
  0
LINE
  5
3C6
  8
LE_ALL
 10
242.20201199
 20
-90.56030253
 30
0.0
 11
272.13527108
 21
-94.3315387
 31
0.0
  0
LINE
  5
3C7
  8
LE_ALL
 10
231.59541027
 20
-99.914446
 30
0.0
 11
242.20201199
 21
-90.56030253
 31
0.0
  0
ENDBLK
  8
0
  0
BLOCK
  8
0
  2
_00072
 70
     0
 10
0.0
 20
0.0
 30
0.0
  0
INSERT
  5
3CA
  8
0
  2
_00073
 10
256.31214017
 20
-100.03664937
 30
0.0
  0
ENDBLK
  8
0
  0
BLOCK
  8
0
  2
_00073
 70
     0
 10
256.31214017
 20
-100.03664937
 30
0.0
  0
LINE
  5
3CD
  8
LE_ALL
  6
STRICHPUNKT2
 62
     1
 10
256.31214017
 20
-100.03664937
 30
0.0
 11
256.31214017
 21
-101.64612508
 31
0.0
  0
LINE
  5
3CE
  8
LE_ALL
  6
STRICHPUNKT2
 62
     1
 10
256.31214017
 20
-100.97945841
 30
0.0
 11
257.37280034
 21
-100.04404406
 31
0.0
  0
LINE
  5
3CF
  8
LE_ALL
  6
STRICHPUNKT2
 62
     1
 10
256.31214017
 20
-100.97945841
 30
0.0
 11
255.25148
 21
-101.91487276
 31
0.0
  0
LINE
  5
3D0
  8
LE_ALL
  6
STRICHPUNKT2
 62
     1
 10
256.31214017
 20
-100.97945841
 30
0.0
 11
253.50589713
 21
-100.62590502
 31
0.0
  0
LINE
  5
3D1
  8
LE_ALL
  6
STRICHPUNKT2
 62
     1
 10
256.31214017
 20
-100.97945841
 30
0.0
 11
259.11838321
 21
-101.3330118
 31
0.0
  0
LINE
  5
3D2
  8
LE_ALL
  6
STRICHPUNKT2
 62
     1
 10
262.8528779
 20
-94.2682609
 30
0.0
 11
262.8528779
 21
-95.87773661
 31
0.0
  0
LINE
  5
3D3
  8
LE_ALL
  6
STRICHPUNKT2
 62
     1
 10
262.8528779
 20
-95.21106994
 30
0.0
 11
263.91353807
 21
-94.27565559
 31
0.0
  0
LINE
  5
3D4
  8
LE_ALL
  6
STRICHPUNKT2
 62
     1
 10
262.8528779
 20
-95.21106994
 30
0.0
 11
261.79221772
 21
-96.14648429
 31
0.0
  0
LINE
  5
3D5
  8
LE_ALL
  6
STRICHPUNKT2
 62
     1
 10
262.8528779
 20
-95.21106994
 30
0.0
 11
260.04663486
 21
-94.85751655
 31
0.0
  0
LINE
  5
3D6
  8
LE_ALL
  6
STRICHPUNKT2
 62
     1
 10
262.8528779
 20
-95.21106994
 30
0.0
 11
265.65912094
 21
-95.56462333
 31
0.0
  0
LINE
  5
3D7
  8
LE_ALL
  6
STRICHPUNKT2
 62
     1
 10
239.00697476
 20
-97.85640346
 30
0.0
 11
239.00697476
 21
-99.46587917
 31
0.0
  0
LINE
  5
3D8
  8
LE_ALL
  6
STRICHPUNKT2
 62
     1
 10
239.00697476
 20
-98.7992125
 30
0.0
 11
240.06763493
 21
-97.86379815
 31
0.0
  0
LINE
  5
3D9
  8
LE_ALL
  6
STRICHPUNKT2
 62
     1
 10
239.00697476
 20
-98.7992125
 30
0.0
 11
237.94631459
 21
-99.73462685
 31
0.0
  0
LINE
  5
3DA
  8
LE_ALL
  6
STRICHPUNKT2
 62
     1
 10
239.00697476
 20
-98.7992125
 30
0.0
 11
236.20073172
 21
-98.44565911
 31
0.0
  0
LINE
  5
3DB
  8
LE_ALL
  6
STRICHPUNKT2
 62
     1
 10
239.00697476
 20
-98.7992125
 30
0.0
 11
241.8132178
 21
-99.15276589
 31
0.0
  0
LINE
  5
3DC
  8
LE_ALL
  6
STRICHPUNKT2
 62
     1
 10
245.54771248
 20
-92.08801499
 30
0.0
 11
245.54771248
 21
-93.6974907
 31
0.0
  0
LINE
  5
3DD
  8
LE_ALL
  6
STRICHPUNKT2
 62
     1
 10
245.54771248
 20
-93.03082403
 30
0.0
 11
246.60837265
 21
-92.09540968
 31
0.0
  0
LINE
  5
3DE
  8
LE_ALL
  6
STRICHPUNKT2
 62
     1
 10
245.54771248
 20
-93.03082403
 30
0.0
 11
244.48705231
 21
-93.96623838
 31
0.0
  0
LINE
  5
3DF
  8
LE_ALL
  6
STRICHPUNKT2
 62
     1
 10
245.54771248
 20
-93.03082403
 30
0.0
 11
242.74146944
 21
-92.67727064
 31
0.0
  0
LINE
  5
3E0
  8
LE_ALL
  6
STRICHPUNKT2
 62
     1
 10
245.54771248
 20
-93.03082403
 30
0.0
 11
248.35395552
 21
-93.38437742
 31
0.0
  0
LINE
  5
3E1
  8
LE_ALL
  6
STRICHPUNKT2
 62
     1
 10
250.92992633
 20
-95.59092766
 30
0.0
 11
250.92992633
 21
-98.08847455
 31
0.0
  0
LINE
  5
3E2
  8
LE_ALL
  6
STRICHPUNKT2
 62
     1
 10
250.92992633
 20
-97.00514122
 30
0.0
 11
252.60930493
 21
-95.5240685
 31
0.0
  0
LINE
  5
3E3
  8
LE_ALL
  6
STRICHPUNKT2
 62
     1
 10
250.92992633
 20
-97.00514122
 30
0.0
 11
249.25054772
 21
-98.48621394
 31
0.0
  0
LINE
  5
3E4
  8
LE_ALL
  6
STRICHPUNKT2
 62
     1
 10
250.92992633
 20
-97.00514122
 30
0.0
 11
246.48670818
 21
-96.44534835
 31
0.0
  0
LINE
  5
3E5
  8
LE_ALL
  6
STRICHPUNKT2
 62
     1
 10
250.92992633
 20
-97.00514122
 30
0.0
 11
255.37314447
 21
-97.56493409
 31
0.0
  0
ENDBLK
  8
0
  0
BLOCK
  8
0
  2
BEND_ZONE_00074
 70
     0
 10
0.0
 20
0.0
 30
0.0
  0
INSERT
  5
3E8
  8
0
  2
BEND_ZONE_00075
 10
274.43886539
 20
-93.82230279
 30
0.0
  0
ENDBLK
  8
0
  0
BLOCK
  8
0
  2
BEND_ZONE_00075
 70
     0
 10
274.43886539
 20
-93.82230279
 30
0.0
  0
LINE
  5
3EB
  8
LE_ALL
 10
274.43886539
 20
-93.82230279
 30
0.0
 11
263.83226367
 21
-103.17644626
 31
0.0
  0
POLYLINE
  5
3EC
  8
LE_ALL
 66
     1
 10
0.0
 20
0.0
 30
0.0
  0
VERTEX
  5
6CF
  8
LE_ALL
 10
272.1352710729196
 20
-94.33153868698146
 30
0.0
  0
VERTEX
  5
6D0
  8
LE_ALL
 10
272.9557365603277
 20
-94.34312433705597
 30
0.0
  0
VERTEX
  5
6D1
  8
LE_ALL
 10
273.7362655292694
 20
-94.17057947027821
 30
0.0
  0
VERTEX
  5
6D2
  8
LE_ALL
 10
274.4388653885525
 20
-93.82230278400183
 30
0.0
  0
SEQEND
  5
738
  8
LE_ALL
  0
POLYLINE
  5
3ED
  8
LE_ALL
 66
     1
 10
0.0
 20
0.0
 30
0.0
  0
VERTEX
  5
3EE
  8
LE_ALL
 10
272.13527108
 20
-94.3315387
 30
0.0
  0
VERTEX
  5
3EF
  8
LE_ALL
 10
261.52866936
 20
-103.68568217
 30
0.0
  0
SEQEND
  5
3F0
  8
LE_ALL
  0
POLYLINE
  5
3F1
  8
LE_ALL
 66
     1
 10
0.0
 20
0.0
 30
0.0
  0
VERTEX
  5
6D3
  8
LE_ALL
 10
261.5286693529196
 20
-103.6856821569815
 30
0.0
  0
VERTEX
  5
6D4
  8
LE_ALL
 10
262.3491348403277
 20
-103.697267807056
 30
0.0
  0
VERTEX
  5
6D5
  8
LE_ALL
 10
263.1296638092694
 20
-103.5247229402782
 30
0.0
  0
VERTEX
  5
6D6
  8
LE_ALL
 10
263.8322636685525
 20
-103.1764462540018
 30
0.0
  0
SEQEND
  5
739
  8
LE_ALL
  0
POLYLINE
  5
3F2
  8
LE_ALL
 66
     1
 10
0.0
 20
0.0
 30
0.0
  0
VERTEX
  5
6D7
  8
LE_ALL
 10
261.5286693458391
 20
-107.4569183139629
 30
0.0
  0
VERTEX
  5
6D8
  8
LE_ALL
 10
263.1696003206554
 20
-107.4800896141119
 30
0.0
  0
VERTEX
  5
6D9
  8
LE_ALL
 10
264.7306582585389
 20
-107.1349998805564
 30
0.0
  0
VERTEX
  5
6DA
  8
LE_ALL
 10
266.135857977105
 20
-106.4384465080037
 30
0.0
  0
SEQEND
  5
73A
  8
LE_ALL
  0
ENDBLK
  8
0
  0
BLOCK
  8
0
  2
SHEET_FLANGE_00076
 70
     0
 10
0.0
 20
0.0
 30
0.0
  0
INSERT
  5
3F5
  8
0
  2
SHEET_FLANGE_00077
 10
263.83226367
 20
-103.17644626
 30
0.0
  0
ENDBLK
  8
0
  0
BLOCK
  8
0
  2
SHEET_FLANGE_00077
 70
     0
 10
263.83226367
 20
-103.17644626
 30
0.0
  0
LINE
  5
3F8
  8
LE_ALL
 10
263.83226367
 20
-103.17644626
 30
0.0
 11
266.77732378
 21
-101.22836634
 31
0.0
  0
LINE
  5
3F9
  8
LE_ALL
 10
269.08091809
 20
-104.4903666
 30
0.0
 11
266.13585798
 21
-106.43844651
 31
0.0
  0
POLYLINE
  5
3FA
  8
LE_ALL
 66
     1
 10
0.0
 20
0.0
 30
0.0
  0
VERTEX
  5
3FB
  8
LE_ALL
 10
266.77732378
 20
-101.22836634
 30
0.0
  0
VERTEX
  5
3FC
  8
LE_ALL
 10
277.3839255
 20
-91.87422288
 30
0.0
  0
VERTEX
  5
3FD
  8
LE_ALL
 10
274.43886539
 20
-93.82230279
 30
0.0
  0
VERTEX
  5
3FE
  8
LE_ALL
 10
263.83226367
 20
-103.17644626
 30
0.0
  0
SEQEND
  5
3FF
  8
LE_ALL
  0
ENDBLK
  8
0
  0
BLOCK
  8
0
  2
BEND_ZONE_00078
 70
     0
 10
0.0
 20
0.0
 30
0.0
  0
INSERT
  5
402
  8
0
  2
BEND_ZONE_00079
 10
271.38451239
 20
-100.20989452
 30
0.0
  0
ENDBLK
  8
0
  0
BLOCK
  8
0
  2
BEND_ZONE_00079
 70
     0
 10
271.38451239
 20
-100.20989452
 30
0.0
  0
LINE
  5
405
  8
LE_ALL
 10
271.38451239
 20
-100.20989452
 30
0.0
 11
281.99111411
 21
-90.85575106
 31
0.0
  0
POLYLINE
  5
406
  8
LE_ALL
 66
     1
 10
0.0
 20
0.0
 30
0.0
  0
VERTEX
  5
6DB
  8
LE_ALL
 10
271.3845123772972
 20
-100.2098945426526
 30
0.0
  0
VERTEX
  5
6DC
  8
LE_ALL
 10
269.7435814031349
 20
-100.1867232485231
 30
0.0
  0
VERTEX
  5
6DD
  8
LE_ALL
 10
268.1825234671809
 20
-100.5318129879699
 30
0.0
  0
VERTEX
  5
6DE
  8
LE_ALL
 10
266.7773237517262
 20
-101.2283663659989
 30
0.0
  0
SEQEND
  5
73B
  8
LE_ALL
  0
POLYLINE
  5
407
  8
LE_ALL
 66
     1
 10
0.0
 20
0.0
 30
0.0
  0
VERTEX
  5
408
  8
LE_ALL
 10
266.77732378
 20
-101.22836634
 30
0.0
  0
VERTEX
  5
409
  8
LE_ALL
 10
277.3839255
 20
-91.87422288
 30
0.0
  0
SEQEND
  5
40A
  8
LE_ALL
  0
POLYLINE
  5
40B
  8
LE_ALL
 66
     1
 10
0.0
 20
0.0
 30
0.0
  0
VERTEX
  5
6DF
  8
LE_ALL
 10
281.9911140972972
 20
-90.85575107265258
 30
0.0
  0
VERTEX
  5
6E0
  8
LE_ALL
 10
280.3501831231349
 20
-90.83257977852313
 30
0.0
  0
VERTEX
  5
6E1
  8
LE_ALL
 10
278.7891251871809
 20
-91.17766951796989
 30
0.0
  0
VERTEX
  5
6E2
  8
LE_ALL
 10
277.3839254717262
 20
-91.87422289599893
 30
0.0
  0
SEQEND
  5
73C
  8
LE_ALL
  0
POLYLINE
  5
40C
  8
LE_ALL
 66
     1
 10
0.0
 20
0.0
 30
0.0
  0
VERTEX
  5
6E3
  8
LE_ALL
 10
271.3845123836486
 20
-103.9811307013263
 30
0.0
  0
VERTEX
  5
6E4
  8
LE_ALL
 10
270.5640468965674
 20
-103.9695450542616
 30
0.0
  0
VERTEX
  5
6E5
  8
LE_ALL
 10
269.7835179285905
 20
-104.1420899239849
 30
0.0
  0
VERTEX
  5
6E6
  8
LE_ALL
 10
269.0809180708631
 20
-104.4903666129995
 30
0.0
  0
SEQEND
  5
73D
  8
LE_ALL
  0
ENDBLK
  8
0
  0
BLOCK
  8
0
  2
SHEET_FLANGE_00080
 70
     0
 10
0.0
 20
0.0
 30
0.0
  0
INSERT
  5
40F
  8
0
  2
SHEET_FLANGE_00081
 10
327.6837921
 20
-103.11584426
 30
0.0
  0
INSERT
  5
410
  8
0
  2
_00082
 10
0.0
 20
0.0
 30
0.0
  0
ENDBLK
  8
0
  0
BLOCK
  8
0
  2
SHEET_FLANGE_00081
 70
     0
 10
327.6837921
 20
-103.11584426
 30
0.0
  0
POLYLINE
  5
413
  8
LE_ALL
 66
     1
 10
0.0
 20
0.0
 30
0.0
  0
VERTEX
  5
6E7
  8
LE_ALL
 10
325.58284062
 20
-102.1024787161111
 30
0.0
  0
VERTEX
  5
6E8
  8
LE_ALL
 10
325.6486428739336
 20
-102.3193721155958
 30
0.0
  0
VERTEX
  5
6E9
  8
LE_ALL
 10
325.8433850639281
 20
-102.527482699819
 30
0.0
  0
VERTEX
  5
6EA
  8
LE_ALL
 10
326.1591813589113
 20
-102.7183833020141
 30
0.0
  0
VERTEX
  5
6EB
  8
LE_ALL
 10
326.5832439996638
 20
-102.884343651198
 30
0.0
  0
VERTEX
  5
6EC
  8
LE_ALL
 10
327.0984011224558
 20
-103.0186433994153
 30
0.0
  0
VERTEX
  5
6ED
  8
LE_ALL
 10
327.6837921112792
 20
-103.1158442534666
 30
0.0
  0
SEQEND
  5
73E
  8
LE_ALL
  0
POLYLINE
  5
414
  8
LE_ALL
 66
     1
 10
0.0
 20
0.0
 30
0.0
  0
VERTEX
  5
6EE
  8
LE_ALL
 10
329.9818891482086
 20
-101.0891131889886
 30
0.0
  0
VERTEX
  5
6EF
  8
LE_ALL
 10
329.3767589935165
 20
-101.0344247993044
 30
0.0
  0
VERTEX
  5
6F0
  8
LE_ALL
 10
328.7513860696195
 20
-101.0194856993441
 30
0.0
  0
VERTEX
  5
6F1
  8
LE_ALL
 10
328.1290446036478
 20
-101.0448518709741
 30
0.0
  0
VERTEX
  5
6F2
  8
LE_ALL
 10
327.5328960023043
 20
-101.1095792726198
 30
0.0
  0
VERTEX
  5
6F3
  8
LE_ALL
 10
326.98512686405
 20
-101.2112589732419
 30
0.0
  0
VERTEX
  5
6F4
  8
LE_ALL
 10
326.5061232702956
 20
-101.3461068044565
 30
0.0
  0
VERTEX
  5
6F5
  8
LE_ALL
 10
326.1137120856384
 20
-101.5091041942535
 30
0.0
  0
VERTEX
  5
6F6
  8
LE_ALL
 10
325.8224975033382
 20
-101.6941849409688
 30
0.0
  0
VERTEX
  5
6F7
  8
LE_ALL
 10
325.6433175275252
 20
-101.8944609764243
 30
0.0
  0
VERTEX
  5
6F8
  8
LE_ALL
 10
325.58284062
 20
-102.1024787161111
 30
0.0
  0
SEQEND
  5
73F
  8
LE_ALL
  0
POLYLINE
  5
415
  8
LE_ALL
 66
     1
 10
0.0
 20
0.0
 30
0.0
  0
VERTEX
  5
416
  8
LE_ALL
 10
329.98188914
 20
-101.08911318
 30
0.0
  0
VERTEX
  5
417
  8
LE_ALL
 10
342.60998282
 20
-102.68010343
 30
0.0
  0
SEQEND
  5
418
  8
LE_ALL
  0
POLYLINE
  5
419
  8
LE_ALL
 66
     1
 10
0.0
 20
0.0
 30
0.0
  0
VERTEX
  5
6F9
  8
LE_ALL
 10
344.7109343
 20
-103.69346898
 30
0.0
  0
VERTEX
  5
6FA
  8
LE_ALL
 10
344.6451320448151
 20
-103.476575582363
 30
0.0
  0
VERTEX
  5
6FB
  8
LE_ALL
 10
344.450389855745
 20
-103.2684649999255
 30
0.0
  0
VERTEX
  5
6FC
  8
LE_ALL
 10
344.1345935636944
 20
-103.0775643992427
 30
0.0
  0
VERTEX
  5
6FD
  8
LE_ALL
 10
343.7105309275534
 20
-102.9116040511092
 30
0.0
  0
VERTEX
  5
6FE
  8
LE_ALL
 10
343.1953738105819
 20
-102.7773043033271
 30
0.0
  0
VERTEX
  5
6FF
  8
LE_ALL
 10
342.6099828282086
 20
-102.6801034489886
 30
0.0
  0
SEQEND
  5
740
  8
LE_ALL
  0
POLYLINE
  5
41A
  8
LE_ALL
 66
     1
 10
0.0
 20
0.0
 30
0.0
  0
VERTEX
  5
700
  8
LE_ALL
 10
340.3118857912792
 20
-104.7068345134666
 30
0.0
  0
VERTEX
  5
701
  8
LE_ALL
 10
340.9170159461192
 20
-104.7615229018066
 30
0.0
  0
VERTEX
  5
702
  8
LE_ALL
 10
341.5423888693744
 20
-104.7764620004972
 30
0.0
  0
VERTEX
  5
703
  8
LE_ALL
 10
342.1647303340064
 20
-104.7510958277205
 30
0.0
  0
VERTEX
  5
704
  8
LE_ALL
 10
342.7608789334294
 20
-104.6863684250914
 30
0.0
  0
VERTEX
  5
705
  8
LE_ALL
 10
343.3086480693183
 20
-104.5846887236786
 30
0.0
  0
VERTEX
  5
706
  8
LE_ALL
 10
343.7876516604101
 20
-104.4498408918844
 30
0.0
  0
VERTEX
  5
707
  8
LE_ALL
 10
344.1800628422581
 20
-104.2868435017259
 30
0.0
  0
VERTEX
  5
708
  8
LE_ALL
 10
344.4712774217498
 20
-104.101762754863
 30
0.0
  0
VERTEX
  5
709
  8
LE_ALL
 10
344.6504573948911
 20
-103.9014867194593
 30
0.0
  0
VERTEX
  5
70A
  8
LE_ALL
 10
344.7109343
 20
-103.69346898
 30
0.0
  0
SEQEND
  5
741
  8
LE_ALL
  0
LINE
  5
41B
  8
LE_ALL
 10
340.31188578
 20
-104.70683452
 30
0.0
 11
327.6837921
 21
-103.11584426
 31
0.0
  0
LINE
  5
41C
  8
LE_ALL
 10
329.98188914
 20
-103.40537727
 30
0.0
 11
329.98188914
 21
-101.08911318
 31
0.0
  0
LINE
  5
41D
  8
LE_ALL
 10
342.60998282
 20
-104.70683452
 30
0.0
 11
342.60998282
 21
-102.68010343
 31
0.0
  0
POLYLINE
  5
41E
  8
LE_ALL
 66
     1
 10
0.0
 20
0.0
 30
0.0
  0
VERTEX
  5
70B
  8
LE_ALL
 10
296.81884946
 20
-98.47855646611106
 30
0.0
  0
VERTEX
  5
70C
  8
LE_ALL
 10
296.8812972965557
 20
-98.6899043131615
 30
0.0
  0
VERTEX
  5
70D
  8
LE_ALL
 10
297.0662409754318
 20
-98.89313018110597
 30
0.0
  0
VERTEX
  5
70E
  8
LE_ALL
 10
297.3665732147504
 20
-99.08042421379197
 30
0.0
  0
VERTEX
  5
70F
  8
LE_ALL
 10
297.7707524149565
 20
-99.24458880656267
 30
0.0
  0
VERTEX
  5
710
  8
LE_ALL
 10
298.2632461960171
 20
-99.3793152061681
 30
0.0
  0
VERTEX
  5
711
  8
LE_ALL
 10
298.8251282980768
 20
-99.47942595261506
 30
0.0
  0
VERTEX
  5
712
  8
LE_ALL
 10
299.4348059070111
 20
-99.54107384605156
 30
0.0
  0
VERTEX
  5
713
  8
LE_ALL
 10
300.0688494541666
 20
-99.5618897925
 30
0.0
  0
VERTEX
  5
714
  8
LE_ALL
 10
300.7028930015463
 20
-99.54107384681025
 30
0.0
  0
VERTEX
  5
715
  8
LE_ALL
 10
301.3125706111445
 20
-99.47942595410329
 30
0.0
  0
VERTEX
  5
716
  8
LE_ALL
 10
301.8744527142823
 20
-99.37931520832869
 30
0.0
  0
VERTEX
  5
717
  8
LE_ALL
 10
302.3669464967939
 20
-99.24458880931257
 30
0.0
  0
VERTEX
  5
718
  8
LE_ALL
 10
302.7711256987679
 20
-99.08042421702551
 30
0.0
  0
VERTEX
  5
719
  8
LE_ALL
 10
303.0714579401036
 20
-98.89313018469889
 30
0.0
  0
VERTEX
  5
71A
  8
LE_ALL
 10
303.2564016211683
 20
-98.68990431697571
 30
0.0
  0
VERTEX
  5
71B
  8
LE_ALL
 10
303.31884946
 20
-98.47855647
 30
0.0
  0
SEQEND
  5
742
  8
LE_ALL
  0
POLYLINE
  5
41F
  8
LE_ALL
 66
     1
 10
0.0
 20
0.0
 30
0.0
  0
VERTEX
  5
71C
  8
LE_ALL
 10
303.31884946
 20
-98.47855647
 30
0.0
  0
VERTEX
  5
71D
  8
LE_ALL
 10
303.2564016214528
 20
-98.26720862350106
 30
0.0
  0
VERTEX
  5
71E
  8
LE_ALL
 10
303.0714579412198
 20
-98.06398275619934
 30
0.0
  0
VERTEX
  5
71F
  8
LE_ALL
 10
302.7711257011986
 20
-97.87668872418706
 30
0.0
  0
VERTEX
  5
720
  8
LE_ALL
 10
302.3669465009187
 20
-97.71252413206237
 30
0.0
  0
VERTEX
  5
721
  8
LE_ALL
 10
301.8744527203452
 20
-97.57779773302168
 30
0.0
  0
VERTEX
  5
722
  8
LE_ALL
 10
301.3125706192286
 20
-97.47768698701289
 30
0.0
  0
VERTEX
  5
723
  8
LE_ALL
 10
300.7028930115586
 20
-97.4160390938536
 30
0.0
  0
VERTEX
  5
724
  8
LE_ALL
 10
300.0688494658334
 20
-97.3952231475
 30
0.0
  0
VERTEX
  5
725
  8
LE_ALL
 10
299.4348059198841
 20
-97.41603909309491
 30
0.0
  0
VERTEX
  5
726
  8
LE_ALL
 10
298.8251283115502
 20
-97.47768698552466
 30
0.0
  0
VERTEX
  5
727
  8
LE_ALL
 10
298.2632462093555
 20
-97.57779773086109
 30
0.0
  0
VERTEX
  5
728
  8
LE_ALL
 10
297.770752427331
 20
-97.71252412931247
 30
0.0
  0
VERTEX
  5
729
  8
LE_ALL
 10
297.3665732252832
 20
-97.87668872095352
 30
0.0
  0
VERTEX
  5
72A
  8
LE_ALL
 10
297.0662409832449
 20
-98.06398275260642
 30
0.0
  0
VERTEX
  5
72B
  8
LE_ALL
 10
296.8812973008233
 20
-98.26720861968684
 30
0.0
  0
VERTEX
  5
72C
  8
LE_ALL
 10
296.81884946
 20
-98.47855646611106
 30
0.0
  0
SEQEND
  5
743
  8
LE_ALL
  0
POLYLINE
  5
420
  8
LE_ALL
 66
     1
 10
0.0
 20
0.0
 30
0.0
  0
VERTEX
  5
421
  8
LE_ALL
 10
348.55187353
 20
-109.93206819
 30
0.0
  0
VERTEX
  5
422
  8
LE_ALL
 10
348.55187353
 20
-113.70330435
 30
0.0
  0
VERTEX
  5
423
  8
LE_ALL
 10
271.38451239
 20
-103.98113069
 30
0.0
  0
SEQEND
  5
424
  8
LE_ALL
  0
POLYLINE
  5
425
  8
LE_ALL
 66
     1
 10
0.0
 20
0.0
 30
0.0
  0
VERTEX
  5
426
  8
LE_ALL
 10
271.38451239
 20
-100.20989452
 30
0.0
  0
VERTEX
  5
427
  8
LE_ALL
 10
348.55187353
 20
-109.93206819
 30
0.0
  0
VERTEX
  5
428
  8
LE_ALL
 10
359.15847525
 20
-100.57792472
 30
0.0
  0
VERTEX
  5
429
  8
LE_ALL
 10
359.15847525
 20
-104.34916088
 30
0.0
  0
VERTEX
  5
42A
  8
LE_ALL
 10
348.55187353
 20
-113.70330435
 30
0.0
  0
SEQEND
  5
42B
  8
LE_ALL
  0
POLYLINE
  5
42C
  8
LE_ALL
 66
     1
 10
0.0
 20
0.0
 30
0.0
  0
VERTEX
  5
42D
  8
LE_ALL
 10
359.15847525
 20
-100.57792472
 30
0.0
  0
VERTEX
  5
42E
  8
LE_ALL
 10
281.99111411
 20
-90.85575106
 30
0.0
  0
VERTEX
  5
42F
  8
LE_ALL
 10
271.38451239
 20
-100.20989452
 30
0.0
  0
SEQEND
  5
430
  8
LE_ALL
  0
ENDBLK
  8
0
  0
BLOCK
  8
0
  2
_00082
 70
     0
 10
0.0
 20
0.0
 30
0.0
  0
INSERT
  5
433
  8
0
  2
_00083
 10
300.06884946
 20
-97.0643429
 30
0.0
  0
ENDBLK
  8
0
  0
BLOCK
  8
0
  2
_00083
 70
     0
 10
300.06884946
 20
-97.0643429
 30
0.0
  0
LINE
  5
436
  8
LE_ALL
  6
STRICHPUNKT2
 62
     1
 10
300.06884946
 20
-97.0643429
 30
0.0
 11
300.06884946
 21
-99.5618898
 31
0.0
  0
LINE
  5
437
  8
LE_ALL
  6
STRICHPUNKT2
 62
     1
 10
300.06884946
 20
-98.47855647
 30
0.0
 11
304.5120676
 21
-99.03834933
 31
0.0
  0
LINE
  5
438
  8
LE_ALL
  6
STRICHPUNKT2
 62
     1
 10
300.06884946
 20
-98.47855647
 30
0.0
 11
295.62563131
 21
-97.9187636
 31
0.0
  0
LINE
  5
439
  8
LE_ALL
  6
STRICHPUNKT2
 62
     1
 10
300.06884946
 20
-98.47855647
 30
0.0
 11
301.74822806
 21
-96.99748375
 31
0.0
  0
LINE
  5
43A
  8
LE_ALL
  6
STRICHPUNKT2
 62
     1
 10
300.06884946
 20
-98.47855647
 30
0.0
 11
298.38947085
 21
-99.95962918
 31
0.0
  0
LINE
  5
43B
  8
LE_ALL
  6
STRICHPUNKT2
 62
     1
 10
328.83284062
 20
-100.68826516
 30
0.0
 11
328.83284062
 21
-103.26061077
 31
0.0
  0
LINE
  5
43C
  8
LE_ALL
  6
STRICHPUNKT2
 62
     1
 10
341.4609343
 20
-102.27925541
 30
0.0
 11
341.4609343
 21
-104.77680231
 31
0.0
  0
LINE
  5
43D
  8
LE_ALL
  6
STRICHPUNKT2
 62
     1
 10
324.38962247
 20
-101.54268585
 30
0.0
 11
345.90415244
 21
-104.25326184
 31
0.0
  0
LINE
  5
43E
  8
LE_ALL
  6
STRICHPUNKT2
 62
     1
 10
327.15346201
 20
-103.58355143
 30
0.0
 11
330.51221922
 21
-100.621406
 31
0.0
  0
LINE
  5
43F
  8
LE_ALL
  6
STRICHPUNKT2
 62
     1
 10
339.78155569
 20
-105.17454169
 30
0.0
 11
343.1403129
 21
-102.21239626
 31
0.0
  0
ENDBLK
  8
0
  0
BLOCK
  8
0
  2
DVI_FIGURE_00084
 70
     0
 10
0.0
 20
0.0
 30
0.0
  0
INSERT
  5
442
  8
0
  2
VIEW_3_00085
 10
0.0
 20
0.0
 30
0.0
  0
INSERT
  5
443
  8
0
  2
VIEW_4_00094
 10
0.0
 20
0.0
 30
0.0
  0
INSERT
  5
444
  8
0
  2
VIEW_5_00097
 10
0.0
 20
0.0
 30
0.0
  0
ENDBLK
  8
0
  0
BLOCK
  8
0
  2
VIEW_3_00085
 70
     0
 10
0.0
 20
0.0
 30
0.0
  0
INSERT
  5
447
  8
0
  2
PART_2_00086
 10
0.0
 20
0.0
 30
0.0
  0
ENDBLK
  8
0
  0
BLOCK
  8
0
  2
PART_2_00086
 70
     0
 10
0.0
 20
0.0
 30
0.0
  0
INSERT
  5
44A
  8
0
  2
_D1
 10
25.6174434
 20
-282.996757
 30
0.0
  0
INSERT
  5
44B
  8
0
  2
_D2
 10
104.71627267
 20
-253.69449455
 30
0.0
  0
INSERT
  5
44C
  8
0
  2
_D3
 10
114.93462331
 20
-237.02004069
 30
0.0
  0
INSERT
  5
44D
  8
0
  2
_D4
 10
249.74639218
 20
-271.6901976
 30
0.0
  0
INSERT
  5
44E
  8
0
  2
_D5
 10
249.74639218
 20
-261.72660793
 30
0.0
  0
INSERT
  5
44F
  8
0
  2
_D6
 10
154.7163418
 20
-246.64530139
 30
0.0
  0
INSERT
  5
450
  8
0
  2
_D7
 10
257.2440419
 20
-267.6901976
 30
0.0
  0
ENDBLK
  8
0
  0
BLOCK
  8
0
  2
VIEW_4_00094
 70
     0
 10
0.0
 20
0.0
 30
0.0
  0
INSERT
  5
48C
  8
0
  2
PART_2_00095
 10
0.0
 20
0.0
 30
0.0
  0
ENDBLK
  8
0
  0
BLOCK
  8
0
  2
PART_2_00095
 70
     0
 10
0.0
 20
0.0
 30
0.0
  0
INSERT
  5
48F
  8
0
  2
_D8
 10
304.32036215
 20
-247.24405638
 30
0.0
  0
ENDBLK
  8
0
  0
BLOCK
  8
0
  2
VIEW_5_00097
 70
     0
 10
0.0
 20
0.0
 30
0.0
  0
INSERT
  5
49A
  8
0
  2
PART_2_00098
 10
0.0
 20
0.0
 30
0.0
  0
ENDBLK
  8
0
  0
BLOCK
  8
0
  2
PART_2_00098
 70
     0
 10
0.0
 20
0.0
 30
0.0
  0
INSERT
  5
49D
  8
0
  2
_D9
 10
230.88058938
 20
-168.85640534
 30
0.0
  0
INSERT
  5
49E
  8
0
  2
_D10
 10
258.06522164
 20
-167.01386877
 30
0.0
  0
INSERT
  5
49F
  8
0
  2
_D11
 10
124.0837229
 20
-151.2802695
 30
0.0
  0
INSERT
  5
4A0
  8
0
  2
_D12
 10
157.47096271
 20
-125.67466599
 30
0.0
  0
INSERT
  5
4A1
  8
0
  2
_D13
 10
22.86282249
 20
-125.01437953
 30
0.0
  0
INSERT
  5
4A2
  8
0
  2
_D14
 10
19.02028592
 20
-151.71410186
 30
0.0
  0
INSERT
  5
4A3
  8
0
  2
_D15
 10
1.48020371
 20
-157.10716253
 30
0.0
  0
INSERT
  5
4A4
  8
0
  2
_D16
 10
247.8182358
 20
-152.01386877
 30
0.0
  0
INSERT
  5
4A5
  8
0
  2
_D17
 10
247.8182358
 20
-182.01386877
 30
0.0
  0
INSERT
  5
4A6
  8
0
  2
_D18
 10
230.92625947
 20
-200.59046513
 30
0.0
  0
INSERT
  5
4A7
  8
0
  2
_D19
 10
200.92625947
 20
-200.59046513
 30
0.0
  0
INSERT
  5
4A8
  8
0
  2
_D20
 10
153.42625947
 20
-200.59046513
 30
0.0
  0
INSERT
  5
4A9
  8
0
  2
_D21
 10
-15.4566084
 20
-144.20332416
 30
0.0
  0
INSERT
  5
4AA
  8
0
  2
_D22
 10
-15.4566084
 20
-159.20332416
 30
0.0
  0
INSERT
  5
4AB
  8
0
  2
_D23
 10
-15.4566084
 20
-177.70332416
 30
0.0
  0
INSERT
  5
4AC
  8
0
  2
_D24
 10
-15.4566084
 20
-192.70332416
 30
0.0
  0
INSERT
  5
4AD
  8
0
  2
_D25
 10
-4.8266329
 20
-201.95318849
 30
0.0
  0
INSERT
  5
4AE
  8
0
  2
_D26
 10
10.1733671
 20
-201.95318849
 30
0.0
  0
INSERT
  5
4AF
  8
0
  2
_D27
 10
28.6733671
 20
-201.95318849
 30
0.0
  0
ENDBLK
  8
0
  0
ENDSEC
  0
SECTION
  2
ENTITIES
  0
INSERT
  5
54D
  8
0
  2
_ZBL0002_00001
 10
0.0
 20
0.0
 30
0.0
  0
INSERT
  5
54E
  8
0
  2
_ANS0003_00016
 10
0.0
 20
0.0
 30
0.0
  0
INSERT
  5
54F
  8
0
  2
_ANS0004_00033
 10
0.0
 20
0.0
 30
0.0
  0
INSERT
  5
550
  8
0
  2
_ANS0005_00050
 10
0.0
 20
0.0
 30
0.0
  0
INSERT
  5
551
  8
0
  2
_ANS0006_00067
 10
0.0
 20
0.0
 30
0.0
  0
INSERT
  5
552
  8
0
  2
DVI_FIGURE_00084
 10
0.0
 20
0.0
 30
0.0
  0
ENDSEC
  0
EOF
