  0
SECTION
  2
HEADER
  9
$ACADVER
  1
AC1006
  9
$DWGCODEPAGE
  3
ansi_1252
  9
$INSBASE
 10
0.0
 20
0.0
 30
0.0
  9
$EXTMIN
 10
123.37545256
 20
-266.13631912
  9
$EXTMAX
 10
551.77545256
 20
47.55288713
  9
$LIMMIN
 10
123.37545256
 20
-266.13631912
  9
$LIMMAX
 10
551.77545256
 20
47.55288713
  9
$ORTHOMODE
 70
     0
  9
$REGENMODE
 70
     1
  9
$FILLMODE
 70
     1
  9
$QTEXTMODE
 70
     0
  9
$MIRRTEXT
 70
     1
  9
$DRAGMODE
 70
     2
  9
$LTSCALE
 40
1.0
  9
$OSMODE
 70
    37
  9
$ATTMODE
 70
     1
  9
$TEXTSIZE
 40
1.0
  9
$TRACEWID
 40
0.05
  9
$TEXTSTYLE
  7
STANDARD
  9
$CLAYER
  8
0
  9
$CELTYPE
  6
BYBLOCK
  9
$CECOLOR
 62
   256
  9
$DIMSCALE
 40
1.0
  9
$DIMASZ
 40
0.18
  9
$DIMEXO
 40
0.0625
  9
$DIMDLI
 40
0.38
  9
$DIMRND
 40
0.0
  9
$DIMDLE
 40
0.0
  9
$DIMEXE
 40
0.18
  9
$DIMTP
 40
0.0
  9
$DIMTM
 40
0.0
  9
$DIMTXT
 40
0.18
  9
$DIMCEN
 40
0.09
  9
$DIMTSZ
 40
0.0
  9
$DIMTOL
 70
     0
  9
$DIMLIM
 70
     0
  9
$DIMTIH
 70
     1
  9
$DIMTOH
 70
     1
  9
$DIMSE1
 70
     0
  9
$DIMSE2
 70
     0
  9
$DIMTAD
 70
     0
  9
$DIMZIN
 70
     0
  9
$DIMBLK
  1

  9
$DIMASO
 70
     1
  9
$DIMSHO
 70
     1
  9
$DIMPOST
  1

  9
$DIMAPOST
  1

  9
$DIMALT
 70
     0
  9
$DIMALTD
 70
     2
  9
$DIMALTF
 40
25.4
  9
$DIMLFAC
 40
1.0
  9
$DIMTOFL
 70
     0
  9
$DIMTVP
 40
0.0
  9
$DIMTIX
 70
     0
  9
$DIMSOXD
 70
     0
  9
$DIMSAH
 70
     0
  9
$DIMBLK1
  1

  9
$DIMBLK2
  1

  9
$LUNITS
 70
     2
  9
$LUPREC
 70
     4
  9
$SKETCHINC
 40
0.1
  9
$FILLETRAD
 40
0.5
  9
$AUNITS
 70
     0
  9
$AUPREC
 70
     0
  9
$MENU
  1
.
  9
$ELEVATION
 40
0.0
  9
$THICKNESS
 40
0.0
  9
$LIMCHECK
 70
     0
  9
$CHAMFERA
 40
0.0
  9
$CHAMFERB
 40
0.0
  9
$SKPOLY
 70
     0
  9
$TDCREATE
 40
2447893.125
  9
$TDUPDATE
 40
2460791.48233684
  9
$TDINDWG
 40
0.0
  9
$TDUSRTIMER
 40
0.0
  9
$USRTIMER
 70
     1
  9
$ANGBASE
 50
0.0
  9
$ANGDIR
 70
     0
  9
$PDMODE
 70
     0
  9
$PDSIZE
 40
0.0
  9
$PLINEWID
 40
0.0
  9
$COORDS
 70
     1
  9
$SPLFRAME
 70
     0
  9
$SPLINETYPE
 70
     6
  9
$SPLINESEGS
 70
     8
  9
$ATTDIA
 70
     0
  9
$ATTREQ
 70
     1
  9
$HANDLING
 70
     1
  9
$HANDSEED
  5
5DD
  9
$SURFTAB1
 70
     6
  9
$SURFTAB2
 70
     6
  9
$SURFTYPE
 70
     6
  9
$SURFU
 70
     6
  9
$SURFV
 70
     6
  9
$UCSNAME
  2

  9
$UCSORG
 10
0.0
 20
0.0
 30
0.0
  9
$UCSXDIR
 10
1.0
 20
0.0
 30
0.0
  9
$UCSYDIR
 10
0.0
 20
1.0
 30
0.0
  9
$USERI1
 70
     0
  9
$USERI2
 70
     0
  9
$USERI3
 70
     0
  9
$USERI4
 70
     0
  9
$USERI5
 70
     0
  9
$USERR1
 40
0.0
  9
$USERR2
 40
0.0
  9
$USERR3
 40
0.0
  9
$USERR4
 40
0.0
  9
$USERR5
 40
0.0
  9
$WORLDVIEW
 70
     1
  0
ENDSEC
  0
SECTION
  2
TABLES
  0
TABLE
  2
VPORT
 70
     1
  0
VPORT
  2
*ACTIVE
 70
     0
 10
0.0
 20
0.0
 11
1.0
 21
1.0
 12
337.57545256
 22
-109.29171599
 13
0.0
 23
0.0
 14
1.0
 24
1.0
 15
0.0
 25
0.0
 16
0.0
 26
0.0
 36
1.0
 17
0.0
 27
0.0
 37
0.0
 40
313.68920625
 41
1.365682948
 42
50.0
 43
0.0
 44
0.0
 50
0.0
 51
0.0
 71
     0
 72
   100
 73
     1
 74
     1
 75
     0
 76
     0
 77
     0
 78
     0
  0
ENDTAB
  0
TABLE
  2
LTYPE
 70
    19
  0
LTYPE
  2
CONTINUOUS
 70
     0
  3
Solid line
 72
    65
 73
     0
 40
0.0
  0
LTYPE
  2
DOT
 70
     0
  3
..............
 72
    65
 73
     2
 40
2.0
 49
0.5
 49
-1.5
  0
LTYPE
  2
HIDDEN
 70
     0
  3
-- -- -- -- --
 72
    65
 73
     2
 40
7.0
 49
4.0
 49
-3.0
  0
LTYPE
  2
DASHDOT
 70
     0
  3
--.--.--.--.--
 72
    65
 73
     4
 40
8.5
 49
4.0
 49
-2.0
 49
0.5
 49
-2.0
  0
LTYPE
  2
STRICHPUNKT2
 70
     0
  3
--.--.--.--.--
 72
    65
 73
     4
 40
18.5
 49
10.0
 49
-4.0
 49
0.5
 49
-4.0
  0
LTYPE
  2
STRICHPUNKT3
 70
     0
  3
--.--.--.--.--
 72
    65
 73
     4
 40
35.5
 49
25.0
 49
-5.0
 49
0.5
 49
-5.0
  0
LTYPE
  2
PHANTOM
 70
     0
  3
--..--..--..--
 72
    65
 73
     6
 40
23.0
 49
10.0
 49
-4.0
 49
0.5
 49
-4.0
 49
0.5
 49
-4.0
  0
LTYPE
  2
PHANTOM2
 70
     0
  3
--..--..--..--
 72
    65
 73
     6
 40
33.0
 49
20.0
 49
-4.0
 49
0.5
 49
-4.0
 49
0.5
 49
-4.0
  0
LTYPE
  2
PHANTOM3
 70
     0
  3
--..--..--..--
 72
    65
 73
     6
 40
50.0
 49
37.0
 49
-4.0
 49
0.5
 49
-4.0
 49
0.5
 49
-4.0
  0
LTYPE
  2
STR3PKT
 70
     0
  3
--...--...--...
 72
    65
 73
     8
 40
31.5
 49
20.0
 49
-2.5
 49
0.5
 49
-2.5
 49
0.5
 49
-2.5
 49
0.5
 49
-2.5
  0
LTYPE
  2
2STRPKT
 70
     0
  3
--.--.--.--.--
 72
    65
 73
     6
 40
28.0
 49
10.0
 49
-2.5
 49
10.0
 49
-2.5
 49
0.5
 49
-2.5
  0
LTYPE
  2
GESTRICHELT2
 70
     0
  3
-- -- -- -- --
 72
    65
 73
     2
 40
25.0
 49
10.0
 49
-15.0
  0
LTYPE
  2
2STR2PKT
 70
     0
  3
--..--..--..--
 72
    65
 73
     8
 40
31.0
 49
10.0
 49
-2.5
 49
10.0
 49
-2.5
 49
0.5
 49
-2.5
 49
0.5
 49
-2.5
  0
LTYPE
  2
STR3PKT2
 70
     0
  3
--...--...--...
 72
    65
 73
     8
 40
21.0
 49
10.0
 49
-2.5
 49
0.5
 49
-2.5
 49
0.5
 49
-2.5
 49
0.5
 49
-2.0
  0
LTYPE
  2
2STR3PKT
 70
     0
  3
--...--...--...
 72
    65
 73
    10
 40
34.0
 49
10.0
 49
-2.5
 49
10.0
 49
-2.5
 49
0.5
 49
-2.5
 49
0.5
 49
-2.5
 49
0.5
 49
-2.5
  0
LTYPE
  2
STRKSTR
 70
     0
  3
-- - -- - -- -
 72
    65
 73
     4
 40
30.0
 49
20.0
 49
-2.5
 49
5.0
 49
-2.5
  0
LTYPE
  2
STRKSTR2
 70
     0
  3
-- - -- - -- -
 72
    65
 73
     6
 40
37.5
 49
20.0
 49
-2.5
 49
5.0
 49
-2.5
 49
5.0
 49
-2.5
  0
LTYPE
  2
STRKSTR3
 70
     0
  3
-- - -- - -- -
 72
    65
 73
     8
 40
45.0
 49
20.0
 49
-2.5
 49
5.0
 49
-2.5
 49
5.0
 49
-2.5
 49
5.0
 49
-2.5
  0
LTYPE
  2
PUNKT2
 70
     0
  3
..............
 72
    65
 73
     2
 40
3.5
 49
0.5
 49
-3.0
  0
ENDTAB
  0
TABLE
  2
LAYER
 70
    16
  0
LAYER
  2
0
 70
     0
 62
     7
  6
CONTINUOUS
  0
LAYER
  2
LE_GREEN
 70
     0
 62
     3
  6
CONTINUOUS
  0
LAYER
  2
LE_RED
 70
     0
 62
     1
  6
CONTINUOUS
  0
LAYER
  2
LE_ALL
 70
     0
 62
     7
  6
CONTINUOUS
  0
LAYER
  2
LE_HIDDEN1
 70
     0
 62
     3
  6
HIDDEN
  0
LAYER
  2
LE_HIDDEN
 70
     0
 62
     7
  6
CONTINUOUS
  0
LAYER
  2
LE_MIDDLE
 70
     0
 62
     7
  6
CONTINUOUS
  0
LAYER
  2
TXT_YELLOW
 70
     0
 62
     2
  6
CONTINUOUS
  0
LAYER
  2
TXT_DIM49
 70
     0
 62
     2
  6
CONTINUOUS
  0
LAYER
  2
TXT_ALL
 70
     0
 62
     7
  6
CONTINUOUS
  0
LAYER
  2
DIM49
 70
     0
 62
     4
  6
CONTINUOUS
  0
LAYER
  2
HATCH
 70
     0
 62
     3
  6
CONTINUOUS
  0
LAYER
  2
APPLE
 70
     0
 62
     7
  6
CONTINUOUS
  0
LAYER
  2
10
 70
     0
 62
     7
  6
CONTINUOUS
  0
LAYER
  2
20
 70
     0
 62
     7
  6
CONTINUOUS
  0
LAYER
  2
49
 70
     0
 62
     7
  6
CONTINUOUS
  0
ENDTAB
  0
TABLE
  2
STYLE
 70
     5
  0
STYLE
  2
MONOTXT
 70
     0
 40
0.0
 41
1.0
 50
0.0
 71
     0
 42
1.0
  3
monotxt.shx
  4

  0
STYLE
  2
STANDARD
 70
     0
 40
0.0
 41
1.0
 50
0.0
 71
     0
 42
1.0
  3
txt
  4

  0
STYLE
  2
ARIAL
 70
     0
 40
0.0
 41
1.0
 50
0.0
 71
     0
 42
1.0
  3
arial.ttf
  4

  0
STYLE
  2
ARIAL_NARROW
 70
     0
 40
0.0
 41
1.0
 50
0.0
 71
     0
 42
1.0
  3
ArialN.ttf
  4

  0
STYLE
  2
ISOCPEUR
 70
     0
 40
0.0
 41
1.0
 50
0.0
 71
     0
 42
1.0
  3
ISOCPEUR.ttf
  4

  0
ENDTAB
  0
TABLE
  2
VIEW
 70
     0
  0
ENDTAB
  0
TABLE
  2
UCS
 70
     0
  0
ENDTAB
  0
ENDSEC
  0
SECTION
  2
BLOCKS
  0
BLOCK
  8
0
  2
_D1
 70
     0
 10
290.71964571
 20
-162.04338809
 30
0.0
  0
TEXT
  5
397
  8
TXT_DIM49
 10
290.71964571
 20
-162.04338809
 30
0.0
 40
2.5
  1
6
 50
90.00020741
  7
ARIAL
  0
LINE
  5
398
  8
DIM49
 10
291.21964571
 20
-163.08347037
 30
0.0
 11
293.21964571
 21
-165.08347037
 31
0.0
  0
LINE
  5
399
  8
DIM49
 10
292.96964571
 20
-158.83347037
 30
0.0
 11
291.46964571
 21
-157.33347037
 31
0.0
  0
LINE
  5
39A
  8
DIM49
 10
292.21964571
 20
-164.08347037
 30
0.0
 11
292.21964571
 21
-158.08347037
 31
0.0
  0
LINE
  5
39B
  8
DIM49
 10
290.21964571
 20
-164.08347037
 30
0.0
 11
294.21964571
 21
-164.08347037
 31
0.0
  0
LINE
  5
39C
  8
DIM49
 10
290.21964571
 20
-158.08347037
 30
0.0
 11
294.21964571
 21
-158.08347037
 31
0.0
  0
ENDBLK
  8
0
  0
BLOCK
  8
0
  2
_D2
 70
     0
 10
222.39684439
 20
-173.44723736
 30
0.0
  0
TEXT
  5
39F
  8
TXT_DIM49
 10
222.39684439
 20
-173.44723736
 30
0.0
 40
2.5
  1
120
  7
ARIAL
  0
LINE
  5
3A0
  8
DIM49
 10
166.2765975
 20
-173.94723736
 30
0.0
 11
164.2765975
 21
-175.94723736
 31
0.0
  0
LINE
  5
3A1
  8
DIM49
 10
284.5265975
 20
-175.69723736
 30
0.0
 11
286.0265975
 21
-174.19723736
 31
0.0
  0
LINE
  5
3A2
  8
DIM49
 10
165.2765975
 20
-174.94723736
 30
0.0
 11
285.2765975
 21
-174.94723736
 31
0.0
  0
LINE
  5
3A3
  8
DIM49
 10
165.2765975
 20
-172.94723736
 30
0.0
 11
165.2765975
 21
-176.94723736
 31
0.0
  0
LINE
  5
3A4
  8
DIM49
 10
285.2765975
 20
-172.94723736
 30
0.0
 11
285.2765975
 21
-176.94723736
 31
0.0
  0
ENDBLK
  8
0
  0
BLOCK
  8
0
  2
_D3
 70
     0
 10
153.26608279
 20
-131.00330582
 30
0.0
  0
TEXT
  5
3A7
  8
TXT_DIM49
 10
153.26608279
 20
-131.00330582
 30
0.0
 40
2.5
  1
70
 50
90.00020741
  7
ARIAL
  0
LINE
  5
3A8
  8
DIM49
 10
153.76608279
 20
-163.08347037
 30
0.0
 11
155.76608279
 21
-165.08347037
 31
0.0
  0
LINE
  5
3A9
  8
DIM49
 10
155.51608279
 20
-94.83347037
 30
0.0
 11
154.01608279
 21
-93.33347037
 31
0.0
  0
LINE
  5
3AA
  8
DIM49
 10
154.76608279
 20
-164.08347037
 30
0.0
 11
154.76608279
 21
-94.08347037
 31
0.0
  0
LINE
  5
3AB
  8
DIM49
 10
156.76608279
 20
-164.08347037
 30
0.0
 11
152.76608279
 21
-164.08347037
 31
0.0
  0
LINE
  5
3AC
  8
DIM49
 10
156.76608279
 20
-94.08347037
 30
0.0
 11
152.76608279
 21
-94.08347037
 31
0.0
  0
ENDBLK
  8
0
  0
BLOCK
  8
0
  2
_D4
 70
     0
 10
167.31667978
 20
-84.80659501
 30
0.0
  0
TEXT
  5
3AF
  8
TXT_DIM49
 10
167.31667978
 20
-84.80659501
 30
0.0
 40
2.5
  1
6
  7
ARIAL
  0
LINE
  5
3B0
  8
DIM49
 10
166.2765975
 20
-85.30659501
 30
0.0
 11
164.2765975
 21
-87.30659501
 31
0.0
  0
LINE
  5
3B1
  8
DIM49
 10
170.5265975
 20
-87.05659501
 30
0.0
 11
172.0265975
 21
-85.55659501
 31
0.0
  0
LINE
  5
3B2
  8
DIM49
 10
165.2765975
 20
-86.30659501
 30
0.0
 11
171.2765975
 21
-86.30659501
 31
0.0
  0
LINE
  5
3B3
  8
DIM49
 10
165.2765975
 20
-88.30659501
 30
0.0
 11
165.2765975
 21
-84.30659501
 31
0.0
  0
LINE
  5
3B4
  8
DIM49
 10
171.2765975
 20
-88.30659501
 30
0.0
 11
171.2765975
 21
-84.30659501
 31
0.0
  0
ENDBLK
  8
0
  0
BLOCK
  8
0
  2
_D5
 70
     0
 10
334.14276723
 20
-120.50943976
 30
0.0
  0
TEXT
  5
3C6
  8
TXT_DIM49
 10
334.14276723
 20
-120.50943976
 30
0.0
 40
2.5
  1
Ø
  7
ARIAL
  0
TEXT
  5
3C7
  8
TXT_DIM49
 10
337.82784013
 20
-120.50943976
 30
0.0
 40
2.5
  1
9
  7
ARIAL
  0
LINE
  5
3C8
  8
DIM49
 10
340.44522146
 20
-123.00943976
 30
0.0
 11
342.44522146
 21
-121.00943976
 31
0.0
  0
LINE
  5
3C9
  8
DIM49
 10
333.19522146
 20
-121.25943976
 30
0.0
 11
331.69522146
 21
-122.75943976
 31
0.0
  0
LINE
  5
3CA
  8
DIM49
 10
341.44522146
 20
-122.00943976
 30
0.0
 11
332.44522146
 21
-122.00943976
 31
0.0
  0
LINE
  5
3CB
  8
DIM49
 10
341.44522146
 20
-120.00943976
 30
0.0
 11
341.44522146
 21
-124.00943976
 31
0.0
  0
LINE
  5
3CC
  8
DIM49
 10
332.44522146
 20
-120.00943976
 30
0.0
 11
332.44522146
 21
-124.00943976
 31
0.0
  0
ENDBLK
  8
0
  0
BLOCK
  8
0
  2
_D6
 70
     0
 10
348.18284944
 20
-125.50504628
 30
0.0
  0
TEXT
  5
3CF
  8
TXT_DIM49
 10
348.18284944
 20
-125.50504628
 30
0.0
 40
2.5
  1
Ø
  7
ARIAL
  0
TEXT
  5
3D0
  8
TXT_DIM49
 10
351.86792234
 20
-125.50504628
 30
0.0
 40
2.5
  1
11
  7
ARIAL
  0
LINE
  5
3D1
  8
DIM49
 10
356.44522146
 20
-128.00504628
 30
0.0
 11
358.44522146
 21
-126.00504628
 31
0.0
  0
LINE
  5
3D2
  8
DIM49
 10
347.19522146
 20
-126.25504628
 30
0.0
 11
345.69522146
 21
-127.75504628
 31
0.0
  0
LINE
  5
3D3
  8
DIM49
 10
357.44522146
 20
-127.00504628
 30
0.0
 11
346.44522146
 21
-127.00504628
 31
0.0
  0
LINE
  5
3D4
  8
DIM49
 10
357.44522146
 20
-125.00504628
 30
0.0
 11
357.44522146
 21
-129.00504628
 31
0.0
  0
LINE
  5
3D5
  8
DIM49
 10
346.44522146
 20
-125.00504628
 30
0.0
 11
346.44522146
 21
-129.00504628
 31
0.0
  0
ENDBLK
  8
0
  0
BLOCK
  8
0
  2
_D7
 70
     0
 10
364.14276723
 20
-119.0952925
 30
0.0
  0
TEXT
  5
3D8
  8
TXT_DIM49
 10
364.14276723
 20
-119.0952925
 30
0.0
 40
2.5
  1
Ø
  7
ARIAL
  0
TEXT
  5
3D9
  8
TXT_DIM49
 10
367.82784013
 20
-119.0952925
 30
0.0
 40
2.5
  1
9
  7
ARIAL
  0
LINE
  5
3DA
  8
DIM49
 10
370.44522146
 20
-121.5952925
 30
0.0
 11
372.44522146
 21
-119.5952925
 31
0.0
  0
LINE
  5
3DB
  8
DIM49
 10
363.19522146
 20
-119.8452925
 30
0.0
 11
361.69522146
 21
-121.3452925
 31
0.0
  0
LINE
  5
3DC
  8
DIM49
 10
371.44522146
 20
-120.5952925
 30
0.0
 11
362.44522146
 21
-120.5952925
 31
0.0
  0
LINE
  5
3DD
  8
DIM49
 10
371.44522146
 20
-118.5952925
 30
0.0
 11
371.44522146
 21
-122.5952925
 31
0.0
  0
LINE
  5
3DE
  8
DIM49
 10
362.44522146
 20
-118.5952925
 30
0.0
 11
362.44522146
 21
-122.5952925
 31
0.0
  0
ENDBLK
  8
0
  0
BLOCK
  8
0
  2
_D8
 70
     0
 10
327.52538601
 20
-87.07778495
 30
0.0
  0
TEXT
  5
3E1
  8
TXT_DIM49
 10
327.52538601
 20
-87.07778495
 30
0.0
 40
2.5
  1
15
  7
ARIAL
  0
LINE
  5
3E2
  8
DIM49
 10
322.94522146
 20
-87.57778495
 30
0.0
 11
320.94522146
 21
-89.57778495
 31
0.0
  0
LINE
  5
3E3
  8
DIM49
 10
336.19522146
 20
-89.32778495
 30
0.0
 11
337.69522146
 21
-87.82778495
 31
0.0
  0
LINE
  5
3E4
  8
DIM49
 10
321.94522146
 20
-88.57778495
 30
0.0
 11
336.94522146
 21
-88.57778495
 31
0.0
  0
LINE
  5
3E5
  8
DIM49
 10
321.94522146
 20
-90.57778495
 30
0.0
 11
321.94522146
 21
-86.57778495
 31
0.0
  0
LINE
  5
3E6
  8
DIM49
 10
336.94522146
 20
-90.57778495
 30
0.0
 11
336.94522146
 21
-86.57778495
 31
0.0
  0
ENDBLK
  8
0
  0
BLOCK
  8
0
  2
_D9
 70
     0
 10
342.52538601
 20
-87.07778495
 30
0.0
  0
TEXT
  5
3E9
  8
TXT_DIM49
 10
342.52538601
 20
-87.07778495
 30
0.0
 40
2.5
  1
15
  7
ARIAL
  0
LINE
  5
3EA
  8
DIM49
 10
337.94522146
 20
-87.57778495
 30
0.0
 11
335.94522146
 21
-89.57778495
 31
0.0
  0
LINE
  5
3EB
  8
DIM49
 10
351.19522146
 20
-89.32778495
 30
0.0
 11
352.69522146
 21
-87.82778495
 31
0.0
  0
LINE
  5
3EC
  8
DIM49
 10
336.94522146
 20
-88.57778495
 30
0.0
 11
351.94522146
 21
-88.57778495
 31
0.0
  0
LINE
  5
3ED
  8
DIM49
 10
336.94522146
 20
-90.57778495
 30
0.0
 11
336.94522146
 21
-86.57778495
 31
0.0
  0
LINE
  5
3EE
  8
DIM49
 10
351.94522146
 20
-90.57778495
 30
0.0
 11
351.94522146
 21
-86.57778495
 31
0.0
  0
ENDBLK
  8
0
  0
BLOCK
  8
0
  2
_D10
 70
     0
 10
357.52538601
 20
-87.07778495
 30
0.0
  0
TEXT
  5
3F1
  8
TXT_DIM49
 10
357.52538601
 20
-87.07778495
 30
0.0
 40
2.5
  1
15
  7
ARIAL
  0
LINE
  5
3F2
  8
DIM49
 10
352.94522146
 20
-87.57778495
 30
0.0
 11
350.94522146
 21
-89.57778495
 31
0.0
  0
LINE
  5
3F3
  8
DIM49
 10
366.19522146
 20
-89.32778495
 30
0.0
 11
367.69522146
 21
-87.82778495
 31
0.0
  0
LINE
  5
3F4
  8
DIM49
 10
351.94522146
 20
-88.57778495
 30
0.0
 11
366.94522146
 21
-88.57778495
 31
0.0
  0
LINE
  5
3F5
  8
DIM49
 10
351.94522146
 20
-90.57778495
 30
0.0
 11
351.94522146
 21
-86.57778495
 31
0.0
  0
LINE
  5
3F6
  8
DIM49
 10
366.94522146
 20
-90.57778495
 30
0.0
 11
366.94522146
 21
-86.57778495
 31
0.0
  0
ENDBLK
  8
0
  0
BLOCK
  8
0
  2
_D11
 70
     0
 10
372.52538601
 20
-87.07778495
 30
0.0
  0
TEXT
  5
3F9
  8
TXT_DIM49
 10
372.52538601
 20
-87.07778495
 30
0.0
 40
2.5
  1
15
  7
ARIAL
  0
LINE
  5
3FA
  8
DIM49
 10
367.94522146
 20
-87.57778495
 30
0.0
 11
365.94522146
 21
-89.57778495
 31
0.0
  0
LINE
  5
3FB
  8
DIM49
 10
381.19522146
 20
-89.32778495
 30
0.0
 11
382.69522146
 21
-87.82778495
 31
0.0
  0
LINE
  5
3FC
  8
DIM49
 10
366.94522146
 20
-88.57778495
 30
0.0
 11
381.94522146
 21
-88.57778495
 31
0.0
  0
LINE
  5
3FD
  8
DIM49
 10
366.94522146
 20
-90.57778495
 30
0.0
 11
366.94522146
 21
-86.57778495
 31
0.0
  0
LINE
  5
3FE
  8
DIM49
 10
381.94522146
 20
-90.57778495
 30
0.0
 11
381.94522146
 21
-86.57778495
 31
0.0
  0
ENDBLK
  8
0
  0
BLOCK
  8
0
  2
_D12
 70
     0
 10
312.86875681
 20
-102.75330582
 30
0.0
  0
TEXT
  5
401
  8
TXT_DIM49
 10
312.86875681
 20
-102.75330582
 30
0.0
 40
2.5
  1
14
 50
90.00020741
  7
ARIAL
  0
LINE
  5
402
  8
DIM49
 10
315.36875681
 20
-95.08347037
 30
0.0
 11
313.36875681
 21
-93.08347037
 31
0.0
  0
LINE
  5
403
  8
DIM49
 10
313.61875681
 20
-106.83347037
 30
0.0
 11
315.11875681
 21
-108.33347037
 31
0.0
  0
LINE
  5
404
  8
DIM49
 10
314.36875681
 20
-94.08347037
 30
0.0
 11
314.36875681
 21
-107.58347037
 31
0.0
  0
LINE
  5
405
  8
DIM49
 10
316.36875681
 20
-94.08347037
 30
0.0
 11
312.36875681
 21
-94.08347037
 31
0.0
  0
LINE
  5
406
  8
DIM49
 10
316.36875681
 20
-107.58347037
 30
0.0
 11
312.36875681
 21
-107.58347037
 31
0.0
  0
ENDBLK
  8
0
  0
BLOCK
  8
0
  2
_D13
 70
     0
 10
312.86875681
 20
-111.04338809
 30
0.0
  0
TEXT
  5
409
  8
TXT_DIM49
 10
312.86875681
 20
-111.04338809
 30
0.0
 40
2.5
  1
5
 50
90.00020741
  7
ARIAL
  0
LINE
  5
40A
  8
DIM49
 10
315.36875681
 20
-108.58347037
 30
0.0
 11
313.36875681
 21
-106.58347037
 31
0.0
  0
LINE
  5
40B
  8
DIM49
 10
313.61875681
 20
-111.83347037
 30
0.0
 11
315.11875681
 21
-113.33347037
 31
0.0
  0
LINE
  5
40C
  8
DIM49
 10
314.36875681
 20
-107.58347037
 30
0.0
 11
314.36875681
 21
-112.58347037
 31
0.0
  0
LINE
  5
40D
  8
DIM49
 10
316.36875681
 20
-107.58347037
 30
0.0
 11
312.36875681
 21
-107.58347037
 31
0.0
  0
LINE
  5
40E
  8
DIM49
 10
316.36875681
 20
-112.58347037
 30
0.0
 11
312.36875681
 21
-112.58347037
 31
0.0
  0
ENDBLK
  8
0
  0
BLOCK
  8
0
  2
_D14
 70
     0
 10
312.86875681
 20
-140.25330582
 30
0.0
  0
TEXT
  5
411
  8
TXT_DIM49
 10
312.86875681
 20
-140.25330582
 30
0.0
 40
2.5
  1
52
 50
90.00020741
  7
ARIAL
  0
LINE
  5
412
  8
DIM49
 10
315.36875681
 20
-113.58347037
 30
0.0
 11
313.36875681
 21
-111.58347037
 31
0.0
  0
LINE
  5
413
  8
DIM49
 10
313.61875681
 20
-163.33347037
 30
0.0
 11
315.11875681
 21
-164.83347037
 31
0.0
  0
LINE
  5
414
  8
DIM49
 10
314.36875681
 20
-112.58347037
 30
0.0
 11
314.36875681
 21
-164.08347037
 31
0.0
  0
LINE
  5
415
  8
DIM49
 10
316.36875681
 20
-112.58347037
 30
0.0
 11
312.36875681
 21
-112.58347037
 31
0.0
  0
LINE
  5
416
  8
DIM49
 10
316.36875681
 20
-164.08347037
 30
0.0
 11
312.36875681
 21
-164.08347037
 31
0.0
  0
ENDBLK
  8
0
  0
BLOCK
  8
0
  2
_D15
 70
     0
 10
278.60676205
 20
-6.50133622
 30
0.0
  0
TEXT
  5
425
  8
TXT_DIM49
 10
278.60676205
 20
-6.50133622
 30
0.0
 40
2.5
  1
10
  7
ARIAL
  0
LINE
  5
426
  8
DIM49
 10
284.2765975
 20
-9.00133622
 30
0.0
 11
286.2765975
 21
-7.00133622
 31
0.0
  0
LINE
  5
427
  8
DIM49
 10
276.5265975
 20
-7.25133622
 30
0.0
 11
275.0265975
 21
-8.75133622
 31
0.0
  0
LINE
  5
428
  8
DIM49
 10
285.2765975
 20
-8.00133622
 30
0.0
 11
275.7765975
 21
-8.00133622
 31
0.0
  0
LINE
  5
429
  8
DIM49
 10
285.2765975
 20
-10.00133622
 30
0.0
 11
285.2765975
 21
-6.00133622
 31
0.0
  0
LINE
  5
42A
  8
DIM49
 10
275.7765975
 20
-10.00133622
 30
0.0
 11
275.7765975
 21
-6.00133622
 31
0.0
  0
ENDBLK
  8
0
  0
BLOCK
  8
0
  2
_D16
 70
     0
 10
241.35676205
 20
-6.50133622
 30
0.0
  0
TEXT
  5
42D
  8
TXT_DIM49
 10
241.35676205
 20
-6.50133622
 30
0.0
 40
2.5
  1
65
  7
ARIAL
  0
LINE
  5
42E
  8
DIM49
 10
274.7765975
 20
-9.00133622
 30
0.0
 11
276.7765975
 21
-7.00133622
 31
0.0
  0
LINE
  5
42F
  8
DIM49
 10
211.5265975
 20
-7.25133622
 30
0.0
 11
210.0265975
 21
-8.75133622
 31
0.0
  0
LINE
  5
430
  8
DIM49
 10
275.7765975
 20
-8.00133622
 30
0.0
 11
210.7765975
 21
-8.00133622
 31
0.0
  0
LINE
  5
431
  8
DIM49
 10
275.7765975
 20
-10.00133622
 30
0.0
 11
275.7765975
 21
-6.00133622
 31
0.0
  0
LINE
  5
432
  8
DIM49
 10
210.7765975
 20
-10.00133622
 30
0.0
 11
210.7765975
 21
-6.00133622
 31
0.0
  0
ENDBLK
  8
0
  0
BLOCK
  8
0
  2
_D17
 70
     0
 10
186.10676205
 20
-6.50133622
 30
0.0
  0
TEXT
  5
435
  8
TXT_DIM49
 10
186.10676205
 20
-6.50133622
 30
0.0
 40
2.5
  1
46
  7
ARIAL
  0
LINE
  5
436
  8
DIM49
 10
209.7765975
 20
-9.00133622
 30
0.0
 11
211.7765975
 21
-7.00133622
 31
0.0
  0
LINE
  5
437
  8
DIM49
 10
166.0265975
 20
-7.25133622
 30
0.0
 11
164.5265975
 21
-8.75133622
 31
0.0
  0
LINE
  5
438
  8
DIM49
 10
210.7765975
 20
-8.00133622
 30
0.0
 11
165.2765975
 21
-8.00133622
 31
0.0
  0
LINE
  5
439
  8
DIM49
 10
210.7765975
 20
-10.00133622
 30
0.0
 11
210.7765975
 21
-6.00133622
 31
0.0
  0
LINE
  5
43A
  8
DIM49
 10
165.2765975
 20
-10.00133622
 30
0.0
 11
165.2765975
 21
-6.00133622
 31
0.0
  0
ENDBLK
  8
0
  0
BLOCK
  8
0
  2
_D18
 70
     0
 10
204.5351665
 20
-48.17516358
 30
0.0
  0
TEXT
  5
43D
  8
TXT_DIM49
 10
204.5351665
 20
-48.17516358
 30
0.0
 40
2.5
  1
Ø
 50
90.00020741
  7
ARIAL
  0
TEXT
  5
43E
  8
TXT_DIM49
 10
204.5351665
 20
-44.49009068
 30
0.0
 40
2.5
  1
13
 50
90.00020741
  7
ARIAL
  0
LINE
  5
43F
  8
DIM49
 10
205.0351665
 20
-49.91279157
 30
0.0
 11
207.0351665
 21
-51.91279157
 31
0.0
  0
LINE
  5
440
  8
DIM49
 10
206.7851665
 20
-38.66279157
 30
0.0
 11
205.2851665
 21
-37.16279157
 31
0.0
  0
LINE
  5
441
  8
DIM49
 10
206.0351665
 20
-50.91279157
 30
0.0
 11
206.0351665
 21
-37.91279157
 31
0.0
  0
LINE
  5
442
  8
DIM49
 10
208.0351665
 20
-50.91279157
 30
0.0
 11
204.0351665
 21
-50.91279157
 31
0.0
  0
LINE
  5
443
  8
DIM49
 10
208.0351665
 20
-37.91279157
 30
0.0
 11
204.0351665
 21
-37.91279157
 31
0.0
  0
ENDBLK
  8
0
  0
BLOCK
  8
0
  2
_D19
 70
     0
 10
291.65948157
 20
-31.33262701
 30
0.0
  0
TEXT
  5
446
  8
TXT_DIM49
 10
291.65948157
 20
-31.33262701
 30
0.0
 40
2.5
  1
30
 50
90.00020741
  7
ARIAL
  0
LINE
  5
447
  8
DIM49
 10
294.15948157
 20
-15.41279157
 30
0.0
 11
292.15948157
 21
-13.41279157
 31
0.0
  0
LINE
  5
448
  8
DIM49
 10
292.40948157
 20
-43.66279157
 30
0.0
 11
293.90948157
 21
-45.16279157
 31
0.0
  0
LINE
  5
449
  8
DIM49
 10
293.15948157
 20
-14.41279157
 30
0.0
 11
293.15948157
 21
-44.41279157
 31
0.0
  0
LINE
  5
44A
  8
DIM49
 10
291.15948157
 20
-14.41279157
 30
0.0
 11
295.15948157
 21
-14.41279157
 31
0.0
  0
LINE
  5
44B
  8
DIM49
 10
291.15948157
 20
-44.41279157
 30
0.0
 11
295.15948157
 21
-44.41279157
 31
0.0
  0
ENDBLK
  8
0
  0
BLOCK
  8
0
  2
_D20
 70
     0
 10
291.65948157
 20
-61.33262701
 30
0.0
  0
TEXT
  5
44E
  8
TXT_DIM49
 10
291.65948157
 20
-61.33262701
 30
0.0
 40
2.5
  1
30
 50
90.00020741
  7
ARIAL
  0
LINE
  5
44F
  8
DIM49
 10
294.15948157
 20
-45.41279157
 30
0.0
 11
292.15948157
 21
-43.41279157
 31
0.0
  0
LINE
  5
450
  8
DIM49
 10
292.40948157
 20
-73.66279157
 30
0.0
 11
293.90948157
 21
-75.16279157
 31
0.0
  0
LINE
  5
451
  8
DIM49
 10
293.15948157
 20
-44.41279157
 30
0.0
 11
293.15948157
 21
-74.41279157
 31
0.0
  0
LINE
  5
452
  8
DIM49
 10
291.15948157
 20
-44.41279157
 30
0.0
 11
295.15948157
 21
-44.41279157
 31
0.0
  0
LINE
  5
453
  8
DIM49
 10
291.15948157
 20
-74.41279157
 30
0.0
 11
295.15948157
 21
-74.41279157
 31
0.0
  0
ENDBLK
  8
0
  0
BLOCK
  8
0
  2
_D21
 70
     0
 10
300.23774268
 20
-46.33262701
 30
0.0
  0
TEXT
  5
456
  8
TXT_DIM49
 10
300.23774268
 20
-46.33262701
 30
0.0
 40
2.5
  1
60
 50
90.00020741
  7
ARIAL
  0
LINE
  5
457
  8
DIM49
 10
302.73774268
 20
-15.41279157
 30
0.0
 11
300.73774268
 21
-13.41279157
 31
0.0
  0
LINE
  5
458
  8
DIM49
 10
300.98774268
 20
-73.66279157
 30
0.0
 11
302.48774268
 21
-75.16279157
 31
0.0
  0
LINE
  5
459
  8
DIM49
 10
301.73774268
 20
-14.41279157
 30
0.0
 11
301.73774268
 21
-74.41279157
 31
0.0
  0
LINE
  5
45A
  8
DIM49
 10
299.73774268
 20
-14.41279157
 30
0.0
 11
303.73774268
 21
-14.41279157
 31
0.0
  0
LINE
  5
45B
  8
DIM49
 10
299.73774268
 20
-74.41279157
 30
0.0
 11
303.73774268
 21
-74.41279157
 31
0.0
  0
ENDBLK
  8
0
  0
BLOCK
  8
0
  2
_ZBL0002_00001
 70
     0
 10
0.0
 20
0.0
 30
0.0
  0
INSERT
  5
1B8
  8
0
  2
DINA3_00002
 10
127.57545256
 20
-257.79171599
 30
0.0
  0
ENDBLK
  8
0
  0
BLOCK
  8
0
  2
DINA3_00002
 70
     0
 10
127.57545256
 20
-257.79171599
 30
0.0
  0
POLYLINE
  5
1BB
  8
0
 66
     1
 10
0.0
 20
0.0
 30
0.0
 70
     1
  0
VERTEX
  5
1BC
  8
0
 10
127.57545256
 20
-257.79171599
 30
0.0
  0
VERTEX
  5
1BD
  8
0
 10
547.57545256
 20
-257.79171599
 30
0.0
  0
VERTEX
  5
1BE
  8
0
 10
547.57545256
 20
39.20828401
 30
0.0
  0
VERTEX
  5
1BF
  8
0
 10
127.57545256
 20
39.20828401
 30
0.0
  0
SEQEND
  5
1C0
  8
0
  0
POLYLINE
  5
1C1
  8
0
 66
     1
 10
0.0
 20
0.0
 30
0.0
 70
     1
  0
VERTEX
  5
1C2
  8
0
 10
132.57545256
 20
-252.79171599
 30
0.0
  0
VERTEX
  5
1C3
  8
0
 10
542.57545256
 20
-252.79171599
 30
0.0
  0
VERTEX
  5
1C4
  8
0
 10
542.57545256
 20
34.20828401
 30
0.0
  0
VERTEX
  5
1C5
  8
0
 10
132.57545256
 20
34.20828401
 30
0.0
  0
SEQEND
  5
1C6
  8
0
  0
LINE
  5
1C7
  8
0
 10
357.57545256
 20
-252.79171599
 30
0.0
 11
357.57545256
 21
-257.79171599
 31
0.0
  0
LINE
  5
1C8
  8
0
 10
357.57545256
 20
34.20828401
 30
0.0
 11
357.57545256
 21
39.20828401
 31
0.0
  0
LINE
  5
1C9
  8
0
 10
147.57545256
 20
-252.79171599
 30
0.0
 11
147.57545256
 21
-257.79171599
 31
0.0
  0
LINE
  5
1CA
  8
0
 10
147.57545256
 20
34.20828401
 30
0.0
 11
147.57545256
 21
39.20828401
 31
0.0
  0
TEXT
  5
1CB
  8
TXT_ALL
 62
     4
 10
546.57545256
 20
-256.79171599
 30
0.0
 40
2.5
  1

 50
90.00020741
  0
POLYLINE
  5
1CC
  8
0
 66
     1
 10
0.0
 20
0.0
 30
0.0
  0
VERTEX
  5
1CD
  8
0
 10
542.57545256
 20
24.20828401
 30
0.0
  0
VERTEX
  5
1CE
  8
0
 10
473.58215256
 20
24.20828401
 30
0.0
  0
VERTEX
  5
1CF
  8
0
 10
473.58215256
 20
34.20828401
 30
0.0
  0
SEQEND
  5
1D0
  8
0
  0
LINE
  5
1D1
  8
0
 10
475.48545256
 20
-233.29171599
 30
0.0
 11
335.59545256
 21
-233.29171599
 31
0.0
  0
LINE
  5
1D2
  8
0
 10
335.59545256
 20
-243.04171599
 30
0.0
 11
475.48545256
 21
-243.04171599
 31
0.0
  0
POLYLINE
  5
1D3
  8
0
 66
     1
 10
0.0
 20
0.0
 30
0.0
  0
VERTEX
  5
1D4
  8
0
 10
335.59545256
 20
-233.29171599
 30
0.0
  0
VERTEX
  5
1D5
  8
0
 10
335.59545256
 20
-243.04171599
 30
0.0
  0
VERTEX
  5
1D6
  8
0
 10
335.59545256
 20
-252.79171599
 30
0.0
  0
SEQEND
  5
1D7
  8
0
  0
POLYLINE
  5
1D8
  8
0
 66
     1
 10
0.0
 20
0.0
 30
0.0
  0
VERTEX
  5
1D9
  8
0
 10
405.54045256
 20
-233.29171599
 30
0.0
  0
VERTEX
  5
1DA
  8
0
 10
405.54045256
 20
-243.04171599
 30
0.0
  0
VERTEX
  5
1DB
  8
0
 10
405.54045256
 20
-252.79171599
 30
0.0
  0
SEQEND
  5
1DC
  8
0
  0
INSERT
  5
1DD
  8
0
  2
FLEX_00003
 10
337.59545256
 20
-238.16671599
 30
0.0
  0
INSERT
  5
1DE
  8
0
  2
FLEX_00005
 10
337.59545256
 20
-247.91671599
 30
0.0
  0
INSERT
  5
1DF
  8
0
  2
FLEX_00007
 10
407.54045256
 20
-247.91671599
 30
0.0
  0
INSERT
  5
1E0
  8
0
  2
FLEX_00009
 10
407.54045256
 20
-238.16671599
 30
0.0
  0
INSERT
  5
1E1
  8
0
  2
SCHRIFE_00011
 10
136.01741281
 20
29.20828401
 30
0.0
  0
INSERT
  5
1E2
  8
0
  2
_B_M_P___00015
 10
524.41787864
 20
-257.68171599
 30
0.0
  0
ENDBLK
  8
0
  0
BLOCK
  8
0
  2
FLEX_00003
 70
     0
 10
337.59545256
 20
-238.16671599
 30
0.0
  0
INSERT
  5
1E5
  8
0
  2
TFIELD_00004
 10
337.59545256
 20
-238.16671599
 30
0.0
  0
ENDBLK
  8
0
  0
BLOCK
  8
0
  2
TFIELD_00004
 70
     0
 10
337.59545256
 20
-238.16671599
 30
0.0
  0
TEXT
  5
1E8
  8
TXT_ALL
 10
337.59545256
 20
-239.46671594
 30
0.0
 40
2.5999999
  1
E-mail: verkoop@jonkers-bouwmetaal.nl
  7
ARIAL
  0
ENDBLK
  8
0
  0
BLOCK
  8
0
  2
FLEX_00005
 70
     0
 10
337.59545256
 20
-247.91671599
 30
0.0
  0
INSERT
  5
1EB
  8
0
  2
TFIELD_00006
 10
337.59545256
 20
-247.91671599
 30
0.0
  0
ENDBLK
  8
0
  0
BLOCK
  8
0
  2
TFIELD_00006
 70
     0
 10
337.59545256
 20
-247.91671599
 30
0.0
  0
TEXT
  5
1EE
  8
TXT_ALL
 10
337.59545256
 20
-249.21671594
 30
0.0
 40
2.5999999
  1
Telefoon: 0527-685156
  7
ARIAL
  0
ENDBLK
  8
0
  0
BLOCK
  8
0
  2
FLEX_00007
 70
     0
 10
407.54045256
 20
-247.91671599
 30
0.0
  0
INSERT
  5
1F1
  8
0
  2
TFIELD_00008
 10
407.54045256
 20
-247.91671599
 30
0.0
  0
ENDBLK
  8
0
  0
BLOCK
  8
0
  2
TFIELD_00008
 70
     0
 10
407.54045256
 20
-247.91671599
 30
0.0
  0
TEXT
  5
1F4
  8
TXT_ALL
 10
407.54045256
 20
-249.21671594
 30
0.0
 40
2.5999999
  1
Website: www.jonkers-bouwmetaal.nl
  7
ARIAL
  0
ENDBLK
  8
0
  0
BLOCK
  8
0
  2
FLEX_00009
 70
     0
 10
407.54045256
 20
-238.16671599
 30
0.0
  0
INSERT
  5
1F7
  8
0
  2
TFIELD_00010
 10
407.54045256
 20
-238.16671599
 30
0.0
  0
ENDBLK
  8
0
  0
BLOCK
  8
0
  2
TFIELD_00010
 70
     0
 10
407.54045256
 20
-238.16671599
 30
0.0
  0
TEXT
  5
1FA
  8
TXT_ALL
 10
407.54045256
 20
-239.46671594
 30
0.0
 40
2.5999999
  1
Adres: Hoornse Hop 10, 8321 WX Urk
  7
ARIAL
  0
ENDBLK
  8
0
  0
BLOCK
  8
0
  2
SCHRIFE_00011
 70
     0
 10
136.01741281
 20
29.20828401
 30
0.0
  0
TEXT
  5
1FD
  8
TXT_ALL
 10
136.01741281
 20
27.95828401
 30
0.0
 40
2.5
  1
Art. nr. 91017437
  7
ARIAL
  0
TEXT
  5
1FE
  8
TXT_ALL
 10
178.75544963
 20
27.95828401
 30
0.0
 40
2.5
  1
Omschrijving: H1205-anker 120x70 60x6
  7
ARIAL
  0
LINE
  5
1FF
  8
0
 10
542.57545256
 20
24.20828401
 30
0.0
 11
132.57545256
 21
24.20828401
 31
0.0
  0
LINE
  5
200
  8
0
 10
175.59545256
 20
24.20828401
 30
0.0
 11
175.59545256
 21
34.20828401
 31
0.0
  0
LINE
  5
201
  8
0
 10
335.59545256
 20
24.20828401
 30
0.0
 11
335.59545256
 21
34.20828401
 31
0.0
  0
TEXT
  5
202
  8
TXT_ALL
 10
406.58915256
 20
27.95828401
 30
0.0
 40
2.5
  1
Behandeling: Thermisch Verzinkt
  7
ARIAL
  0
LINE
  5
203
  8
0
 10
475.48545256
 20
-233.29171599
 30
0.0
 11
542.57545256
 21
-233.29171599
 31
0.0
  0
LINE
  5
204
  8
0
 10
475.48545256
 20
-252.79171599
 30
0.0
 11
475.48545256
 21
-233.29171599
 31
0.0
  0
LINE
  5
205
  8
0
 10
475.48545256
 20
-252.79171599
 30
0.0
 11
475.48545256
 21
-233.29171599
 31
0.0
  0
TEXT
  5
206
  8
TXT_ALL
 10
269.94065065
 20
-251.63718258
 30
0.0
 40
2.5
  1

  0
TEXT
  5
207
  8
TXT_ALL
 10
391.07583362
 20
-241.54171599
 30
0.0
 40
2.5
  1

  0
POLYLINE
  5
208
  8
0
 66
     1
 10
0.0
 20
0.0
 30
0.0
  0
VERTEX
  5
209
  8
0
 10
473.58215256
 20
24.20828401
 30
0.0
  0
VERTEX
  5
20A
  8
0
 10
404.58915256
 20
24.20828401
 30
0.0
  0
VERTEX
  5
20B
  8
0
 10
404.58915256
 20
34.20828401
 30
0.0
  0
SEQEND
  5
20C
  8
0
  0
TEXT
  5
20D
  8
TXT_ALL
 10
475.58215256
 20
27.95828401
 30
0.0
 40
2.5
  1
Verpakkingshoeveelheid: 25 st.
  7
ARIAL
  0
TEXT
  5
20E
  8
TXT_ALL
 10
337.59545256
 20
27.95828401
 30
0.0
 40
2.5
  1
Materiaal: S355
  7
ARIAL
  0
INSERT
  5
20F
  8
0
  2
FLEX_00012
 10
517.15068798
 20
-256.79122584
 30
0.0
  0
INSERT
  5
210
  8
0
  2
_B_M_P___00014
 10
476.24481988
 20
-251.99903393
 30
0.0
  0
ENDBLK
  8
0
  0
BLOCK
  8
0
  2
FLEX_00012
 70
     0
 10
517.15068798
 20
-256.79122584
 30
0.0
  0
INSERT
  5
213
  8
0
  2
TFIELD_00013
 10
510.35709979
 20
-255.29122584
 30
0.0
  0
ENDBLK
  8
0
  0
BLOCK
  8
0
  2
TFIELD_00013
 70
     0
 10
510.35709979
 20
-255.29122584
 30
0.0
  0
TEXT
  5
216
  8
TXT_ALL
 10
510.35709979
 20
-256.04122584
 30
0.0
 40
1.5
  1
Onderdeel van
  7
ARIAL
  0
ENDBLK
  8
0
  0
BLOCK
  8
0
  2
_B_M_P___00014
 70
     0
 10
476.24481988
 20
-251.99903393
 30
0.0
  0
ENDBLK
  8
0
  0
BLOCK
  8
0
  2
_B_M_P___00015
 70
     0
 10
524.41787864
 20
-257.68171599
 30
0.0
  0
ENDBLK
  8
0
  0
BLOCK
  8
0
  2
_ANS0003_00016
 70
     0
 10
0.0
 20
0.0
 30
0.0
  0
INSERT
  5
21D
  8
0
  2
_A3D0003_00017
 10
0.0
 20
0.0
 30
0.0
  0
ENDBLK
  8
0
  0
BLOCK
  8
0
  2
_A3D0003_00017
 70
     0
 10
0.0
 20
0.0
 30
0.0
  0
INSERT
  5
220
  8
0
  2
PLAATWERK__D___6MM_00018
 10
0.0
 20
0.0
 30
0.0
  0
ENDBLK
  8
0
  0
BLOCK
  8
0
  2
PLAATWERK__D___6MM_00018
 70
     0
 10
0.0
 20
0.0
 30
0.0
  0
INSERT
  5
223
  8
0
  2
SHEET_FLANGE_00019
 10
0.0
 20
0.0
 30
0.0
  0
INSERT
  5
224
  8
0
  2
BEND_ZONE_00023
 10
0.0
 20
0.0
 30
0.0
  0
INSERT
  5
225
  8
0
  2
SHEET_FLANGE_00025
 10
0.0
 20
0.0
 30
0.0
  0
ENDBLK
  8
0
  0
BLOCK
  8
0
  2
SHEET_FLANGE_00019
 70
     0
 10
0.0
 20
0.0
 30
0.0
  0
INSERT
  5
228
  8
0
  2
SHEET_FLANGE_00020
 10
177.2765975
 20
-164.08347037
 30
0.0
  0
INSERT
  5
229
  8
0
  2
_00021
 10
0.0
 20
0.0
 30
0.0
  0
ENDBLK
  8
0
  0
BLOCK
  8
0
  2
SHEET_FLANGE_00020
 70
     0
 10
177.2765975
 20
-164.08347037
 30
0.0
  0
LINE
  5
22C
  8
LE_ALL
  6
DOT
 62
     3
 10
177.2765975
 20
-164.08347037
 30
0.0
 11
177.2765975
 21
-164.08347037
 31
0.0
  0
LINE
  5
22D
  8
LE_ALL
  6
DOT
 62
     3
 10
177.2765975
 20
-158.08347037
 30
0.0
 11
177.2765975
 21
-158.08347037
 31
0.0
  0
LINE
  5
22E
  8
LE_ALL
  6
DOT
 62
     3
 10
285.2765975
 20
-164.08347037
 30
0.0
 11
285.2765975
 21
-164.08347037
 31
0.0
  0
LINE
  5
22F
  8
LE_ALL
  6
DOT
 62
     3
 10
285.2765975
 20
-158.08347037
 30
0.0
 11
285.2765975
 21
-158.08347037
 31
0.0
  0
LINE
  5
230
  8
LE_ALL
  6
DOT
 62
     3
 10
269.2765975
 20
-164.08347037
 30
0.0
 11
269.2765975
 21
-158.08347037
 31
0.0
  0
LINE
  5
231
  8
LE_ALL
  6
DOT
 62
     3
 10
217.2765975
 20
-164.08347037
 30
0.0
 11
217.2765975
 21
-158.08347037
 31
0.0
  0
LINE
  5
232
  8
LE_ALL
  6
DOT
 62
     3
 10
210.7765975
 20
-164.08347037
 30
0.0
 11
210.7765975
 21
-158.08347037
 31
0.0
  0
LINE
  5
233
  8
LE_ALL
  6
DOT
 62
     3
 10
275.7765975
 20
-164.08347037
 30
0.0
 11
275.7765975
 21
-158.08347037
 31
0.0
  0
LINE
  5
234
  8
LE_ALL
 10
285.2765975
 20
-158.08347037
 30
0.0
 11
177.2765975
 21
-158.08347037
 31
0.0
  0
LINE
  5
235
  8
LE_ALL
 10
285.2765975
 20
-164.08347037
 30
0.0
 11
285.2765975
 21
-158.08347037
 31
0.0
  0
LINE
  5
236
  8
LE_ALL
 10
177.2765975
 20
-164.08347037
 30
0.0
 11
285.2765975
 21
-164.08347037
 31
0.0
  0
ENDBLK
  8
0
  0
BLOCK
  8
0
  2
_00021
 70
     0
 10
0.0
 20
0.0
 30
0.0
  0
INSERT
  5
239
  8
0
  2
_00022
 10
217.2765975
 20
-155.08347037
 30
0.0
  0
ENDBLK
  8
0
  0
BLOCK
  8
0
  2
_00022
 70
     0
 10
217.2765975
 20
-155.08347037
 30
0.0
  0
LINE
  5
23C
  8
LE_ALL
  6
STRICHPUNKT2
 62
     1
 10
217.2765975
 20
-155.08347037
 30
0.0
 11
217.2765975
 21
-167.08347037
 31
0.0
  0
LINE
  5
23D
  8
LE_ALL
  6
STRICHPUNKT2
 62
     1
 10
269.2765975
 20
-155.08347037
 30
0.0
 11
269.2765975
 21
-167.08347037
 31
0.0
  0
ENDBLK
  8
0
  0
BLOCK
  8
0
  2
BEND_ZONE_00023
 70
     0
 10
0.0
 20
0.0
 30
0.0
  0
INSERT
  5
240
  8
0
  2
BEND_ZONE_00024
 10
165.2765975
 20
-152.08347037
 30
0.0
  0
ENDBLK
  8
0
  0
BLOCK
  8
0
  2
BEND_ZONE_00024
 70
     0
 10
165.2765975
 20
-152.08347037
 30
0.0
  0
LINE
  5
243
  8
LE_ALL
  6
DOT
 62
     3
 10
165.2765975
 20
-152.08347037
 30
0.0
 11
165.2765975
 21
-152.08347037
 31
0.0
  0
LINE
  5
244
  8
LE_ALL
  6
DOT
 62
     3
 10
171.2765975
 20
-152.08347037
 30
0.0
 11
171.2765975
 21
-152.08347037
 31
0.0
  0
LINE
  5
245
  8
LE_ALL
  6
DOT
 62
     3
 10
177.2765975
 20
-164.08347037
 30
0.0
 11
177.2765975
 21
-164.08347037
 31
0.0
  0
LINE
  5
246
  8
LE_ALL
  6
DOT
 62
     3
 10
177.2765975
 20
-158.08347037
 30
0.0
 11
177.2765975
 21
-158.08347037
 31
0.0
  0
ARC
  5
247
  8
LE_ALL
 10
177.2765975
 20
-152.08347037
 30
0.0
 40
12.0
 50
180.0
 51
-90.0
  0
ARC
  5
248
  8
LE_ALL
 10
177.2765975
 20
-152.08347037
 30
0.0
 40
6.0
 50
180.0
 51
-90.0
  0
ENDBLK
  8
0
  0
BLOCK
  8
0
  2
SHEET_FLANGE_00025
 70
     0
 10
0.0
 20
0.0
 30
0.0
  0
INSERT
  5
24B
  8
0
  2
SHEET_FLANGE_00026
 10
165.2765975
 20
-152.08347037
 30
0.0
  0
INSERT
  5
24C
  8
0
  2
_00027
 10
0.0
 20
0.0
 30
0.0
  0
ENDBLK
  8
0
  0
BLOCK
  8
0
  2
SHEET_FLANGE_00026
 70
     0
 10
165.2765975
 20
-152.08347037
 30
0.0
  0
LINE
  5
24F
  8
LE_ALL
  6
DOT
 62
     3
 10
165.2765975
 20
-152.08347037
 30
0.0
 11
165.2765975
 21
-152.08347037
 31
0.0
  0
LINE
  5
250
  8
LE_ALL
  6
DOT
 62
     3
 10
171.2765975
 20
-152.08347037
 30
0.0
 11
171.2765975
 21
-152.08347037
 31
0.0
  0
LINE
  5
251
  8
LE_ALL
  6
DOT
 62
     3
 10
165.2765975
 20
-94.08347037
 30
0.0
 11
165.2765975
 21
-94.08347037
 31
0.0
  0
LINE
  5
252
  8
LE_ALL
  6
DOT
 62
     3
 10
171.2765975
 20
-94.08347037
 30
0.0
 11
171.2765975
 21
-94.08347037
 31
0.0
  0
LINE
  5
253
  8
LE_ALL
  6
DOT
 62
     3
 10
171.2765975
 20
-103.08347037
 30
0.0
 11
165.2765975
 21
-103.08347037
 31
0.0
  0
LINE
  5
254
  8
LE_ALL
  6
DOT
 62
     3
 10
171.2765975
 20
-112.08347037
 30
0.0
 11
165.2765975
 21
-112.08347037
 31
0.0
  0
LINE
  5
255
  8
LE_ALL
  6
DOT
 62
     3
 10
171.2765975
 20
-107.08347037
 30
0.0
 11
165.2765975
 21
-107.08347037
 31
0.0
  0
LINE
  5
256
  8
LE_ALL
  6
DOT
 62
     3
 10
171.2765975
 20
-118.08347037
 30
0.0
 11
165.2765975
 21
-118.08347037
 31
0.0
  0
POLYLINE
  5
257
  8
LE_ALL
 66
     1
 10
0.0
 20
0.0
 30
0.0
  0
VERTEX
  5
258
  8
LE_ALL
 10
165.2765975
 20
-94.08347037
 30
0.0
  0
VERTEX
  5
259
  8
LE_ALL
 10
171.2765975
 20
-94.08347037
 30
0.0
  0
VERTEX
  5
25A
  8
LE_ALL
 10
171.2765975
 20
-152.08347037
 30
0.0
  0
SEQEND
  5
25B
  8
LE_ALL
  0
LINE
  5
25C
  8
LE_ALL
 10
165.2765975
 20
-152.08347037
 30
0.0
 11
165.2765975
 21
-94.08347037
 31
0.0
  0
ENDBLK
  8
0
  0
BLOCK
  8
0
  2
_00027
 70
     0
 10
0.0
 20
0.0
 30
0.0
  0
INSERT
  5
25F
  8
0
  2
_00028
 10
173.5265975
 20
-107.58347037
 30
0.0
  0
ENDBLK
  8
0
  0
BLOCK
  8
0
  2
_00028
 70
     0
 10
173.5265975
 20
-107.58347037
 30
0.0
  0
LINE
  5
262
  8
LE_ALL
  6
STRICHPUNKT2
 62
     1
 10
173.5265975
 20
-107.58347037
 30
0.0
 11
163.0265975
 21
-107.58347037
 31
0.0
  0
LINE
  5
263
  8
LE_ALL
  6
STRICHPUNKT2
 62
     1
 10
174.0265975
 20
-112.58347037
 30
0.0
 11
162.5265975
 21
-112.58347037
 31
0.0
  0
LINE
  5
264
  8
LE_ALL
  6
STRICHPUNKT2
 62
     1
 10
173.5265975
 20
-107.58347037
 30
0.0
 11
163.0265975
 21
-107.58347037
 31
0.0
  0
ENDBLK
  8
0
  0
BLOCK
  8
0
  2
_ANS0004_00029
 70
     0
 10
0.0
 20
0.0
 30
0.0
  0
INSERT
  5
267
  8
0
  2
_A3D0004_00030
 10
0.0
 20
0.0
 30
0.0
  0
ENDBLK
  8
0
  0
BLOCK
  8
0
  2
_A3D0004_00030
 70
     0
 10
0.0
 20
0.0
 30
0.0
  0
INSERT
  5
26A
  8
0
  2
PLAATWERK__D___6MM_00031
 10
0.0
 20
0.0
 30
0.0
  0
ENDBLK
  8
0
  0
BLOCK
  8
0
  2
PLAATWERK__D___6MM_00031
 70
     0
 10
0.0
 20
0.0
 30
0.0
  0
INSERT
  5
26D
  8
0
  2
SHEET_FLANGE_00032
 10
0.0
 20
0.0
 30
0.0
  0
INSERT
  5
26E
  8
0
  2
BEND_ZONE_00036
 10
0.0
 20
0.0
 30
0.0
  0
INSERT
  5
26F
  8
0
  2
SHEET_FLANGE_00038
 10
0.0
 20
0.0
 30
0.0
  0
ENDBLK
  8
0
  0
BLOCK
  8
0
  2
SHEET_FLANGE_00032
 70
     0
 10
0.0
 20
0.0
 30
0.0
  0
INSERT
  5
272
  8
0
  2
SHEET_FLANGE_00033
 10
321.94522146
 20
-164.08347037
 30
0.0
  0
INSERT
  5
273
  8
0
  2
_00034
 10
0.0
 20
0.0
 30
0.0
  0
ENDBLK
  8
0
  0
BLOCK
  8
0
  2
SHEET_FLANGE_00033
 70
     0
 10
321.94522146
 20
-164.08347037
 30
0.0
  0
LINE
  5
276
  8
LE_ALL
  6
DOT
 62
     3
 10
321.94522146
 20
-164.08347037
 30
0.0
 11
321.94522146
 21
-164.08347037
 31
0.0
  0
LINE
  5
277
  8
LE_ALL
  6
DOT
 62
     3
 10
321.94522146
 20
-158.08347037
 30
0.0
 11
321.94522146
 21
-158.08347037
 31
0.0
  0
LINE
  5
278
  8
LE_ALL
  6
DOT
 62
     3
 10
381.94522146
 20
-164.08347037
 30
0.0
 11
381.94522146
 21
-164.08347037
 31
0.0
  0
LINE
  5
279
  8
LE_ALL
  6
DOT
 62
     3
 10
381.94522146
 20
-158.08347037
 30
0.0
 11
381.94522146
 21
-158.08347037
 31
0.0
  0
LINE
  5
27A
  8
LE_ALL
  6
DOT
 62
     3
 10
345.44522146
 20
-164.08347037
 30
0.0
 11
345.44522146
 21
-164.08347037
 31
0.0
  0
LINE
  5
27B
  8
LE_ALL
  6
DOT
 62
     3
 10
358.44522146
 20
-164.08347037
 30
0.0
 11
358.44522146
 21
-164.08347037
 31
0.0
  0
LINE
  5
27C
  8
LE_ALL
  6
DOT
 62
     3
 10
345.44522146
 20
-158.08347037
 30
0.0
 11
345.44522146
 21
-158.08347037
 31
0.0
  0
LINE
  5
27D
  8
LE_ALL
  6
DOT
 62
     3
 10
345.44522146
 20
-164.08347037
 30
0.0
 11
345.44522146
 21
-158.08347037
 31
0.0
  0
LINE
  5
27E
  8
LE_ALL
  6
DOT
 62
     3
 10
358.44522146
 20
-158.08347037
 30
0.0
 11
358.44522146
 21
-158.08347037
 31
0.0
  0
LINE
  5
27F
  8
LE_ALL
  6
DOT
 62
     3
 10
358.44522146
 20
-164.08347037
 30
0.0
 11
358.44522146
 21
-158.08347037
 31
0.0
  0
LINE
  5
280
  8
LE_ALL
 10
321.94522146
 20
-164.08347037
 30
0.0
 11
321.94522146
 21
-158.08347037
 31
0.0
  0
LINE
  5
281
  8
LE_ALL
 10
381.94522146
 20
-158.08347037
 30
0.0
 11
321.94522146
 21
-158.08347037
 31
0.0
  0
LINE
  5
282
  8
LE_ALL
 10
381.94522146
 20
-164.08347037
 30
0.0
 11
381.94522146
 21
-158.08347037
 31
0.0
  0
LINE
  5
283
  8
LE_ALL
 10
321.94522146
 20
-164.08347037
 30
0.0
 11
381.94522146
 21
-164.08347037
 31
0.0
  0
ENDBLK
  8
0
  0
BLOCK
  8
0
  2
_00034
 70
     0
 10
0.0
 20
0.0
 30
0.0
  0
INSERT
  5
286
  8
0
  2
_00035
 10
351.94522146
 20
-155.08347037
 30
0.0
  0
ENDBLK
  8
0
  0
BLOCK
  8
0
  2
_00035
 70
     0
 10
351.94522146
 20
-155.08347037
 30
0.0
  0
LINE
  5
289
  8
LE_ALL
  6
STRICHPUNKT2
 62
     1
 10
351.94522146
 20
-155.08347037
 30
0.0
 11
351.94522146
 21
-167.08347037
 31
0.0
  0
LINE
  5
28A
  8
LE_ALL
  6
STRICHPUNKT2
 62
     1
 10
351.94522146
 20
-155.08347037
 30
0.0
 11
351.94522146
 21
-167.08347037
 31
0.0
  0
ENDBLK
  8
0
  0
BLOCK
  8
0
  2
BEND_ZONE_00036
 70
     0
 10
0.0
 20
0.0
 30
0.0
  0
INSERT
  5
28D
  8
0
  2
BEND_ZONE_00037
 10
321.94522146
 20
-158.08347037
 30
0.0
  0
ENDBLK
  8
0
  0
BLOCK
  8
0
  2
BEND_ZONE_00037
 70
     0
 10
321.94522146
 20
-158.08347037
 30
0.0
  0
LINE
  5
290
  8
LE_ALL
  6
DOT
 62
     3
 10
321.94522146
 20
-158.08347037
 30
0.0
 11
381.94522146
 21
-158.08347037
 31
0.0
  0
LINE
  5
291
  8
LE_ALL
 10
321.94522146
 20
-152.08347037
 30
0.0
 11
321.94522146
 21
-158.08347037
 31
0.0
  0
LINE
  5
292
  8
LE_ALL
 10
321.94522146
 20
-152.08347037
 30
0.0
 11
381.94522146
 21
-152.08347037
 31
0.0
  0
LINE
  5
293
  8
LE_ALL
 10
381.94522146
 20
-158.08347037
 30
0.0
 11
381.94522146
 21
-152.08347037
 31
0.0
  0
ENDBLK
  8
0
  0
BLOCK
  8
0
  2
SHEET_FLANGE_00038
 70
     0
 10
0.0
 20
0.0
 30
0.0
  0
INSERT
  5
296
  8
0
  2
SHEET_FLANGE_00039
 10
381.94522146
 20
-94.08347037
 30
0.0
  0
INSERT
  5
297
  8
0
  2
_00040
 10
0.0
 20
0.0
 30
0.0
  0
ENDBLK
  8
0
  0
BLOCK
  8
0
  2
SHEET_FLANGE_00039
 70
     0
 10
381.94522146
 20
-94.08347037
 30
0.0
  0
LINE
  5
29A
  8
LE_ALL
  6
DOT
 62
     3
 10
381.94522146
 20
-94.08347037
 30
0.0
 11
381.94522146
 21
-94.08347037
 31
0.0
  0
LINE
  5
29B
  8
LE_ALL
  6
DOT
 62
     3
 10
321.94522146
 20
-94.08347037
 30
0.0
 11
321.94522146
 21
-94.08347037
 31
0.0
  0
CIRCLE
  5
29C
  8
LE_ALL
 10
351.94522146
 20
-112.58347037
 30
0.0
 40
5.5
  0
CIRCLE
  5
29D
  8
LE_ALL
 10
366.94522146
 20
-107.58347037
 30
0.0
 40
4.5
  0
CIRCLE
  5
29E
  8
LE_ALL
 10
336.94522146
 20
-107.58347037
 30
0.0
 40
4.5
  0
POLYLINE
  5
29F
  8
LE_ALL
 66
     1
 10
0.0
 20
0.0
 30
0.0
 70
     1
  0
VERTEX
  5
2A0
  8
LE_ALL
 10
381.94522146
 20
-152.08347037
 30
0.0
  0
VERTEX
  5
2A1
  8
LE_ALL
 10
381.94522146
 20
-94.08347037
 30
0.0
  0
VERTEX
  5
2A2
  8
LE_ALL
 10
321.94522146
 20
-94.08347037
 30
0.0
  0
VERTEX
  5
2A3
  8
LE_ALL
 10
321.94522146
 20
-152.08347037
 30
0.0
  0
SEQEND
  5
2A4
  8
LE_ALL
  0
ENDBLK
  8
0
  0
BLOCK
  8
0
  2
_00040
 70
     0
 10
0.0
 20
0.0
 30
0.0
  0
INSERT
  5
2A7
  8
0
  2
_00041
 10
336.94522146
 20
-107.58347037
 30
0.0
  0
ENDBLK
  8
0
  0
BLOCK
  8
0
  2
_00041
 70
     0
 10
336.94522146
 20
-107.58347037
 30
0.0
  0
LINE
  5
2AA
  8
LE_ALL
  6
STRICHPUNKT2
 62
     1
 10
336.94522146
 20
-107.58347037
 30
0.0
 11
343.69522146
 21
-107.58347037
 31
0.0
  0
LINE
  5
2AB
  8
LE_ALL
  6
STRICHPUNKT2
 62
     1
 10
336.94522146
 20
-107.58347037
 30
0.0
 11
330.19522146
 21
-107.58347037
 31
0.0
  0
LINE
  5
2AC
  8
LE_ALL
  6
STRICHPUNKT2
 62
     1
 10
336.94522146
 20
-107.58347037
 30
0.0
 11
336.94522146
 21
-100.83347037
 31
0.0
  0
LINE
  5
2AD
  8
LE_ALL
  6
STRICHPUNKT2
 62
     1
 10
336.94522146
 20
-107.58347037
 30
0.0
 11
336.94522146
 21
-114.33347037
 31
0.0
  0
LINE
  5
2AE
  8
LE_ALL
  6
STRICHPUNKT2
 62
     1
 10
336.94522146
 20
-107.58347037
 30
0.0
 11
343.69522146
 21
-107.58347037
 31
0.0
  0
LINE
  5
2AF
  8
LE_ALL
  6
STRICHPUNKT2
 62
     1
 10
336.94522146
 20
-107.58347037
 30
0.0
 11
330.19522146
 21
-107.58347037
 31
0.0
  0
LINE
  5
2B0
  8
LE_ALL
  6
STRICHPUNKT2
 62
     1
 10
336.94522146
 20
-107.58347037
 30
0.0
 11
336.94522146
 21
-100.83347037
 31
0.0
  0
LINE
  5
2B1
  8
LE_ALL
  6
STRICHPUNKT2
 62
     1
 10
336.94522146
 20
-107.58347037
 30
0.0
 11
336.94522146
 21
-114.33347037
 31
0.0
  0
LINE
  5
2B2
  8
LE_ALL
  6
STRICHPUNKT2
 62
     1
 10
366.94522146
 20
-107.58347037
 30
0.0
 11
373.69522146
 21
-107.58347037
 31
0.0
  0
LINE
  5
2B3
  8
LE_ALL
  6
STRICHPUNKT2
 62
     1
 10
366.94522146
 20
-107.58347037
 30
0.0
 11
360.19522146
 21
-107.58347037
 31
0.0
  0
LINE
  5
2B4
  8
LE_ALL
  6
STRICHPUNKT2
 62
     1
 10
366.94522146
 20
-107.58347037
 30
0.0
 11
366.94522146
 21
-100.83347037
 31
0.0
  0
LINE
  5
2B5
  8
LE_ALL
  6
STRICHPUNKT2
 62
     1
 10
366.94522146
 20
-107.58347037
 30
0.0
 11
366.94522146
 21
-114.33347037
 31
0.0
  0
LINE
  5
2B6
  8
LE_ALL
  6
STRICHPUNKT2
 62
     1
 10
366.94522146
 20
-107.58347037
 30
0.0
 11
373.69522146
 21
-107.58347037
 31
0.0
  0
LINE
  5
2B7
  8
LE_ALL
  6
STRICHPUNKT2
 62
     1
 10
366.94522146
 20
-107.58347037
 30
0.0
 11
360.19522146
 21
-107.58347037
 31
0.0
  0
LINE
  5
2B8
  8
LE_ALL
  6
STRICHPUNKT2
 62
     1
 10
366.94522146
 20
-107.58347037
 30
0.0
 11
366.94522146
 21
-100.83347037
 31
0.0
  0
LINE
  5
2B9
  8
LE_ALL
  6
STRICHPUNKT2
 62
     1
 10
366.94522146
 20
-107.58347037
 30
0.0
 11
366.94522146
 21
-114.33347037
 31
0.0
  0
LINE
  5
2BA
  8
LE_ALL
  6
STRICHPUNKT2
 62
     1
 10
351.94522146
 20
-112.58347037
 30
0.0
 11
360.19522146
 21
-112.58347037
 31
0.0
  0
LINE
  5
2BB
  8
LE_ALL
  6
STRICHPUNKT2
 62
     1
 10
351.94522146
 20
-112.58347037
 30
0.0
 11
343.69522146
 21
-112.58347037
 31
0.0
  0
LINE
  5
2BC
  8
LE_ALL
  6
STRICHPUNKT2
 62
     1
 10
351.94522146
 20
-112.58347037
 30
0.0
 11
351.94522146
 21
-104.33347037
 31
0.0
  0
LINE
  5
2BD
  8
LE_ALL
  6
STRICHPUNKT2
 62
     1
 10
351.94522146
 20
-112.58347037
 30
0.0
 11
351.94522146
 21
-120.83347037
 31
0.0
  0
LINE
  5
2BE
  8
LE_ALL
  6
STRICHPUNKT2
 62
     1
 10
351.94522146
 20
-112.58347037
 30
0.0
 11
360.19522146
 21
-112.58347037
 31
0.0
  0
LINE
  5
2BF
  8
LE_ALL
  6
STRICHPUNKT2
 62
     1
 10
351.94522146
 20
-112.58347037
 30
0.0
 11
343.69522146
 21
-112.58347037
 31
0.0
  0
LINE
  5
2C0
  8
LE_ALL
  6
STRICHPUNKT2
 62
     1
 10
351.94522146
 20
-112.58347037
 30
0.0
 11
351.94522146
 21
-104.33347037
 31
0.0
  0
LINE
  5
2C1
  8
LE_ALL
  6
STRICHPUNKT2
 62
     1
 10
351.94522146
 20
-112.58347037
 30
0.0
 11
351.94522146
 21
-120.83347037
 31
0.0
  0
ENDBLK
  8
0
  0
BLOCK
  8
0
  2
_ANS0005_00042
 70
     0
 10
0.0
 20
0.0
 30
0.0
  0
INSERT
  5
2C4
  8
0
  2
_A3D0005_00043
 10
0.0
 20
0.0
 30
0.0
  0
ENDBLK
  8
0
  0
BLOCK
  8
0
  2
_A3D0005_00043
 70
     0
 10
0.0
 20
0.0
 30
0.0
  0
INSERT
  5
2C7
  8
0
  2
PLAATWERK__D___6MM_00044
 10
0.0
 20
0.0
 30
0.0
  0
ENDBLK
  8
0
  0
BLOCK
  8
0
  2
PLAATWERK__D___6MM_00044
 70
     0
 10
0.0
 20
0.0
 30
0.0
  0
INSERT
  5
2CA
  8
0
  2
SHEET_FLANGE_00045
 10
0.0
 20
0.0
 30
0.0
  0
INSERT
  5
2CB
  8
0
  2
BEND_ZONE_00049
 10
0.0
 20
0.0
 30
0.0
  0
INSERT
  5
2CC
  8
0
  2
SHEET_FLANGE_00051
 10
0.0
 20
0.0
 30
0.0
  0
ENDBLK
  8
0
  0
BLOCK
  8
0
  2
SHEET_FLANGE_00045
 70
     0
 10
0.0
 20
0.0
 30
0.0
  0
INSERT
  5
2CF
  8
0
  2
SHEET_FLANGE_00046
 10
285.2765975
 20
-74.41279157
 30
0.0
  0
INSERT
  5
2D0
  8
0
  2
_00047
 10
0.0
 20
0.0
 30
0.0
  0
ENDBLK
  8
0
  0
BLOCK
  8
0
  2
SHEET_FLANGE_00046
 70
     0
 10
285.2765975
 20
-74.41279157
 30
0.0
  0
LINE
  5
2D3
  8
LE_ALL
  6
DOT
 62
     3
 10
285.2765975
 20
-74.41279157
 30
0.0
 11
285.2765975
 21
-74.41279157
 31
0.0
  0
LINE
  5
2D4
  8
LE_ALL
  6
DOT
 62
     3
 10
285.2765975
 20
-14.41279157
 30
0.0
 11
285.2765975
 21
-14.41279157
 31
0.0
  0
LINE
  5
2D5
  8
LE_ALL
  6
DOT
 62
     3
 10
269.2765975
 20
-50.91279157
 30
0.0
 11
269.2765975
 21
-50.91279157
 31
0.0
  0
LINE
  5
2D6
  8
LE_ALL
  6
DOT
 62
     3
 10
217.2765975
 20
-50.91279157
 30
0.0
 11
217.2765975
 21
-50.91279157
 31
0.0
  0
LINE
  5
2D7
  8
LE_ALL
  6
DOT
 62
     3
 10
217.2765975
 20
-37.91279157
 30
0.0
 11
217.2765975
 21
-37.91279157
 31
0.0
  0
LINE
  5
2D8
  8
LE_ALL
  6
DOT
 62
     3
 10
269.2765975
 20
-37.91279157
 30
0.0
 11
269.2765975
 21
-37.91279157
 31
0.0
  0
POLYLINE
  5
2D9
  8
LE_ALL
 66
     1
 10
0.0
 20
0.0
 30
0.0
 70
     1
  0
VERTEX
  5
2DA
  8
LE_ALL
 10
217.2765975
 20
-50.91279157
 30
0.0
 42
-1.0
  0
VERTEX
  5
2DB
  8
LE_ALL
 10
217.2765975
 20
-37.91279157
 30
0.0
  0
VERTEX
  5
2DC
  8
LE_ALL
 10
269.2765975
 20
-37.91279157
 30
0.0
 42
-1.0
  0
VERTEX
  5
2DD
  8
LE_ALL
 10
269.2765975
 20
-50.91279157
 30
0.0
  0
SEQEND
  5
2DE
  8
LE_ALL
  0
POLYLINE
  5
2DF
  8
LE_ALL
 66
     1
 10
0.0
 20
0.0
 30
0.0
 70
     1
  0
VERTEX
  5
2E0
  8
LE_ALL
 10
285.2765975
 20
-74.41279157
 30
0.0
  0
VERTEX
  5
2E1
  8
LE_ALL
 10
177.2765975
 20
-74.41279157
 30
0.0
  0
VERTEX
  5
2E2
  8
LE_ALL
 10
177.2765975
 20
-14.41279157
 30
0.0
  0
VERTEX
  5
2E3
  8
LE_ALL
 10
285.2765975
 20
-14.41279157
 30
0.0
  0
SEQEND
  5
2E4
  8
LE_ALL
  0
ENDBLK
  8
0
  0
BLOCK
  8
0
  2
_00047
 70
     0
 10
0.0
 20
0.0
 30
0.0
  0
INSERT
  5
2E7
  8
0
  2
_00048
 10
207.7765975
 20
-44.41279157
 30
0.0
  0
ENDBLK
  8
0
  0
BLOCK
  8
0
  2
_00048
 70
     0
 10
207.7765975
 20
-44.41279157
 30
0.0
  0
LINE
  5
2EA
  8
LE_ALL
  6
STRICHPUNKT2
 62
     1
 10
207.7765975
 20
-44.41279157
 30
0.0
 11
278.7765975
 21
-44.41279157
 31
0.0
  0
LINE
  5
2EB
  8
LE_ALL
  6
STRICHPUNKT2
 62
     1
 10
217.2765975
 20
-53.91279157
 30
0.0
 11
217.2765975
 21
-34.91279157
 31
0.0
  0
LINE
  5
2EC
  8
LE_ALL
  6
STRICHPUNKT2
 62
     1
 10
269.2765975
 20
-53.91279157
 30
0.0
 11
269.2765975
 21
-34.91279157
 31
0.0
  0
LINE
  5
2ED
  8
LE_ALL
  6
STRICHPUNKT2
 62
     1
 10
207.7765975
 20
-44.41279157
 30
0.0
 11
278.7765975
 21
-44.41279157
 31
0.0
  0
LINE
  5
2EE
  8
LE_ALL
  6
STRICHPUNKT2
 62
     1
 10
217.2765975
 20
-53.91279157
 30
0.0
 11
217.2765975
 21
-34.91279157
 31
0.0
  0
LINE
  5
2EF
  8
LE_ALL
  6
STRICHPUNKT2
 62
     1
 10
269.2765975
 20
-53.91279157
 30
0.0
 11
269.2765975
 21
-34.91279157
 31
0.0
  0
ENDBLK
  8
0
  0
BLOCK
  8
0
  2
BEND_ZONE_00049
 70
     0
 10
0.0
 20
0.0
 30
0.0
  0
INSERT
  5
2F2
  8
0
  2
BEND_ZONE_00050
 10
171.2765975
 20
-74.41279157
 30
0.0
  0
ENDBLK
  8
0
  0
BLOCK
  8
0
  2
BEND_ZONE_00050
 70
     0
 10
171.2765975
 20
-74.41279157
 30
0.0
  0
LINE
  5
2F5
  8
LE_ALL
  6
DOT
 62
     3
 10
171.2765975
 20
-74.41279157
 30
0.0
 11
171.2765975
 21
-14.41279157
 31
0.0
  0
POLYLINE
  5
2F6
  8
LE_ALL
 66
     1
 10
0.0
 20
0.0
 30
0.0
  0
VERTEX
  5
2F7
  8
LE_ALL
 10
171.2765975
 20
-74.41279157
 30
0.0
  0
VERTEX
  5
2F8
  8
LE_ALL
 10
177.2765975
 20
-74.41279157
 30
0.0
  0
VERTEX
  5
2F9
  8
LE_ALL
 10
177.2765975
 20
-14.41279157
 30
0.0
  0
VERTEX
  5
2FA
  8
LE_ALL
 10
171.2765975
 20
-14.41279157
 30
0.0
  0
SEQEND
  5
2FB
  8
LE_ALL
  0
ENDBLK
  8
0
  0
BLOCK
  8
0
  2
SHEET_FLANGE_00051
 70
     0
 10
0.0
 20
0.0
 30
0.0
  0
INSERT
  5
2FE
  8
0
  2
SHEET_FLANGE_00052
 10
165.2765975
 20
-14.41279157
 30
0.0
  0
INSERT
  5
2FF
  8
0
  2
_00053
 10
0.0
 20
0.0
 30
0.0
  0
ENDBLK
  8
0
  0
BLOCK
  8
0
  2
SHEET_FLANGE_00052
 70
     0
 10
165.2765975
 20
-14.41279157
 30
0.0
  0
LINE
  5
302
  8
LE_ALL
  6
DOT
 62
     3
 10
165.2765975
 20
-14.41279157
 30
0.0
 11
165.2765975
 21
-14.41279157
 31
0.0
  0
LINE
  5
303
  8
LE_ALL
  6
DOT
 62
     3
 10
171.2765975
 20
-14.41279157
 30
0.0
 11
171.2765975
 21
-14.41279157
 31
0.0
  0
LINE
  5
304
  8
LE_ALL
  6
DOT
 62
     3
 10
165.2765975
 20
-74.41279157
 30
0.0
 11
165.2765975
 21
-74.41279157
 31
0.0
  0
LINE
  5
305
  8
LE_ALL
  6
DOT
 62
     3
 10
171.2765975
 20
-74.41279157
 30
0.0
 11
171.2765975
 21
-74.41279157
 31
0.0
  0
LINE
  5
306
  8
LE_ALL
  6
DOT
 62
     3
 10
171.2765975
 20
-54.91279157
 30
0.0
 11
165.2765975
 21
-54.91279157
 31
0.0
  0
LINE
  5
307
  8
LE_ALL
  6
DOT
 62
     3
 10
171.2765975
 20
-63.91279157
 30
0.0
 11
165.2765975
 21
-63.91279157
 31
0.0
  0
LINE
  5
308
  8
LE_ALL
  6
DOT
 62
     3
 10
171.2765975
 20
-24.91279157
 30
0.0
 11
165.2765975
 21
-24.91279157
 31
0.0
  0
LINE
  5
309
  8
LE_ALL
  6
DOT
 62
     3
 10
171.2765975
 20
-33.91279157
 30
0.0
 11
165.2765975
 21
-33.91279157
 31
0.0
  0
LINE
  5
30A
  8
LE_ALL
  6
DOT
 62
     3
 10
171.2765975
 20
-38.91279157
 30
0.0
 11
165.2765975
 21
-38.91279157
 31
0.0
  0
LINE
  5
30B
  8
LE_ALL
  6
DOT
 62
     3
 10
171.2765975
 20
-49.91279157
 30
0.0
 11
165.2765975
 21
-49.91279157
 31
0.0
  0
POLYLINE
  5
30C
  8
LE_ALL
 66
     1
 10
0.0
 20
0.0
 30
0.0
  0
VERTEX
  5
30D
  8
LE_ALL
 10
165.2765975
 20
-14.41279157
 30
0.0
  0
VERTEX
  5
30E
  8
LE_ALL
 10
171.2765975
 20
-14.41279157
 30
0.0
  0
VERTEX
  5
30F
  8
LE_ALL
 10
171.2765975
 20
-74.41279157
 30
0.0
  0
SEQEND
  5
310
  8
LE_ALL
  0
LINE
  5
311
  8
LE_ALL
 10
165.2765975
 20
-74.41279157
 30
0.0
 11
171.2765975
 21
-74.41279157
 31
0.0
  0
LINE
  5
312
  8
LE_ALL
 10
165.2765975
 20
-74.41279157
 30
0.0
 11
165.2765975
 21
-14.41279157
 31
0.0
  0
ENDBLK
  8
0
  0
BLOCK
  8
0
  2
_00053
 70
     0
 10
0.0
 20
0.0
 30
0.0
  0
INSERT
  5
315
  8
0
  2
_00054
 10
173.5265975
 20
-59.41279157
 30
0.0
  0
ENDBLK
  8
0
  0
BLOCK
  8
0
  2
_00054
 70
     0
 10
173.5265975
 20
-59.41279157
 30
0.0
  0
LINE
  5
318
  8
LE_ALL
  6
STRICHPUNKT2
 62
     1
 10
173.5265975
 20
-59.41279157
 30
0.0
 11
163.0265975
 21
-59.41279157
 31
0.0
  0
LINE
  5
319
  8
LE_ALL
  6
STRICHPUNKT2
 62
     1
 10
174.0265975
 20
-44.41279157
 30
0.0
 11
162.5265975
 21
-44.41279157
 31
0.0
  0
LINE
  5
31A
  8
LE_ALL
  6
STRICHPUNKT2
 62
     1
 10
173.5265975
 20
-29.41279157
 30
0.0
 11
163.0265975
 21
-29.41279157
 31
0.0
  0
ENDBLK
  8
0
  0
BLOCK
  8
0
  2
_ANS0006_00055
 70
     0
 10
0.0
 20
0.0
 30
0.0
  0
INSERT
  5
31D
  8
0
  2
_A3D0006_00056
 10
0.0
 20
0.0
 30
0.0
  0
ENDBLK
  8
0
  0
BLOCK
  8
0
  2
_A3D0006_00056
 70
     0
 10
0.0
 20
0.0
 30
0.0
  0
INSERT
  5
320
  8
0
  2
PLAATWERK__D___6MM_00057
 10
0.0
 20
0.0
 30
0.0
  0
ENDBLK
  8
0
  0
BLOCK
  8
0
  2
PLAATWERK__D___6MM_00057
 70
     0
 10
0.0
 20
0.0
 30
0.0
  0
INSERT
  5
323
  8
0
  2
SHEET_FLANGE_00058
 10
0.0
 20
0.0
 30
0.0
  0
INSERT
  5
324
  8
0
  2
BEND_ZONE_00062
 10
0.0
 20
0.0
 30
0.0
  0
INSERT
  5
325
  8
0
  2
SHEET_FLANGE_00064
 10
0.0
 20
0.0
 30
0.0
  0
ENDBLK
  8
0
  0
BLOCK
  8
0
  2
SHEET_FLANGE_00058
 70
     0
 10
0.0
 20
0.0
 30
0.0
  0
INSERT
  5
328
  8
0
  2
SHEET_FLANGE_00059
 10
454.06954918
 20
-61.7312582
 30
0.0
  0
INSERT
  5
329
  8
0
  2
_00060
 10
0.0
 20
0.0
 30
0.0
  0
ENDBLK
  8
0
  0
BLOCK
  8
0
  2
SHEET_FLANGE_00059
 70
     0
 10
454.06954918
 20
-61.7312582
 30
0.0
  0
POLYLINE
  5
32C
  8
LE_ALL
 66
     1
 10
0.0
 20
0.0
 30
0.0
  0
VERTEX
  5
52B
  8
LE_ALL
 10
449.86764621
 20
-59.70452711222212
 30
0.0
  0
VERTEX
  5
52C
  8
LE_ALL
 10
449.9992507178671
 20
-60.13831391119165
 30
0.0
  0
VERTEX
  5
52D
  8
LE_ALL
 10
450.3887350978562
 20
-60.55453507963795
 30
0.0
  0
VERTEX
  5
52E
  8
LE_ALL
 10
451.0203276878225
 20
-60.93633628402818
 30
0.0
  0
VERTEX
  5
52F
  8
LE_ALL
 10
451.8684529693275
 20
-61.26825698239604
 30
0.0
  0
VERTEX
  5
530
  8
LE_ALL
 10
452.8987672149114
 20
-61.53685647883069
 30
0.0
  0
VERTEX
  5
531
  8
LE_ALL
 10
454.0695491925583
 20
-61.73125818693322
 30
0.0
  0
SEQEND
  5
5D0
  8
LE_ALL
  0
POLYLINE
  5
32D
  8
LE_ALL
 66
     1
 10
0.0
 20
0.0
 30
0.0
  0
VERTEX
  5
532
  8
LE_ALL
 10
458.665743266417
 20
-57.6777960579772
 30
0.0
  0
VERTEX
  5
533
  8
LE_ALL
 10
457.4554829570329
 20
-57.56841927860891
 30
0.0
  0
VERTEX
  5
534
  8
LE_ALL
 10
456.204737109239
 20
-57.53854107868815
 30
0.0
  0
VERTEX
  5
535
  8
LE_ALL
 10
454.9600541772955
 20
-57.58927342194828
 30
0.0
  0
VERTEX
  5
536
  8
LE_ALL
 10
453.7677569746084
 20
-57.71872822523963
 30
0.0
  0
VERTEX
  5
537
  8
LE_ALL
 10
452.6722186980999
 20
-57.92208762648383
 30
0.0
  0
VERTEX
  5
538
  8
LE_ALL
 10
451.7142115105911
 20
-58.19178328891298
 30
0.0
  0
VERTEX
  5
539
  8
LE_ALL
 10
450.9293891412767
 20
-58.51777806850708
 30
0.0
  0
VERTEX
  5
53A
  8
LE_ALL
 10
450.3469599766764
 20
-58.88793956193758
 30
0.0
  0
VERTEX
  5
53B
  8
LE_ALL
 10
449.9886000250503
 20
-59.28849163284858
 30
0.0
  0
VERTEX
  5
53C
  8
LE_ALL
 10
449.86764621
 20
-59.70452711222212
 30
0.0
  0
SEQEND
  5
5D1
  8
LE_ALL
  0
POLYLINE
  5
32E
  8
LE_ALL
 66
     1
 10
0.0
 20
0.0
 30
0.0
  0
VERTEX
  5
32F
  8
LE_ALL
 10
458.66574325
 20
-57.67779603
 30
0.0
  0
VERTEX
  5
330
  8
LE_ALL
 10
507.30728928
 20
-63.8060548
 30
0.0
  0
SEQEND
  5
331
  8
LE_ALL
  0
POLYLINE
  5
332
  8
LE_ALL
 66
     1
 10
0.0
 20
0.0
 30
0.0
  0
VERTEX
  5
53D
  8
LE_ALL
 10
511.50919224
 20
-65.83278589
 30
0.0
  0
VERTEX
  5
53E
  8
LE_ALL
 10
511.3775877296302
 20
-65.39899909472594
 30
0.0
  0
VERTEX
  5
53F
  8
LE_ALL
 10
510.9881033514898
 20
-64.98277792985094
 30
0.0
  0
VERTEX
  5
540
  8
LE_ALL
 10
510.3565107673888
 20
-64.60097672848543
 30
0.0
  0
VERTEX
  5
541
  8
LE_ALL
 10
509.5083854951067
 20
-64.26905603221844
 30
0.0
  0
VERTEX
  5
542
  8
LE_ALL
 10
508.4780712611637
 20
-64.00045653665424
 30
0.0
  0
VERTEX
  5
543
  8
LE_ALL
 10
507.307289296417
 20
-63.8060548279772
 30
0.0
  0
SEQEND
  5
5D2
  8
LE_ALL
  0
POLYLINE
  5
333
  8
LE_ALL
 66
     1
 10
0.0
 20
0.0
 30
0.0
  0
VERTEX
  5
544
  8
LE_ALL
 10
502.7110952225583
 20
-67.85951695693322
 30
0.0
  0
VERTEX
  5
545
  8
LE_ALL
 10
503.9213555322384
 20
-67.96889373361324
 30
0.0
  0
VERTEX
  5
546
  8
LE_ALL
 10
505.1721013787488
 20
-67.99877193099438
 30
0.0
  0
VERTEX
  5
547
  8
LE_ALL
 10
506.4167843080128
 20
-67.94803958544107
 30
0.0
  0
VERTEX
  5
548
  8
LE_ALL
 10
507.6090815068588
 20
-67.81858478018279
 30
0.0
  0
VERTEX
  5
549
  8
LE_ALL
 10
508.7046197786367
 20
-67.61522537735712
 30
0.0
  0
VERTEX
  5
54A
  8
LE_ALL
 10
509.6626269608201
 20
-67.34552971376878
 30
0.0
  0
VERTEX
  5
54B
  8
LE_ALL
 10
510.4474493245162
 20
-67.0195349334517
 30
0.0
  0
VERTEX
  5
54C
  8
LE_ALL
 10
511.0298784834996
 20
-66.64937343972602
 30
0.0
  0
VERTEX
  5
54D
  8
LE_ALL
 10
511.3882384297821
 20
-66.24882136891856
 30
0.0
  0
VERTEX
  5
54E
  8
LE_ALL
 10
511.50919224
 20
-65.83278589
 30
0.0
  0
SEQEND
  5
5D3
  8
LE_ALL
  0
LINE
  5
334
  8
LE_ALL
 10
502.7110952
 20
-67.85951697
 30
0.0
 11
454.06954918
 21
-61.7312582
 31
0.0
  0
LINE
  5
335
  8
LE_ALL
 10
458.66574325
 20
-62.31032423
 30
0.0
 11
458.66574325
 21
-57.67779603
 31
0.0
  0
LINE
  5
336
  8
LE_ALL
 10
507.30728928
 20
-67.85951697
 30
0.0
 11
507.30728928
 21
-63.8060548
 31
0.0
  0
LINE
  5
337
  8
LE_ALL
 10
509.36922007
 20
-77.07254744
 30
0.0
 11
408.34447063
 21
-64.34462538
 31
0.0
  0
LINE
  5
338
  8
LE_ALL
 10
509.36922007
 20
-82.72940169
 30
0.0
 11
509.36922007
 21
-77.07254744
 31
0.0
  0
POLYLINE
  5
339
  8
LE_ALL
 66
     1
 10
0.0
 20
0.0
 30
0.0
  0
VERTEX
  5
33A
  8
LE_ALL
 10
408.34447063
 20
-70.00147963
 30
0.0
  0
VERTEX
  5
33B
  8
LE_ALL
 10
509.36922007
 20
-82.72940169
 30
0.0
  0
VERTEX
  5
33C
  8
LE_ALL
 10
530.58242351
 20
-64.02111476
 30
0.0
  0
VERTEX
  5
33D
  8
LE_ALL
 10
530.58242351
 20
-58.36426051
 30
0.0
  0
VERTEX
  5
33E
  8
LE_ALL
 10
509.36922007
 20
-77.07254744
 30
0.0
  0
SEQEND
  5
33F
  8
LE_ALL
  0
LINE
  5
340
  8
LE_ALL
 10
429.55767406
 20
-45.63633844
 30
0.0
 11
530.58242351
 21
-58.36426051
 31
0.0
  0
LINE
  5
341
  8
LE_ALL
 10
408.34447063
 20
-64.34462538
 30
0.0
 11
429.55767406
 21
-45.63633844
 31
0.0
  0
ENDBLK
  8
0
  0
BLOCK
  8
0
  2
_00060
 70
     0
 10
0.0
 20
0.0
 30
0.0
  0
INSERT
  5
344
  8
0
  2
_00061
 10
456.36764621
 20
-56.87609999
 30
0.0
  0
ENDBLK
  8
0
  0
BLOCK
  8
0
  2
_00061
 70
     0
 10
456.36764621
 20
-56.87609999
 30
0.0
  0
LINE
  5
347
  8
LE_ALL
  6
STRICHPUNKT2
 62
     1
 10
456.36764621
 20
-56.87609999
 30
0.0
 11
456.36764621
 21
-62.02079122
 31
0.0
  0
LINE
  5
348
  8
LE_ALL
  6
STRICHPUNKT2
 62
     1
 10
505.00919224
 20
-63.00435876
 30
0.0
 11
505.00919224
 21
-67.99945256
 31
0.0
  0
LINE
  5
349
  8
LE_ALL
  6
STRICHPUNKT2
 62
     1
 10
447.48120992
 20
-58.58494138
 30
0.0
 11
513.89562854
 21
-66.95237163
 31
0.0
  0
LINE
  5
34A
  8
LE_ALL
  6
STRICHPUNKT2
 62
     1
 10
453.008889
 20
-62.66667255
 30
0.0
 11
459.72640343
 21
-56.74238169
 31
0.0
  0
LINE
  5
34B
  8
LE_ALL
  6
STRICHPUNKT2
 62
     1
 10
501.65043503
 20
-68.79493132
 30
0.0
 11
508.36794945
 21
-62.87064046
 31
0.0
  0
ENDBLK
  8
0
  0
BLOCK
  8
0
  2
BEND_ZONE_00062
 70
     0
 10
0.0
 20
0.0
 30
0.0
  0
INSERT
  5
34E
  8
0
  2
BEND_ZONE_00063
 10
402.73198455
 20
-57.98066435
 30
0.0
  0
ENDBLK
  8
0
  0
BLOCK
  8
0
  2
BEND_ZONE_00063
 70
     0
 10
402.73198455
 20
-57.98066435
 30
0.0
  0
LINE
  5
351
  8
LE_ALL
 10
402.73198455
 20
-57.98066435
 30
0.0
 11
423.94518798
 21
-39.27237741
 31
0.0
  0
POLYLINE
  5
352
  8
LE_ALL
 66
     1
 10
0.0
 20
0.0
 30
0.0
  0
VERTEX
  5
54F
  8
LE_ALL
 10
397.119498495408
 20
-57.27355757902075
 30
0.0
  0
VERTEX
  5
550
  8
LE_ALL
 10
397.3351831963319
 20
-59.50792631686149
 30
0.0
  0
VERTEX
  5
551
  8
LE_ALL
 10
397.9739486356035
 20
-61.71077695109127
 30
0.0
  0
VERTEX
  5
552
  8
LE_ALL
 10
399.0112474158272
 20
-63.79745516793955
 30
0.0
  0
VERTEX
  5
553
  8
LE_ALL
 10
400.4072167269466
 20
-65.687771094447
 30
0.0
  0
VERTEX
  5
554
  8
LE_ALL
 10
402.1082102516667
 20
-67.30908095028579
 30
0.0
  0
VERTEX
  5
555
  8
LE_ALL
 10
404.0488597633242
 20
-68.59907870747439
 30
0.0
  0
VERTEX
  5
556
  8
LE_ALL
 10
406.1545871901582
 20
-69.50819047607064
 30
0.0
  0
VERTEX
  5
557
  8
LE_ALL
 10
408.3444706087588
 20
-70.00147960094439
 30
0.0
  0
SEQEND
  5
5D4
  8
LE_ALL
  0
POLYLINE
  5
353
  8
LE_ALL
 66
     1
 10
0.0
 20
0.0
 30
0.0
  0
VERTEX
  5
558
  8
LE_ALL
 10
402.7319845591685
 20
-57.98066435762843
 30
0.0
  0
VERTEX
  5
559
  8
LE_ALL
 10
402.8398269103881
 20
-59.09784872709719
 30
0.0
  0
VERTEX
  5
55A
  8
LE_ALL
 10
403.1592096308883
 20
-60.19927404461956
 30
0.0
  0
VERTEX
  5
55B
  8
LE_ALL
 10
403.6778590219382
 20
-61.24261315329463
 30
0.0
  0
VERTEX
  5
55C
  8
LE_ALL
 10
404.3758436784733
 20
-62.18777111663309
 30
0.0
  0
VERTEX
  5
55D
  8
LE_ALL
 10
405.2263404418088
 20
-62.99842604446775
 30
0.0
  0
VERTEX
  5
55E
  8
LE_ALL
 10
406.1966651985755
 20
-63.64342492281112
 30
0.0
  0
VERTEX
  5
55F
  8
LE_ALL
 10
407.2495289128569
 20
-64.09798080670174
 30
0.0
  0
VERTEX
  5
560
  8
LE_ALL
 10
408.344470622915
 20
-64.34462536859024
 30
0.0
  0
SEQEND
  5
5D5
  8
LE_ALL
  0
POLYLINE
  5
354
  8
LE_ALL
 66
     1
 10
0.0
 20
0.0
 30
0.0
  0
VERTEX
  5
355
  8
LE_ALL
 10
408.34447063
 20
-64.34462538
 30
0.0
  0
VERTEX
  5
356
  8
LE_ALL
 10
429.55767406
 20
-45.63633844
 30
0.0
  0
SEQEND
  5
357
  8
LE_ALL
  0
POLYLINE
  5
358
  8
LE_ALL
 66
     1
 10
0.0
 20
0.0
 30
0.0
  0
VERTEX
  5
561
  8
LE_ALL
 10
423.9451879891685
 20
-39.27237741762843
 30
0.0
  0
VERTEX
  5
562
  8
LE_ALL
 10
424.0530303403881
 20
-40.38956178709719
 30
0.0
  0
VERTEX
  5
563
  8
LE_ALL
 10
424.3724130608883
 20
-41.49098710461956
 30
0.0
  0
VERTEX
  5
564
  8
LE_ALL
 10
424.8910624519382
 20
-42.53432621329463
 30
0.0
  0
VERTEX
  5
565
  8
LE_ALL
 10
425.5890471084733
 20
-43.47948417663309
 30
0.0
  0
VERTEX
  5
566
  8
LE_ALL
 10
426.4395438718088
 20
-44.29013910446775
 30
0.0
  0
VERTEX
  5
567
  8
LE_ALL
 10
427.4098686285756
 20
-44.93513798281112
 30
0.0
  0
VERTEX
  5
568
  8
LE_ALL
 10
428.462732342857
 20
-45.38969386670175
 30
0.0
  0
VERTEX
  5
569
  8
LE_ALL
 10
429.557674052915
 20
-45.63633842859024
 30
0.0
  0
SEQEND
  5
5D6
  8
LE_ALL
  0
ENDBLK
  8
0
  0
BLOCK
  8
0
  2
SHEET_FLANGE_00064
 70
     0
 10
0.0
 20
0.0
 30
0.0
  0
INSERT
  5
35B
  8
0
  2
SHEET_FLANGE_00065
 10
412.65108627
 20
-16.84242582
 30
0.0
  0
INSERT
  5
35C
  8
0
  2
_00066
 10
0.0
 20
0.0
 30
0.0
  0
ENDBLK
  8
0
  0
BLOCK
  8
0
  2
SHEET_FLANGE_00065
 70
     0
 10
412.65108627
 20
-16.84242582
 30
0.0
  0
POLYLINE
  5
35F
  8
LE_ALL
 66
     1
 10
0.0
 20
0.0
 30
0.0
  0
VERTEX
  5
56A
  8
LE_ALL
 10
412.65108627
 20
-16.84242582
 30
0.0
  0
VERTEX
  5
56B
  8
LE_ALL
 10
413.0191567125388
 20
-16.78228194379126
 30
0.0
  0
VERTEX
  5
56C
  8
LE_ALL
 10
413.3995026538046
 20
-16.5147452139977
 30
0.0
  0
VERTEX
  5
56D
  8
LE_ALL
 10
413.7775076126085
 20
-16.05009691708553
 30
0.0
  0
VERTEX
  5
56E
  8
LE_ALL
 10
414.1386450704043
 20
-15.40619322648665
 30
0.0
  0
VERTEX
  5
56F
  8
LE_ALL
 10
414.4690367172487
 20
-14.60777899986905
 30
0.0
  0
VERTEX
  5
570
  8
LE_ALL
 10
414.7559857874683
 20
-13.6855368481359
 30
0.0
  0
VERTEX
  5
571
  8
LE_ALL
 10
414.9884649892425
 20
-12.67490801989821
 30
0.0
  0
VERTEX
  5
572
  8
LE_ALL
 10
415.1575402772431
 20
-11.6147304141695
 30
0.0
  0
VERTEX
  5
573
  8
LE_ALL
 10
415.2567141829859
 20
-10.54574606169068
 30
0.0
  0
VERTEX
  5
574
  8
LE_ALL
 10
415.2821755088991
 20
-9.50903543154058
 30
0.0
  0
VERTEX
  5
575
  8
LE_ALL
 10
415.2329457905088
 20
-8.544438731751104
 30
0.0
  0
VERTEX
  5
576
  8
LE_ALL
 10
415.1109168982804
 20
-7.689024872458655
 30
0.0
  0
VERTEX
  5
577
  8
LE_ALL
 10
414.9207783340968
 20
-6.97566692847934
 30
0.0
  0
VERTEX
  5
578
  8
LE_ALL
 10
414.6698370163319
 20
-6.431778845482089
 30
0.0
  0
VERTEX
  5
579
  8
LE_ALL
 10
414.3677364790761
 20
-6.078261937432924
 30
0.0
  0
VERTEX
  5
57A
  8
LE_ALL
 10
414.0260862765297
 20
-5.92870166082266
 30
0.0
  0
SEQEND
  5
5D7
  8
LE_ALL
  0
POLYLINE
  5
360
  8
LE_ALL
 66
     1
 10
0.0
 20
0.0
 30
0.0
  0
VERTEX
  5
57B
  8
LE_ALL
 10
414.0260862765297
 20
-5.92870166082266
 30
0.0
  0
VERTEX
  5
57C
  8
LE_ALL
 10
413.6580158334862
 20
-5.988845533570815
 30
0.0
  0
VERTEX
  5
57D
  8
LE_ALL
 10
413.2776698914282
 20
-6.256382260950043
 30
0.0
  0
VERTEX
  5
57E
  8
LE_ALL
 10
412.8996649316417
 20
-6.721030556540066
 30
0.0
  0
VERTEX
  5
57F
  8
LE_ALL
 10
412.5385274727769
 20
-7.36493424687845
 30
0.0
  0
VERTEX
  5
580
  8
LE_ALL
 10
412.2081358248812
 20
-8.163348474194468
 30
0.0
  0
VERTEX
  5
581
  8
LE_ALL
 10
411.9211867537264
 20
-9.085590627418334
 30
0.0
  0
VERTEX
  5
582
  8
LE_ALL
 10
411.6887075512194
 20
-10.09621945772028
 30
0.0
  0
VERTEX
  5
583
  8
LE_ALL
 10
411.5196322627569
 20
-11.15639706583049
 30
0.0
  0
VERTEX
  5
584
  8
LE_ALL
 10
411.4204583568708
 20
-12.22538142073096
 30
0.0
  0
VERTEX
  5
585
  8
LE_ALL
 10
411.3949970311556
 20
-13.26209205306259
 30
0.0
  0
VERTEX
  5
586
  8
LE_ALL
 10
411.444226750082
 20
-14.22668875452816
 30
0.0
  0
VERTEX
  5
587
  8
LE_ALL
 10
411.5662556431556
 20
-15.08210261475796
 30
0.0
  0
VERTEX
  5
588
  8
LE_ALL
 10
411.7563942084395
 20
-15.79546055875009
 30
0.0
  0
VERTEX
  5
589
  8
LE_ALL
 10
412.0073355274842
 20
-16.33934864071023
 30
0.0
  0
VERTEX
  5
58A
  8
LE_ALL
 10
412.3094360661063
 20
-16.692865546617
 30
0.0
  0
VERTEX
  5
58B
  8
LE_ALL
 10
412.65108627
 20
-16.84242582
 30
0.0
  0
SEQEND
  5
5D8
  8
LE_ALL
  0
POLYLINE
  5
361
  8
LE_ALL
 66
     1
 10
0.0
 20
0.0
 30
0.0
  0
VERTEX
  5
58C
  8
LE_ALL
 10
418.07938713
 20
-6.459152139999999
 30
0.0
  0
VERTEX
  5
58D
  8
LE_ALL
 10
418.3805356740136
 20
-6.409943513976093
 30
0.0
  0
VERTEX
  5
58E
  8
LE_ALL
 10
418.6917278078902
 20
-6.191049825859713
 30
0.0
  0
VERTEX
  5
58F
  8
LE_ALL
 10
419.0010045924709
 20
-5.810883037309011
 30
0.0
  0
VERTEX
  5
590
  8
LE_ALL
 10
419.2964806943957
 20
-5.284052744774721
 30
0.0
  0
VERTEX
  5
591
  8
LE_ALL
 10
419.5668011327983
 20
-4.630804740902984
 30
0.0
  0
VERTEX
  5
592
  8
LE_ALL
 10
419.8015776448522
 20
-3.876242980079703
 30
0.0
  0
VERTEX
  5
593
  8
LE_ALL
 10
419.9917879008837
 20
-3.049364847544151
 30
0.0
  0
VERTEX
  5
594
  8
LE_ALL
 10
420.1301222274413
 20
-2.181946806138684
 30
0.0
  0
VERTEX
  5
595
  8
LE_ALL
 10
420.2112645139465
 20
-1.307323244664936
 30
0.0
  0
VERTEX
  5
596
  8
LE_ALL
 10
420.2320965078409
 20
-0.459105456019233
 30
0.0
  0
VERTEX
  5
597
  8
LE_ALL
 10
420.1918176472839
 20
0.3301100259410419
 30
0.0
  0
VERTEX
  5
598
  8
LE_ALL
 10
420.0919758262943
 20
1.029994092910384
 30
0.0
  0
VERTEX
  5
599
  8
LE_ALL
 10
419.9364079100522
 20
1.613650592755938
 30
0.0
  0
VERTEX
  5
59A
  8
LE_ALL
 10
419.7310922863217
 20
2.05864993355807
 30
0.0
  0
VERTEX
  5
59B
  8
LE_ALL
 10
419.4839191193623
 20
2.347891040247214
 30
0.0
  0
VERTEX
  5
59C
  8
LE_ALL
 10
419.2043871353424
 20
2.470258539326912
 30
0.0
  0
SEQEND
  5
5D9
  8
LE_ALL
  0
POLYLINE
  5
362
  8
LE_ALL
 66
     1
 10
0.0
 20
0.0
 30
0.0
  0
VERTEX
  5
59D
  8
LE_ALL
 10
419.2043871353424
 20
2.470258539326912
 30
0.0
  0
VERTEX
  5
59E
  8
LE_ALL
 10
418.9032385909159
 20
2.421049916134395
 30
0.0
  0
VERTEX
  5
59F
  8
LE_ALL
 10
418.5920464563911
 20
2.20215622999338
 30
0.0
  0
VERTEX
  5
5A0
  8
LE_ALL
 10
418.2827696710065
 20
1.821989442524434
 30
0.0
  0
VERTEX
  5
5A1
  8
LE_ALL
 10
417.9872935682071
 20
1.295159150203279
 30
0.0
  0
VERTEX
  5
5A2
  8
LE_ALL
 10
417.7169731289443
 20
0.6419111457601063
 30
0.0
  0
VERTEX
  5
5A3
  8
LE_ALL
 10
417.4821966161253
 20
-0.1126506162828503
 30
0.0
  0
VERTEX
  5
5A4
  8
LE_ALL
 10
417.2919863594942
 20
-0.9395287505073352
 30
0.0
  0
VERTEX
  5
5A5
  8
LE_ALL
 10
417.1536520325587
 20
-1.806946793861315
 30
0.0
  0
VERTEX
  5
5A6
  8
LE_ALL
 10
417.0725097459362
 20
-2.681570357316402
 30
0.0
  0
VERTEX
  5
5A7
  8
LE_ALL
 10
417.0516777522037
 20
-3.529788147747
 30
0.0
  0
VERTEX
  5
5A8
  8
LE_ALL
 10
417.0919566131996
 20
-4.319003631078621
 30
0.0
  0
VERTEX
  5
5A9
  8
LE_ALL
 10
417.1917984348806
 20
-5.018887698814884
 30
0.0
  0
VERTEX
  5
5AA
  8
LE_ALL
 10
417.3473663520229
 20
-5.602544198670924
 30
0.0
  0
VERTEX
  5
5AB
  8
LE_ALL
 10
417.5526819768006
 20
-6.047543538624514
 30
0.0
  0
VERTEX
  5
5AC
  8
LE_ALL
 10
417.7998551448778
 20
-6.336784643560786
 30
0.0
  0
VERTEX
  5
5AD
  8
LE_ALL
 10
418.07938713
 20
-6.459152139999999
 30
0.0
  0
SEQEND
  5
5DA
  8
LE_ALL
  0
POLYLINE
  5
363
  8
LE_ALL
 66
     1
 10
0.0
 20
0.0
 30
0.0
  0
VERTEX
  5
5AE
  8
LE_ALL
 10
407.47278541
 20
-15.8132956
 30
0.0
  0
VERTEX
  5
5AF
  8
LE_ALL
 10
407.7739339540136
 20
-15.76408697397609
 30
0.0
  0
VERTEX
  5
5B0
  8
LE_ALL
 10
408.0851260878902
 20
-15.54519328585971
 30
0.0
  0
VERTEX
  5
5B1
  8
LE_ALL
 10
408.3944028724709
 20
-15.16502649730901
 30
0.0
  0
VERTEX
  5
5B2
  8
LE_ALL
 10
408.6898789743957
 20
-14.63819620477472
 30
0.0
  0
VERTEX
  5
5B3
  8
LE_ALL
 10
408.9601994127983
 20
-13.98494820090298
 30
0.0
  0
VERTEX
  5
5B4
  8
LE_ALL
 10
409.1949759248521
 20
-13.2303864400797
 30
0.0
  0
VERTEX
  5
5B5
  8
LE_ALL
 10
409.3851861808836
 20
-12.40350830754415
 30
0.0
  0
VERTEX
  5
5B6
  8
LE_ALL
 10
409.5235205074413
 20
-11.53609026613868
 30
0.0
  0
VERTEX
  5
5B7
  8
LE_ALL
 10
409.6046627939465
 20
-10.66146670466494
 30
0.0
  0
VERTEX
  5
5B8
  8
LE_ALL
 10
409.6254947878409
 20
-9.813248916019234
 30
0.0
  0
VERTEX
  5
5B9
  8
LE_ALL
 10
409.5852159272839
 20
-9.024033434058959
 30
0.0
  0
VERTEX
  5
5BA
  8
LE_ALL
 10
409.4853741062943
 20
-8.324149367089618
 30
0.0
  0
VERTEX
  5
5BB
  8
LE_ALL
 10
409.3298061900522
 20
-7.740492867244062
 30
0.0
  0
VERTEX
  5
5BC
  8
LE_ALL
 10
409.1244905663216
 20
-7.29549352644193
 30
0.0
  0
VERTEX
  5
5BD
  8
LE_ALL
 10
408.8773173993623
 20
-7.006252419752785
 30
0.0
  0
VERTEX
  5
5BE
  8
LE_ALL
 10
408.5977854153424
 20
-6.883884920673088
 30
0.0
  0
SEQEND
  5
5DB
  8
LE_ALL
  0
POLYLINE
  5
364
  8
LE_ALL
 66
     1
 10
0.0
 20
0.0
 30
0.0
  0
VERTEX
  5
5BF
  8
LE_ALL
 10
408.5977854153424
 20
-6.883884920673088
 30
0.0
  0
VERTEX
  5
5C0
  8
LE_ALL
 10
408.2966368706393
 20
-6.933093543986727
 30
0.0
  0
VERTEX
  5
5C1
  8
LE_ALL
 10
407.9854447358305
 20
-7.151987230547908
 30
0.0
  0
VERTEX
  5
5C2
  8
LE_ALL
 10
407.6761679501868
 20
-7.532154018704856
 30
0.0
  0
VERTEX
  5
5C3
  8
LE_ALL
 10
407.3806918471846
 20
-8.058984311929265
 30
0.0
  0
VERTEX
  5
5C4
  8
LE_ALL
 10
407.1103714078033
 20
-8.712232317419996
 30
0.0
  0
VERTEX
  5
5C5
  8
LE_ALL
 10
406.8755948949733
 20
-9.46679408056963
 30
0.0
  0
VERTEX
  5
5C6
  8
LE_ALL
 10
406.6853846384552
 20
-10.29367221586548
 30
0.0
  0
VERTEX
  5
5C7
  8
LE_ALL
 10
406.5470503117654
 20
-11.16109026015747
 30
0.0
  0
VERTEX
  5
5C8
  8
LE_ALL
 10
406.4659080255216
 20
-12.03571382432151
 30
0.0
  0
VERTEX
  5
5C9
  8
LE_ALL
 10
406.4450760322916
 20
-12.8839316151446
 30
0.0
  0
VERTEX
  5
5CA
  8
LE_ALL
 10
406.4853548938958
 20
-13.67314709847882
 30
0.0
  0
VERTEX
  5
5CB
  8
LE_ALL
 10
406.5851967162653
 20
-14.37303116577342
 30
0.0
  0
VERTEX
  5
5CC
  8
LE_ALL
 10
406.7407646341424
 20
-14.95668766471237
 30
0.0
  0
VERTEX
  5
5CD
  8
LE_ALL
 10
406.9460802596626
 20
-15.40168700326853
 30
0.0
  0
VERTEX
  5
5CE
  8
LE_ALL
 10
407.1932534284471
 20
-15.69092810635013
 30
0.0
  0
VERTEX
  5
5CF
  8
LE_ALL
 10
407.4727854141974
 20
-15.81329560052882
 30
0.0
  0
SEQEND
  5
5DC
  8
LE_ALL
  0
POLYLINE
  5
365
  8
LE_ALL
 66
     1
 10
0.0
 20
0.0
 30
0.0
  0
VERTEX
  5
366
  8
LE_ALL
 10
397.11949847
 20
-2.59063315
 30
0.0
  0
VERTEX
  5
367
  8
LE_ALL
 10
402.73198455
 20
-3.29773994
 30
0.0
  0
VERTEX
  5
368
  8
LE_ALL
 10
402.73198455
 20
-57.98066435
 30
0.0
  0
SEQEND
  5
369
  8
LE_ALL
  0
POLYLINE
  5
36A
  8
LE_ALL
 66
     1
 10
0.0
 20
0.0
 30
0.0
  0
VERTEX
  5
36B
  8
LE_ALL
 10
397.11949847
 20
-57.27355757
 30
0.0
  0
VERTEX
  5
36C
  8
LE_ALL
 10
397.11949847
 20
-2.59063315
 30
0.0
  0
VERTEX
  5
36D
  8
LE_ALL
 10
418.3327019
 20
16.11765378
 30
0.0
  0
VERTEX
  5
36E
  8
LE_ALL
 10
423.94518798
 20
15.410547
 30
0.0
  0
VERTEX
  5
36F
  8
LE_ALL
 10
402.73198455
 20
-3.29773994
 30
0.0
  0
SEQEND
  5
370
  8
LE_ALL
  0
LINE
  5
371
  8
LE_ALL
 10
423.94518798
 20
-39.27237741
 30
0.0
 11
423.94518798
 21
15.410547
 31
0.0
  0
LINE
  5
372
  8
LE_ALL
 10
402.73198455
 20
-57.98066435
 30
0.0
 11
423.94518798
 21
-39.27237741
 31
0.0
  0
ENDBLK
  8
0
  0
BLOCK
  8
0
  2
_00066
 70
     0
 10
0.0
 20
0.0
 30
0.0
  0
INSERT
  5
375
  8
0
  2
_00067
 10
410.13996769
 20
-11.61375531
 30
0.0
  0
ENDBLK
  8
0
  0
BLOCK
  8
0
  2
_00067
 70
     0
 10
410.13996769
 20
-11.61375531
 30
0.0
  0
LINE
  5
378
  8
LE_ALL
  6
STRICHPUNKT2
 62
     1
 10
410.13996769
 20
-11.61375531
 30
0.0
 11
406.5470503
 21
-11.16109026
 31
0.0
  0
LINE
  5
379
  8
LE_ALL
  6
STRICHPUNKT2
 62
     1
 10
408.03528541
 20
-11.34859026
 30
0.0
 11
410.42177079
 21
-9.24390798
 31
0.0
  0
LINE
  5
37A
  8
LE_ALL
  6
STRICHPUNKT2
 62
     1
 10
408.03528541
 20
-11.34859026
 30
0.0
 11
405.64880002
 21
-13.45327254
 31
0.0
  0
LINE
  5
37B
  8
LE_ALL
  6
STRICHPUNKT2
 62
     1
 10
408.03528541
 20
-11.34859026
 30
0.0
 11
408.03528541
 21
-4.98462923
 31
0.0
  0
LINE
  5
37C
  8
LE_ALL
  6
STRICHPUNKT2
 62
     1
 10
408.03528541
 20
-11.34859026
 30
0.0
 11
408.03528541
 21
-17.71255129
 31
0.0
  0
LINE
  5
37D
  8
LE_ALL
  6
STRICHPUNKT2
 62
     1
 10
420.74656941
 20
-2.25961184
 30
0.0
 11
417.15365201
 21
-1.8069468
 31
0.0
  0
LINE
  5
37E
  8
LE_ALL
  6
STRICHPUNKT2
 62
     1
 10
418.64188713
 20
-1.9944468
 30
0.0
 11
421.02837251
 21
0.11023548
 31
0.0
  0
LINE
  5
37F
  8
LE_ALL
  6
STRICHPUNKT2
 62
     1
 10
418.64188713
 20
-1.9944468
 30
0.0
 11
416.25540174
 21
-4.09912908
 31
0.0
  0
LINE
  5
380
  8
LE_ALL
  6
STRICHPUNKT2
 62
     1
 10
418.64188713
 20
-1.9944468
 30
0.0
 11
418.64188713
 21
4.36951423
 31
0.0
  0
LINE
  5
381
  8
LE_ALL
  6
STRICHPUNKT2
 62
     1
 10
418.64188713
 20
-1.9944468
 30
0.0
 11
418.64188713
 21
-8.35840783
 31
0.0
  0
LINE
  5
382
  8
LE_ALL
  6
STRICHPUNKT2
 62
     1
 10
415.91097572
 20
-11.70965435
 30
0.0
 11
411.51963224
 21
-11.15639707
 31
0.0
  0
LINE
  5
383
  8
LE_ALL
  6
STRICHPUNKT2
 62
     1
 10
413.33858627
 20
-11.38556374
 30
0.0
 11
416.25540174
 21
-8.81317428
 31
0.0
  0
LINE
  5
384
  8
LE_ALL
  6
STRICHPUNKT2
 62
     1
 10
413.33858627
 20
-11.38556374
 30
0.0
 11
410.42177079
 21
-13.95795319
 31
0.0
  0
LINE
  5
385
  8
LE_ALL
  6
STRICHPUNKT2
 62
     1
 10
413.33858627
 20
-11.38556374
 30
0.0
 11
413.33858627
 21
-3.60738914
 31
0.0
  0
LINE
  5
386
  8
LE_ALL
  6
STRICHPUNKT2
 62
     1
 10
413.33858627
 20
-11.38556374
 30
0.0
 11
413.33858627
 21
-19.16373833
 31
0.0
  0
ENDBLK
  8
0
  0
BLOCK
  8
0
  2
DVI_FIGURE_00068
 70
     0
 10
0.0
 20
0.0
 30
0.0
  0
INSERT
  5
389
  8
0
  2
VIEW_3_00069
 10
0.0
 20
0.0
 30
0.0
  0
INSERT
  5
38A
  8
0
  2
VIEW_4_00075
 10
0.0
 20
0.0
 30
0.0
  0
INSERT
  5
38B
  8
0
  2
VIEW_5_00087
 10
0.0
 20
0.0
 30
0.0
  0
ENDBLK
  8
0
  0
BLOCK
  8
0
  2
VIEW_3_00069
 70
     0
 10
0.0
 20
0.0
 30
0.0
  0
INSERT
  5
38E
  8
0
  2
PART_2_00070
 10
0.0
 20
0.0
 30
0.0
  0
ENDBLK
  8
0
  0
BLOCK
  8
0
  2
PART_2_00070
 70
     0
 10
0.0
 20
0.0
 30
0.0
  0
INSERT
  5
391
  8
0
  2
_D1
 10
290.71964571
 20
-162.04338809
 30
0.0
  0
INSERT
  5
392
  8
0
  2
_D2
 10
222.39684439
 20
-173.44723736
 30
0.0
  0
INSERT
  5
393
  8
0
  2
_D3
 10
153.26608279
 20
-131.00330582
 30
0.0
  0
INSERT
  5
394
  8
0
  2
_D4
 10
167.31667978
 20
-84.80659501
 30
0.0
  0
ENDBLK
  8
0
  0
BLOCK
  8
0
  2
VIEW_4_00075
 70
     0
 10
0.0
 20
0.0
 30
0.0
  0
INSERT
  5
3B7
  8
0
  2
PART_2_00076
 10
0.0
 20
0.0
 30
0.0
  0
ENDBLK
  8
0
  0
BLOCK
  8
0
  2
PART_2_00076
 70
     0
 10
0.0
 20
0.0
 30
0.0
  0
INSERT
  5
3BA
  8
0
  2
_D5
 10
334.14276723
 20
-120.50943976
 30
0.0
  0
INSERT
  5
3BB
  8
0
  2
_D6
 10
348.18284944
 20
-125.50504628
 30
0.0
  0
INSERT
  5
3BC
  8
0
  2
_D7
 10
364.14276723
 20
-119.0952925
 30
0.0
  0
INSERT
  5
3BD
  8
0
  2
_D8
 10
327.52538601
 20
-87.07778495
 30
0.0
  0
INSERT
  5
3BE
  8
0
  2
_D9
 10
342.52538601
 20
-87.07778495
 30
0.0
  0
INSERT
  5
3BF
  8
0
  2
_D10
 10
357.52538601
 20
-87.07778495
 30
0.0
  0
INSERT
  5
3C0
  8
0
  2
_D11
 10
372.52538601
 20
-87.07778495
 30
0.0
  0
INSERT
  5
3C1
  8
0
  2
_D12
 10
312.86875681
 20
-102.75330582
 30
0.0
  0
INSERT
  5
3C2
  8
0
  2
_D13
 10
312.86875681
 20
-111.04338809
 30
0.0
  0
INSERT
  5
3C3
  8
0
  2
_D14
 10
312.86875681
 20
-140.25330582
 30
0.0
  0
ENDBLK
  8
0
  0
BLOCK
  8
0
  2
VIEW_5_00087
 70
     0
 10
0.0
 20
0.0
 30
0.0
  0
INSERT
  5
419
  8
0
  2
PART_2_00088
 10
0.0
 20
0.0
 30
0.0
  0
ENDBLK
  8
0
  0
BLOCK
  8
0
  2
PART_2_00088
 70
     0
 10
0.0
 20
0.0
 30
0.0
  0
INSERT
  5
41C
  8
0
  2
_D15
 10
278.60676205
 20
-6.50133622
 30
0.0
  0
INSERT
  5
41D
  8
0
  2
_D16
 10
241.35676205
 20
-6.50133622
 30
0.0
  0
INSERT
  5
41E
  8
0
  2
_D17
 10
186.10676205
 20
-6.50133622
 30
0.0
  0
INSERT
  5
41F
  8
0
  2
_D18
 10
204.5351665
 20
-48.17516358
 30
0.0
  0
INSERT
  5
420
  8
0
  2
_D19
 10
291.65948157
 20
-31.33262701
 30
0.0
  0
INSERT
  5
421
  8
0
  2
_D20
 10
291.65948157
 20
-61.33262701
 30
0.0
  0
INSERT
  5
422
  8
0
  2
_D21
 10
300.23774268
 20
-46.33262701
 30
0.0
  0
ENDBLK
  8
0
  0
ENDSEC
  0
SECTION
  2
ENTITIES
  0
INSERT
  5
45D
  8
0
  2
_ZBL0002_00001
 10
0.0
 20
0.0
 30
0.0
  0
INSERT
  5
45E
  8
0
  2
_ANS0003_00016
 10
0.0
 20
0.0
 30
0.0
  0
INSERT
  5
45F
  8
0
  2
_ANS0004_00029
 10
0.0
 20
0.0
 30
0.0
  0
INSERT
  5
460
  8
0
  2
_ANS0005_00042
 10
0.0
 20
0.0
 30
0.0
  0
INSERT
  5
461
  8
0
  2
_ANS0006_00055
 10
0.0
 20
0.0
 30
0.0
  0
INSERT
  5
462
  8
0
  2
DVI_FIGURE_00068
 10
0.0
 20
0.0
 30
0.0
  0
ENDSEC
  0
EOF
