  0
SECTION
  2
HEADER
  9
$ACADVER
  1
AC1006
  9
$DWGCODEPAGE
  3
ansi_1252
  9
$INSBASE
 10
0.0
 20
0.0
 30
0.0
  9
$EXTMIN
 10
123.37545256
 20
-266.13631912
  9
$EXTMAX
 10
551.77545256
 20
47.55288713
  9
$LIMMIN
 10
123.37545256
 20
-266.13631912
  9
$LIMMAX
 10
551.77545256
 20
47.55288713
  9
$ORTHOMODE
 70
     0
  9
$REGENMODE
 70
     1
  9
$FILLMODE
 70
     1
  9
$QTEXTMODE
 70
     0
  9
$MIRRTEXT
 70
     1
  9
$DRAGMODE
 70
     2
  9
$LTSCALE
 40
1.0
  9
$OSMODE
 70
    37
  9
$ATTMODE
 70
     1
  9
$TEXTSIZE
 40
1.0
  9
$TRACEWID
 40
0.05
  9
$TEXTSTYLE
  7
STANDARD
  9
$CLAYER
  8
0
  9
$CELTYPE
  6
BYBLOCK
  9
$CECOLOR
 62
   256
  9
$DIMSCALE
 40
1.0
  9
$DIMASZ
 40
0.18
  9
$DIMEXO
 40
0.0625
  9
$DIMDLI
 40
0.38
  9
$DIMRND
 40
0.0
  9
$DIMDLE
 40
0.0
  9
$DIMEXE
 40
0.18
  9
$DIMTP
 40
0.0
  9
$DIMTM
 40
0.0
  9
$DIMTXT
 40
0.18
  9
$DIMCEN
 40
0.09
  9
$DIMTSZ
 40
0.0
  9
$DIMTOL
 70
     0
  9
$DIMLIM
 70
     0
  9
$DIMTIH
 70
     1
  9
$DIMTOH
 70
     1
  9
$DIMSE1
 70
     0
  9
$DIMSE2
 70
     0
  9
$DIMTAD
 70
     0
  9
$DIMZIN
 70
     0
  9
$DIMBLK
  1

  9
$DIMASO
 70
     1
  9
$DIMSHO
 70
     1
  9
$DIMPOST
  1

  9
$DIMAPOST
  1

  9
$DIMALT
 70
     0
  9
$DIMALTD
 70
     2
  9
$DIMALTF
 40
25.4
  9
$DIMLFAC
 40
1.0
  9
$DIMTOFL
 70
     0
  9
$DIMTVP
 40
0.0
  9
$DIMTIX
 70
     0
  9
$DIMSOXD
 70
     0
  9
$DIMSAH
 70
     0
  9
$DIMBLK1
  1

  9
$DIMBLK2
  1

  9
$LUNITS
 70
     2
  9
$LUPREC
 70
     4
  9
$SKETCHINC
 40
0.1
  9
$FILLETRAD
 40
0.5
  9
$AUNITS
 70
     0
  9
$AUPREC
 70
     0
  9
$MENU
  1
.
  9
$ELEVATION
 40
0.0
  9
$THICKNESS
 40
0.0
  9
$LIMCHECK
 70
     0
  9
$CHAMFERA
 40
0.0
  9
$CHAMFERB
 40
0.0
  9
$SKPOLY
 70
     0
  9
$TDCREATE
 40
2447893.125
  9
$TDUPDATE
 40
2460791.481733924
  9
$TDINDWG
 40
0.0
  9
$TDUSRTIMER
 40
0.0
  9
$USRTIMER
 70
     1
  9
$ANGBASE
 50
0.0
  9
$ANGDIR
 70
     0
  9
$PDMODE
 70
     0
  9
$PDSIZE
 40
0.0
  9
$PLINEWID
 40
0.0
  9
$COORDS
 70
     1
  9
$SPLFRAME
 70
     0
  9
$SPLINETYPE
 70
     6
  9
$SPLINESEGS
 70
     8
  9
$ATTDIA
 70
     0
  9
$ATTREQ
 70
     1
  9
$HANDLING
 70
     1
  9
$HANDSEED
  5
5DD
  9
$SURFTAB1
 70
     6
  9
$SURFTAB2
 70
     6
  9
$SURFTYPE
 70
     6
  9
$SURFU
 70
     6
  9
$SURFV
 70
     6
  9
$UCSNAME
  2

  9
$UCSORG
 10
0.0
 20
0.0
 30
0.0
  9
$UCSXDIR
 10
1.0
 20
0.0
 30
0.0
  9
$UCSYDIR
 10
0.0
 20
1.0
 30
0.0
  9
$USERI1
 70
     0
  9
$USERI2
 70
     0
  9
$USERI3
 70
     0
  9
$USERI4
 70
     0
  9
$USERI5
 70
     0
  9
$USERR1
 40
0.0
  9
$USERR2
 40
0.0
  9
$USERR3
 40
0.0
  9
$USERR4
 40
0.0
  9
$USERR5
 40
0.0
  9
$WORLDVIEW
 70
     1
  0
ENDSEC
  0
SECTION
  2
TABLES
  0
TABLE
  2
VPORT
 70
     1
  0
VPORT
  2
*ACTIVE
 70
     0
 10
0.0
 20
0.0
 11
1.0
 21
1.0
 12
337.57545256
 22
-109.29171599
 13
0.0
 23
0.0
 14
1.0
 24
1.0
 15
0.0
 25
0.0
 16
0.0
 26
0.0
 36
1.0
 17
0.0
 27
0.0
 37
0.0
 40
313.68920625
 41
1.365682948
 42
50.0
 43
0.0
 44
0.0
 50
0.0
 51
0.0
 71
     0
 72
   100
 73
     1
 74
     1
 75
     0
 76
     0
 77
     0
 78
     0
  0
ENDTAB
  0
TABLE
  2
LTYPE
 70
    19
  0
LTYPE
  2
CONTINUOUS
 70
     0
  3
Solid line
 72
    65
 73
     0
 40
0.0
  0
LTYPE
  2
DOT
 70
     0
  3
..............
 72
    65
 73
     2
 40
2.0
 49
0.5
 49
-1.5
  0
LTYPE
  2
HIDDEN
 70
     0
  3
-- -- -- -- --
 72
    65
 73
     2
 40
7.0
 49
4.0
 49
-3.0
  0
LTYPE
  2
DASHDOT
 70
     0
  3
--.--.--.--.--
 72
    65
 73
     4
 40
8.5
 49
4.0
 49
-2.0
 49
0.5
 49
-2.0
  0
LTYPE
  2
STRICHPUNKT2
 70
     0
  3
--.--.--.--.--
 72
    65
 73
     4
 40
18.5
 49
10.0
 49
-4.0
 49
0.5
 49
-4.0
  0
LTYPE
  2
STRICHPUNKT3
 70
     0
  3
--.--.--.--.--
 72
    65
 73
     4
 40
35.5
 49
25.0
 49
-5.0
 49
0.5
 49
-5.0
  0
LTYPE
  2
PHANTOM
 70
     0
  3
--..--..--..--
 72
    65
 73
     6
 40
23.0
 49
10.0
 49
-4.0
 49
0.5
 49
-4.0
 49
0.5
 49
-4.0
  0
LTYPE
  2
PHANTOM2
 70
     0
  3
--..--..--..--
 72
    65
 73
     6
 40
33.0
 49
20.0
 49
-4.0
 49
0.5
 49
-4.0
 49
0.5
 49
-4.0
  0
LTYPE
  2
PHANTOM3
 70
     0
  3
--..--..--..--
 72
    65
 73
     6
 40
50.0
 49
37.0
 49
-4.0
 49
0.5
 49
-4.0
 49
0.5
 49
-4.0
  0
LTYPE
  2
STR3PKT
 70
     0
  3
--...--...--...
 72
    65
 73
     8
 40
31.5
 49
20.0
 49
-2.5
 49
0.5
 49
-2.5
 49
0.5
 49
-2.5
 49
0.5
 49
-2.5
  0
LTYPE
  2
2STRPKT
 70
     0
  3
--.--.--.--.--
 72
    65
 73
     6
 40
28.0
 49
10.0
 49
-2.5
 49
10.0
 49
-2.5
 49
0.5
 49
-2.5
  0
LTYPE
  2
GESTRICHELT2
 70
     0
  3
-- -- -- -- --
 72
    65
 73
     2
 40
25.0
 49
10.0
 49
-15.0
  0
LTYPE
  2
2STR2PKT
 70
     0
  3
--..--..--..--
 72
    65
 73
     8
 40
31.0
 49
10.0
 49
-2.5
 49
10.0
 49
-2.5
 49
0.5
 49
-2.5
 49
0.5
 49
-2.5
  0
LTYPE
  2
STR3PKT2
 70
     0
  3
--...--...--...
 72
    65
 73
     8
 40
21.0
 49
10.0
 49
-2.5
 49
0.5
 49
-2.5
 49
0.5
 49
-2.5
 49
0.5
 49
-2.0
  0
LTYPE
  2
2STR3PKT
 70
     0
  3
--...--...--...
 72
    65
 73
    10
 40
34.0
 49
10.0
 49
-2.5
 49
10.0
 49
-2.5
 49
0.5
 49
-2.5
 49
0.5
 49
-2.5
 49
0.5
 49
-2.5
  0
LTYPE
  2
STRKSTR
 70
     0
  3
-- - -- - -- -
 72
    65
 73
     4
 40
30.0
 49
20.0
 49
-2.5
 49
5.0
 49
-2.5
  0
LTYPE
  2
STRKSTR2
 70
     0
  3
-- - -- - -- -
 72
    65
 73
     6
 40
37.5
 49
20.0
 49
-2.5
 49
5.0
 49
-2.5
 49
5.0
 49
-2.5
  0
LTYPE
  2
STRKSTR3
 70
     0
  3
-- - -- - -- -
 72
    65
 73
     8
 40
45.0
 49
20.0
 49
-2.5
 49
5.0
 49
-2.5
 49
5.0
 49
-2.5
 49
5.0
 49
-2.5
  0
LTYPE
  2
PUNKT2
 70
     0
  3
..............
 72
    65
 73
     2
 40
3.5
 49
0.5
 49
-3.0
  0
ENDTAB
  0
TABLE
  2
LAYER
 70
    16
  0
LAYER
  2
0
 70
     0
 62
     7
  6
CONTINUOUS
  0
LAYER
  2
LE_GREEN
 70
     0
 62
     3
  6
CONTINUOUS
  0
LAYER
  2
LE_RED
 70
     0
 62
     1
  6
CONTINUOUS
  0
LAYER
  2
LE_ALL
 70
     0
 62
     7
  6
CONTINUOUS
  0
LAYER
  2
LE_HIDDEN1
 70
     0
 62
     3
  6
HIDDEN
  0
LAYER
  2
LE_HIDDEN
 70
     0
 62
     7
  6
CONTINUOUS
  0
LAYER
  2
LE_MIDDLE
 70
     0
 62
     7
  6
CONTINUOUS
  0
LAYER
  2
TXT_YELLOW
 70
     0
 62
     2
  6
CONTINUOUS
  0
LAYER
  2
TXT_DIM49
 70
     0
 62
     2
  6
CONTINUOUS
  0
LAYER
  2
TXT_ALL
 70
     0
 62
     7
  6
CONTINUOUS
  0
LAYER
  2
DIM49
 70
     0
 62
     4
  6
CONTINUOUS
  0
LAYER
  2
HATCH
 70
     0
 62
     3
  6
CONTINUOUS
  0
LAYER
  2
APPLE
 70
     0
 62
     7
  6
CONTINUOUS
  0
LAYER
  2
10
 70
     0
 62
     7
  6
CONTINUOUS
  0
LAYER
  2
20
 70
     0
 62
     7
  6
CONTINUOUS
  0
LAYER
  2
49
 70
     0
 62
     7
  6
CONTINUOUS
  0
ENDTAB
  0
TABLE
  2
STYLE
 70
     5
  0
STYLE
  2
MONOTXT
 70
     0
 40
0.0
 41
1.0
 50
0.0
 71
     0
 42
1.0
  3
monotxt.shx
  4

  0
STYLE
  2
STANDARD
 70
     0
 40
0.0
 41
1.0
 50
0.0
 71
     0
 42
1.0
  3
txt
  4

  0
STYLE
  2
ARIAL
 70
     0
 40
0.0
 41
1.0
 50
0.0
 71
     0
 42
1.0
  3
arial.ttf
  4

  0
STYLE
  2
ARIAL_NARROW
 70
     0
 40
0.0
 41
1.0
 50
0.0
 71
     0
 42
1.0
  3
ArialN.ttf
  4

  0
STYLE
  2
ISOCPEUR
 70
     0
 40
0.0
 41
1.0
 50
0.0
 71
     0
 42
1.0
  3
ISOCPEUR.ttf
  4

  0
ENDTAB
  0
TABLE
  2
VIEW
 70
     0
  0
ENDTAB
  0
TABLE
  2
UCS
 70
     0
  0
ENDTAB
  0
ENDSEC
  0
SECTION
  2
BLOCKS
  0
BLOCK
  8
0
  2
_D1
 70
     0
 10
216.75604104
 20
-179.23568236
 30
0.0
  0
TEXT
  5
397
  8
TXT_DIM49
 10
216.75604104
 20
-179.23568236
 30
0.0
 40
2.5
  1
100
  7
ARIAL
  0
LINE
  5
398
  8
DIM49
 10
170.63579415
 20
-179.73568236
 30
0.0
 11
168.63579415
 21
-181.73568236
 31
0.0
  0
LINE
  5
399
  8
DIM49
 10
268.88579415
 20
-181.48568236
 30
0.0
 11
270.38579415
 21
-179.98568236
 31
0.0
  0
LINE
  5
39A
  8
DIM49
 10
169.63579415
 20
-180.73568236
 30
0.0
 11
269.63579415
 21
-180.73568236
 31
0.0
  0
LINE
  5
39B
  8
DIM49
 10
169.63579415
 20
-178.73568236
 30
0.0
 11
169.63579415
 21
-182.73568236
 31
0.0
  0
LINE
  5
39C
  8
DIM49
 10
269.63579415
 20
-178.73568236
 30
0.0
 11
269.63579415
 21
-182.73568236
 31
0.0
  0
ENDBLK
  8
0
  0
BLOCK
  8
0
  2
_D2
 70
     0
 10
157.17587642
 20
-143.83846569
 30
0.0
  0
TEXT
  5
39F
  8
TXT_DIM49
 10
157.17587642
 20
-143.83846569
 30
0.0
 40
2.5
  1
60
 50
90.00020741
  7
ARIAL
  0
LINE
  5
3A0
  8
DIM49
 10
157.67587642
 20
-170.91863024
 30
0.0
 11
159.67587642
 21
-172.91863024
 31
0.0
  0
LINE
  5
3A1
  8
DIM49
 10
159.42587642
 20
-112.66863024
 30
0.0
 11
157.92587642
 21
-111.16863024
 31
0.0
  0
LINE
  5
3A2
  8
DIM49
 10
158.67587642
 20
-171.91863024
 30
0.0
 11
158.67587642
 21
-111.91863024
 31
0.0
  0
LINE
  5
3A3
  8
DIM49
 10
160.67587642
 20
-171.91863024
 30
0.0
 11
156.67587642
 21
-171.91863024
 31
0.0
  0
LINE
  5
3A4
  8
DIM49
 10
160.67587642
 20
-111.91863024
 30
0.0
 11
156.67587642
 21
-111.91863024
 31
0.0
  0
ENDBLK
  8
0
  0
BLOCK
  8
0
  2
_D3
 70
     0
 10
171.67587642
 20
-102.64175488
 30
0.0
  0
TEXT
  5
3A7
  8
TXT_DIM49
 10
171.67587642
 20
-102.64175488
 30
0.0
 40
2.5
  1
6
  7
ARIAL
  0
LINE
  5
3A8
  8
DIM49
 10
170.63579415
 20
-103.14175488
 30
0.0
 11
168.63579415
 21
-105.14175488
 31
0.0
  0
LINE
  5
3A9
  8
DIM49
 10
174.88579415
 20
-104.89175488
 30
0.0
 11
176.38579415
 21
-103.39175488
 31
0.0
  0
LINE
  5
3AA
  8
DIM49
 10
169.63579415
 20
-104.14175488
 30
0.0
 11
175.63579415
 21
-104.14175488
 31
0.0
  0
LINE
  5
3AB
  8
DIM49
 10
169.63579415
 20
-106.14175488
 30
0.0
 11
169.63579415
 21
-102.14175488
 31
0.0
  0
LINE
  5
3AC
  8
DIM49
 10
175.63579415
 20
-106.14175488
 30
0.0
 11
175.63579415
 21
-102.14175488
 31
0.0
  0
ENDBLK
  8
0
  0
BLOCK
  8
0
  2
_D4
 70
     0
 10
274.53140665
 20
-169.87854797
 30
0.0
  0
TEXT
  5
3AF
  8
TXT_DIM49
 10
274.53140665
 20
-169.87854797
 30
0.0
 40
2.5
  1
6
 50
90.00020741
  7
ARIAL
  0
LINE
  5
3B0
  8
DIM49
 10
275.03140665
 20
-170.91863024
 30
0.0
 11
277.03140665
 21
-172.91863024
 31
0.0
  0
LINE
  5
3B1
  8
DIM49
 10
276.78140665
 20
-166.66863024
 30
0.0
 11
275.28140665
 21
-165.16863024
 31
0.0
  0
LINE
  5
3B2
  8
DIM49
 10
276.03140665
 20
-171.91863024
 30
0.0
 11
276.03140665
 21
-165.91863024
 31
0.0
  0
LINE
  5
3B3
  8
DIM49
 10
274.03140665
 20
-171.91863024
 30
0.0
 11
278.03140665
 21
-171.91863024
 31
0.0
  0
LINE
  5
3B4
  8
DIM49
 10
274.03140665
 20
-165.91863024
 30
0.0
 11
278.03140665
 21
-165.91863024
 31
0.0
  0
ENDBLK
  8
0
  0
BLOCK
  8
0
  2
_D5
 70
     0
 10
319.11247587
 20
-137.13823929
 30
0.0
  0
TEXT
  5
3C6
  8
TXT_DIM49
 10
319.11247587
 20
-137.13823929
 30
0.0
 40
2.5
  1
Ø
  7
ARIAL
  0
TEXT
  5
3C7
  8
TXT_DIM49
 10
322.79754877
 20
-137.13823929
 30
0.0
 40
2.5
  1
9
  7
ARIAL
  0
LINE
  5
3C8
  8
DIM49
 10
325.41493011
 20
-139.63823929
 30
0.0
 11
327.41493011
 21
-137.63823929
 31
0.0
  0
LINE
  5
3C9
  8
DIM49
 10
318.16493011
 20
-137.88823929
 30
0.0
 11
316.66493011
 21
-139.38823929
 31
0.0
  0
LINE
  5
3CA
  8
DIM49
 10
326.41493011
 20
-138.63823929
 30
0.0
 11
317.41493011
 21
-138.63823929
 31
0.0
  0
LINE
  5
3CB
  8
DIM49
 10
326.41493011
 20
-136.63823929
 30
0.0
 11
326.41493011
 21
-140.63823929
 31
0.0
  0
LINE
  5
3CC
  8
DIM49
 10
317.41493011
 20
-136.63823929
 30
0.0
 11
317.41493011
 21
-140.63823929
 31
0.0
  0
ENDBLK
  8
0
  0
BLOCK
  8
0
  2
_D6
 70
     0
 10
333.15255809
 20
-144.45568839
 30
0.0
  0
TEXT
  5
3CF
  8
TXT_DIM49
 10
333.15255809
 20
-144.45568839
 30
0.0
 40
2.5
  1
Ø
  7
ARIAL
  0
TEXT
  5
3D0
  8
TXT_DIM49
 10
336.83763099
 20
-144.45568839
 30
0.0
 40
2.5
  1
11
  7
ARIAL
  0
LINE
  5
3D1
  8
DIM49
 10
341.41493011
 20
-146.95568839
 30
0.0
 11
343.41493011
 21
-144.95568839
 31
0.0
  0
LINE
  5
3D2
  8
DIM49
 10
332.16493011
 20
-145.20568839
 30
0.0
 11
330.66493011
 21
-146.70568839
 31
0.0
  0
LINE
  5
3D3
  8
DIM49
 10
342.41493011
 20
-145.95568839
 30
0.0
 11
331.41493011
 21
-145.95568839
 31
0.0
  0
LINE
  5
3D4
  8
DIM49
 10
342.41493011
 20
-143.95568839
 30
0.0
 11
342.41493011
 21
-147.95568839
 31
0.0
  0
LINE
  5
3D5
  8
DIM49
 10
331.41493011
 20
-143.95568839
 30
0.0
 11
331.41493011
 21
-147.95568839
 31
0.0
  0
ENDBLK
  8
0
  0
BLOCK
  8
0
  2
_D7
 70
     0
 10
349.11247587
 20
-137.57666228
 30
0.0
  0
TEXT
  5
3D8
  8
TXT_DIM49
 10
349.11247587
 20
-137.57666228
 30
0.0
 40
2.5
  1
Ø
  7
ARIAL
  0
TEXT
  5
3D9
  8
TXT_DIM49
 10
352.79754877
 20
-137.57666228
 30
0.0
 40
2.5
  1
9
  7
ARIAL
  0
LINE
  5
3DA
  8
DIM49
 10
355.41493011
 20
-140.07666228
 30
0.0
 11
357.41493011
 21
-138.07666228
 31
0.0
  0
LINE
  5
3DB
  8
DIM49
 10
348.16493011
 20
-138.32666228
 30
0.0
 11
346.66493011
 21
-139.82666228
 31
0.0
  0
LINE
  5
3DC
  8
DIM49
 10
356.41493011
 20
-139.07666228
 30
0.0
 11
347.41493011
 21
-139.07666228
 31
0.0
  0
LINE
  5
3DD
  8
DIM49
 10
356.41493011
 20
-137.07666228
 30
0.0
 11
356.41493011
 21
-141.07666228
 31
0.0
  0
LINE
  5
3DE
  8
DIM49
 10
347.41493011
 20
-137.07666228
 30
0.0
 11
347.41493011
 21
-141.07666228
 31
0.0
  0
ENDBLK
  8
0
  0
BLOCK
  8
0
  2
_D8
 70
     0
 10
312.49509466
 20
-104.96652777
 30
0.0
  0
TEXT
  5
3E1
  8
TXT_DIM49
 10
312.49509466
 20
-104.96652777
 30
0.0
 40
2.5
  1
15
  7
ARIAL
  0
LINE
  5
3E2
  8
DIM49
 10
307.91493011
 20
-105.46652777
 30
0.0
 11
305.91493011
 21
-107.46652777
 31
0.0
  0
LINE
  5
3E3
  8
DIM49
 10
321.16493011
 20
-107.21652777
 30
0.0
 11
322.66493011
 21
-105.71652777
 31
0.0
  0
LINE
  5
3E4
  8
DIM49
 10
306.91493011
 20
-106.46652777
 30
0.0
 11
321.91493011
 21
-106.46652777
 31
0.0
  0
LINE
  5
3E5
  8
DIM49
 10
306.91493011
 20
-108.46652777
 30
0.0
 11
306.91493011
 21
-104.46652777
 31
0.0
  0
LINE
  5
3E6
  8
DIM49
 10
321.91493011
 20
-108.46652777
 30
0.0
 11
321.91493011
 21
-104.46652777
 31
0.0
  0
ENDBLK
  8
0
  0
BLOCK
  8
0
  2
_D9
 70
     0
 10
327.49509466
 20
-104.96652777
 30
0.0
  0
TEXT
  5
3E9
  8
TXT_DIM49
 10
327.49509466
 20
-104.96652777
 30
0.0
 40
2.5
  1
15
  7
ARIAL
  0
LINE
  5
3EA
  8
DIM49
 10
322.91493011
 20
-105.46652777
 30
0.0
 11
320.91493011
 21
-107.46652777
 31
0.0
  0
LINE
  5
3EB
  8
DIM49
 10
336.16493011
 20
-107.21652777
 30
0.0
 11
337.66493011
 21
-105.71652777
 31
0.0
  0
LINE
  5
3EC
  8
DIM49
 10
321.91493011
 20
-106.46652777
 30
0.0
 11
336.91493011
 21
-106.46652777
 31
0.0
  0
LINE
  5
3ED
  8
DIM49
 10
321.91493011
 20
-108.46652777
 30
0.0
 11
321.91493011
 21
-104.46652777
 31
0.0
  0
LINE
  5
3EE
  8
DIM49
 10
336.91493011
 20
-108.46652777
 30
0.0
 11
336.91493011
 21
-104.46652777
 31
0.0
  0
ENDBLK
  8
0
  0
BLOCK
  8
0
  2
_D10
 70
     0
 10
342.49509466
 20
-104.96652777
 30
0.0
  0
TEXT
  5
3F1
  8
TXT_DIM49
 10
342.49509466
 20
-104.96652777
 30
0.0
 40
2.5
  1
15
  7
ARIAL
  0
LINE
  5
3F2
  8
DIM49
 10
337.91493011
 20
-105.46652777
 30
0.0
 11
335.91493011
 21
-107.46652777
 31
0.0
  0
LINE
  5
3F3
  8
DIM49
 10
351.16493011
 20
-107.21652777
 30
0.0
 11
352.66493011
 21
-105.71652777
 31
0.0
  0
LINE
  5
3F4
  8
DIM49
 10
336.91493011
 20
-106.46652777
 30
0.0
 11
351.91493011
 21
-106.46652777
 31
0.0
  0
LINE
  5
3F5
  8
DIM49
 10
336.91493011
 20
-108.46652777
 30
0.0
 11
336.91493011
 21
-104.46652777
 31
0.0
  0
LINE
  5
3F6
  8
DIM49
 10
351.91493011
 20
-108.46652777
 30
0.0
 11
351.91493011
 21
-104.46652777
 31
0.0
  0
ENDBLK
  8
0
  0
BLOCK
  8
0
  2
_D11
 70
     0
 10
357.49509466
 20
-104.96652777
 30
0.0
  0
TEXT
  5
3F9
  8
TXT_DIM49
 10
357.49509466
 20
-104.96652777
 30
0.0
 40
2.5
  1
15
  7
ARIAL
  0
LINE
  5
3FA
  8
DIM49
 10
352.91493011
 20
-105.46652777
 30
0.0
 11
350.91493011
 21
-107.46652777
 31
0.0
  0
LINE
  5
3FB
  8
DIM49
 10
366.16493011
 20
-107.21652777
 30
0.0
 11
367.66493011
 21
-105.71652777
 31
0.0
  0
LINE
  5
3FC
  8
DIM49
 10
351.91493011
 20
-106.46652777
 30
0.0
 11
366.91493011
 21
-106.46652777
 31
0.0
  0
LINE
  5
3FD
  8
DIM49
 10
351.91493011
 20
-108.46652777
 30
0.0
 11
351.91493011
 21
-104.46652777
 31
0.0
  0
LINE
  5
3FE
  8
DIM49
 10
366.91493011
 20
-108.46652777
 30
0.0
 11
366.91493011
 21
-104.46652777
 31
0.0
  0
ENDBLK
  8
0
  0
BLOCK
  8
0
  2
_D12
 70
     0
 10
299.67212982
 20
-121.33846569
 30
0.0
  0
TEXT
  5
401
  8
TXT_DIM49
 10
299.67212982
 20
-121.33846569
 30
0.0
 40
2.5
  1
15
 50
90.00020741
  7
ARIAL
  0
LINE
  5
402
  8
DIM49
 10
302.17212982
 20
-112.91863024
 30
0.0
 11
300.17212982
 21
-110.91863024
 31
0.0
  0
LINE
  5
403
  8
DIM49
 10
300.42212982
 20
-126.16863024
 30
0.0
 11
301.92212982
 21
-127.66863024
 31
0.0
  0
LINE
  5
404
  8
DIM49
 10
301.17212982
 20
-111.91863024
 30
0.0
 11
301.17212982
 21
-126.91863024
 31
0.0
  0
LINE
  5
405
  8
DIM49
 10
303.17212982
 20
-111.91863024
 30
0.0
 11
299.17212982
 21
-111.91863024
 31
0.0
  0
LINE
  5
406
  8
DIM49
 10
303.17212982
 20
-126.91863024
 30
0.0
 11
299.17212982
 21
-126.91863024
 31
0.0
  0
ENDBLK
  8
0
  0
BLOCK
  8
0
  2
_D13
 70
     0
 10
299.67212982
 20
-130.37854797
 30
0.0
  0
TEXT
  5
409
  8
TXT_DIM49
 10
299.67212982
 20
-130.37854797
 30
0.0
 40
2.5
  1
5
 50
90.00020741
  7
ARIAL
  0
LINE
  5
40A
  8
DIM49
 10
302.17212982
 20
-127.91863024
 30
0.0
 11
300.17212982
 21
-125.91863024
 31
0.0
  0
LINE
  5
40B
  8
DIM49
 10
300.42212982
 20
-131.16863024
 30
0.0
 11
301.92212982
 21
-132.66863024
 31
0.0
  0
LINE
  5
40C
  8
DIM49
 10
301.17212982
 20
-126.91863024
 30
0.0
 11
301.17212982
 21
-131.91863024
 31
0.0
  0
LINE
  5
40D
  8
DIM49
 10
303.17212982
 20
-126.91863024
 30
0.0
 11
299.17212982
 21
-126.91863024
 31
0.0
  0
LINE
  5
40E
  8
DIM49
 10
303.17212982
 20
-131.91863024
 30
0.0
 11
299.17212982
 21
-131.91863024
 31
0.0
  0
ENDBLK
  8
0
  0
BLOCK
  8
0
  2
_D14
 70
     0
 10
299.67212982
 20
-153.83846569
 30
0.0
  0
TEXT
  5
411
  8
TXT_DIM49
 10
299.67212982
 20
-153.83846569
 30
0.0
 40
2.5
  1
40
 50
90.00020741
  7
ARIAL
  0
LINE
  5
412
  8
DIM49
 10
302.17212982
 20
-132.91863024
 30
0.0
 11
300.17212982
 21
-130.91863024
 31
0.0
  0
LINE
  5
413
  8
DIM49
 10
300.42212982
 20
-171.16863024
 30
0.0
 11
301.92212982
 21
-172.66863024
 31
0.0
  0
LINE
  5
414
  8
DIM49
 10
301.17212982
 20
-131.91863024
 30
0.0
 11
301.17212982
 21
-171.91863024
 31
0.0
  0
LINE
  5
415
  8
DIM49
 10
303.17212982
 20
-131.91863024
 30
0.0
 11
299.17212982
 21
-131.91863024
 31
0.0
  0
LINE
  5
416
  8
DIM49
 10
303.17212982
 20
-171.91863024
 30
0.0
 11
299.17212982
 21
-171.91863024
 31
0.0
  0
ENDBLK
  8
0
  0
BLOCK
  8
0
  2
_D15
 70
     0
 10
186.11242797
 20
-44.355404
 30
0.0
  0
TEXT
  5
425
  8
TXT_DIM49
 10
186.11242797
 20
-44.355404
 30
0.0
 40
2.5
  1
Ø
 50
90.00020741
  7
ARIAL
  0
TEXT
  5
426
  8
TXT_DIM49
 10
186.11242797
 20
-40.6703311
 30
0.0
 40
2.5
  1
13
 50
90.00020741
  7
ARIAL
  0
LINE
  5
427
  8
DIM49
 10
186.61242797
 20
-46.09303198
 30
0.0
 11
188.61242797
 21
-48.09303198
 31
0.0
  0
LINE
  5
428
  8
DIM49
 10
188.36242797
 20
-34.84303198
 30
0.0
 11
186.86242797
 21
-33.34303198
 31
0.0
  0
LINE
  5
429
  8
DIM49
 10
187.61242797
 20
-47.09303198
 30
0.0
 11
187.61242797
 21
-34.09303198
 31
0.0
  0
LINE
  5
42A
  8
DIM49
 10
189.61242797
 20
-47.09303198
 30
0.0
 11
185.61242797
 21
-47.09303198
 31
0.0
  0
LINE
  5
42B
  8
DIM49
 10
189.61242797
 20
-34.09303198
 30
0.0
 11
185.61242797
 21
-34.09303198
 31
0.0
  0
ENDBLK
  8
0
  0
BLOCK
  8
0
  2
_D16
 70
     0
 10
262.4659587
 20
-2.87000042
 30
0.0
  0
TEXT
  5
42E
  8
TXT_DIM49
 10
262.4659587
 20
-2.87000042
 30
0.0
 40
2.5
  1
11
  7
ARIAL
  0
LINE
  5
42F
  8
DIM49
 10
268.63579415
 20
-5.37000042
 30
0.0
 11
270.63579415
 21
-3.37000042
 31
0.0
  0
LINE
  5
430
  8
DIM49
 10
259.88579415
 20
-3.62000042
 30
0.0
 11
258.38579415
 21
-5.12000042
 31
0.0
  0
LINE
  5
431
  8
DIM49
 10
269.63579415
 20
-4.37000042
 30
0.0
 11
259.13579415
 21
-4.37000042
 31
0.0
  0
LINE
  5
432
  8
DIM49
 10
269.63579415
 20
-6.37000042
 30
0.0
 11
269.63579415
 21
-2.37000042
 31
0.0
  0
LINE
  5
433
  8
DIM49
 10
259.13579415
 20
-6.37000042
 30
0.0
 11
259.13579415
 21
-2.37000042
 31
0.0
  0
ENDBLK
  8
0
  0
BLOCK
  8
0
  2
_D17
 70
     0
 10
224.7159587
 20
-2.87000042
 30
0.0
  0
TEXT
  5
436
  8
TXT_DIM49
 10
224.7159587
 20
-2.87000042
 30
0.0
 40
2.5
  1
65
  7
ARIAL
  0
LINE
  5
437
  8
DIM49
 10
258.13579415
 20
-5.37000042
 30
0.0
 11
260.13579415
 21
-3.37000042
 31
0.0
  0
LINE
  5
438
  8
DIM49
 10
194.88579415
 20
-3.62000042
 30
0.0
 11
193.38579415
 21
-5.12000042
 31
0.0
  0
LINE
  5
439
  8
DIM49
 10
259.13579415
 20
-4.37000042
 30
0.0
 11
194.13579415
 21
-4.37000042
 31
0.0
  0
LINE
  5
43A
  8
DIM49
 10
259.13579415
 20
-6.37000042
 30
0.0
 11
259.13579415
 21
-2.37000042
 31
0.0
  0
LINE
  5
43B
  8
DIM49
 10
194.13579415
 20
-6.37000042
 30
0.0
 11
194.13579415
 21
-2.37000042
 31
0.0
  0
ENDBLK
  8
0
  0
BLOCK
  8
0
  2
_D18
 70
     0
 10
179.9659587
 20
-2.87000042
 30
0.0
  0
TEXT
  5
43E
  8
TXT_DIM49
 10
179.9659587
 20
-2.87000042
 30
0.0
 40
2.5
  1
25
  7
ARIAL
  0
LINE
  5
43F
  8
DIM49
 10
193.13579415
 20
-5.37000042
 30
0.0
 11
195.13579415
 21
-3.37000042
 31
0.0
  0
LINE
  5
440
  8
DIM49
 10
170.38579415
 20
-3.62000042
 30
0.0
 11
168.88579415
 21
-5.12000042
 31
0.0
  0
LINE
  5
441
  8
DIM49
 10
194.13579415
 20
-4.37000042
 30
0.0
 11
169.63579415
 21
-4.37000042
 31
0.0
  0
LINE
  5
442
  8
DIM49
 10
194.13579415
 20
-6.37000042
 30
0.0
 11
194.13579415
 21
-2.37000042
 31
0.0
  0
LINE
  5
443
  8
DIM49
 10
169.63579415
 20
-6.37000042
 30
0.0
 11
169.63579415
 21
-2.37000042
 31
0.0
  0
ENDBLK
  8
0
  0
BLOCK
  8
0
  2
_D19
 70
     0
 10
276.01867822
 20
-27.51286743
 30
0.0
  0
TEXT
  5
446
  8
TXT_DIM49
 10
276.01867822
 20
-27.51286743
 30
0.0
 40
2.5
  1
30
 50
90.00020741
  7
ARIAL
  0
LINE
  5
447
  8
DIM49
 10
278.51867822
 20
-11.59303198
 30
0.0
 11
276.51867822
 21
-9.59303198
 31
0.0
  0
LINE
  5
448
  8
DIM49
 10
276.76867822
 20
-39.84303198
 30
0.0
 11
278.26867822
 21
-41.34303198
 31
0.0
  0
LINE
  5
449
  8
DIM49
 10
277.51867822
 20
-10.59303198
 30
0.0
 11
277.51867822
 21
-40.59303198
 31
0.0
  0
LINE
  5
44A
  8
DIM49
 10
275.51867822
 20
-10.59303198
 30
0.0
 11
279.51867822
 21
-10.59303198
 31
0.0
  0
LINE
  5
44B
  8
DIM49
 10
275.51867822
 20
-40.59303198
 30
0.0
 11
279.51867822
 21
-40.59303198
 31
0.0
  0
ENDBLK
  8
0
  0
BLOCK
  8
0
  2
_D20
 70
     0
 10
276.01867822
 20
-57.51286743
 30
0.0
  0
TEXT
  5
44E
  8
TXT_DIM49
 10
276.01867822
 20
-57.51286743
 30
0.0
 40
2.5
  1
30
 50
90.00020741
  7
ARIAL
  0
LINE
  5
44F
  8
DIM49
 10
278.51867822
 20
-41.59303198
 30
0.0
 11
276.51867822
 21
-39.59303198
 31
0.0
  0
LINE
  5
450
  8
DIM49
 10
276.76867822
 20
-69.84303198
 30
0.0
 11
278.26867822
 21
-71.34303198
 31
0.0
  0
LINE
  5
451
  8
DIM49
 10
277.51867822
 20
-40.59303198
 30
0.0
 11
277.51867822
 21
-70.59303198
 31
0.0
  0
LINE
  5
452
  8
DIM49
 10
275.51867822
 20
-40.59303198
 30
0.0
 11
279.51867822
 21
-40.59303198
 31
0.0
  0
LINE
  5
453
  8
DIM49
 10
275.51867822
 20
-70.59303198
 30
0.0
 11
279.51867822
 21
-70.59303198
 31
0.0
  0
ENDBLK
  8
0
  0
BLOCK
  8
0
  2
_D21
 70
     0
 10
283.96460881
 20
-42.51286743
 30
0.0
  0
TEXT
  5
456
  8
TXT_DIM49
 10
283.96460881
 20
-42.51286743
 30
0.0
 40
2.5
  1
60
 50
90.00020741
  7
ARIAL
  0
LINE
  5
457
  8
DIM49
 10
286.46460881
 20
-11.59303198
 30
0.0
 11
284.46460881
 21
-9.59303198
 31
0.0
  0
LINE
  5
458
  8
DIM49
 10
284.71460881
 20
-69.84303198
 30
0.0
 11
286.21460881
 21
-71.34303198
 31
0.0
  0
LINE
  5
459
  8
DIM49
 10
285.46460881
 20
-10.59303198
 30
0.0
 11
285.46460881
 21
-70.59303198
 31
0.0
  0
LINE
  5
45A
  8
DIM49
 10
283.46460881
 20
-10.59303198
 30
0.0
 11
287.46460881
 21
-10.59303198
 31
0.0
  0
LINE
  5
45B
  8
DIM49
 10
283.46460881
 20
-70.59303198
 30
0.0
 11
287.46460881
 21
-70.59303198
 31
0.0
  0
ENDBLK
  8
0
  0
BLOCK
  8
0
  2
_ZBL0002_00001
 70
     0
 10
0.0
 20
0.0
 30
0.0
  0
INSERT
  5
1B8
  8
0
  2
DINA3_00002
 10
127.57545256
 20
-257.79171599
 30
0.0
  0
ENDBLK
  8
0
  0
BLOCK
  8
0
  2
DINA3_00002
 70
     0
 10
127.57545256
 20
-257.79171599
 30
0.0
  0
POLYLINE
  5
1BB
  8
0
 66
     1
 10
0.0
 20
0.0
 30
0.0
 70
     1
  0
VERTEX
  5
1BC
  8
0
 10
127.57545256
 20
-257.79171599
 30
0.0
  0
VERTEX
  5
1BD
  8
0
 10
547.57545256
 20
-257.79171599
 30
0.0
  0
VERTEX
  5
1BE
  8
0
 10
547.57545256
 20
39.20828401
 30
0.0
  0
VERTEX
  5
1BF
  8
0
 10
127.57545256
 20
39.20828401
 30
0.0
  0
SEQEND
  5
1C0
  8
0
  0
POLYLINE
  5
1C1
  8
0
 66
     1
 10
0.0
 20
0.0
 30
0.0
 70
     1
  0
VERTEX
  5
1C2
  8
0
 10
132.57545256
 20
-252.79171599
 30
0.0
  0
VERTEX
  5
1C3
  8
0
 10
542.57545256
 20
-252.79171599
 30
0.0
  0
VERTEX
  5
1C4
  8
0
 10
542.57545256
 20
34.20828401
 30
0.0
  0
VERTEX
  5
1C5
  8
0
 10
132.57545256
 20
34.20828401
 30
0.0
  0
SEQEND
  5
1C6
  8
0
  0
LINE
  5
1C7
  8
0
 10
357.57545256
 20
-252.79171599
 30
0.0
 11
357.57545256
 21
-257.79171599
 31
0.0
  0
LINE
  5
1C8
  8
0
 10
357.57545256
 20
34.20828401
 30
0.0
 11
357.57545256
 21
39.20828401
 31
0.0
  0
LINE
  5
1C9
  8
0
 10
147.57545256
 20
-252.79171599
 30
0.0
 11
147.57545256
 21
-257.79171599
 31
0.0
  0
LINE
  5
1CA
  8
0
 10
147.57545256
 20
34.20828401
 30
0.0
 11
147.57545256
 21
39.20828401
 31
0.0
  0
TEXT
  5
1CB
  8
TXT_ALL
 62
     4
 10
546.57545256
 20
-256.79171599
 30
0.0
 40
2.5
  1

 50
90.00020741
  0
POLYLINE
  5
1CC
  8
0
 66
     1
 10
0.0
 20
0.0
 30
0.0
  0
VERTEX
  5
1CD
  8
0
 10
542.57545256
 20
24.20828401
 30
0.0
  0
VERTEX
  5
1CE
  8
0
 10
473.58215256
 20
24.20828401
 30
0.0
  0
VERTEX
  5
1CF
  8
0
 10
473.58215256
 20
34.20828401
 30
0.0
  0
SEQEND
  5
1D0
  8
0
  0
LINE
  5
1D1
  8
0
 10
475.48545256
 20
-233.29171599
 30
0.0
 11
335.59545256
 21
-233.29171599
 31
0.0
  0
LINE
  5
1D2
  8
0
 10
335.59545256
 20
-243.04171599
 30
0.0
 11
475.48545256
 21
-243.04171599
 31
0.0
  0
POLYLINE
  5
1D3
  8
0
 66
     1
 10
0.0
 20
0.0
 30
0.0
  0
VERTEX
  5
1D4
  8
0
 10
335.59545256
 20
-233.29171599
 30
0.0
  0
VERTEX
  5
1D5
  8
0
 10
335.59545256
 20
-243.04171599
 30
0.0
  0
VERTEX
  5
1D6
  8
0
 10
335.59545256
 20
-252.79171599
 30
0.0
  0
SEQEND
  5
1D7
  8
0
  0
POLYLINE
  5
1D8
  8
0
 66
     1
 10
0.0
 20
0.0
 30
0.0
  0
VERTEX
  5
1D9
  8
0
 10
405.54045256
 20
-233.29171599
 30
0.0
  0
VERTEX
  5
1DA
  8
0
 10
405.54045256
 20
-243.04171599
 30
0.0
  0
VERTEX
  5
1DB
  8
0
 10
405.54045256
 20
-252.79171599
 30
0.0
  0
SEQEND
  5
1DC
  8
0
  0
INSERT
  5
1DD
  8
0
  2
FLEX_00003
 10
337.59545256
 20
-238.16671599
 30
0.0
  0
INSERT
  5
1DE
  8
0
  2
FLEX_00005
 10
337.59545256
 20
-247.91671599
 30
0.0
  0
INSERT
  5
1DF
  8
0
  2
FLEX_00007
 10
407.54045256
 20
-247.91671599
 30
0.0
  0
INSERT
  5
1E0
  8
0
  2
FLEX_00009
 10
407.54045256
 20
-238.16671599
 30
0.0
  0
INSERT
  5
1E1
  8
0
  2
SCHRIFE_00011
 10
136.01741281
 20
29.20828401
 30
0.0
  0
INSERT
  5
1E2
  8
0
  2
_B_M_P___00015
 10
524.41787864
 20
-257.68171599
 30
0.0
  0
ENDBLK
  8
0
  0
BLOCK
  8
0
  2
FLEX_00003
 70
     0
 10
337.59545256
 20
-238.16671599
 30
0.0
  0
INSERT
  5
1E5
  8
0
  2
TFIELD_00004
 10
337.59545256
 20
-238.16671599
 30
0.0
  0
ENDBLK
  8
0
  0
BLOCK
  8
0
  2
TFIELD_00004
 70
     0
 10
337.59545256
 20
-238.16671599
 30
0.0
  0
TEXT
  5
1E8
  8
TXT_ALL
 10
337.59545256
 20
-239.46671594
 30
0.0
 40
2.5999999
  1
E-mail: verkoop@jonkers-bouwmetaal.nl
  7
ARIAL
  0
ENDBLK
  8
0
  0
BLOCK
  8
0
  2
FLEX_00005
 70
     0
 10
337.59545256
 20
-247.91671599
 30
0.0
  0
INSERT
  5
1EB
  8
0
  2
TFIELD_00006
 10
337.59545256
 20
-247.91671599
 30
0.0
  0
ENDBLK
  8
0
  0
BLOCK
  8
0
  2
TFIELD_00006
 70
     0
 10
337.59545256
 20
-247.91671599
 30
0.0
  0
TEXT
  5
1EE
  8
TXT_ALL
 10
337.59545256
 20
-249.21671594
 30
0.0
 40
2.5999999
  1
Telefoon: 0527-685156
  7
ARIAL
  0
ENDBLK
  8
0
  0
BLOCK
  8
0
  2
FLEX_00007
 70
     0
 10
407.54045256
 20
-247.91671599
 30
0.0
  0
INSERT
  5
1F1
  8
0
  2
TFIELD_00008
 10
407.54045256
 20
-247.91671599
 30
0.0
  0
ENDBLK
  8
0
  0
BLOCK
  8
0
  2
TFIELD_00008
 70
     0
 10
407.54045256
 20
-247.91671599
 30
0.0
  0
TEXT
  5
1F4
  8
TXT_ALL
 10
407.54045256
 20
-249.21671594
 30
0.0
 40
2.5999999
  1
Website: www.jonkers-bouwmetaal.nl
  7
ARIAL
  0
ENDBLK
  8
0
  0
BLOCK
  8
0
  2
FLEX_00009
 70
     0
 10
407.54045256
 20
-238.16671599
 30
0.0
  0
INSERT
  5
1F7
  8
0
  2
TFIELD_00010
 10
407.54045256
 20
-238.16671599
 30
0.0
  0
ENDBLK
  8
0
  0
BLOCK
  8
0
  2
TFIELD_00010
 70
     0
 10
407.54045256
 20
-238.16671599
 30
0.0
  0
TEXT
  5
1FA
  8
TXT_ALL
 10
407.54045256
 20
-239.46671594
 30
0.0
 40
2.5999999
  1
Adres: Hoornse Hop 10, 8321 WX Urk
  7
ARIAL
  0
ENDBLK
  8
0
  0
BLOCK
  8
0
  2
SCHRIFE_00011
 70
     0
 10
136.01741281
 20
29.20828401
 30
0.0
  0
TEXT
  5
1FD
  8
TXT_ALL
 10
136.01741281
 20
27.95828401
 30
0.0
 40
2.5
  1
Art. nr. 91017436
  7
ARIAL
  0
TEXT
  5
1FE
  8
TXT_ALL
 10
178.75544963
 20
27.95828401
 30
0.0
 40
2.5
  1
Omschrijving: H1002-anker 100x60 60x6
  7
ARIAL
  0
LINE
  5
1FF
  8
0
 10
542.57545256
 20
24.20828401
 30
0.0
 11
132.57545256
 21
24.20828401
 31
0.0
  0
LINE
  5
200
  8
0
 10
175.59545256
 20
24.20828401
 30
0.0
 11
175.59545256
 21
34.20828401
 31
0.0
  0
LINE
  5
201
  8
0
 10
335.59545256
 20
24.20828401
 30
0.0
 11
335.59545256
 21
34.20828401
 31
0.0
  0
TEXT
  5
202
  8
TXT_ALL
 10
406.58915256
 20
27.95828401
 30
0.0
 40
2.5
  1
Behandeling: Thermisch Verzinkt
  7
ARIAL
  0
LINE
  5
203
  8
0
 10
475.48545256
 20
-233.29171599
 30
0.0
 11
542.57545256
 21
-233.29171599
 31
0.0
  0
LINE
  5
204
  8
0
 10
475.48545256
 20
-252.79171599
 30
0.0
 11
475.48545256
 21
-233.29171599
 31
0.0
  0
LINE
  5
205
  8
0
 10
475.48545256
 20
-252.79171599
 30
0.0
 11
475.48545256
 21
-233.29171599
 31
0.0
  0
TEXT
  5
206
  8
TXT_ALL
 10
269.94065065
 20
-251.63718258
 30
0.0
 40
2.5
  1

  0
TEXT
  5
207
  8
TXT_ALL
 10
391.07583362
 20
-241.54171599
 30
0.0
 40
2.5
  1

  0
POLYLINE
  5
208
  8
0
 66
     1
 10
0.0
 20
0.0
 30
0.0
  0
VERTEX
  5
209
  8
0
 10
473.58215256
 20
24.20828401
 30
0.0
  0
VERTEX
  5
20A
  8
0
 10
404.58915256
 20
24.20828401
 30
0.0
  0
VERTEX
  5
20B
  8
0
 10
404.58915256
 20
34.20828401
 30
0.0
  0
SEQEND
  5
20C
  8
0
  0
TEXT
  5
20D
  8
TXT_ALL
 10
475.58215256
 20
27.95828401
 30
0.0
 40
2.5
  1
Verpakkingshoeveelheid: 25 st.
  7
ARIAL
  0
TEXT
  5
20E
  8
TXT_ALL
 10
337.59545256
 20
27.95828401
 30
0.0
 40
2.5
  1
Materiaal: S355
  7
ARIAL
  0
INSERT
  5
20F
  8
0
  2
FLEX_00012
 10
517.15068798
 20
-256.79122584
 30
0.0
  0
INSERT
  5
210
  8
0
  2
_B_M_P___00014
 10
476.24481988
 20
-251.99903393
 30
0.0
  0
ENDBLK
  8
0
  0
BLOCK
  8
0
  2
FLEX_00012
 70
     0
 10
517.15068798
 20
-256.79122584
 30
0.0
  0
INSERT
  5
213
  8
0
  2
TFIELD_00013
 10
510.35709979
 20
-255.29122584
 30
0.0
  0
ENDBLK
  8
0
  0
BLOCK
  8
0
  2
TFIELD_00013
 70
     0
 10
510.35709979
 20
-255.29122584
 30
0.0
  0
TEXT
  5
216
  8
TXT_ALL
 10
510.35709979
 20
-256.04122584
 30
0.0
 40
1.5
  1
Onderdeel van
  7
ARIAL
  0
ENDBLK
  8
0
  0
BLOCK
  8
0
  2
_B_M_P___00014
 70
     0
 10
476.24481988
 20
-251.99903393
 30
0.0
  0
ENDBLK
  8
0
  0
BLOCK
  8
0
  2
_B_M_P___00015
 70
     0
 10
524.41787864
 20
-257.68171599
 30
0.0
  0
ENDBLK
  8
0
  0
BLOCK
  8
0
  2
_ANS0003_00016
 70
     0
 10
0.0
 20
0.0
 30
0.0
  0
INSERT
  5
21D
  8
0
  2
_A3D0003_00017
 10
0.0
 20
0.0
 30
0.0
  0
ENDBLK
  8
0
  0
BLOCK
  8
0
  2
_A3D0003_00017
 70
     0
 10
0.0
 20
0.0
 30
0.0
  0
INSERT
  5
220
  8
0
  2
PLAATWERK__D___6MM_00018
 10
0.0
 20
0.0
 30
0.0
  0
ENDBLK
  8
0
  0
BLOCK
  8
0
  2
PLAATWERK__D___6MM_00018
 70
     0
 10
0.0
 20
0.0
 30
0.0
  0
INSERT
  5
223
  8
0
  2
SHEET_FLANGE_00019
 10
0.0
 20
0.0
 30
0.0
  0
INSERT
  5
224
  8
0
  2
BEND_ZONE_00023
 10
0.0
 20
0.0
 30
0.0
  0
INSERT
  5
225
  8
0
  2
SHEET_FLANGE_00025
 10
0.0
 20
0.0
 30
0.0
  0
ENDBLK
  8
0
  0
BLOCK
  8
0
  2
SHEET_FLANGE_00019
 70
     0
 10
0.0
 20
0.0
 30
0.0
  0
INSERT
  5
228
  8
0
  2
SHEET_FLANGE_00020
 10
181.63579415
 20
-171.91863024
 30
0.0
  0
INSERT
  5
229
  8
0
  2
_00021
 10
0.0
 20
0.0
 30
0.0
  0
ENDBLK
  8
0
  0
BLOCK
  8
0
  2
SHEET_FLANGE_00020
 70
     0
 10
181.63579415
 20
-171.91863024
 30
0.0
  0
LINE
  5
22C
  8
LE_ALL
  6
DOT
 62
     3
 10
181.63579415
 20
-171.91863024
 30
0.0
 11
181.63579415
 21
-171.91863024
 31
0.0
  0
LINE
  5
22D
  8
LE_ALL
  6
DOT
 62
     3
 10
181.63579415
 20
-165.91863024
 30
0.0
 11
181.63579415
 21
-165.91863024
 31
0.0
  0
LINE
  5
22E
  8
LE_ALL
  6
DOT
 62
     3
 10
269.63579415
 20
-171.91863024
 30
0.0
 11
269.63579415
 21
-171.91863024
 31
0.0
  0
LINE
  5
22F
  8
LE_ALL
  6
DOT
 62
     3
 10
269.63579415
 20
-165.91863024
 30
0.0
 11
269.63579415
 21
-165.91863024
 31
0.0
  0
LINE
  5
230
  8
LE_ALL
  6
DOT
 62
     3
 10
252.63579415
 20
-171.91863024
 30
0.0
 11
252.63579415
 21
-165.91863024
 31
0.0
  0
LINE
  5
231
  8
LE_ALL
  6
DOT
 62
     3
 10
200.63579415
 20
-171.91863024
 30
0.0
 11
200.63579415
 21
-165.91863024
 31
0.0
  0
LINE
  5
232
  8
LE_ALL
  6
DOT
 62
     3
 10
194.13579415
 20
-171.91863024
 30
0.0
 11
194.13579415
 21
-165.91863024
 31
0.0
  0
LINE
  5
233
  8
LE_ALL
  6
DOT
 62
     3
 10
259.13579415
 20
-171.91863024
 30
0.0
 11
259.13579415
 21
-165.91863024
 31
0.0
  0
LINE
  5
234
  8
LE_ALL
 10
269.63579415
 20
-165.91863024
 30
0.0
 11
181.63579415
 21
-165.91863024
 31
0.0
  0
LINE
  5
235
  8
LE_ALL
 10
269.63579415
 20
-171.91863024
 30
0.0
 11
269.63579415
 21
-165.91863024
 31
0.0
  0
LINE
  5
236
  8
LE_ALL
 10
181.63579415
 20
-171.91863024
 30
0.0
 11
269.63579415
 21
-171.91863024
 31
0.0
  0
ENDBLK
  8
0
  0
BLOCK
  8
0
  2
_00021
 70
     0
 10
0.0
 20
0.0
 30
0.0
  0
INSERT
  5
239
  8
0
  2
_00022
 10
200.63579415
 20
-162.91863024
 30
0.0
  0
ENDBLK
  8
0
  0
BLOCK
  8
0
  2
_00022
 70
     0
 10
200.63579415
 20
-162.91863024
 30
0.0
  0
LINE
  5
23C
  8
LE_ALL
  6
STRICHPUNKT2
 62
     1
 10
200.63579415
 20
-162.91863024
 30
0.0
 11
200.63579415
 21
-174.91863024
 31
0.0
  0
LINE
  5
23D
  8
LE_ALL
  6
STRICHPUNKT2
 62
     1
 10
252.63579415
 20
-162.91863024
 30
0.0
 11
252.63579415
 21
-174.91863024
 31
0.0
  0
ENDBLK
  8
0
  0
BLOCK
  8
0
  2
BEND_ZONE_00023
 70
     0
 10
0.0
 20
0.0
 30
0.0
  0
INSERT
  5
240
  8
0
  2
BEND_ZONE_00024
 10
169.63579415
 20
-159.91863024
 30
0.0
  0
ENDBLK
  8
0
  0
BLOCK
  8
0
  2
BEND_ZONE_00024
 70
     0
 10
169.63579415
 20
-159.91863024
 30
0.0
  0
LINE
  5
243
  8
LE_ALL
  6
DOT
 62
     3
 10
169.63579415
 20
-159.91863024
 30
0.0
 11
169.63579415
 21
-159.91863024
 31
0.0
  0
LINE
  5
244
  8
LE_ALL
  6
DOT
 62
     3
 10
175.63579415
 20
-159.91863024
 30
0.0
 11
175.63579415
 21
-159.91863024
 31
0.0
  0
LINE
  5
245
  8
LE_ALL
  6
DOT
 62
     3
 10
181.63579415
 20
-171.91863024
 30
0.0
 11
181.63579415
 21
-171.91863024
 31
0.0
  0
LINE
  5
246
  8
LE_ALL
  6
DOT
 62
     3
 10
181.63579415
 20
-165.91863024
 30
0.0
 11
181.63579415
 21
-165.91863024
 31
0.0
  0
ARC
  5
247
  8
LE_ALL
 10
181.63579415
 20
-159.91863024
 30
0.0
 40
12.0
 50
180.0
 51
-90.0
  0
ARC
  5
248
  8
LE_ALL
 10
181.63579415
 20
-159.91863024
 30
0.0
 40
6.0
 50
180.0
 51
-90.0
  0
ENDBLK
  8
0
  0
BLOCK
  8
0
  2
SHEET_FLANGE_00025
 70
     0
 10
0.0
 20
0.0
 30
0.0
  0
INSERT
  5
24B
  8
0
  2
SHEET_FLANGE_00026
 10
169.63579415
 20
-159.91863024
 30
0.0
  0
INSERT
  5
24C
  8
0
  2
_00027
 10
0.0
 20
0.0
 30
0.0
  0
ENDBLK
  8
0
  0
BLOCK
  8
0
  2
SHEET_FLANGE_00026
 70
     0
 10
169.63579415
 20
-159.91863024
 30
0.0
  0
LINE
  5
24F
  8
LE_ALL
  6
DOT
 62
     3
 10
169.63579415
 20
-159.91863024
 30
0.0
 11
169.63579415
 21
-159.91863024
 31
0.0
  0
LINE
  5
250
  8
LE_ALL
  6
DOT
 62
     3
 10
175.63579415
 20
-159.91863024
 30
0.0
 11
175.63579415
 21
-159.91863024
 31
0.0
  0
LINE
  5
251
  8
LE_ALL
  6
DOT
 62
     3
 10
169.63579415
 20
-111.91863024
 30
0.0
 11
169.63579415
 21
-111.91863024
 31
0.0
  0
LINE
  5
252
  8
LE_ALL
  6
DOT
 62
     3
 10
175.63579415
 20
-111.91863024
 30
0.0
 11
175.63579415
 21
-111.91863024
 31
0.0
  0
LINE
  5
253
  8
LE_ALL
  6
DOT
 62
     3
 10
175.63579415
 20
-122.41863024
 30
0.0
 11
169.63579415
 21
-122.41863024
 31
0.0
  0
LINE
  5
254
  8
LE_ALL
  6
DOT
 62
     3
 10
175.63579415
 20
-131.41863024
 30
0.0
 11
169.63579415
 21
-131.41863024
 31
0.0
  0
LINE
  5
255
  8
LE_ALL
  6
DOT
 62
     3
 10
175.63579415
 20
-126.41863024
 30
0.0
 11
169.63579415
 21
-126.41863024
 31
0.0
  0
LINE
  5
256
  8
LE_ALL
  6
DOT
 62
     3
 10
175.63579415
 20
-137.41863024
 30
0.0
 11
169.63579415
 21
-137.41863024
 31
0.0
  0
POLYLINE
  5
257
  8
LE_ALL
 66
     1
 10
0.0
 20
0.0
 30
0.0
  0
VERTEX
  5
258
  8
LE_ALL
 10
169.63579415
 20
-111.91863024
 30
0.0
  0
VERTEX
  5
259
  8
LE_ALL
 10
175.63579415
 20
-111.91863024
 30
0.0
  0
VERTEX
  5
25A
  8
LE_ALL
 10
175.63579415
 20
-159.91863024
 30
0.0
  0
SEQEND
  5
25B
  8
LE_ALL
  0
LINE
  5
25C
  8
LE_ALL
 10
169.63579415
 20
-159.91863024
 30
0.0
 11
169.63579415
 21
-111.91863024
 31
0.0
  0
ENDBLK
  8
0
  0
BLOCK
  8
0
  2
_00027
 70
     0
 10
0.0
 20
0.0
 30
0.0
  0
INSERT
  5
25F
  8
0
  2
_00028
 10
177.88579415
 20
-126.91863024
 30
0.0
  0
ENDBLK
  8
0
  0
BLOCK
  8
0
  2
_00028
 70
     0
 10
177.88579415
 20
-126.91863024
 30
0.0
  0
LINE
  5
262
  8
LE_ALL
  6
STRICHPUNKT2
 62
     1
 10
177.88579415
 20
-126.91863024
 30
0.0
 11
167.38579415
 21
-126.91863024
 31
0.0
  0
LINE
  5
263
  8
LE_ALL
  6
STRICHPUNKT2
 62
     1
 10
178.38579415
 20
-131.91863024
 30
0.0
 11
166.88579415
 21
-131.91863024
 31
0.0
  0
LINE
  5
264
  8
LE_ALL
  6
STRICHPUNKT2
 62
     1
 10
177.88579415
 20
-126.91863024
 30
0.0
 11
167.38579415
 21
-126.91863024
 31
0.0
  0
ENDBLK
  8
0
  0
BLOCK
  8
0
  2
_ANS0004_00029
 70
     0
 10
0.0
 20
0.0
 30
0.0
  0
INSERT
  5
267
  8
0
  2
_A3D0004_00030
 10
0.0
 20
0.0
 30
0.0
  0
ENDBLK
  8
0
  0
BLOCK
  8
0
  2
_A3D0004_00030
 70
     0
 10
0.0
 20
0.0
 30
0.0
  0
INSERT
  5
26A
  8
0
  2
PLAATWERK__D___6MM_00031
 10
0.0
 20
0.0
 30
0.0
  0
ENDBLK
  8
0
  0
BLOCK
  8
0
  2
PLAATWERK__D___6MM_00031
 70
     0
 10
0.0
 20
0.0
 30
0.0
  0
INSERT
  5
26D
  8
0
  2
SHEET_FLANGE_00032
 10
0.0
 20
0.0
 30
0.0
  0
INSERT
  5
26E
  8
0
  2
BEND_ZONE_00036
 10
0.0
 20
0.0
 30
0.0
  0
INSERT
  5
26F
  8
0
  2
SHEET_FLANGE_00038
 10
0.0
 20
0.0
 30
0.0
  0
ENDBLK
  8
0
  0
BLOCK
  8
0
  2
SHEET_FLANGE_00032
 70
     0
 10
0.0
 20
0.0
 30
0.0
  0
INSERT
  5
272
  8
0
  2
SHEET_FLANGE_00033
 10
306.91493011
 20
-171.91863024
 30
0.0
  0
INSERT
  5
273
  8
0
  2
_00034
 10
0.0
 20
0.0
 30
0.0
  0
ENDBLK
  8
0
  0
BLOCK
  8
0
  2
SHEET_FLANGE_00033
 70
     0
 10
306.91493011
 20
-171.91863024
 30
0.0
  0
LINE
  5
276
  8
LE_ALL
  6
DOT
 62
     3
 10
306.91493011
 20
-171.91863024
 30
0.0
 11
306.91493011
 21
-171.91863024
 31
0.0
  0
LINE
  5
277
  8
LE_ALL
  6
DOT
 62
     3
 10
306.91493011
 20
-165.91863024
 30
0.0
 11
306.91493011
 21
-165.91863024
 31
0.0
  0
LINE
  5
278
  8
LE_ALL
  6
DOT
 62
     3
 10
366.91493011
 20
-171.91863024
 30
0.0
 11
366.91493011
 21
-171.91863024
 31
0.0
  0
LINE
  5
279
  8
LE_ALL
  6
DOT
 62
     3
 10
366.91493011
 20
-165.91863024
 30
0.0
 11
366.91493011
 21
-165.91863024
 31
0.0
  0
LINE
  5
27A
  8
LE_ALL
  6
DOT
 62
     3
 10
330.41493011
 20
-171.91863024
 30
0.0
 11
330.41493011
 21
-171.91863024
 31
0.0
  0
LINE
  5
27B
  8
LE_ALL
  6
DOT
 62
     3
 10
343.41493011
 20
-171.91863024
 30
0.0
 11
343.41493011
 21
-171.91863024
 31
0.0
  0
LINE
  5
27C
  8
LE_ALL
  6
DOT
 62
     3
 10
330.41493011
 20
-165.91863024
 30
0.0
 11
330.41493011
 21
-165.91863024
 31
0.0
  0
LINE
  5
27D
  8
LE_ALL
  6
DOT
 62
     3
 10
330.41493011
 20
-171.91863024
 30
0.0
 11
330.41493011
 21
-165.91863024
 31
0.0
  0
LINE
  5
27E
  8
LE_ALL
  6
DOT
 62
     3
 10
343.41493011
 20
-165.91863024
 30
0.0
 11
343.41493011
 21
-165.91863024
 31
0.0
  0
LINE
  5
27F
  8
LE_ALL
  6
DOT
 62
     3
 10
343.41493011
 20
-171.91863024
 30
0.0
 11
343.41493011
 21
-165.91863024
 31
0.0
  0
LINE
  5
280
  8
LE_ALL
 10
306.91493011
 20
-171.91863024
 30
0.0
 11
306.91493011
 21
-165.91863024
 31
0.0
  0
LINE
  5
281
  8
LE_ALL
 10
366.91493011
 20
-165.91863024
 30
0.0
 11
306.91493011
 21
-165.91863024
 31
0.0
  0
LINE
  5
282
  8
LE_ALL
 10
366.91493011
 20
-171.91863024
 30
0.0
 11
366.91493011
 21
-165.91863024
 31
0.0
  0
LINE
  5
283
  8
LE_ALL
 10
306.91493011
 20
-171.91863024
 30
0.0
 11
366.91493011
 21
-171.91863024
 31
0.0
  0
ENDBLK
  8
0
  0
BLOCK
  8
0
  2
_00034
 70
     0
 10
0.0
 20
0.0
 30
0.0
  0
INSERT
  5
286
  8
0
  2
_00035
 10
336.91493011
 20
-162.91863024
 30
0.0
  0
ENDBLK
  8
0
  0
BLOCK
  8
0
  2
_00035
 70
     0
 10
336.91493011
 20
-162.91863024
 30
0.0
  0
LINE
  5
289
  8
LE_ALL
  6
STRICHPUNKT2
 62
     1
 10
336.91493011
 20
-162.91863024
 30
0.0
 11
336.91493011
 21
-174.91863024
 31
0.0
  0
LINE
  5
28A
  8
LE_ALL
  6
STRICHPUNKT2
 62
     1
 10
336.91493011
 20
-162.91863024
 30
0.0
 11
336.91493011
 21
-174.91863024
 31
0.0
  0
ENDBLK
  8
0
  0
BLOCK
  8
0
  2
BEND_ZONE_00036
 70
     0
 10
0.0
 20
0.0
 30
0.0
  0
INSERT
  5
28D
  8
0
  2
BEND_ZONE_00037
 10
306.91493011
 20
-165.91863024
 30
0.0
  0
ENDBLK
  8
0
  0
BLOCK
  8
0
  2
BEND_ZONE_00037
 70
     0
 10
306.91493011
 20
-165.91863024
 30
0.0
  0
LINE
  5
290
  8
LE_ALL
  6
DOT
 62
     3
 10
306.91493011
 20
-165.91863024
 30
0.0
 11
366.91493011
 21
-165.91863024
 31
0.0
  0
LINE
  5
291
  8
LE_ALL
 10
306.91493011
 20
-159.91863024
 30
0.0
 11
306.91493011
 21
-165.91863024
 31
0.0
  0
LINE
  5
292
  8
LE_ALL
 10
306.91493011
 20
-159.91863024
 30
0.0
 11
366.91493011
 21
-159.91863024
 31
0.0
  0
LINE
  5
293
  8
LE_ALL
 10
366.91493011
 20
-165.91863024
 30
0.0
 11
366.91493011
 21
-159.91863024
 31
0.0
  0
ENDBLK
  8
0
  0
BLOCK
  8
0
  2
SHEET_FLANGE_00038
 70
     0
 10
0.0
 20
0.0
 30
0.0
  0
INSERT
  5
296
  8
0
  2
SHEET_FLANGE_00039
 10
366.91493011
 20
-111.91863024
 30
0.0
  0
INSERT
  5
297
  8
0
  2
_00040
 10
0.0
 20
0.0
 30
0.0
  0
ENDBLK
  8
0
  0
BLOCK
  8
0
  2
SHEET_FLANGE_00039
 70
     0
 10
366.91493011
 20
-111.91863024
 30
0.0
  0
LINE
  5
29A
  8
LE_ALL
  6
DOT
 62
     3
 10
366.91493011
 20
-111.91863024
 30
0.0
 11
366.91493011
 21
-111.91863024
 31
0.0
  0
LINE
  5
29B
  8
LE_ALL
  6
DOT
 62
     3
 10
306.91493011
 20
-111.91863024
 30
0.0
 11
306.91493011
 21
-111.91863024
 31
0.0
  0
CIRCLE
  5
29C
  8
LE_ALL
 10
336.91493011
 20
-131.91863024
 30
0.0
 40
5.5
  0
CIRCLE
  5
29D
  8
LE_ALL
 10
351.91493011
 20
-126.91863024
 30
0.0
 40
4.5
  0
CIRCLE
  5
29E
  8
LE_ALL
 10
321.91493011
 20
-126.91863024
 30
0.0
 40
4.5
  0
POLYLINE
  5
29F
  8
LE_ALL
 66
     1
 10
0.0
 20
0.0
 30
0.0
 70
     1
  0
VERTEX
  5
2A0
  8
LE_ALL
 10
366.91493011
 20
-159.91863024
 30
0.0
  0
VERTEX
  5
2A1
  8
LE_ALL
 10
366.91493011
 20
-111.91863024
 30
0.0
  0
VERTEX
  5
2A2
  8
LE_ALL
 10
306.91493011
 20
-111.91863024
 30
0.0
  0
VERTEX
  5
2A3
  8
LE_ALL
 10
306.91493011
 20
-159.91863024
 30
0.0
  0
SEQEND
  5
2A4
  8
LE_ALL
  0
ENDBLK
  8
0
  0
BLOCK
  8
0
  2
_00040
 70
     0
 10
0.0
 20
0.0
 30
0.0
  0
INSERT
  5
2A7
  8
0
  2
_00041
 10
321.91493011
 20
-126.91863024
 30
0.0
  0
ENDBLK
  8
0
  0
BLOCK
  8
0
  2
_00041
 70
     0
 10
321.91493011
 20
-126.91863024
 30
0.0
  0
LINE
  5
2AA
  8
LE_ALL
  6
STRICHPUNKT2
 62
     1
 10
321.91493011
 20
-126.91863024
 30
0.0
 11
328.66493011
 21
-126.91863024
 31
0.0
  0
LINE
  5
2AB
  8
LE_ALL
  6
STRICHPUNKT2
 62
     1
 10
321.91493011
 20
-126.91863024
 30
0.0
 11
315.16493011
 21
-126.91863024
 31
0.0
  0
LINE
  5
2AC
  8
LE_ALL
  6
STRICHPUNKT2
 62
     1
 10
321.91493011
 20
-126.91863024
 30
0.0
 11
321.91493011
 21
-120.16863024
 31
0.0
  0
LINE
  5
2AD
  8
LE_ALL
  6
STRICHPUNKT2
 62
     1
 10
321.91493011
 20
-126.91863024
 30
0.0
 11
321.91493011
 21
-133.66863024
 31
0.0
  0
LINE
  5
2AE
  8
LE_ALL
  6
STRICHPUNKT2
 62
     1
 10
321.91493011
 20
-126.91863024
 30
0.0
 11
328.66493011
 21
-126.91863024
 31
0.0
  0
LINE
  5
2AF
  8
LE_ALL
  6
STRICHPUNKT2
 62
     1
 10
321.91493011
 20
-126.91863024
 30
0.0
 11
315.16493011
 21
-126.91863024
 31
0.0
  0
LINE
  5
2B0
  8
LE_ALL
  6
STRICHPUNKT2
 62
     1
 10
321.91493011
 20
-126.91863024
 30
0.0
 11
321.91493011
 21
-120.16863024
 31
0.0
  0
LINE
  5
2B1
  8
LE_ALL
  6
STRICHPUNKT2
 62
     1
 10
321.91493011
 20
-126.91863024
 30
0.0
 11
321.91493011
 21
-133.66863024
 31
0.0
  0
LINE
  5
2B2
  8
LE_ALL
  6
STRICHPUNKT2
 62
     1
 10
351.91493011
 20
-126.91863024
 30
0.0
 11
358.66493011
 21
-126.91863024
 31
0.0
  0
LINE
  5
2B3
  8
LE_ALL
  6
STRICHPUNKT2
 62
     1
 10
351.91493011
 20
-126.91863024
 30
0.0
 11
345.16493011
 21
-126.91863024
 31
0.0
  0
LINE
  5
2B4
  8
LE_ALL
  6
STRICHPUNKT2
 62
     1
 10
351.91493011
 20
-126.91863024
 30
0.0
 11
351.91493011
 21
-120.16863024
 31
0.0
  0
LINE
  5
2B5
  8
LE_ALL
  6
STRICHPUNKT2
 62
     1
 10
351.91493011
 20
-126.91863024
 30
0.0
 11
351.91493011
 21
-133.66863024
 31
0.0
  0
LINE
  5
2B6
  8
LE_ALL
  6
STRICHPUNKT2
 62
     1
 10
351.91493011
 20
-126.91863024
 30
0.0
 11
358.66493011
 21
-126.91863024
 31
0.0
  0
LINE
  5
2B7
  8
LE_ALL
  6
STRICHPUNKT2
 62
     1
 10
351.91493011
 20
-126.91863024
 30
0.0
 11
345.16493011
 21
-126.91863024
 31
0.0
  0
LINE
  5
2B8
  8
LE_ALL
  6
STRICHPUNKT2
 62
     1
 10
351.91493011
 20
-126.91863024
 30
0.0
 11
351.91493011
 21
-120.16863024
 31
0.0
  0
LINE
  5
2B9
  8
LE_ALL
  6
STRICHPUNKT2
 62
     1
 10
351.91493011
 20
-126.91863024
 30
0.0
 11
351.91493011
 21
-133.66863024
 31
0.0
  0
LINE
  5
2BA
  8
LE_ALL
  6
STRICHPUNKT2
 62
     1
 10
336.91493011
 20
-131.91863024
 30
0.0
 11
345.16493011
 21
-131.91863024
 31
0.0
  0
LINE
  5
2BB
  8
LE_ALL
  6
STRICHPUNKT2
 62
     1
 10
336.91493011
 20
-131.91863024
 30
0.0
 11
328.66493011
 21
-131.91863024
 31
0.0
  0
LINE
  5
2BC
  8
LE_ALL
  6
STRICHPUNKT2
 62
     1
 10
336.91493011
 20
-131.91863024
 30
0.0
 11
336.91493011
 21
-123.66863024
 31
0.0
  0
LINE
  5
2BD
  8
LE_ALL
  6
STRICHPUNKT2
 62
     1
 10
336.91493011
 20
-131.91863024
 30
0.0
 11
336.91493011
 21
-140.16863024
 31
0.0
  0
LINE
  5
2BE
  8
LE_ALL
  6
STRICHPUNKT2
 62
     1
 10
336.91493011
 20
-131.91863024
 30
0.0
 11
345.16493011
 21
-131.91863024
 31
0.0
  0
LINE
  5
2BF
  8
LE_ALL
  6
STRICHPUNKT2
 62
     1
 10
336.91493011
 20
-131.91863024
 30
0.0
 11
328.66493011
 21
-131.91863024
 31
0.0
  0
LINE
  5
2C0
  8
LE_ALL
  6
STRICHPUNKT2
 62
     1
 10
336.91493011
 20
-131.91863024
 30
0.0
 11
336.91493011
 21
-123.66863024
 31
0.0
  0
LINE
  5
2C1
  8
LE_ALL
  6
STRICHPUNKT2
 62
     1
 10
336.91493011
 20
-131.91863024
 30
0.0
 11
336.91493011
 21
-140.16863024
 31
0.0
  0
ENDBLK
  8
0
  0
BLOCK
  8
0
  2
_ANS0005_00042
 70
     0
 10
0.0
 20
0.0
 30
0.0
  0
INSERT
  5
2C4
  8
0
  2
_A3D0005_00043
 10
0.0
 20
0.0
 30
0.0
  0
ENDBLK
  8
0
  0
BLOCK
  8
0
  2
_A3D0005_00043
 70
     0
 10
0.0
 20
0.0
 30
0.0
  0
INSERT
  5
2C7
  8
0
  2
PLAATWERK__D___6MM_00044
 10
0.0
 20
0.0
 30
0.0
  0
ENDBLK
  8
0
  0
BLOCK
  8
0
  2
PLAATWERK__D___6MM_00044
 70
     0
 10
0.0
 20
0.0
 30
0.0
  0
INSERT
  5
2CA
  8
0
  2
SHEET_FLANGE_00045
 10
0.0
 20
0.0
 30
0.0
  0
INSERT
  5
2CB
  8
0
  2
BEND_ZONE_00049
 10
0.0
 20
0.0
 30
0.0
  0
INSERT
  5
2CC
  8
0
  2
SHEET_FLANGE_00051
 10
0.0
 20
0.0
 30
0.0
  0
ENDBLK
  8
0
  0
BLOCK
  8
0
  2
SHEET_FLANGE_00045
 70
     0
 10
0.0
 20
0.0
 30
0.0
  0
INSERT
  5
2CF
  8
0
  2
SHEET_FLANGE_00046
 10
269.63579415
 20
-70.59303198
 30
0.0
  0
INSERT
  5
2D0
  8
0
  2
_00047
 10
0.0
 20
0.0
 30
0.0
  0
ENDBLK
  8
0
  0
BLOCK
  8
0
  2
SHEET_FLANGE_00046
 70
     0
 10
269.63579415
 20
-70.59303198
 30
0.0
  0
LINE
  5
2D3
  8
LE_ALL
  6
DOT
 62
     3
 10
269.63579415
 20
-70.59303198
 30
0.0
 11
269.63579415
 21
-70.59303198
 31
0.0
  0
LINE
  5
2D4
  8
LE_ALL
  6
DOT
 62
     3
 10
269.63579415
 20
-10.59303198
 30
0.0
 11
269.63579415
 21
-10.59303198
 31
0.0
  0
LINE
  5
2D5
  8
LE_ALL
  6
DOT
 62
     3
 10
252.63579415
 20
-47.09303198
 30
0.0
 11
252.63579415
 21
-47.09303198
 31
0.0
  0
LINE
  5
2D6
  8
LE_ALL
  6
DOT
 62
     3
 10
200.63579415
 20
-47.09303198
 30
0.0
 11
200.63579415
 21
-47.09303198
 31
0.0
  0
LINE
  5
2D7
  8
LE_ALL
  6
DOT
 62
     3
 10
200.63579415
 20
-34.09303198
 30
0.0
 11
200.63579415
 21
-34.09303198
 31
0.0
  0
LINE
  5
2D8
  8
LE_ALL
  6
DOT
 62
     3
 10
252.63579415
 20
-34.09303198
 30
0.0
 11
252.63579415
 21
-34.09303198
 31
0.0
  0
POLYLINE
  5
2D9
  8
LE_ALL
 66
     1
 10
0.0
 20
0.0
 30
0.0
 70
     1
  0
VERTEX
  5
2DA
  8
LE_ALL
 10
200.63579415
 20
-47.09303198
 30
0.0
 42
-1.0
  0
VERTEX
  5
2DB
  8
LE_ALL
 10
200.63579415
 20
-34.09303198
 30
0.0
  0
VERTEX
  5
2DC
  8
LE_ALL
 10
252.63579415
 20
-34.09303198
 30
0.0
 42
-1.0
  0
VERTEX
  5
2DD
  8
LE_ALL
 10
252.63579415
 20
-47.09303198
 30
0.0
  0
SEQEND
  5
2DE
  8
LE_ALL
  0
POLYLINE
  5
2DF
  8
LE_ALL
 66
     1
 10
0.0
 20
0.0
 30
0.0
 70
     1
  0
VERTEX
  5
2E0
  8
LE_ALL
 10
269.63579415
 20
-70.59303198
 30
0.0
  0
VERTEX
  5
2E1
  8
LE_ALL
 10
181.63579415
 20
-70.59303198
 30
0.0
  0
VERTEX
  5
2E2
  8
LE_ALL
 10
181.63579415
 20
-10.59303198
 30
0.0
  0
VERTEX
  5
2E3
  8
LE_ALL
 10
269.63579415
 20
-10.59303198
 30
0.0
  0
SEQEND
  5
2E4
  8
LE_ALL
  0
ENDBLK
  8
0
  0
BLOCK
  8
0
  2
_00047
 70
     0
 10
0.0
 20
0.0
 30
0.0
  0
INSERT
  5
2E7
  8
0
  2
_00048
 10
191.13579415
 20
-40.59303198
 30
0.0
  0
ENDBLK
  8
0
  0
BLOCK
  8
0
  2
_00048
 70
     0
 10
191.13579415
 20
-40.59303198
 30
0.0
  0
LINE
  5
2EA
  8
LE_ALL
  6
STRICHPUNKT2
 62
     1
 10
191.13579415
 20
-40.59303198
 30
0.0
 11
262.13579415
 21
-40.59303198
 31
0.0
  0
LINE
  5
2EB
  8
LE_ALL
  6
STRICHPUNKT2
 62
     1
 10
200.63579415
 20
-50.09303198
 30
0.0
 11
200.63579415
 21
-31.09303198
 31
0.0
  0
LINE
  5
2EC
  8
LE_ALL
  6
STRICHPUNKT2
 62
     1
 10
252.63579415
 20
-50.09303198
 30
0.0
 11
252.63579415
 21
-31.09303198
 31
0.0
  0
LINE
  5
2ED
  8
LE_ALL
  6
STRICHPUNKT2
 62
     1
 10
191.13579415
 20
-40.59303198
 30
0.0
 11
262.13579415
 21
-40.59303198
 31
0.0
  0
LINE
  5
2EE
  8
LE_ALL
  6
STRICHPUNKT2
 62
     1
 10
200.63579415
 20
-50.09303198
 30
0.0
 11
200.63579415
 21
-31.09303198
 31
0.0
  0
LINE
  5
2EF
  8
LE_ALL
  6
STRICHPUNKT2
 62
     1
 10
252.63579415
 20
-50.09303198
 30
0.0
 11
252.63579415
 21
-31.09303198
 31
0.0
  0
ENDBLK
  8
0
  0
BLOCK
  8
0
  2
BEND_ZONE_00049
 70
     0
 10
0.0
 20
0.0
 30
0.0
  0
INSERT
  5
2F2
  8
0
  2
BEND_ZONE_00050
 10
175.63579415
 20
-70.59303198
 30
0.0
  0
ENDBLK
  8
0
  0
BLOCK
  8
0
  2
BEND_ZONE_00050
 70
     0
 10
175.63579415
 20
-70.59303198
 30
0.0
  0
LINE
  5
2F5
  8
LE_ALL
  6
DOT
 62
     3
 10
175.63579415
 20
-70.59303198
 30
0.0
 11
175.63579415
 21
-10.59303198
 31
0.0
  0
POLYLINE
  5
2F6
  8
LE_ALL
 66
     1
 10
0.0
 20
0.0
 30
0.0
  0
VERTEX
  5
2F7
  8
LE_ALL
 10
175.63579415
 20
-70.59303198
 30
0.0
  0
VERTEX
  5
2F8
  8
LE_ALL
 10
181.63579415
 20
-70.59303198
 30
0.0
  0
VERTEX
  5
2F9
  8
LE_ALL
 10
181.63579415
 20
-10.59303198
 30
0.0
  0
VERTEX
  5
2FA
  8
LE_ALL
 10
175.63579415
 20
-10.59303198
 30
0.0
  0
SEQEND
  5
2FB
  8
LE_ALL
  0
ENDBLK
  8
0
  0
BLOCK
  8
0
  2
SHEET_FLANGE_00051
 70
     0
 10
0.0
 20
0.0
 30
0.0
  0
INSERT
  5
2FE
  8
0
  2
SHEET_FLANGE_00052
 10
169.63579415
 20
-10.59303198
 30
0.0
  0
INSERT
  5
2FF
  8
0
  2
_00053
 10
0.0
 20
0.0
 30
0.0
  0
ENDBLK
  8
0
  0
BLOCK
  8
0
  2
SHEET_FLANGE_00052
 70
     0
 10
169.63579415
 20
-10.59303198
 30
0.0
  0
LINE
  5
302
  8
LE_ALL
  6
DOT
 62
     3
 10
169.63579415
 20
-10.59303198
 30
0.0
 11
169.63579415
 21
-10.59303198
 31
0.0
  0
LINE
  5
303
  8
LE_ALL
  6
DOT
 62
     3
 10
175.63579415
 20
-10.59303198
 30
0.0
 11
175.63579415
 21
-10.59303198
 31
0.0
  0
LINE
  5
304
  8
LE_ALL
  6
DOT
 62
     3
 10
169.63579415
 20
-70.59303198
 30
0.0
 11
169.63579415
 21
-70.59303198
 31
0.0
  0
LINE
  5
305
  8
LE_ALL
  6
DOT
 62
     3
 10
175.63579415
 20
-70.59303198
 30
0.0
 11
175.63579415
 21
-70.59303198
 31
0.0
  0
LINE
  5
306
  8
LE_ALL
  6
DOT
 62
     3
 10
175.63579415
 20
-51.09303198
 30
0.0
 11
169.63579415
 21
-51.09303198
 31
0.0
  0
LINE
  5
307
  8
LE_ALL
  6
DOT
 62
     3
 10
175.63579415
 20
-60.09303198
 30
0.0
 11
169.63579415
 21
-60.09303198
 31
0.0
  0
LINE
  5
308
  8
LE_ALL
  6
DOT
 62
     3
 10
175.63579415
 20
-21.09303198
 30
0.0
 11
169.63579415
 21
-21.09303198
 31
0.0
  0
LINE
  5
309
  8
LE_ALL
  6
DOT
 62
     3
 10
175.63579415
 20
-30.09303198
 30
0.0
 11
169.63579415
 21
-30.09303198
 31
0.0
  0
LINE
  5
30A
  8
LE_ALL
  6
DOT
 62
     3
 10
175.63579415
 20
-35.09303198
 30
0.0
 11
169.63579415
 21
-35.09303198
 31
0.0
  0
LINE
  5
30B
  8
LE_ALL
  6
DOT
 62
     3
 10
175.63579415
 20
-46.09303198
 30
0.0
 11
169.63579415
 21
-46.09303198
 31
0.0
  0
POLYLINE
  5
30C
  8
LE_ALL
 66
     1
 10
0.0
 20
0.0
 30
0.0
  0
VERTEX
  5
30D
  8
LE_ALL
 10
169.63579415
 20
-10.59303198
 30
0.0
  0
VERTEX
  5
30E
  8
LE_ALL
 10
175.63579415
 20
-10.59303198
 30
0.0
  0
VERTEX
  5
30F
  8
LE_ALL
 10
175.63579415
 20
-70.59303198
 30
0.0
  0
SEQEND
  5
310
  8
LE_ALL
  0
LINE
  5
311
  8
LE_ALL
 10
169.63579415
 20
-70.59303198
 30
0.0
 11
175.63579415
 21
-70.59303198
 31
0.0
  0
LINE
  5
312
  8
LE_ALL
 10
169.63579415
 20
-70.59303198
 30
0.0
 11
169.63579415
 21
-10.59303198
 31
0.0
  0
ENDBLK
  8
0
  0
BLOCK
  8
0
  2
_00053
 70
     0
 10
0.0
 20
0.0
 30
0.0
  0
INSERT
  5
315
  8
0
  2
_00054
 10
177.88579415
 20
-55.59303198
 30
0.0
  0
ENDBLK
  8
0
  0
BLOCK
  8
0
  2
_00054
 70
     0
 10
177.88579415
 20
-55.59303198
 30
0.0
  0
LINE
  5
318
  8
LE_ALL
  6
STRICHPUNKT2
 62
     1
 10
177.88579415
 20
-55.59303198
 30
0.0
 11
167.38579415
 21
-55.59303198
 31
0.0
  0
LINE
  5
319
  8
LE_ALL
  6
STRICHPUNKT2
 62
     1
 10
178.38579415
 20
-40.59303198
 30
0.0
 11
166.88579415
 21
-40.59303198
 31
0.0
  0
LINE
  5
31A
  8
LE_ALL
  6
STRICHPUNKT2
 62
     1
 10
177.88579415
 20
-25.59303198
 30
0.0
 11
167.38579415
 21
-25.59303198
 31
0.0
  0
ENDBLK
  8
0
  0
BLOCK
  8
0
  2
_ANS0006_00055
 70
     0
 10
0.0
 20
0.0
 30
0.0
  0
INSERT
  5
31D
  8
0
  2
_A3D0006_00056
 10
0.0
 20
0.0
 30
0.0
  0
ENDBLK
  8
0
  0
BLOCK
  8
0
  2
_A3D0006_00056
 70
     0
 10
0.0
 20
0.0
 30
0.0
  0
INSERT
  5
320
  8
0
  2
PLAATWERK__D___6MM_00057
 10
0.0
 20
0.0
 30
0.0
  0
ENDBLK
  8
0
  0
BLOCK
  8
0
  2
PLAATWERK__D___6MM_00057
 70
     0
 10
0.0
 20
0.0
 30
0.0
  0
INSERT
  5
323
  8
0
  2
SHEET_FLANGE_00058
 10
0.0
 20
0.0
 30
0.0
  0
INSERT
  5
324
  8
0
  2
BEND_ZONE_00062
 10
0.0
 20
0.0
 30
0.0
  0
INSERT
  5
325
  8
0
  2
SHEET_FLANGE_00064
 10
0.0
 20
0.0
 30
0.0
  0
ENDBLK
  8
0
  0
BLOCK
  8
0
  2
SHEET_FLANGE_00058
 70
     0
 10
0.0
 20
0.0
 30
0.0
  0
INSERT
  5
328
  8
0
  2
SHEET_FLANGE_00059
 10
434.4258479
 20
-59.25638447
 30
0.0
  0
INSERT
  5
329
  8
0
  2
_00060
 10
0.0
 20
0.0
 30
0.0
  0
ENDBLK
  8
0
  0
BLOCK
  8
0
  2
SHEET_FLANGE_00059
 70
     0
 10
434.4258479
 20
-59.25638447
 30
0.0
  0
POLYLINE
  5
32C
  8
LE_ALL
 66
     1
 10
0.0
 20
0.0
 30
0.0
  0
VERTEX
  5
52B
  8
LE_ALL
 10
430.22394493
 20
-57.22965337222212
 30
0.0
  0
VERTEX
  5
52C
  8
LE_ALL
 10
430.3555494378672
 20
-57.66344017119165
 30
0.0
  0
VERTEX
  5
52D
  8
LE_ALL
 10
430.7450338178562
 20
-58.07966133963795
 30
0.0
  0
VERTEX
  5
52E
  8
LE_ALL
 10
431.3766264078225
 20
-58.46146254402818
 30
0.0
  0
VERTEX
  5
52F
  8
LE_ALL
 10
432.2247516893275
 20
-58.79338324239604
 30
0.0
  0
VERTEX
  5
530
  8
LE_ALL
 10
433.2550659349114
 20
-59.06198273883069
 30
0.0
  0
VERTEX
  5
531
  8
LE_ALL
 10
434.4258479125583
 20
-59.25638444693323
 30
0.0
  0
SEQEND
  5
5D0
  8
LE_ALL
  0
POLYLINE
  5
32D
  8
LE_ALL
 66
     1
 10
0.0
 20
0.0
 30
0.0
  0
VERTEX
  5
532
  8
LE_ALL
 10
439.022041986417
 20
-55.2029223179772
 30
0.0
  0
VERTEX
  5
533
  8
LE_ALL
 10
437.8117816770329
 20
-55.09354553860891
 30
0.0
  0
VERTEX
  5
534
  8
LE_ALL
 10
436.5610358292391
 20
-55.06366733868815
 30
0.0
  0
VERTEX
  5
535
  8
LE_ALL
 10
435.3163528972955
 20
-55.11439968194829
 30
0.0
  0
VERTEX
  5
536
  8
LE_ALL
 10
434.1240556946084
 20
-55.24385448523963
 30
0.0
  0
VERTEX
  5
537
  8
LE_ALL
 10
433.0285174180999
 20
-55.44721388648383
 30
0.0
  0
VERTEX
  5
538
  8
LE_ALL
 10
432.0705102305911
 20
-55.71690954891298
 30
0.0
  0
VERTEX
  5
539
  8
LE_ALL
 10
431.2856878612768
 20
-56.04290432850708
 30
0.0
  0
VERTEX
  5
53A
  8
LE_ALL
 10
430.7032586966764
 20
-56.41306582193758
 30
0.0
  0
VERTEX
  5
53B
  8
LE_ALL
 10
430.3448987450504
 20
-56.81361789284858
 30
0.0
  0
VERTEX
  5
53C
  8
LE_ALL
 10
430.22394493
 20
-57.22965337222212
 30
0.0
  0
SEQEND
  5
5D1
  8
LE_ALL
  0
POLYLINE
  5
32E
  8
LE_ALL
 66
     1
 10
0.0
 20
0.0
 30
0.0
  0
VERTEX
  5
32F
  8
LE_ALL
 10
439.02204197
 20
-55.2029223
 30
0.0
  0
VERTEX
  5
330
  8
LE_ALL
 10
487.663588
 20
-61.33118107
 30
0.0
  0
SEQEND
  5
331
  8
LE_ALL
  0
POLYLINE
  5
332
  8
LE_ALL
 66
     1
 10
0.0
 20
0.0
 30
0.0
  0
VERTEX
  5
53D
  8
LE_ALL
 10
491.86549096
 20
-63.35791216
 30
0.0
  0
VERTEX
  5
53E
  8
LE_ALL
 10
491.7338864496302
 20
-62.92412536472594
 30
0.0
  0
VERTEX
  5
53F
  8
LE_ALL
 10
491.3444020714898
 20
-62.50790419985093
 30
0.0
  0
VERTEX
  5
540
  8
LE_ALL
 10
490.7128094873888
 20
-62.12610299848543
 30
0.0
  0
VERTEX
  5
541
  8
LE_ALL
 10
489.8646842151066
 20
-61.79418230221845
 30
0.0
  0
VERTEX
  5
542
  8
LE_ALL
 10
488.8343699811637
 20
-61.52558280665423
 30
0.0
  0
VERTEX
  5
543
  8
LE_ALL
 10
487.663588016417
 20
-61.3311810979772
 30
0.0
  0
SEQEND
  5
5D2
  8
LE_ALL
  0
POLYLINE
  5
333
  8
LE_ALL
 66
     1
 10
0.0
 20
0.0
 30
0.0
  0
VERTEX
  5
544
  8
LE_ALL
 10
483.0673939425583
 20
-65.38464322693322
 30
0.0
  0
VERTEX
  5
545
  8
LE_ALL
 10
484.2776542522383
 20
-65.49402000361324
 30
0.0
  0
VERTEX
  5
546
  8
LE_ALL
 10
485.5284000987488
 20
-65.52389820099438
 30
0.0
  0
VERTEX
  5
547
  8
LE_ALL
 10
486.7730830280128
 20
-65.47316585544107
 30
0.0
  0
VERTEX
  5
548
  8
LE_ALL
 10
487.9653802268588
 20
-65.34371105018279
 30
0.0
  0
VERTEX
  5
549
  8
LE_ALL
 10
489.0609184986367
 20
-65.14035164735712
 30
0.0
  0
VERTEX
  5
54A
  8
LE_ALL
 10
490.0189256808201
 20
-64.87065598376878
 30
0.0
  0
VERTEX
  5
54B
  8
LE_ALL
 10
490.8037480445162
 20
-64.5446612034517
 30
0.0
  0
VERTEX
  5
54C
  8
LE_ALL
 10
491.3861772034996
 20
-64.17449970972602
 30
0.0
  0
VERTEX
  5
54D
  8
LE_ALL
 10
491.7445371497821
 20
-63.77394763891856
 30
0.0
  0
VERTEX
  5
54E
  8
LE_ALL
 10
491.86549096
 20
-63.35791216
 30
0.0
  0
SEQEND
  5
5D3
  8
LE_ALL
  0
LINE
  5
334
  8
LE_ALL
 10
483.06739392
 20
-65.38464324
 30
0.0
 11
434.4258479
 21
-59.25638447
 31
0.0
  0
LINE
  5
335
  8
LE_ALL
 10
439.02204197
 20
-59.83545049
 30
0.0
 11
439.02204197
 21
-55.2029223
 31
0.0
  0
LINE
  5
336
  8
LE_ALL
 10
487.663588
 20
-65.38464324
 30
0.0
 11
487.663588
 21
-61.33118107
 31
0.0
  0
LINE
  5
337
  8
LE_ALL
 10
490.66093314
 20
-74.71552484
 30
0.0
 11
408.34447063
 21
-64.34462538
 31
0.0
  0
LINE
  5
338
  8
LE_ALL
 10
490.66093314
 20
-80.37237908
 30
0.0
 11
490.66093314
 21
-74.71552484
 31
0.0
  0
POLYLINE
  5
339
  8
LE_ALL
 66
     1
 10
0.0
 20
0.0
 30
0.0
  0
VERTEX
  5
33A
  8
LE_ALL
 10
408.34447063
 20
-70.00147963
 30
0.0
  0
VERTEX
  5
33B
  8
LE_ALL
 10
490.66093314
 20
-80.37237908
 30
0.0
  0
VERTEX
  5
33C
  8
LE_ALL
 10
511.87413657
 20
-61.66409215
 30
0.0
  0
VERTEX
  5
33D
  8
LE_ALL
 10
511.87413657
 20
-56.0072379
 30
0.0
  0
VERTEX
  5
33E
  8
LE_ALL
 10
490.66093314
 20
-74.71552484
 30
0.0
  0
SEQEND
  5
33F
  8
LE_ALL
  0
LINE
  5
340
  8
LE_ALL
 10
429.55767406
 20
-45.63633844
 30
0.0
 11
511.87413657
 21
-56.0072379
 31
0.0
  0
LINE
  5
341
  8
LE_ALL
 10
408.34447063
 20
-64.34462538
 30
0.0
 11
429.55767406
 21
-45.63633844
 31
0.0
  0
ENDBLK
  8
0
  0
BLOCK
  8
0
  2
_00060
 70
     0
 10
0.0
 20
0.0
 30
0.0
  0
INSERT
  5
344
  8
0
  2
_00061
 10
436.72394493
 20
-54.40122626
 30
0.0
  0
ENDBLK
  8
0
  0
BLOCK
  8
0
  2
_00061
 70
     0
 10
436.72394493
 20
-54.40122626
 30
0.0
  0
LINE
  5
347
  8
LE_ALL
  6
STRICHPUNKT2
 62
     1
 10
436.72394493
 20
-54.40122626
 30
0.0
 11
436.72394493
 21
-59.54591748
 31
0.0
  0
LINE
  5
348
  8
LE_ALL
  6
STRICHPUNKT2
 62
     1
 10
485.36549096
 20
-60.52948503
 30
0.0
 11
485.36549096
 21
-65.52457882
 31
0.0
  0
LINE
  5
349
  8
LE_ALL
  6
STRICHPUNKT2
 62
     1
 10
427.83750864
 20
-56.11006765
 30
0.0
 11
494.25192726
 21
-64.47749789
 31
0.0
  0
LINE
  5
34A
  8
LE_ALL
  6
STRICHPUNKT2
 62
     1
 10
433.36518772
 20
-60.19179882
 30
0.0
 11
440.08270214
 21
-54.26750795
 31
0.0
  0
LINE
  5
34B
  8
LE_ALL
  6
STRICHPUNKT2
 62
     1
 10
482.00673375
 20
-66.32005759
 30
0.0
 11
488.72424817
 21
-60.39576672
 31
0.0
  0
ENDBLK
  8
0
  0
BLOCK
  8
0
  2
BEND_ZONE_00062
 70
     0
 10
0.0
 20
0.0
 30
0.0
  0
INSERT
  5
34E
  8
0
  2
BEND_ZONE_00063
 10
402.73198455
 20
-57.98066435
 30
0.0
  0
ENDBLK
  8
0
  0
BLOCK
  8
0
  2
BEND_ZONE_00063
 70
     0
 10
402.73198455
 20
-57.98066435
 30
0.0
  0
LINE
  5
351
  8
LE_ALL
 10
402.73198455
 20
-57.98066435
 30
0.0
 11
423.94518798
 21
-39.27237741
 31
0.0
  0
POLYLINE
  5
352
  8
LE_ALL
 66
     1
 10
0.0
 20
0.0
 30
0.0
  0
VERTEX
  5
54F
  8
LE_ALL
 10
397.119498495408
 20
-57.27355757902075
 30
0.0
  0
VERTEX
  5
550
  8
LE_ALL
 10
397.3351831963319
 20
-59.50792631686149
 30
0.0
  0
VERTEX
  5
551
  8
LE_ALL
 10
397.9739486356035
 20
-61.71077695109127
 30
0.0
  0
VERTEX
  5
552
  8
LE_ALL
 10
399.0112474158272
 20
-63.79745516793955
 30
0.0
  0
VERTEX
  5
553
  8
LE_ALL
 10
400.4072167269466
 20
-65.687771094447
 30
0.0
  0
VERTEX
  5
554
  8
LE_ALL
 10
402.1082102516667
 20
-67.30908095028579
 30
0.0
  0
VERTEX
  5
555
  8
LE_ALL
 10
404.0488597633242
 20
-68.59907870747439
 30
0.0
  0
VERTEX
  5
556
  8
LE_ALL
 10
406.1545871901582
 20
-69.50819047607064
 30
0.0
  0
VERTEX
  5
557
  8
LE_ALL
 10
408.3444706087588
 20
-70.00147960094439
 30
0.0
  0
SEQEND
  5
5D4
  8
LE_ALL
  0
POLYLINE
  5
353
  8
LE_ALL
 66
     1
 10
0.0
 20
0.0
 30
0.0
  0
VERTEX
  5
558
  8
LE_ALL
 10
402.7319845591685
 20
-57.98066435762843
 30
0.0
  0
VERTEX
  5
559
  8
LE_ALL
 10
402.8398269103881
 20
-59.09784872709719
 30
0.0
  0
VERTEX
  5
55A
  8
LE_ALL
 10
403.1592096308883
 20
-60.19927404461956
 30
0.0
  0
VERTEX
  5
55B
  8
LE_ALL
 10
403.6778590219382
 20
-61.24261315329463
 30
0.0
  0
VERTEX
  5
55C
  8
LE_ALL
 10
404.3758436784733
 20
-62.18777111663309
 30
0.0
  0
VERTEX
  5
55D
  8
LE_ALL
 10
405.2263404418088
 20
-62.99842604446775
 30
0.0
  0
VERTEX
  5
55E
  8
LE_ALL
 10
406.1966651985755
 20
-63.64342492281112
 30
0.0
  0
VERTEX
  5
55F
  8
LE_ALL
 10
407.2495289128569
 20
-64.09798080670174
 30
0.0
  0
VERTEX
  5
560
  8
LE_ALL
 10
408.344470622915
 20
-64.34462536859024
 30
0.0
  0
SEQEND
  5
5D5
  8
LE_ALL
  0
POLYLINE
  5
354
  8
LE_ALL
 66
     1
 10
0.0
 20
0.0
 30
0.0
  0
VERTEX
  5
355
  8
LE_ALL
 10
408.34447063
 20
-64.34462538
 30
0.0
  0
VERTEX
  5
356
  8
LE_ALL
 10
429.55767406
 20
-45.63633844
 30
0.0
  0
SEQEND
  5
357
  8
LE_ALL
  0
POLYLINE
  5
358
  8
LE_ALL
 66
     1
 10
0.0
 20
0.0
 30
0.0
  0
VERTEX
  5
561
  8
LE_ALL
 10
423.9451879891685
 20
-39.27237741762843
 30
0.0
  0
VERTEX
  5
562
  8
LE_ALL
 10
424.0530303403881
 20
-40.38956178709719
 30
0.0
  0
VERTEX
  5
563
  8
LE_ALL
 10
424.3724130608883
 20
-41.49098710461956
 30
0.0
  0
VERTEX
  5
564
  8
LE_ALL
 10
424.8910624519382
 20
-42.53432621329463
 30
0.0
  0
VERTEX
  5
565
  8
LE_ALL
 10
425.5890471084733
 20
-43.47948417663309
 30
0.0
  0
VERTEX
  5
566
  8
LE_ALL
 10
426.4395438718088
 20
-44.29013910446775
 30
0.0
  0
VERTEX
  5
567
  8
LE_ALL
 10
427.4098686285756
 20
-44.93513798281112
 30
0.0
  0
VERTEX
  5
568
  8
LE_ALL
 10
428.462732342857
 20
-45.38969386670175
 30
0.0
  0
VERTEX
  5
569
  8
LE_ALL
 10
429.557674052915
 20
-45.63633842859024
 30
0.0
  0
SEQEND
  5
5D6
  8
LE_ALL
  0
ENDBLK
  8
0
  0
BLOCK
  8
0
  2
SHEET_FLANGE_00064
 70
     0
 10
0.0
 20
0.0
 30
0.0
  0
INSERT
  5
35B
  8
0
  2
SHEET_FLANGE_00065
 10
412.65108627
 20
-27.6847298
 30
0.0
  0
INSERT
  5
35C
  8
0
  2
_00066
 10
0.0
 20
0.0
 30
0.0
  0
ENDBLK
  8
0
  0
BLOCK
  8
0
  2
SHEET_FLANGE_00065
 70
     0
 10
412.65108627
 20
-27.6847298
 30
0.0
  0
POLYLINE
  5
35F
  8
LE_ALL
 66
     1
 10
0.0
 20
0.0
 30
0.0
  0
VERTEX
  5
56A
  8
LE_ALL
 10
412.65108627
 20
-27.6847298
 30
0.0
  0
VERTEX
  5
56B
  8
LE_ALL
 10
413.0191567125388
 20
-27.62458592379126
 30
0.0
  0
VERTEX
  5
56C
  8
LE_ALL
 10
413.3995026538046
 20
-27.3570491939977
 30
0.0
  0
VERTEX
  5
56D
  8
LE_ALL
 10
413.7775076126085
 20
-26.89240089708553
 30
0.0
  0
VERTEX
  5
56E
  8
LE_ALL
 10
414.1386450704043
 20
-26.24849720648664
 30
0.0
  0
VERTEX
  5
56F
  8
LE_ALL
 10
414.4690367172487
 20
-25.45008297986905
 30
0.0
  0
VERTEX
  5
570
  8
LE_ALL
 10
414.7559857874683
 20
-24.5278408281359
 30
0.0
  0
VERTEX
  5
571
  8
LE_ALL
 10
414.9884649892425
 20
-23.5172119998982
 30
0.0
  0
VERTEX
  5
572
  8
LE_ALL
 10
415.1575402772431
 20
-22.4570343941695
 30
0.0
  0
VERTEX
  5
573
  8
LE_ALL
 10
415.2567141829859
 20
-21.38805004169068
 30
0.0
  0
VERTEX
  5
574
  8
LE_ALL
 10
415.2821755088991
 20
-20.35133941154058
 30
0.0
  0
VERTEX
  5
575
  8
LE_ALL
 10
415.2329457905088
 20
-19.3867427117511
 30
0.0
  0
VERTEX
  5
576
  8
LE_ALL
 10
415.1109168982804
 20
-18.53132885245866
 30
0.0
  0
VERTEX
  5
577
  8
LE_ALL
 10
414.9207783340968
 20
-17.81797090847934
 30
0.0
  0
VERTEX
  5
578
  8
LE_ALL
 10
414.6698370163319
 20
-17.27408282548209
 30
0.0
  0
VERTEX
  5
579
  8
LE_ALL
 10
414.3677364790761
 20
-16.92056591743292
 30
0.0
  0
VERTEX
  5
57A
  8
LE_ALL
 10
414.0260862765297
 20
-16.77100564082266
 30
0.0
  0
SEQEND
  5
5D7
  8
LE_ALL
  0
POLYLINE
  5
360
  8
LE_ALL
 66
     1
 10
0.0
 20
0.0
 30
0.0
  0
VERTEX
  5
57B
  8
LE_ALL
 10
414.0260862765297
 20
-16.77100564082266
 30
0.0
  0
VERTEX
  5
57C
  8
LE_ALL
 10
413.6580158334862
 20
-16.83114951357081
 30
0.0
  0
VERTEX
  5
57D
  8
LE_ALL
 10
413.2776698914282
 20
-17.09868624095004
 30
0.0
  0
VERTEX
  5
57E
  8
LE_ALL
 10
412.8996649316417
 20
-17.56333453654007
 30
0.0
  0
VERTEX
  5
57F
  8
LE_ALL
 10
412.5385274727769
 20
-18.20723822687845
 30
0.0
  0
VERTEX
  5
580
  8
LE_ALL
 10
412.2081358248812
 20
-19.00565245419447
 30
0.0
  0
VERTEX
  5
581
  8
LE_ALL
 10
411.9211867537264
 20
-19.92789460741833
 30
0.0
  0
VERTEX
  5
582
  8
LE_ALL
 10
411.6887075512194
 20
-20.93852343772028
 30
0.0
  0
VERTEX
  5
583
  8
LE_ALL
 10
411.5196322627569
 20
-21.99870104583049
 30
0.0
  0
VERTEX
  5
584
  8
LE_ALL
 10
411.4204583568708
 20
-23.06768540073096
 30
0.0
  0
VERTEX
  5
585
  8
LE_ALL
 10
411.3949970311556
 20
-24.10439603306259
 30
0.0
  0
VERTEX
  5
586
  8
LE_ALL
 10
411.444226750082
 20
-25.06899273452816
 30
0.0
  0
VERTEX
  5
587
  8
LE_ALL
 10
411.5662556431556
 20
-25.92440659475796
 30
0.0
  0
VERTEX
  5
588
  8
LE_ALL
 10
411.7563942084395
 20
-26.63776453875009
 30
0.0
  0
VERTEX
  5
589
  8
LE_ALL
 10
412.0073355274842
 20
-27.18165262071023
 30
0.0
  0
VERTEX
  5
58A
  8
LE_ALL
 10
412.3094360661063
 20
-27.535169526617
 30
0.0
  0
VERTEX
  5
58B
  8
LE_ALL
 10
412.65108627
 20
-27.6847298
 30
0.0
  0
SEQEND
  5
5D8
  8
LE_ALL
  0
POLYLINE
  5
361
  8
LE_ALL
 66
     1
 10
0.0
 20
0.0
 30
0.0
  0
VERTEX
  5
58C
  8
LE_ALL
 10
418.07938713
 20
-17.30145611
 30
0.0
  0
VERTEX
  5
58D
  8
LE_ALL
 10
418.3805356740136
 20
-17.2522474839761
 30
0.0
  0
VERTEX
  5
58E
  8
LE_ALL
 10
418.6917278078902
 20
-17.03335379585971
 30
0.0
  0
VERTEX
  5
58F
  8
LE_ALL
 10
419.0010045924709
 20
-16.65318700730901
 30
0.0
  0
VERTEX
  5
590
  8
LE_ALL
 10
419.2964806943957
 20
-16.12635671477472
 30
0.0
  0
VERTEX
  5
591
  8
LE_ALL
 10
419.5668011327983
 20
-15.47310871090298
 30
0.0
  0
VERTEX
  5
592
  8
LE_ALL
 10
419.8015776448522
 20
-14.7185469500797
 30
0.0
  0
VERTEX
  5
593
  8
LE_ALL
 10
419.9917879008837
 20
-13.89166881754415
 30
0.0
  0
VERTEX
  5
594
  8
LE_ALL
 10
420.1301222274413
 20
-13.02425077613868
 30
0.0
  0
VERTEX
  5
595
  8
LE_ALL
 10
420.2112645139465
 20
-12.14962721466494
 30
0.0
  0
VERTEX
  5
596
  8
LE_ALL
 10
420.2320965078409
 20
-11.30140942601923
 30
0.0
  0
VERTEX
  5
597
  8
LE_ALL
 10
420.1918176472839
 20
-10.51219394405896
 30
0.0
  0
VERTEX
  5
598
  8
LE_ALL
 10
420.0919758262943
 20
-9.812309877089618
 30
0.0
  0
VERTEX
  5
599
  8
LE_ALL
 10
419.9364079100522
 20
-9.228653377244063
 30
0.0
  0
VERTEX
  5
59A
  8
LE_ALL
 10
419.7310922863217
 20
-8.78365403644193
 30
0.0
  0
VERTEX
  5
59B
  8
LE_ALL
 10
419.4839191193623
 20
-8.494412929752786
 30
0.0
  0
VERTEX
  5
59C
  8
LE_ALL
 10
419.2043871353424
 20
-8.372045430673088
 30
0.0
  0
SEQEND
  5
5D9
  8
LE_ALL
  0
POLYLINE
  5
362
  8
LE_ALL
 66
     1
 10
0.0
 20
0.0
 30
0.0
  0
VERTEX
  5
59D
  8
LE_ALL
 10
419.2043871353424
 20
-8.372045430673088
 30
0.0
  0
VERTEX
  5
59E
  8
LE_ALL
 10
418.9032385906393
 20
-8.421254053986726
 30
0.0
  0
VERTEX
  5
59F
  8
LE_ALL
 10
418.5920464558305
 20
-8.640147740547908
 30
0.0
  0
VERTEX
  5
5A0
  8
LE_ALL
 10
418.2827696701868
 20
-9.020314528704857
 30
0.0
  0
VERTEX
  5
5A1
  8
LE_ALL
 10
417.9872935671846
 20
-9.547144821929265
 30
0.0
  0
VERTEX
  5
5A2
  8
LE_ALL
 10
417.7169731278033
 20
-10.20039282742
 30
0.0
  0
VERTEX
  5
5A3
  8
LE_ALL
 10
417.4821966149733
 20
-10.95495459056963
 30
0.0
  0
VERTEX
  5
5A4
  8
LE_ALL
 10
417.2919863584552
 20
-11.78183272586548
 30
0.0
  0
VERTEX
  5
5A5
  8
LE_ALL
 10
417.1536520317654
 20
-12.64925077015747
 30
0.0
  0
VERTEX
  5
5A6
  8
LE_ALL
 10
417.0725097455216
 20
-13.52387433432151
 30
0.0
  0
VERTEX
  5
5A7
  8
LE_ALL
 10
417.0516777522917
 20
-14.3720921251446
 30
0.0
  0
VERTEX
  5
5A8
  8
LE_ALL
 10
417.0919566138958
 20
-15.16130760847882
 30
0.0
  0
VERTEX
  5
5A9
  8
LE_ALL
 10
417.1917984362653
 20
-15.86119167577342
 30
0.0
  0
VERTEX
  5
5AA
  8
LE_ALL
 10
417.3473663541424
 20
-16.44484817471237
 30
0.0
  0
VERTEX
  5
5AB
  8
LE_ALL
 10
417.5526819796626
 20
-16.88984751326853
 30
0.0
  0
VERTEX
  5
5AC
  8
LE_ALL
 10
417.7998551484471
 20
-17.17908861635013
 30
0.0
  0
VERTEX
  5
5AD
  8
LE_ALL
 10
418.0793871341974
 20
-17.30145611052883
 30
0.0
  0
SEQEND
  5
5DA
  8
LE_ALL
  0
POLYLINE
  5
363
  8
LE_ALL
 66
     1
 10
0.0
 20
0.0
 30
0.0
  0
VERTEX
  5
5AE
  8
LE_ALL
 10
407.47278541
 20
-26.65559958
 30
0.0
  0
VERTEX
  5
5AF
  8
LE_ALL
 10
407.7739339540136
 20
-26.60639095397609
 30
0.0
  0
VERTEX
  5
5B0
  8
LE_ALL
 10
408.0851260878902
 20
-26.38749726585971
 30
0.0
  0
VERTEX
  5
5B1
  8
LE_ALL
 10
408.3944028724709
 20
-26.00733047730901
 30
0.0
  0
VERTEX
  5
5B2
  8
LE_ALL
 10
408.6898789743957
 20
-25.48050018477472
 30
0.0
  0
VERTEX
  5
5B3
  8
LE_ALL
 10
408.9601994127983
 20
-24.82725218090298
 30
0.0
  0
VERTEX
  5
5B4
  8
LE_ALL
 10
409.1949759248521
 20
-24.0726904200797
 30
0.0
  0
VERTEX
  5
5B5
  8
LE_ALL
 10
409.3851861808836
 20
-23.24581228754415
 30
0.0
  0
VERTEX
  5
5B6
  8
LE_ALL
 10
409.5235205074413
 20
-22.37839424613868
 30
0.0
  0
VERTEX
  5
5B7
  8
LE_ALL
 10
409.6046627939465
 20
-21.50377068466494
 30
0.0
  0
VERTEX
  5
5B8
  8
LE_ALL
 10
409.6254947878409
 20
-20.65555289601923
 30
0.0
  0
VERTEX
  5
5B9
  8
LE_ALL
 10
409.5852159272839
 20
-19.86633741405896
 30
0.0
  0
VERTEX
  5
5BA
  8
LE_ALL
 10
409.4853741062943
 20
-19.16645334708961
 30
0.0
  0
VERTEX
  5
5BB
  8
LE_ALL
 10
409.3298061900522
 20
-18.58279684724406
 30
0.0
  0
VERTEX
  5
5BC
  8
LE_ALL
 10
409.1244905663216
 20
-18.13779750644193
 30
0.0
  0
VERTEX
  5
5BD
  8
LE_ALL
 10
408.8773173993623
 20
-17.84855639975278
 30
0.0
  0
VERTEX
  5
5BE
  8
LE_ALL
 10
408.5977854153424
 20
-17.72618890067309
 30
0.0
  0
SEQEND
  5
5DB
  8
LE_ALL
  0
POLYLINE
  5
364
  8
LE_ALL
 66
     1
 10
0.0
 20
0.0
 30
0.0
  0
VERTEX
  5
5BF
  8
LE_ALL
 10
408.5977854153424
 20
-17.72618890067309
 30
0.0
  0
VERTEX
  5
5C0
  8
LE_ALL
 10
408.2966368709159
 20
-17.7753975238656
 30
0.0
  0
VERTEX
  5
5C1
  8
LE_ALL
 10
407.9854447363911
 20
-17.99429121000662
 30
0.0
  0
VERTEX
  5
5C2
  8
LE_ALL
 10
407.6761679510065
 20
-18.37445799747557
 30
0.0
  0
VERTEX
  5
5C3
  8
LE_ALL
 10
407.3806918482071
 20
-18.90128828979672
 30
0.0
  0
VERTEX
  5
5C4
  8
LE_ALL
 10
407.1103714089443
 20
-19.5545362942399
 30
0.0
  0
VERTEX
  5
5C5
  8
LE_ALL
 10
406.8755948961253
 20
-20.30909805628285
 30
0.0
  0
VERTEX
  5
5C6
  8
LE_ALL
 10
406.6853846394942
 20
-21.13597619050733
 30
0.0
  0
VERTEX
  5
5C7
  8
LE_ALL
 10
406.5470503125587
 20
-22.00339423386131
 30
0.0
  0
VERTEX
  5
5C8
  8
LE_ALL
 10
406.4659080259362
 20
-22.8780177973164
 30
0.0
  0
VERTEX
  5
5C9
  8
LE_ALL
 10
406.4450760322037
 20
-23.726235587747
 30
0.0
  0
VERTEX
  5
5CA
  8
LE_ALL
 10
406.4853548931995
 20
-24.51545107107862
 30
0.0
  0
VERTEX
  5
5CB
  8
LE_ALL
 10
406.5851967148806
 20
-25.21533513881488
 30
0.0
  0
VERTEX
  5
5CC
  8
LE_ALL
 10
406.7407646320229
 20
-25.79899163867092
 30
0.0
  0
VERTEX
  5
5CD
  8
LE_ALL
 10
406.9460802568006
 20
-26.24399097862451
 30
0.0
  0
VERTEX
  5
5CE
  8
LE_ALL
 10
407.1932534248778
 20
-26.53323208356078
 30
0.0
  0
VERTEX
  5
5CF
  8
LE_ALL
 10
407.47278541
 20
-26.65559958
 30
0.0
  0
SEQEND
  5
5DC
  8
LE_ALL
  0
POLYLINE
  5
365
  8
LE_ALL
 66
     1
 10
0.0
 20
0.0
 30
0.0
  0
VERTEX
  5
366
  8
LE_ALL
 10
397.11949847
 20
-12.01872357
 30
0.0
  0
VERTEX
  5
367
  8
LE_ALL
 10
402.73198455
 20
-12.72583035
 30
0.0
  0
VERTEX
  5
368
  8
LE_ALL
 10
402.73198455
 20
-57.98066435
 30
0.0
  0
SEQEND
  5
369
  8
LE_ALL
  0
POLYLINE
  5
36A
  8
LE_ALL
 66
     1
 10
0.0
 20
0.0
 30
0.0
  0
VERTEX
  5
36B
  8
LE_ALL
 10
397.11949847
 20
-57.27355757
 30
0.0
  0
VERTEX
  5
36C
  8
LE_ALL
 10
397.11949847
 20
-12.01872357
 30
0.0
  0
VERTEX
  5
36D
  8
LE_ALL
 10
418.3327019
 20
6.68956336
 30
0.0
  0
VERTEX
  5
36E
  8
LE_ALL
 10
423.94518798
 20
5.98245658
 30
0.0
  0
VERTEX
  5
36F
  8
LE_ALL
 10
402.73198455
 20
-12.72583035
 30
0.0
  0
SEQEND
  5
370
  8
LE_ALL
  0
LINE
  5
371
  8
LE_ALL
 10
423.94518798
 20
-39.27237741
 30
0.0
 11
423.94518798
 21
5.98245658
 31
0.0
  0
LINE
  5
372
  8
LE_ALL
 10
402.73198455
 20
-57.98066435
 30
0.0
 11
423.94518798
 21
-39.27237741
 31
0.0
  0
ENDBLK
  8
0
  0
BLOCK
  8
0
  2
_00066
 70
     0
 10
0.0
 20
0.0
 30
0.0
  0
INSERT
  5
375
  8
0
  2
_00067
 10
410.13996769
 20
-22.45605928
 30
0.0
  0
ENDBLK
  8
0
  0
BLOCK
  8
0
  2
_00067
 70
     0
 10
410.13996769
 20
-22.45605928
 30
0.0
  0
LINE
  5
378
  8
LE_ALL
  6
STRICHPUNKT2
 62
     1
 10
410.13996769
 20
-22.45605928
 30
0.0
 11
406.5470503
 21
-22.00339424
 31
0.0
  0
LINE
  5
379
  8
LE_ALL
  6
STRICHPUNKT2
 62
     1
 10
408.03528541
 20
-22.19089424
 30
0.0
 11
410.42177079
 21
-20.08621196
 31
0.0
  0
LINE
  5
37A
  8
LE_ALL
  6
STRICHPUNKT2
 62
     1
 10
408.03528541
 20
-22.19089424
 30
0.0
 11
405.64880002
 21
-24.29557652
 31
0.0
  0
LINE
  5
37B
  8
LE_ALL
  6
STRICHPUNKT2
 62
     1
 10
408.03528541
 20
-22.19089424
 30
0.0
 11
408.03528541
 21
-15.82693321
 31
0.0
  0
LINE
  5
37C
  8
LE_ALL
  6
STRICHPUNKT2
 62
     1
 10
408.03528541
 20
-22.19089424
 30
0.0
 11
408.03528541
 21
-28.55485527
 31
0.0
  0
LINE
  5
37D
  8
LE_ALL
  6
STRICHPUNKT2
 62
     1
 10
420.74656941
 20
-13.10191582
 30
0.0
 11
417.15365201
 21
-12.64925077
 31
0.0
  0
LINE
  5
37E
  8
LE_ALL
  6
STRICHPUNKT2
 62
     1
 10
418.64188713
 20
-12.83675077
 30
0.0
 11
421.02837251
 21
-10.73206849
 31
0.0
  0
LINE
  5
37F
  8
LE_ALL
  6
STRICHPUNKT2
 62
     1
 10
418.64188713
 20
-12.83675077
 30
0.0
 11
416.25540174
 21
-14.94143305
 31
0.0
  0
LINE
  5
380
  8
LE_ALL
  6
STRICHPUNKT2
 62
     1
 10
418.64188713
 20
-12.83675077
 30
0.0
 11
418.64188713
 21
-6.47278974
 31
0.0
  0
LINE
  5
381
  8
LE_ALL
  6
STRICHPUNKT2
 62
     1
 10
418.64188713
 20
-12.83675077
 30
0.0
 11
418.64188713
 21
-19.20071181
 31
0.0
  0
LINE
  5
382
  8
LE_ALL
  6
STRICHPUNKT2
 62
     1
 10
415.91097572
 20
-22.55195832
 30
0.0
 11
411.51963224
 21
-21.99870105
 31
0.0
  0
LINE
  5
383
  8
LE_ALL
  6
STRICHPUNKT2
 62
     1
 10
413.33858627
 20
-22.22786772
 30
0.0
 11
416.25540174
 21
-19.65547826
 31
0.0
  0
LINE
  5
384
  8
LE_ALL
  6
STRICHPUNKT2
 62
     1
 10
413.33858627
 20
-22.22786772
 30
0.0
 11
410.42177079
 21
-24.80025717
 31
0.0
  0
LINE
  5
385
  8
LE_ALL
  6
STRICHPUNKT2
 62
     1
 10
413.33858627
 20
-22.22786772
 30
0.0
 11
413.33858627
 21
-14.44969312
 31
0.0
  0
LINE
  5
386
  8
LE_ALL
  6
STRICHPUNKT2
 62
     1
 10
413.33858627
 20
-22.22786772
 30
0.0
 11
413.33858627
 21
-30.00604231
 31
0.0
  0
ENDBLK
  8
0
  0
BLOCK
  8
0
  2
DVI_FIGURE_00068
 70
     0
 10
0.0
 20
0.0
 30
0.0
  0
INSERT
  5
389
  8
0
  2
VIEW_3_00069
 10
0.0
 20
0.0
 30
0.0
  0
INSERT
  5
38A
  8
0
  2
VIEW_4_00075
 10
0.0
 20
0.0
 30
0.0
  0
INSERT
  5
38B
  8
0
  2
VIEW_5_00087
 10
0.0
 20
0.0
 30
0.0
  0
ENDBLK
  8
0
  0
BLOCK
  8
0
  2
VIEW_3_00069
 70
     0
 10
0.0
 20
0.0
 30
0.0
  0
INSERT
  5
38E
  8
0
  2
PART_0_00070
 10
0.0
 20
0.0
 30
0.0
  0
ENDBLK
  8
0
  0
BLOCK
  8
0
  2
PART_0_00070
 70
     0
 10
0.0
 20
0.0
 30
0.0
  0
INSERT
  5
391
  8
0
  2
_D1
 10
216.75604104
 20
-179.23568236
 30
0.0
  0
INSERT
  5
392
  8
0
  2
_D2
 10
157.17587642
 20
-143.83846569
 30
0.0
  0
INSERT
  5
393
  8
0
  2
_D3
 10
171.67587642
 20
-102.64175488
 30
0.0
  0
INSERT
  5
394
  8
0
  2
_D4
 10
274.53140665
 20
-169.87854797
 30
0.0
  0
ENDBLK
  8
0
  0
BLOCK
  8
0
  2
VIEW_4_00075
 70
     0
 10
0.0
 20
0.0
 30
0.0
  0
INSERT
  5
3B7
  8
0
  2
PART_0_00076
 10
0.0
 20
0.0
 30
0.0
  0
ENDBLK
  8
0
  0
BLOCK
  8
0
  2
PART_0_00076
 70
     0
 10
0.0
 20
0.0
 30
0.0
  0
INSERT
  5
3BA
  8
0
  2
_D5
 10
319.11247587
 20
-137.13823929
 30
0.0
  0
INSERT
  5
3BB
  8
0
  2
_D6
 10
333.15255809
 20
-144.45568839
 30
0.0
  0
INSERT
  5
3BC
  8
0
  2
_D7
 10
349.11247587
 20
-137.57666228
 30
0.0
  0
INSERT
  5
3BD
  8
0
  2
_D8
 10
312.49509466
 20
-104.96652777
 30
0.0
  0
INSERT
  5
3BE
  8
0
  2
_D9
 10
327.49509466
 20
-104.96652777
 30
0.0
  0
INSERT
  5
3BF
  8
0
  2
_D10
 10
342.49509466
 20
-104.96652777
 30
0.0
  0
INSERT
  5
3C0
  8
0
  2
_D11
 10
357.49509466
 20
-104.96652777
 30
0.0
  0
INSERT
  5
3C1
  8
0
  2
_D12
 10
299.67212982
 20
-121.33846569
 30
0.0
  0
INSERT
  5
3C2
  8
0
  2
_D13
 10
299.67212982
 20
-130.37854797
 30
0.0
  0
INSERT
  5
3C3
  8
0
  2
_D14
 10
299.67212982
 20
-153.83846569
 30
0.0
  0
ENDBLK
  8
0
  0
BLOCK
  8
0
  2
VIEW_5_00087
 70
     0
 10
0.0
 20
0.0
 30
0.0
  0
INSERT
  5
419
  8
0
  2
PART_0_00088
 10
0.0
 20
0.0
 30
0.0
  0
ENDBLK
  8
0
  0
BLOCK
  8
0
  2
PART_0_00088
 70
     0
 10
0.0
 20
0.0
 30
0.0
  0
INSERT
  5
41C
  8
0
  2
_D15
 10
186.11242797
 20
-44.355404
 30
0.0
  0
INSERT
  5
41D
  8
0
  2
_D16
 10
262.4659587
 20
-2.87000042
 30
0.0
  0
INSERT
  5
41E
  8
0
  2
_D17
 10
224.7159587
 20
-2.87000042
 30
0.0
  0
INSERT
  5
41F
  8
0
  2
_D18
 10
179.9659587
 20
-2.87000042
 30
0.0
  0
INSERT
  5
420
  8
0
  2
_D19
 10
276.01867822
 20
-27.51286743
 30
0.0
  0
INSERT
  5
421
  8
0
  2
_D20
 10
276.01867822
 20
-57.51286743
 30
0.0
  0
INSERT
  5
422
  8
0
  2
_D21
 10
283.96460881
 20
-42.51286743
 30
0.0
  0
ENDBLK
  8
0
  0
ENDSEC
  0
SECTION
  2
ENTITIES
  0
INSERT
  5
45D
  8
0
  2
_ZBL0002_00001
 10
0.0
 20
0.0
 30
0.0
  0
INSERT
  5
45E
  8
0
  2
_ANS0003_00016
 10
0.0
 20
0.0
 30
0.0
  0
INSERT
  5
45F
  8
0
  2
_ANS0004_00029
 10
0.0
 20
0.0
 30
0.0
  0
INSERT
  5
460
  8
0
  2
_ANS0005_00042
 10
0.0
 20
0.0
 30
0.0
  0
INSERT
  5
461
  8
0
  2
_ANS0006_00055
 10
0.0
 20
0.0
 30
0.0
  0
INSERT
  5
462
  8
0
  2
DVI_FIGURE_00068
 10
0.0
 20
0.0
 30
0.0
  0
ENDSEC
  0
EOF
