  0
SECTION
  2
HEADER
  9
$ACADVER
  1
AC1006
  9
$DWGCODEPAGE
  3
ansi_1252
  9
$INSBASE
 10
0.0
 20
0.0
 30
0.0
  9
$EXTMIN
 10
46.19857753
 20
-280.07741534
  9
$EXTMAX
 10
474.59857753
 20
33.61179091
  9
$LIMMIN
 10
46.19857753
 20
-280.07741534
  9
$LIMMAX
 10
474.59857753
 20
33.61179091
  9
$ORTHOMODE
 70
     0
  9
$REGENMODE
 70
     1
  9
$FILLMODE
 70
     1
  9
$QTEXTMODE
 70
     0
  9
$MIRRTEXT
 70
     1
  9
$DRAGMODE
 70
     2
  9
$LTSCALE
 40
1.0
  9
$OSMODE
 70
    37
  9
$ATTMODE
 70
     1
  9
$TEXTSIZE
 40
1.0
  9
$TRACEWID
 40
0.05
  9
$TEXTSTYLE
  7
STANDARD
  9
$CLAYER
  8
0
  9
$CELTYPE
  6
BYBLOCK
  9
$CECOLOR
 62
   256
  9
$DIMSCALE
 40
1.0
  9
$DIMASZ
 40
0.18
  9
$DIMEXO
 40
0.0625
  9
$DIMDLI
 40
0.38
  9
$DIMRND
 40
0.0
  9
$DIMDLE
 40
0.0
  9
$DIMEXE
 40
0.18
  9
$DIMTP
 40
0.0
  9
$DIMTM
 40
0.0
  9
$DIMTXT
 40
0.18
  9
$DIMCEN
 40
0.09
  9
$DIMTSZ
 40
0.0
  9
$DIMTOL
 70
     0
  9
$DIMLIM
 70
     0
  9
$DIMTIH
 70
     1
  9
$DIMTOH
 70
     1
  9
$DIMSE1
 70
     0
  9
$DIMSE2
 70
     0
  9
$DIMTAD
 70
     0
  9
$DIMZIN
 70
     0
  9
$DIMBLK
  1

  9
$DIMASO
 70
     1
  9
$DIMSHO
 70
     1
  9
$DIMPOST
  1

  9
$DIMAPOST
  1

  9
$DIMALT
 70
     0
  9
$DIMALTD
 70
     2
  9
$DIMALTF
 40
25.4
  9
$DIMLFAC
 40
1.0
  9
$DIMTOFL
 70
     0
  9
$DIMTVP
 40
0.0
  9
$DIMTIX
 70
     0
  9
$DIMSOXD
 70
     0
  9
$DIMSAH
 70
     0
  9
$DIMBLK1
  1

  9
$DIMBLK2
  1

  9
$LUNITS
 70
     2
  9
$LUPREC
 70
     4
  9
$SKETCHINC
 40
0.1
  9
$FILLETRAD
 40
0.5
  9
$AUNITS
 70
     0
  9
$AUPREC
 70
     0
  9
$MENU
  1
.
  9
$ELEVATION
 40
0.0
  9
$THICKNESS
 40
0.0
  9
$LIMCHECK
 70
     0
  9
$CHAMFERA
 40
0.0
  9
$CHAMFERB
 40
0.0
  9
$SKPOLY
 70
     0
  9
$TDCREATE
 40
2447893.125
  9
$TDUPDATE
 40
2460791.481639792
  9
$TDINDWG
 40
0.0
  9
$TDUSRTIMER
 40
0.0
  9
$USRTIMER
 70
     1
  9
$ANGBASE
 50
0.0
  9
$ANGDIR
 70
     0
  9
$PDMODE
 70
     0
  9
$PDSIZE
 40
0.0
  9
$PLINEWID
 40
0.0
  9
$COORDS
 70
     1
  9
$SPLFRAME
 70
     0
  9
$SPLINETYPE
 70
     6
  9
$SPLINESEGS
 70
     8
  9
$ATTDIA
 70
     0
  9
$ATTREQ
 70
     1
  9
$HANDLING
 70
     1
  9
$HANDSEED
  5
740
  9
$SURFTAB1
 70
     6
  9
$SURFTAB2
 70
     6
  9
$SURFTYPE
 70
     6
  9
$SURFU
 70
     6
  9
$SURFV
 70
     6
  9
$UCSNAME
  2

  9
$UCSORG
 10
0.0
 20
0.0
 30
0.0
  9
$UCSXDIR
 10
1.0
 20
0.0
 30
0.0
  9
$UCSYDIR
 10
0.0
 20
1.0
 30
0.0
  9
$USERI1
 70
     0
  9
$USERI2
 70
     0
  9
$USERI3
 70
     0
  9
$USERI4
 70
     0
  9
$USERI5
 70
     0
  9
$USERR1
 40
0.0
  9
$USERR2
 40
0.0
  9
$USERR3
 40
0.0
  9
$USERR4
 40
0.0
  9
$USERR5
 40
0.0
  9
$WORLDVIEW
 70
     1
  0
ENDSEC
  0
SECTION
  2
TABLES
  0
TABLE
  2
VPORT
 70
     1
  0
VPORT
  2
*ACTIVE
 70
     0
 10
0.0
 20
0.0
 11
1.0
 21
1.0
 12
260.39857753
 22
-123.23281222
 13
0.0
 23
0.0
 14
1.0
 24
1.0
 15
0.0
 25
0.0
 16
0.0
 26
0.0
 36
1.0
 17
0.0
 27
0.0
 37
0.0
 40
313.68920625
 41
1.365682948
 42
50.0
 43
0.0
 44
0.0
 50
0.0
 51
0.0
 71
     0
 72
   100
 73
     1
 74
     1
 75
     0
 76
     0
 77
     0
 78
     0
  0
ENDTAB
  0
TABLE
  2
LTYPE
 70
    19
  0
LTYPE
  2
CONTINUOUS
 70
     0
  3
Solid line
 72
    65
 73
     0
 40
0.0
  0
LTYPE
  2
DOT
 70
     0
  3
..............
 72
    65
 73
     2
 40
2.0
 49
0.5
 49
-1.5
  0
LTYPE
  2
HIDDEN
 70
     0
  3
-- -- -- -- --
 72
    65
 73
     2
 40
7.0
 49
4.0
 49
-3.0
  0
LTYPE
  2
DASHDOT
 70
     0
  3
--.--.--.--.--
 72
    65
 73
     4
 40
8.5
 49
4.0
 49
-2.0
 49
0.5
 49
-2.0
  0
LTYPE
  2
STRICHPUNKT2
 70
     0
  3
--.--.--.--.--
 72
    65
 73
     4
 40
18.5
 49
10.0
 49
-4.0
 49
0.5
 49
-4.0
  0
LTYPE
  2
STRICHPUNKT3
 70
     0
  3
--.--.--.--.--
 72
    65
 73
     4
 40
35.5
 49
25.0
 49
-5.0
 49
0.5
 49
-5.0
  0
LTYPE
  2
PHANTOM
 70
     0
  3
--..--..--..--
 72
    65
 73
     6
 40
23.0
 49
10.0
 49
-4.0
 49
0.5
 49
-4.0
 49
0.5
 49
-4.0
  0
LTYPE
  2
PHANTOM2
 70
     0
  3
--..--..--..--
 72
    65
 73
     6
 40
33.0
 49
20.0
 49
-4.0
 49
0.5
 49
-4.0
 49
0.5
 49
-4.0
  0
LTYPE
  2
PHANTOM3
 70
     0
  3
--..--..--..--
 72
    65
 73
     6
 40
50.0
 49
37.0
 49
-4.0
 49
0.5
 49
-4.0
 49
0.5
 49
-4.0
  0
LTYPE
  2
STR3PKT
 70
     0
  3
--...--...--...
 72
    65
 73
     8
 40
31.5
 49
20.0
 49
-2.5
 49
0.5
 49
-2.5
 49
0.5
 49
-2.5
 49
0.5
 49
-2.5
  0
LTYPE
  2
2STRPKT
 70
     0
  3
--.--.--.--.--
 72
    65
 73
     6
 40
28.0
 49
10.0
 49
-2.5
 49
10.0
 49
-2.5
 49
0.5
 49
-2.5
  0
LTYPE
  2
GESTRICHELT2
 70
     0
  3
-- -- -- -- --
 72
    65
 73
     2
 40
25.0
 49
10.0
 49
-15.0
  0
LTYPE
  2
2STR2PKT
 70
     0
  3
--..--..--..--
 72
    65
 73
     8
 40
31.0
 49
10.0
 49
-2.5
 49
10.0
 49
-2.5
 49
0.5
 49
-2.5
 49
0.5
 49
-2.5
  0
LTYPE
  2
STR3PKT2
 70
     0
  3
--...--...--...
 72
    65
 73
     8
 40
21.0
 49
10.0
 49
-2.5
 49
0.5
 49
-2.5
 49
0.5
 49
-2.5
 49
0.5
 49
-2.0
  0
LTYPE
  2
2STR3PKT
 70
     0
  3
--...--...--...
 72
    65
 73
    10
 40
34.0
 49
10.0
 49
-2.5
 49
10.0
 49
-2.5
 49
0.5
 49
-2.5
 49
0.5
 49
-2.5
 49
0.5
 49
-2.5
  0
LTYPE
  2
STRKSTR
 70
     0
  3
-- - -- - -- -
 72
    65
 73
     4
 40
30.0
 49
20.0
 49
-2.5
 49
5.0
 49
-2.5
  0
LTYPE
  2
STRKSTR2
 70
     0
  3
-- - -- - -- -
 72
    65
 73
     6
 40
37.5
 49
20.0
 49
-2.5
 49
5.0
 49
-2.5
 49
5.0
 49
-2.5
  0
LTYPE
  2
STRKSTR3
 70
     0
  3
-- - -- - -- -
 72
    65
 73
     8
 40
45.0
 49
20.0
 49
-2.5
 49
5.0
 49
-2.5
 49
5.0
 49
-2.5
 49
5.0
 49
-2.5
  0
LTYPE
  2
PUNKT2
 70
     0
  3
..............
 72
    65
 73
     2
 40
3.5
 49
0.5
 49
-3.0
  0
ENDTAB
  0
TABLE
  2
LAYER
 70
    16
  0
LAYER
  2
0
 70
     0
 62
     7
  6
CONTINUOUS
  0
LAYER
  2
LE_GREEN
 70
     0
 62
     3
  6
CONTINUOUS
  0
LAYER
  2
LE_RED
 70
     0
 62
     1
  6
CONTINUOUS
  0
LAYER
  2
LE_ALL
 70
     0
 62
     7
  6
CONTINUOUS
  0
LAYER
  2
LE_HIDDEN1
 70
     0
 62
     3
  6
HIDDEN
  0
LAYER
  2
LE_HIDDEN
 70
     0
 62
     7
  6
CONTINUOUS
  0
LAYER
  2
LE_MIDDLE
 70
     0
 62
     7
  6
CONTINUOUS
  0
LAYER
  2
TXT_YELLOW
 70
     0
 62
     2
  6
CONTINUOUS
  0
LAYER
  2
TXT_DIM49
 70
     0
 62
     2
  6
CONTINUOUS
  0
LAYER
  2
TXT_ALL
 70
     0
 62
     7
  6
CONTINUOUS
  0
LAYER
  2
DIM49
 70
     0
 62
     4
  6
CONTINUOUS
  0
LAYER
  2
HATCH
 70
     0
 62
     3
  6
CONTINUOUS
  0
LAYER
  2
APPLE
 70
     0
 62
     7
  6
CONTINUOUS
  0
LAYER
  2
10
 70
     0
 62
     7
  6
CONTINUOUS
  0
LAYER
  2
20
 70
     0
 62
     7
  6
CONTINUOUS
  0
LAYER
  2
49
 70
     0
 62
     7
  6
CONTINUOUS
  0
ENDTAB
  0
TABLE
  2
STYLE
 70
     5
  0
STYLE
  2
MONOTXT
 70
     0
 40
0.0
 41
1.0
 50
0.0
 71
     0
 42
1.0
  3
monotxt.shx
  4

  0
STYLE
  2
STANDARD
 70
     0
 40
0.0
 41
1.0
 50
0.0
 71
     0
 42
1.0
  3
txt
  4

  0
STYLE
  2
ARIAL
 70
     0
 40
0.0
 41
1.0
 50
0.0
 71
     0
 42
1.0
  3
arial.ttf
  4

  0
STYLE
  2
ARIAL_NARROW
 70
     0
 40
0.0
 41
1.0
 50
0.0
 71
     0
 42
1.0
  3
ArialN.ttf
  4

  0
STYLE
  2
ISOCPEUR
 70
     0
 40
0.0
 41
1.0
 50
0.0
 71
     0
 42
1.0
  3
ISOCPEUR.ttf
  4

  0
ENDTAB
  0
TABLE
  2
VIEW
 70
     0
  0
ENDTAB
  0
TABLE
  2
UCS
 70
     0
  0
ENDTAB
  0
ENDSEC
  0
SECTION
  2
BLOCKS
  0
BLOCK
  8
0
  2
_D1
 70
     0
 10
163.74948836
 20
-230.73612648
 30
0.0
  0
TEXT
  5
3FF
  8
TXT_DIM49
 10
163.74948836
 20
-230.73612648
 30
0.0
 40
2.5
  1
170
  7
ARIAL
  0
LINE
  5
400
  8
DIM49
 62
     5
 10
82.62924147
 20
-231.23612648
 30
0.0
 11
80.62924147
 21
-233.23612648
 31
0.0
  0
LINE
  5
401
  8
DIM49
 62
     5
 10
250.87924147
 20
-232.98612648
 30
0.0
 11
252.37924147
 21
-231.48612648
 31
0.0
  0
LINE
  5
402
  8
DIM49
 62
     5
 10
81.62924147
 20
-232.23612648
 30
0.0
 11
251.62924147
 21
-232.23612648
 31
0.0
  0
LINE
  5
403
  8
DIM49
 62
     5
 10
81.62924147
 20
-227.23612648
 30
0.0
 11
81.62924147
 21
-234.23612648
 31
0.0
  0
LINE
  5
404
  8
DIM49
 62
     5
 10
251.62924147
 20
-227.23612648
 30
0.0
 11
251.62924147
 21
-234.23612648
 31
0.0
  0
ENDBLK
  8
0
  0
BLOCK
  8
0
  2
_D2
 70
     0
 10
73.54407885
 20
-166.60531388
 30
0.0
  0
TEXT
  5
407
  8
TXT_DIM49
 10
73.54407885
 20
-166.60531388
 30
0.0
 40
2.5
  1
120
 50
90.00020741
  7
ARIAL
  0
LINE
  5
408
  8
DIM49
 62
     5
 10
74.04407885
 20
-222.72556076
 30
0.0
 11
76.04407885
 21
-224.72556076
 31
0.0
  0
LINE
  5
409
  8
DIM49
 62
     5
 10
75.79407885
 20
-104.47556076
 30
0.0
 11
74.29407885
 21
-102.97556076
 31
0.0
  0
LINE
  5
40A
  8
DIM49
 62
     5
 10
75.04407885
 20
-223.72556076
 30
0.0
 11
75.04407885
 21
-103.72556076
 31
0.0
  0
LINE
  5
40B
  8
DIM49
 62
     5
 10
80.04407885
 20
-223.72556076
 30
0.0
 11
73.04407885
 21
-223.72556076
 31
0.0
  0
LINE
  5
40C
  8
DIM49
 62
     5
 10
80.04407885
 20
-103.72556076
 30
0.0
 11
73.04407885
 21
-103.72556076
 31
0.0
  0
ENDBLK
  8
0
  0
BLOCK
  8
0
  2
_D3
 70
     0
 10
84.70940602
 20
-95.15754121
 30
0.0
  0
TEXT
  5
40F
  8
TXT_DIM49
 10
84.70940602
 20
-95.15754121
 30
0.0
 40
2.5
  1
10
  7
ARIAL
  0
LINE
  5
410
  8
DIM49
 62
     5
 10
90.62924147
 20
-97.65754121
 30
0.0
 11
92.62924147
 21
-95.65754121
 31
0.0
  0
LINE
  5
411
  8
DIM49
 62
     5
 10
82.37924147
 20
-95.90754121
 30
0.0
 11
80.87924147
 21
-97.40754121
 31
0.0
  0
LINE
  5
412
  8
DIM49
 62
     5
 10
91.62924147
 20
-96.65754121
 30
0.0
 11
81.62924147
 21
-96.65754121
 31
0.0
  0
LINE
  5
413
  8
DIM49
 62
     5
 10
91.62924147
 20
-101.65754121
 30
0.0
 11
91.62924147
 21
-94.65754121
 31
0.0
  0
LINE
  5
414
  8
DIM49
 62
     5
 10
81.62924147
 20
-101.65754121
 30
0.0
 11
81.62924147
 21
-94.65754121
 31
0.0
  0
ENDBLK
  8
0
  0
BLOCK
  8
0
  2
_D4
 70
     0
 10
256.61447505
 20
-220.64539621
 30
0.0
  0
TEXT
  5
417
  8
TXT_DIM49
 10
256.61447505
 20
-220.64539621
 30
0.0
 40
2.5
  1
10
 50
90.00020741
  7
ARIAL
  0
LINE
  5
418
  8
DIM49
 10
257.11447505
 20
-222.72556076
 30
0.0
 11
259.11447505
 21
-224.72556076
 31
0.0
  0
LINE
  5
419
  8
DIM49
 10
258.86447505
 20
-214.47556076
 30
0.0
 11
257.36447505
 21
-212.97556076
 31
0.0
  0
LINE
  5
41A
  8
DIM49
 10
258.11447505
 20
-223.72556076
 30
0.0
 11
258.11447505
 21
-213.72556076
 31
0.0
  0
LINE
  5
41B
  8
DIM49
 10
256.11447505
 20
-223.72556076
 30
0.0
 11
260.11447505
 21
-223.72556076
 31
0.0
  0
LINE
  5
41C
  8
DIM49
 10
256.11447505
 20
-213.72556076
 30
0.0
 11
260.11447505
 21
-213.72556076
 31
0.0
  0
ENDBLK
  8
0
  0
BLOCK
  8
0
  2
_D5
 70
     0
 10
299.90742001
 20
-188.11141092
 30
0.0
  0
TEXT
  5
433
  8
TXT_DIM49
 10
299.90742001
 20
-188.11141092
 30
0.0
 40
2.5
  1
Ø
  7
ARIAL
  0
TEXT
  5
434
  8
TXT_DIM49
 10
303.59249291
 20
-188.11141092
 30
0.0
 40
2.5
  1
9
  7
ARIAL
  0
LINE
  5
435
  8
DIM49
 62
     5
 10
306.20987425
 20
-190.61141092
 30
0.0
 11
308.20987425
 21
-188.61141092
 31
0.0
  0
LINE
  5
436
  8
DIM49
 62
     5
 10
298.95987425
 20
-188.86141092
 30
0.0
 11
297.45987425
 21
-190.36141092
 31
0.0
  0
LINE
  5
437
  8
DIM49
 62
     5
 10
307.20987425
 20
-189.61141092
 30
0.0
 11
298.20987425
 21
-189.61141092
 31
0.0
  0
LINE
  5
438
  8
DIM49
 62
     5
 10
307.20987425
 20
-184.61141092
 30
0.0
 11
307.20987425
 21
-191.61141092
 31
0.0
  0
LINE
  5
439
  8
DIM49
 62
     5
 10
298.20987425
 20
-184.61141092
 30
0.0
 11
298.20987425
 21
-191.61141092
 31
0.0
  0
ENDBLK
  8
0
  0
BLOCK
  8
0
  2
_D6
 70
     0
 10
321.44750223
 20
-171.42277095
 30
0.0
  0
TEXT
  5
43C
  8
TXT_DIM49
 10
321.44750223
 20
-171.42277095
 30
0.0
 40
2.5
  1
Ø
  7
ARIAL
  0
TEXT
  5
43D
  8
TXT_DIM49
 10
325.13257513
 20
-171.42277095
 30
0.0
 40
2.5
  1
13
  7
ARIAL
  0
LINE
  5
43E
  8
DIM49
 62
     5
 10
330.70987425
 20
-173.92277095
 30
0.0
 11
332.70987425
 21
-171.92277095
 31
0.0
  0
LINE
  5
43F
  8
DIM49
 62
     5
 10
319.45987425
 20
-172.17277095
 30
0.0
 11
317.95987425
 21
-173.67277095
 31
0.0
  0
LINE
  5
440
  8
DIM49
 62
     5
 10
331.70987425
 20
-172.92277095
 30
0.0
 11
318.70987425
 21
-172.92277095
 31
0.0
  0
LINE
  5
441
  8
DIM49
 62
     5
 10
331.70987425
 20
-167.92277095
 30
0.0
 11
331.70987425
 21
-174.92277095
 31
0.0
  0
LINE
  5
442
  8
DIM49
 62
     5
 10
318.70987425
 20
-167.92277095
 30
0.0
 11
318.70987425
 21
-174.92277095
 31
0.0
  0
ENDBLK
  8
0
  0
BLOCK
  8
0
  2
_D7
 70
     0
 10
293.10058341
 20
-95.41967741
 30
0.0
  0
TEXT
  5
445
  8
TXT_DIM49
 10
293.10058341
 20
-95.41967741
 30
0.0
 40
2.5
  1
12,5
  7
ARIAL
  0
LINE
  5
446
  8
DIM49
 62
     5
 10
291.20987425
 20
-95.91967741
 30
0.0
 11
289.20987425
 21
-97.91967741
 31
0.0
  0
LINE
  5
447
  8
DIM49
 62
     5
 10
301.95987425
 20
-97.66967741
 30
0.0
 11
303.45987425
 21
-96.16967741
 31
0.0
  0
LINE
  5
448
  8
DIM49
 62
     5
 10
290.20987425
 20
-96.91967741
 30
0.0
 11
302.70987425
 21
-96.91967741
 31
0.0
  0
LINE
  5
449
  8
DIM49
 62
     5
 10
290.20987425
 20
-101.91967741
 30
0.0
 11
290.20987425
 21
-94.91967741
 31
0.0
  0
LINE
  5
44A
  8
DIM49
 62
     5
 10
302.70987425
 20
-101.91967741
 30
0.0
 11
302.70987425
 21
-94.91967741
 31
0.0
  0
ENDBLK
  8
0
  0
BLOCK
  8
0
  2
_D8
 70
     0
 10
310.60058341
 20
-95.41967741
 30
0.0
  0
TEXT
  5
44D
  8
TXT_DIM49
 10
310.60058341
 20
-95.41967741
 30
0.0
 40
2.5
  1
22,5
  7
ARIAL
  0
LINE
  5
44E
  8
DIM49
 62
     5
 10
303.70987425
 20
-95.91967741
 30
0.0
 11
301.70987425
 21
-97.91967741
 31
0.0
  0
LINE
  5
44F
  8
DIM49
 62
     5
 10
324.45987425
 20
-97.66967741
 30
0.0
 11
325.95987425
 21
-96.16967741
 31
0.0
  0
LINE
  5
450
  8
DIM49
 62
     5
 10
302.70987425
 20
-96.91967741
 30
0.0
 11
325.20987425
 21
-96.91967741
 31
0.0
  0
LINE
  5
451
  8
DIM49
 62
     5
 10
302.70987425
 20
-101.91967741
 30
0.0
 11
302.70987425
 21
-94.91967741
 31
0.0
  0
LINE
  5
452
  8
DIM49
 62
     5
 10
325.20987425
 20
-101.91967741
 30
0.0
 11
325.20987425
 21
-94.91967741
 31
0.0
  0
ENDBLK
  8
0
  0
BLOCK
  8
0
  2
_D9
 70
     0
 10
333.10058341
 20
-95.41967741
 30
0.0
  0
TEXT
  5
455
  8
TXT_DIM49
 10
333.10058341
 20
-95.41967741
 30
0.0
 40
2.5
  1
22,5
  7
ARIAL
  0
LINE
  5
456
  8
DIM49
 62
     5
 10
326.20987425
 20
-95.91967741
 30
0.0
 11
324.20987425
 21
-97.91967741
 31
0.0
  0
LINE
  5
457
  8
DIM49
 62
     5
 10
346.95987425
 20
-97.66967741
 30
0.0
 11
348.45987425
 21
-96.16967741
 31
0.0
  0
LINE
  5
458
  8
DIM49
 62
     5
 10
325.20987425
 20
-96.91967741
 30
0.0
 11
347.70987425
 21
-96.91967741
 31
0.0
  0
LINE
  5
459
  8
DIM49
 62
     5
 10
325.20987425
 20
-101.91967741
 30
0.0
 11
325.20987425
 21
-94.91967741
 31
0.0
  0
LINE
  5
45A
  8
DIM49
 62
     5
 10
347.70987425
 20
-101.91967741
 30
0.0
 11
347.70987425
 21
-94.91967741
 31
0.0
  0
ENDBLK
  8
0
  0
BLOCK
  8
0
  2
_D10
 70
     0
 10
350.60058341
 20
-95.41967741
 30
0.0
  0
TEXT
  5
45D
  8
TXT_DIM49
 10
350.60058341
 20
-95.41967741
 30
0.0
 40
2.5
  1
12,5
  7
ARIAL
  0
LINE
  5
45E
  8
DIM49
 62
     5
 10
348.70987425
 20
-95.91967741
 30
0.0
 11
346.70987425
 21
-97.91967741
 31
0.0
  0
LINE
  5
45F
  8
DIM49
 62
     5
 10
359.45987425
 20
-97.66967741
 30
0.0
 11
360.95987425
 21
-96.16967741
 31
0.0
  0
LINE
  5
460
  8
DIM49
 62
     5
 10
347.70987425
 20
-96.91967741
 30
0.0
 11
360.20987425
 21
-96.91967741
 31
0.0
  0
LINE
  5
461
  8
DIM49
 62
     5
 10
347.70987425
 20
-101.91967741
 30
0.0
 11
347.70987425
 21
-94.91967741
 31
0.0
  0
LINE
  5
462
  8
DIM49
 62
     5
 10
360.20987425
 20
-101.91967741
 30
0.0
 11
360.20987425
 21
-94.91967741
 31
0.0
  0
ENDBLK
  8
0
  0
BLOCK
  8
0
  2
_D11
 70
     0
 10
280.92910918
 20
-112.14539621
 30
0.0
  0
TEXT
  5
465
  8
TXT_DIM49
 10
280.92910918
 20
-112.14539621
 30
0.0
 40
2.5
  1
13
 50
90.00020741
  7
ARIAL
  0
LINE
  5
466
  8
DIM49
 62
     5
 10
283.42910918
 20
-104.72556076
 30
0.0
 11
281.42910918
 21
-102.72556076
 31
0.0
  0
LINE
  5
467
  8
DIM49
 62
     5
 10
281.67910918
 20
-115.97556076
 30
0.0
 11
283.17910918
 21
-117.47556076
 31
0.0
  0
LINE
  5
468
  8
DIM49
 62
     5
 10
282.42910918
 20
-103.72556076
 30
0.0
 11
282.42910918
 21
-116.72556076
 31
0.0
  0
LINE
  5
469
  8
DIM49
 62
     5
 10
287.42910918
 20
-103.72556076
 30
0.0
 11
280.42910918
 21
-103.72556076
 31
0.0
  0
LINE
  5
46A
  8
DIM49
 62
     5
 10
287.42910918
 20
-116.72556076
 30
0.0
 11
280.42910918
 21
-116.72556076
 31
0.0
  0
ENDBLK
  8
0
  0
BLOCK
  8
0
  2
_D12
 70
     0
 10
280.92910918
 20
-123.64539621
 30
0.0
  0
TEXT
  5
46D
  8
TXT_DIM49
 10
280.92910918
 20
-123.64539621
 30
0.0
 40
2.5
  1
10
 50
90.00020741
  7
ARIAL
  0
LINE
  5
46E
  8
DIM49
 62
     5
 10
283.42910918
 20
-117.72556076
 30
0.0
 11
281.42910918
 21
-115.72556076
 31
0.0
  0
LINE
  5
46F
  8
DIM49
 62
     5
 10
281.67910918
 20
-125.97556076
 30
0.0
 11
283.17910918
 21
-127.47556076
 31
0.0
  0
LINE
  5
470
  8
DIM49
 62
     5
 10
282.42910918
 20
-116.72556076
 30
0.0
 11
282.42910918
 21
-126.72556076
 31
0.0
  0
LINE
  5
471
  8
DIM49
 62
     5
 10
287.42910918
 20
-116.72556076
 30
0.0
 11
280.42910918
 21
-116.72556076
 31
0.0
  0
LINE
  5
472
  8
DIM49
 62
     5
 10
287.42910918
 20
-126.72556076
 30
0.0
 11
280.42910918
 21
-126.72556076
 31
0.0
  0
ENDBLK
  8
0
  0
BLOCK
  8
0
  2
_D13
 70
     0
 10
280.92910918
 20
-133.64539621
 30
0.0
  0
TEXT
  5
475
  8
TXT_DIM49
 10
280.92910918
 20
-133.64539621
 30
0.0
 40
2.5
  1
10
 50
90.00020741
  7
ARIAL
  0
LINE
  5
476
  8
DIM49
 62
     5
 10
283.42910918
 20
-127.72556076
 30
0.0
 11
281.42910918
 21
-125.72556076
 31
0.0
  0
LINE
  5
477
  8
DIM49
 62
     5
 10
281.67910918
 20
-135.97556076
 30
0.0
 11
283.17910918
 21
-137.47556076
 31
0.0
  0
LINE
  5
478
  8
DIM49
 62
     5
 10
282.42910918
 20
-126.72556076
 30
0.0
 11
282.42910918
 21
-136.72556076
 31
0.0
  0
LINE
  5
479
  8
DIM49
 62
     5
 10
287.42910918
 20
-126.72556076
 30
0.0
 11
280.42910918
 21
-126.72556076
 31
0.0
  0
LINE
  5
47A
  8
DIM49
 62
     5
 10
287.42910918
 20
-136.72556076
 30
0.0
 11
280.42910918
 21
-136.72556076
 31
0.0
  0
ENDBLK
  8
0
  0
BLOCK
  8
0
  2
_D14
 70
     0
 10
280.92910918
 20
-143.64539621
 30
0.0
  0
TEXT
  5
47D
  8
TXT_DIM49
 10
280.92910918
 20
-143.64539621
 30
0.0
 40
2.5
  1
10
 50
90.00020741
  7
ARIAL
  0
LINE
  5
47E
  8
DIM49
 62
     5
 10
283.42910918
 20
-137.72556076
 30
0.0
 11
281.42910918
 21
-135.72556076
 31
0.0
  0
LINE
  5
47F
  8
DIM49
 62
     5
 10
281.67910918
 20
-145.97556076
 30
0.0
 11
283.17910918
 21
-147.47556076
 31
0.0
  0
LINE
  5
480
  8
DIM49
 62
     5
 10
282.42910918
 20
-136.72556076
 30
0.0
 11
282.42910918
 21
-146.72556076
 31
0.0
  0
LINE
  5
481
  8
DIM49
 62
     5
 10
287.42910918
 20
-136.72556076
 30
0.0
 11
280.42910918
 21
-136.72556076
 31
0.0
  0
LINE
  5
482
  8
DIM49
 62
     5
 10
287.42910918
 20
-146.72556076
 30
0.0
 11
280.42910918
 21
-146.72556076
 31
0.0
  0
ENDBLK
  8
0
  0
BLOCK
  8
0
  2
_D15
 70
     0
 10
280.92910918
 20
-153.64539621
 30
0.0
  0
TEXT
  5
485
  8
TXT_DIM49
 10
280.92910918
 20
-153.64539621
 30
0.0
 40
2.5
  1
10
 50
90.00020741
  7
ARIAL
  0
LINE
  5
486
  8
DIM49
 62
     5
 10
283.42910918
 20
-147.72556076
 30
0.0
 11
281.42910918
 21
-145.72556076
 31
0.0
  0
LINE
  5
487
  8
DIM49
 62
     5
 10
281.67910918
 20
-155.97556076
 30
0.0
 11
283.17910918
 21
-157.47556076
 31
0.0
  0
LINE
  5
488
  8
DIM49
 62
     5
 10
282.42910918
 20
-146.72556076
 30
0.0
 11
282.42910918
 21
-156.72556076
 31
0.0
  0
LINE
  5
489
  8
DIM49
 62
     5
 10
287.42910918
 20
-146.72556076
 30
0.0
 11
280.42910918
 21
-146.72556076
 31
0.0
  0
LINE
  5
48A
  8
DIM49
 62
     5
 10
287.42910918
 20
-156.72556076
 30
0.0
 11
280.42910918
 21
-156.72556076
 31
0.0
  0
ENDBLK
  8
0
  0
BLOCK
  8
0
  2
_D16
 70
     0
 10
280.92910918
 20
-163.64539621
 30
0.0
  0
TEXT
  5
48D
  8
TXT_DIM49
 10
280.92910918
 20
-163.64539621
 30
0.0
 40
2.5
  1
10
 50
90.00020741
  7
ARIAL
  0
LINE
  5
48E
  8
DIM49
 62
     5
 10
283.42910918
 20
-157.72556076
 30
0.0
 11
281.42910918
 21
-155.72556076
 31
0.0
  0
LINE
  5
48F
  8
DIM49
 62
     5
 10
281.67910918
 20
-165.97556076
 30
0.0
 11
283.17910918
 21
-167.47556076
 31
0.0
  0
LINE
  5
490
  8
DIM49
 62
     5
 10
282.42910918
 20
-156.72556076
 30
0.0
 11
282.42910918
 21
-166.72556076
 31
0.0
  0
LINE
  5
491
  8
DIM49
 62
     5
 10
287.42910918
 20
-156.72556076
 30
0.0
 11
280.42910918
 21
-156.72556076
 31
0.0
  0
LINE
  5
492
  8
DIM49
 62
     5
 10
287.42910918
 20
-166.72556076
 30
0.0
 11
280.42910918
 21
-166.72556076
 31
0.0
  0
ENDBLK
  8
0
  0
BLOCK
  8
0
  2
_D17
 70
     0
 10
280.92910918
 20
-173.64539621
 30
0.0
  0
TEXT
  5
495
  8
TXT_DIM49
 10
280.92910918
 20
-173.64539621
 30
0.0
 40
2.5
  1
10
 50
90.00020741
  7
ARIAL
  0
LINE
  5
496
  8
DIM49
 62
     5
 10
283.42910918
 20
-167.72556076
 30
0.0
 11
281.42910918
 21
-165.72556076
 31
0.0
  0
LINE
  5
497
  8
DIM49
 62
     5
 10
281.67910918
 20
-175.97556076
 30
0.0
 11
283.17910918
 21
-177.47556076
 31
0.0
  0
LINE
  5
498
  8
DIM49
 62
     5
 10
282.42910918
 20
-166.72556076
 30
0.0
 11
282.42910918
 21
-176.72556076
 31
0.0
  0
LINE
  5
499
  8
DIM49
 62
     5
 10
287.42910918
 20
-166.72556076
 30
0.0
 11
280.42910918
 21
-166.72556076
 31
0.0
  0
LINE
  5
49A
  8
DIM49
 62
     5
 10
287.42910918
 20
-176.72556076
 30
0.0
 11
280.42910918
 21
-176.72556076
 31
0.0
  0
ENDBLK
  8
0
  0
BLOCK
  8
0
  2
_D18
 70
     0
 10
280.92910918
 20
-202.14539621
 30
0.0
  0
TEXT
  5
49D
  8
TXT_DIM49
 10
280.92910918
 20
-202.14539621
 30
0.0
 40
2.5
  1
47
 50
90.00020741
  7
ARIAL
  0
LINE
  5
49E
  8
DIM49
 62
     5
 10
283.42910918
 20
-177.72556076
 30
0.0
 11
281.42910918
 21
-175.72556076
 31
0.0
  0
LINE
  5
49F
  8
DIM49
 62
     5
 10
281.67910918
 20
-222.97556076
 30
0.0
 11
283.17910918
 21
-224.47556076
 31
0.0
  0
LINE
  5
4A0
  8
DIM49
 62
     5
 10
282.42910918
 20
-176.72556076
 30
0.0
 11
282.42910918
 21
-223.72556076
 31
0.0
  0
LINE
  5
4A1
  8
DIM49
 62
     5
 10
287.42910918
 20
-176.72556076
 30
0.0
 11
280.42910918
 21
-176.72556076
 31
0.0
  0
LINE
  5
4A2
  8
DIM49
 62
     5
 10
287.42910918
 20
-223.72556076
 30
0.0
 11
280.42910918
 21
-223.72556076
 31
0.0
  0
ENDBLK
  8
0
  0
BLOCK
  8
0
  2
_D19
 70
     0
 10
344.90742001
 20
-181.39874327
 30
0.0
  0
TEXT
  5
4A5
  8
TXT_DIM49
 10
344.90742001
 20
-181.39874327
 30
0.0
 40
2.5
  1
Ø
  7
ARIAL
  0
TEXT
  5
4A6
  8
TXT_DIM49
 10
348.59249291
 20
-181.39874327
 30
0.0
 40
2.5
  1
9
  7
ARIAL
  0
LINE
  5
4A7
  8
DIM49
 62
     5
 10
351.20987425
 20
-183.89874327
 30
0.0
 11
353.20987425
 21
-181.89874327
 31
0.0
  0
LINE
  5
4A8
  8
DIM49
 62
     5
 10
343.95987425
 20
-182.14874327
 30
0.0
 11
342.45987425
 21
-183.64874327
 31
0.0
  0
LINE
  5
4A9
  8
DIM49
 62
     5
 10
352.20987425
 20
-182.89874327
 30
0.0
 11
343.20987425
 21
-182.89874327
 31
0.0
  0
LINE
  5
4AA
  8
DIM49
 62
     5
 10
352.20987425
 20
-177.89874327
 30
0.0
 11
352.20987425
 21
-184.89874327
 31
0.0
  0
LINE
  5
4AB
  8
DIM49
 62
     5
 10
343.20987425
 20
-177.89874327
 30
0.0
 11
343.20987425
 21
-184.89874327
 31
0.0
  0
ENDBLK
  8
0
  0
BLOCK
  8
0
  2
_D20
 70
     0
 10
256.94267396
 20
-30.10550816
 30
0.0
  0
TEXT
  5
4BC
  8
TXT_DIM49
 10
256.94267396
 20
-30.10550816
 30
0.0
 40
2.5
  1
35
 50
90.00020741
  7
ARIAL
  0
LINE
  5
4BD
  8
DIM49
 62
     5
 10
259.44267396
 20
-11.68567271
 30
0.0
 11
257.44267396
 21
-9.68567271
 31
0.0
  0
LINE
  5
4BE
  8
DIM49
 62
     5
 10
257.69267396
 20
-44.93567271
 30
0.0
 11
259.19267396
 21
-46.43567271
 31
0.0
  0
LINE
  5
4BF
  8
DIM49
 62
     5
 10
258.44267396
 20
-10.68567271
 30
0.0
 11
258.44267396
 21
-45.68567271
 31
0.0
  0
LINE
  5
4C0
  8
DIM49
 62
     5
 10
253.44267396
 20
-10.68567271
 30
0.0
 11
260.44267396
 21
-10.68567271
 31
0.0
  0
LINE
  5
4C1
  8
DIM49
 62
     5
 10
253.44267396
 20
-45.68567271
 30
0.0
 11
260.44267396
 21
-45.68567271
 31
0.0
  0
ENDBLK
  8
0
  0
BLOCK
  8
0
  2
_D21
 70
     0
 10
256.94267396
 20
-65.10550816
 30
0.0
  0
TEXT
  5
4C4
  8
TXT_DIM49
 10
256.94267396
 20
-65.10550816
 30
0.0
 40
2.5
  1
35
 50
90.00020741
  7
ARIAL
  0
LINE
  5
4C5
  8
DIM49
 62
     5
 10
259.44267396
 20
-46.68567271
 30
0.0
 11
257.44267396
 21
-44.68567271
 31
0.0
  0
LINE
  5
4C6
  8
DIM49
 62
     5
 10
257.69267396
 20
-79.93567271
 30
0.0
 11
259.19267396
 21
-81.43567271
 31
0.0
  0
LINE
  5
4C7
  8
DIM49
 62
     5
 10
258.44267396
 20
-45.68567271
 30
0.0
 11
258.44267396
 21
-80.68567271
 31
0.0
  0
LINE
  5
4C8
  8
DIM49
 62
     5
 10
253.44267396
 20
-45.68567271
 30
0.0
 11
260.44267396
 21
-45.68567271
 31
0.0
  0
LINE
  5
4C9
  8
DIM49
 62
     5
 10
253.44267396
 20
-80.68567271
 30
0.0
 11
260.44267396
 21
-80.68567271
 31
0.0
  0
ENDBLK
  8
0
  0
BLOCK
  8
0
  2
_D22
 70
     0
 10
234.20940602
 20
-2.34868238
 30
0.0
  0
TEXT
  5
4CC
  8
TXT_DIM49
 10
234.20940602
 20
-2.34868238
 30
0.0
 40
2.5
  1
31
  7
ARIAL
  0
LINE
  5
4CD
  8
DIM49
 10
250.62924147
 20
-4.84868238
 30
0.0
 11
252.62924147
 21
-2.84868238
 31
0.0
  0
LINE
  5
4CE
  8
DIM49
 10
221.37924147
 20
-3.09868238
 30
0.0
 11
219.87924147
 21
-4.59868238
 31
0.0
  0
LINE
  5
4CF
  8
DIM49
 10
251.62924147
 20
-3.84868238
 30
0.0
 11
220.62924147
 21
-3.84868238
 31
0.0
  0
LINE
  5
4D0
  8
DIM49
 10
251.62924147
 20
-5.84868238
 30
0.0
 11
251.62924147
 21
-1.84868238
 31
0.0
  0
LINE
  5
4D1
  8
DIM49
 10
220.62924147
 20
-5.84868238
 30
0.0
 11
220.62924147
 21
-1.84868238
 31
0.0
  0
ENDBLK
  8
0
  0
BLOCK
  8
0
  2
_D23
 70
     0
 10
197.95940602
 20
-2.34868238
 30
0.0
  0
TEXT
  5
4D4
  8
TXT_DIM49
 10
197.95940602
 20
-2.34868238
 30
0.0
 40
2.5
  1
42
  7
ARIAL
  0
LINE
  5
4D5
  8
DIM49
 10
219.62924147
 20
-4.84868238
 30
0.0
 11
221.62924147
 21
-2.84868238
 31
0.0
  0
LINE
  5
4D6
  8
DIM49
 10
179.87924147
 20
-3.09868238
 30
0.0
 11
178.37924147
 21
-4.59868238
 31
0.0
  0
LINE
  5
4D7
  8
DIM49
 10
220.62924147
 20
-3.84868238
 30
0.0
 11
179.12924147
 21
-3.84868238
 31
0.0
  0
LINE
  5
4D8
  8
DIM49
 10
220.62924147
 20
-5.84868238
 30
0.0
 11
220.62924147
 21
-1.84868238
 31
0.0
  0
LINE
  5
4D9
  8
DIM49
 10
179.12924147
 20
-5.84868238
 30
0.0
 11
179.12924147
 21
-1.84868238
 31
0.0
  0
ENDBLK
  8
0
  0
BLOCK
  8
0
  2
_D24
 70
     0
 10
144.70940602
 20
-2.34868238
 30
0.0
  0
TEXT
  5
4DC
  8
TXT_DIM49
 10
144.70940602
 20
-2.34868238
 30
0.0
 40
2.5
  1
65
  7
ARIAL
  0
LINE
  5
4DD
  8
DIM49
 10
178.12924147
 20
-4.84868238
 30
0.0
 11
180.12924147
 21
-2.84868238
 31
0.0
  0
LINE
  5
4DE
  8
DIM49
 10
114.87924147
 20
-3.09868238
 30
0.0
 11
113.37924147
 21
-4.59868238
 31
0.0
  0
LINE
  5
4DF
  8
DIM49
 10
179.12924147
 20
-3.84868238
 30
0.0
 11
114.12924147
 21
-3.84868238
 31
0.0
  0
LINE
  5
4E0
  8
DIM49
 10
179.12924147
 20
-5.84868238
 30
0.0
 11
179.12924147
 21
-1.84868238
 31
0.0
  0
LINE
  5
4E1
  8
DIM49
 10
114.12924147
 20
-5.84868238
 30
0.0
 11
114.12924147
 21
-1.84868238
 31
0.0
  0
ENDBLK
  8
0
  0
BLOCK
  8
0
  2
_D25
 70
     0
 10
95.95940602
 20
-2.34868238
 30
0.0
  0
TEXT
  5
4E4
  8
TXT_DIM49
 10
95.95940602
 20
-2.34868238
 30
0.0
 40
2.5
  1
33
  7
ARIAL
  0
LINE
  5
4E5
  8
DIM49
 10
113.12924147
 20
-4.84868238
 30
0.0
 11
115.12924147
 21
-2.84868238
 31
0.0
  0
LINE
  5
4E6
  8
DIM49
 10
82.37924147
 20
-3.09868238
 30
0.0
 11
80.87924147
 21
-4.59868238
 31
0.0
  0
LINE
  5
4E7
  8
DIM49
 10
114.12924147
 20
-3.84868238
 30
0.0
 11
81.62924147
 21
-3.84868238
 31
0.0
  0
LINE
  5
4E8
  8
DIM49
 10
114.12924147
 20
-5.84868238
 30
0.0
 11
114.12924147
 21
-1.84868238
 31
0.0
  0
LINE
  5
4E9
  8
DIM49
 10
81.62924147
 20
-5.84868238
 30
0.0
 11
81.62924147
 21
-1.84868238
 31
0.0
  0
ENDBLK
  8
0
  0
BLOCK
  8
0
  2
_D26
 70
     0
 10
186.97177607
 20
-49.44804473
 30
0.0
  0
TEXT
  5
4EC
  8
TXT_DIM49
 10
186.97177607
 20
-49.44804473
 30
0.0
 40
2.5
  1
Ø
 50
90.00020741
  7
ARIAL
  0
TEXT
  5
4ED
  8
TXT_DIM49
 10
186.97177607
 20
-45.76297183
 30
0.0
 40
2.5
  1
13
 50
90.00020741
  7
ARIAL
  0
LINE
  5
4EE
  8
DIM49
 10
189.47177607
 20
-40.18567271
 30
0.0
 11
187.47177607
 21
-38.18567271
 31
0.0
  0
LINE
  5
4EF
  8
DIM49
 10
187.72177607
 20
-51.43567271
 30
0.0
 11
189.22177607
 21
-52.93567271
 31
0.0
  0
LINE
  5
4F0
  8
DIM49
 10
188.47177607
 20
-39.18567271
 30
0.0
 11
188.47177607
 21
-52.18567271
 31
0.0
  0
LINE
  5
4F1
  8
DIM49
 10
186.47177607
 20
-39.18567271
 30
0.0
 11
190.47177607
 21
-39.18567271
 31
0.0
  0
LINE
  5
4F2
  8
DIM49
 10
186.47177607
 20
-52.18567271
 30
0.0
 11
190.47177607
 21
-52.18567271
 31
0.0
  0
ENDBLK
  8
0
  0
BLOCK
  8
0
  2
_D27
 70
     0
 10
216.86686945
 20
-31.93629696
 30
0.0
  0
TEXT
  5
4F5
  8
TXT_DIM49
 10
216.86686945
 20
-31.93629696
 30
0.0
 40
2.5
  1
Ø
  7
ARIAL
  0
TEXT
  5
4F6
  8
TXT_DIM49
 10
220.55194235
 20
-31.93629696
 30
0.0
 40
2.5
  1
13
  7
ARIAL
  0
LINE
  5
4F7
  8
DIM49
 10
215.12924147
 20
-32.43629696
 30
0.0
 11
213.12924147
 21
-34.43629696
 31
0.0
  0
LINE
  5
4F8
  8
DIM49
 10
226.37924147
 20
-34.18629696
 30
0.0
 11
227.87924147
 21
-32.68629696
 31
0.0
  0
LINE
  5
4F9
  8
DIM49
 10
214.12924147
 20
-33.43629696
 30
0.0
 11
227.12924147
 21
-33.43629696
 31
0.0
  0
LINE
  5
4FA
  8
DIM49
 10
214.12924147
 20
-35.43629696
 30
0.0
 11
214.12924147
 21
-31.43629696
 31
0.0
  0
LINE
  5
4FB
  8
DIM49
 10
227.12924147
 20
-35.43629696
 30
0.0
 11
227.12924147
 21
-31.43629696
 31
0.0
  0
ENDBLK
  8
0
  0
BLOCK
  8
0
  2
_D28
 70
     0
 10
265.04819259
 20
-47.60550816
 30
0.0
  0
TEXT
  5
4FE
  8
TXT_DIM49
 10
265.04819259
 20
-47.60550816
 30
0.0
 40
2.5
  1
70
 50
90.00020741
  7
ARIAL
  0
LINE
  5
4FF
  8
DIM49
 10
267.54819259
 20
-11.68567271
 30
0.0
 11
265.54819259
 21
-9.68567271
 31
0.0
  0
LINE
  5
500
  8
DIM49
 10
265.79819259
 20
-79.93567271
 30
0.0
 11
267.29819259
 21
-81.43567271
 31
0.0
  0
LINE
  5
501
  8
DIM49
 10
266.54819259
 20
-10.68567271
 30
0.0
 11
266.54819259
 21
-80.68567271
 31
0.0
  0
LINE
  5
502
  8
DIM49
 10
264.54819259
 20
-10.68567271
 30
0.0
 11
268.54819259
 21
-10.68567271
 31
0.0
  0
LINE
  5
503
  8
DIM49
 10
264.54819259
 20
-80.68567271
 30
0.0
 11
268.54819259
 21
-80.68567271
 31
0.0
  0
ENDBLK
  8
0
  0
BLOCK
  8
0
  2
_ZBL0002_00001
 70
     0
 10
0.0
 20
0.0
 30
0.0
  0
INSERT
  5
1B8
  8
0
  2
DINA3_00002
 10
50.39857753
 20
-271.73281222
 30
0.0
  0
ENDBLK
  8
0
  0
BLOCK
  8
0
  2
DINA3_00002
 70
     0
 10
50.39857753
 20
-271.73281222
 30
0.0
  0
POLYLINE
  5
1BB
  8
0
 66
     1
 10
0.0
 20
0.0
 30
0.0
 70
     1
  0
VERTEX
  5
1BC
  8
0
 10
50.39857753
 20
-271.73281222
 30
0.0
  0
VERTEX
  5
1BD
  8
0
 10
470.39857753
 20
-271.73281222
 30
0.0
  0
VERTEX
  5
1BE
  8
0
 10
470.39857753
 20
25.26718778
 30
0.0
  0
VERTEX
  5
1BF
  8
0
 10
50.39857753
 20
25.26718778
 30
0.0
  0
SEQEND
  5
1C0
  8
0
  0
POLYLINE
  5
1C1
  8
0
 66
     1
 10
0.0
 20
0.0
 30
0.0
 70
     1
  0
VERTEX
  5
1C2
  8
0
 10
55.39857753
 20
-266.73281222
 30
0.0
  0
VERTEX
  5
1C3
  8
0
 10
465.39857753
 20
-266.73281222
 30
0.0
  0
VERTEX
  5
1C4
  8
0
 10
465.39857753
 20
20.26718778
 30
0.0
  0
VERTEX
  5
1C5
  8
0
 10
55.39857753
 20
20.26718778
 30
0.0
  0
SEQEND
  5
1C6
  8
0
  0
LINE
  5
1C7
  8
0
 10
280.39857753
 20
-266.73281222
 30
0.0
 11
280.39857753
 21
-271.73281222
 31
0.0
  0
LINE
  5
1C8
  8
0
 10
280.39857753
 20
20.26718778
 30
0.0
 11
280.39857753
 21
25.26718778
 31
0.0
  0
LINE
  5
1C9
  8
0
 10
70.39857753
 20
-266.73281222
 30
0.0
 11
70.39857753
 21
-271.73281222
 31
0.0
  0
LINE
  5
1CA
  8
0
 10
70.39857753
 20
20.26718778
 30
0.0
 11
70.39857753
 21
25.26718778
 31
0.0
  0
TEXT
  5
1CB
  8
TXT_ALL
 62
     4
 10
469.39857753
 20
-270.73281222
 30
0.0
 40
2.5
  1

 50
90.00020741
  0
POLYLINE
  5
1CC
  8
0
 66
     1
 10
0.0
 20
0.0
 30
0.0
  0
VERTEX
  5
1CD
  8
0
 10
465.39857753
 20
10.26718778
 30
0.0
  0
VERTEX
  5
1CE
  8
0
 10
396.40527753
 20
10.26718778
 30
0.0
  0
VERTEX
  5
1CF
  8
0
 10
396.40527753
 20
20.26718778
 30
0.0
  0
SEQEND
  5
1D0
  8
0
  0
LINE
  5
1D1
  8
0
 10
398.30857753
 20
-247.23281222
 30
0.0
 11
258.41857753
 21
-247.23281222
 31
0.0
  0
LINE
  5
1D2
  8
0
 10
258.41857753
 20
-256.98281222
 30
0.0
 11
398.30857753
 21
-256.98281222
 31
0.0
  0
POLYLINE
  5
1D3
  8
0
 66
     1
 10
0.0
 20
0.0
 30
0.0
  0
VERTEX
  5
1D4
  8
0
 10
258.41857753
 20
-247.23281222
 30
0.0
  0
VERTEX
  5
1D5
  8
0
 10
258.41857753
 20
-256.98281222
 30
0.0
  0
VERTEX
  5
1D6
  8
0
 10
258.41857753
 20
-266.73281222
 30
0.0
  0
SEQEND
  5
1D7
  8
0
  0
POLYLINE
  5
1D8
  8
0
 66
     1
 10
0.0
 20
0.0
 30
0.0
  0
VERTEX
  5
1D9
  8
0
 10
328.36357753
 20
-247.23281222
 30
0.0
  0
VERTEX
  5
1DA
  8
0
 10
328.36357753
 20
-256.98281222
 30
0.0
  0
VERTEX
  5
1DB
  8
0
 10
328.36357753
 20
-266.73281222
 30
0.0
  0
SEQEND
  5
1DC
  8
0
  0
INSERT
  5
1DD
  8
0
  2
FLEX_00003
 10
260.41857753
 20
-252.10781222
 30
0.0
  0
INSERT
  5
1DE
  8
0
  2
FLEX_00005
 10
260.41857753
 20
-261.85781222
 30
0.0
  0
INSERT
  5
1DF
  8
0
  2
FLEX_00007
 10
330.36357753
 20
-261.85781222
 30
0.0
  0
INSERT
  5
1E0
  8
0
  2
FLEX_00009
 10
330.36357753
 20
-252.10781222
 30
0.0
  0
INSERT
  5
1E1
  8
0
  2
SCHRIFE_00011
 10
58.84053778
 20
15.26718778
 30
0.0
  0
INSERT
  5
1E2
  8
0
  2
_B_M_P___00015
 10
447.24100361
 20
-271.62281222
 30
0.0
  0
ENDBLK
  8
0
  0
BLOCK
  8
0
  2
FLEX_00003
 70
     0
 10
260.41857753
 20
-252.10781222
 30
0.0
  0
INSERT
  5
1E5
  8
0
  2
TFIELD_00004
 10
260.41857753
 20
-252.10781222
 30
0.0
  0
ENDBLK
  8
0
  0
BLOCK
  8
0
  2
TFIELD_00004
 70
     0
 10
260.41857753
 20
-252.10781222
 30
0.0
  0
TEXT
  5
1E8
  8
TXT_ALL
 10
260.41857753
 20
-253.40781217
 30
0.0
 40
2.5999999
  1
E-mail: verkoop@jonkers-bouwmetaal.nl
  7
ARIAL
  0
ENDBLK
  8
0
  0
BLOCK
  8
0
  2
FLEX_00005
 70
     0
 10
260.41857753
 20
-261.85781222
 30
0.0
  0
INSERT
  5
1EB
  8
0
  2
TFIELD_00006
 10
260.41857753
 20
-261.85781222
 30
0.0
  0
ENDBLK
  8
0
  0
BLOCK
  8
0
  2
TFIELD_00006
 70
     0
 10
260.41857753
 20
-261.85781222
 30
0.0
  0
TEXT
  5
1EE
  8
TXT_ALL
 10
260.41857753
 20
-263.15781217
 30
0.0
 40
2.5999999
  1
Telefoon: 0527-685156
  7
ARIAL
  0
ENDBLK
  8
0
  0
BLOCK
  8
0
  2
FLEX_00007
 70
     0
 10
330.36357753
 20
-261.85781222
 30
0.0
  0
INSERT
  5
1F1
  8
0
  2
TFIELD_00008
 10
330.36357753
 20
-261.85781222
 30
0.0
  0
ENDBLK
  8
0
  0
BLOCK
  8
0
  2
TFIELD_00008
 70
     0
 10
330.36357753
 20
-261.85781222
 30
0.0
  0
TEXT
  5
1F4
  8
TXT_ALL
 10
330.36357753
 20
-263.15781217
 30
0.0
 40
2.5999999
  1
Website: www.jonkers-bouwmetaal.nl
  7
ARIAL
  0
ENDBLK
  8
0
  0
BLOCK
  8
0
  2
FLEX_00009
 70
     0
 10
330.36357753
 20
-252.10781222
 30
0.0
  0
INSERT
  5
1F7
  8
0
  2
TFIELD_00010
 10
330.36357753
 20
-252.10781222
 30
0.0
  0
ENDBLK
  8
0
  0
BLOCK
  8
0
  2
TFIELD_00010
 70
     0
 10
330.36357753
 20
-252.10781222
 30
0.0
  0
TEXT
  5
1FA
  8
TXT_ALL
 10
330.36357753
 20
-253.40781217
 30
0.0
 40
2.5999999
  1
Adres: Hoornse Hop 10, 8321 WX Urk
  7
ARIAL
  0
ENDBLK
  8
0
  0
BLOCK
  8
0
  2
SCHRIFE_00011
 70
     0
 10
58.84053778
 20
15.26718778
 30
0.0
  0
TEXT
  5
1FD
  8
TXT_ALL
 10
58.84053778
 20
14.01718778
 30
0.0
 40
2.5
  1
Art. nr. 91017435
  7
ARIAL
  0
TEXT
  5
1FE
  8
TXT_ALL
 10
101.5785746
 20
14.01718778
 30
0.0
 40
2.5
  1
Omschrijving: H1702-anker 170x120 70x10
  7
ARIAL
  0
LINE
  5
1FF
  8
0
 10
465.39857753
 20
10.26718778
 30
0.0
 11
55.39857753
 21
10.26718778
 31
0.0
  0
LINE
  5
200
  8
0
 10
98.41857753
 20
10.26718778
 30
0.0
 11
98.41857753
 21
20.26718778
 31
0.0
  0
LINE
  5
201
  8
0
 10
258.41857753
 20
10.26718778
 30
0.0
 11
258.41857753
 21
20.26718778
 31
0.0
  0
TEXT
  5
202
  8
TXT_ALL
 10
329.41227753
 20
14.01718778
 30
0.0
 40
2.5
  1
Behandeling: Thermisch Verzinkt
  7
ARIAL
  0
LINE
  5
203
  8
0
 10
398.30857753
 20
-247.23281222
 30
0.0
 11
465.39857753
 21
-247.23281222
 31
0.0
  0
LINE
  5
204
  8
0
 10
398.30857753
 20
-266.73281222
 30
0.0
 11
398.30857753
 21
-247.23281222
 31
0.0
  0
LINE
  5
205
  8
0
 10
398.30857753
 20
-266.73281222
 30
0.0
 11
398.30857753
 21
-247.23281222
 31
0.0
  0
TEXT
  5
206
  8
TXT_ALL
 10
192.76377562
 20
-265.5782788
 30
0.0
 40
2.5
  1

  0
TEXT
  5
207
  8
TXT_ALL
 10
313.89895859
 20
-255.48281222
 30
0.0
 40
2.5
  1

  0
POLYLINE
  5
208
  8
0
 66
     1
 10
0.0
 20
0.0
 30
0.0
  0
VERTEX
  5
209
  8
0
 10
396.40527753
 20
10.26718778
 30
0.0
  0
VERTEX
  5
20A
  8
0
 10
327.41227753
 20
10.26718778
 30
0.0
  0
VERTEX
  5
20B
  8
0
 10
327.41227753
 20
20.26718778
 30
0.0
  0
SEQEND
  5
20C
  8
0
  0
TEXT
  5
20D
  8
TXT_ALL
 10
398.40527753
 20
14.01718778
 30
0.0
 40
2.5
  1
Verpakkingshoeveelheid: 1 st.
  7
ARIAL
  0
TEXT
  5
20E
  8
TXT_ALL
 10
260.41857753
 20
14.01718778
 30
0.0
 40
2.5
  1
Materiaal: S355
  7
ARIAL
  0
INSERT
  5
20F
  8
0
  2
FLEX_00012
 10
439.97381294
 20
-270.73232207
 30
0.0
  0
INSERT
  5
210
  8
0
  2
_B_M_P___00014
 10
399.06794485
 20
-265.94013016
 30
0.0
  0
ENDBLK
  8
0
  0
BLOCK
  8
0
  2
FLEX_00012
 70
     0
 10
439.97381294
 20
-270.73232207
 30
0.0
  0
INSERT
  5
213
  8
0
  2
TFIELD_00013
 10
433.18022476
 20
-269.23232207
 30
0.0
  0
ENDBLK
  8
0
  0
BLOCK
  8
0
  2
TFIELD_00013
 70
     0
 10
433.18022476
 20
-269.23232207
 30
0.0
  0
TEXT
  5
216
  8
TXT_ALL
 10
433.18022476
 20
-269.98232207
 30
0.0
 40
1.5
  1
Onderdeel van
  7
ARIAL
  0
ENDBLK
  8
0
  0
BLOCK
  8
0
  2
_B_M_P___00014
 70
     0
 10
399.06794485
 20
-265.94013016
 30
0.0
  0
ENDBLK
  8
0
  0
BLOCK
  8
0
  2
_B_M_P___00015
 70
     0
 10
447.24100361
 20
-271.62281222
 30
0.0
  0
ENDBLK
  8
0
  0
BLOCK
  8
0
  2
_ANS0003_00016
 70
     0
 10
0.0
 20
0.0
 30
0.0
  0
INSERT
  5
21D
  8
0
  2
_A3D0003_00017
 10
0.0
 20
0.0
 30
0.0
  0
ENDBLK
  8
0
  0
BLOCK
  8
0
  2
_A3D0003_00017
 70
     0
 10
0.0
 20
0.0
 30
0.0
  0
INSERT
  5
220
  8
0
  2
PLAATWERK__D___10MM_00018
 10
0.0
 20
0.0
 30
0.0
  0
ENDBLK
  8
0
  0
BLOCK
  8
0
  2
PLAATWERK__D___10MM_00018
 70
     0
 10
0.0
 20
0.0
 30
0.0
  0
INSERT
  5
223
  8
0
  2
SHEET_FLANGE_00019
 10
0.0
 20
0.0
 30
0.0
  0
INSERT
  5
224
  8
0
  2
BEND_ZONE_00023
 10
0.0
 20
0.0
 30
0.0
  0
INSERT
  5
225
  8
0
  2
SHEET_FLANGE_00025
 10
0.0
 20
0.0
 30
0.0
  0
ENDBLK
  8
0
  0
BLOCK
  8
0
  2
SHEET_FLANGE_00019
 70
     0
 10
0.0
 20
0.0
 30
0.0
  0
INSERT
  5
228
  8
0
  2
SHEET_FLANGE_00020
 10
101.62924147
 20
-223.72556076
 30
0.0
  0
INSERT
  5
229
  8
0
  2
_00021
 10
0.0
 20
0.0
 30
0.0
  0
ENDBLK
  8
0
  0
BLOCK
  8
0
  2
SHEET_FLANGE_00020
 70
     0
 10
101.62924147
 20
-223.72556076
 30
0.0
  0
LINE
  5
22C
  8
LE_ALL
  6
DOT
 62
     3
 10
101.62924147
 20
-223.72556076
 30
0.0
 11
101.62924147
 21
-223.72556076
 31
0.0
  0
LINE
  5
22D
  8
LE_ALL
  6
DOT
 62
     3
 10
101.62924147
 20
-213.72556076
 30
0.0
 11
101.62924147
 21
-213.72556076
 31
0.0
  0
LINE
  5
22E
  8
LE_ALL
  6
DOT
 62
     3
 10
251.62924147
 20
-223.72556076
 30
0.0
 11
251.62924147
 21
-223.72556076
 31
0.0
  0
LINE
  5
22F
  8
LE_ALL
  6
DOT
 62
     3
 10
251.62924147
 20
-213.72556076
 30
0.0
 11
251.62924147
 21
-213.72556076
 31
0.0
  0
LINE
  5
230
  8
LE_ALL
  6
DOT
 62
     3
 10
172.62924147
 20
-223.72556076
 30
0.0
 11
172.62924147
 21
-213.72556076
 31
0.0
  0
LINE
  5
231
  8
LE_ALL
  6
DOT
 62
     3
 10
120.62924147
 20
-223.72556076
 30
0.0
 11
120.62924147
 21
-213.72556076
 31
0.0
  0
LINE
  5
232
  8
LE_ALL
  6
DOT
 62
     3
 10
214.12924147
 20
-213.72556076
 30
0.0
 11
214.12924147
 21
-223.72556076
 31
0.0
  0
LINE
  5
233
  8
LE_ALL
  6
DOT
 62
     3
 10
227.12924147
 20
-213.72556076
 30
0.0
 11
227.12924147
 21
-223.72556076
 31
0.0
  0
LINE
  5
234
  8
LE_ALL
  6
DOT
 62
     3
 10
114.12924147
 20
-223.72556076
 30
0.0
 11
114.12924147
 21
-213.72556076
 31
0.0
  0
LINE
  5
235
  8
LE_ALL
  6
DOT
 62
     3
 10
179.12924147
 20
-223.72556076
 30
0.0
 11
179.12924147
 21
-213.72556076
 31
0.0
  0
LINE
  5
236
  8
LE_ALL
 10
251.62924147
 20
-213.72556076
 30
0.0
 11
101.62924147
 21
-213.72556076
 31
0.0
  0
LINE
  5
237
  8
LE_ALL
 10
251.62924147
 20
-223.72556076
 30
0.0
 11
251.62924147
 21
-213.72556076
 31
0.0
  0
LINE
  5
238
  8
LE_ALL
 10
101.62924147
 20
-223.72556076
 30
0.0
 11
251.62924147
 21
-223.72556076
 31
0.0
  0
ENDBLK
  8
0
  0
BLOCK
  8
0
  2
_00021
 70
     0
 10
0.0
 20
0.0
 30
0.0
  0
INSERT
  5
23B
  8
0
  2
_00022
 10
120.62924147
 20
-210.72556076
 30
0.0
  0
ENDBLK
  8
0
  0
BLOCK
  8
0
  2
_00022
 70
     0
 10
120.62924147
 20
-210.72556076
 30
0.0
  0
LINE
  5
23E
  8
LE_ALL
  6
STRICHPUNKT2
 62
     1
 10
120.62924147
 20
-210.72556076
 30
0.0
 11
120.62924147
 21
-226.72556076
 31
0.0
  0
LINE
  5
23F
  8
LE_ALL
  6
STRICHPUNKT2
 62
     1
 10
172.62924147
 20
-210.72556076
 30
0.0
 11
172.62924147
 21
-226.72556076
 31
0.0
  0
LINE
  5
240
  8
LE_ALL
  6
STRICHPUNKT2
 62
     1
 10
220.62924147
 20
-210.72556076
 30
0.0
 11
220.62924147
 21
-226.72556076
 31
0.0
  0
ENDBLK
  8
0
  0
BLOCK
  8
0
  2
BEND_ZONE_00023
 70
     0
 10
0.0
 20
0.0
 30
0.0
  0
INSERT
  5
243
  8
0
  2
BEND_ZONE_00024
 10
81.62924147
 20
-203.72556076
 30
0.0
  0
ENDBLK
  8
0
  0
BLOCK
  8
0
  2
BEND_ZONE_00024
 70
     0
 10
81.62924147
 20
-203.72556076
 30
0.0
  0
LINE
  5
246
  8
LE_ALL
  6
DOT
 62
     3
 10
81.62924147
 20
-203.72556076
 30
0.0
 11
81.62924147
 21
-203.72556076
 31
0.0
  0
LINE
  5
247
  8
LE_ALL
  6
DOT
 62
     3
 10
91.62924147
 20
-203.72556076
 30
0.0
 11
91.62924147
 21
-203.72556076
 31
0.0
  0
LINE
  5
248
  8
LE_ALL
  6
DOT
 62
     3
 10
101.62924147
 20
-223.72556076
 30
0.0
 11
101.62924147
 21
-223.72556076
 31
0.0
  0
LINE
  5
249
  8
LE_ALL
  6
DOT
 62
     3
 10
101.62924147
 20
-213.72556076
 30
0.0
 11
101.62924147
 21
-213.72556076
 31
0.0
  0
ARC
  5
24A
  8
LE_ALL
 10
101.62924147
 20
-203.72556076
 30
0.0
 40
20.0
 50
180.0
 51
-90.0
  0
ARC
  5
24B
  8
LE_ALL
 10
101.62924147
 20
-203.72556076
 30
0.0
 40
10.0
 50
180.0
 51
-90.0
  0
ENDBLK
  8
0
  0
BLOCK
  8
0
  2
SHEET_FLANGE_00025
 70
     0
 10
0.0
 20
0.0
 30
0.0
  0
INSERT
  5
24E
  8
0
  2
SHEET_FLANGE_00026
 10
81.62924147
 20
-203.72556076
 30
0.0
  0
INSERT
  5
24F
  8
0
  2
_00027
 10
0.0
 20
0.0
 30
0.0
  0
ENDBLK
  8
0
  0
BLOCK
  8
0
  2
SHEET_FLANGE_00026
 70
     0
 10
81.62924147
 20
-203.72556076
 30
0.0
  0
LINE
  5
252
  8
LE_ALL
  6
DOT
 62
     3
 10
81.62924147
 20
-203.72556076
 30
0.0
 11
81.62924147
 21
-203.72556076
 31
0.0
  0
LINE
  5
253
  8
LE_ALL
  6
DOT
 62
     3
 10
91.62924147
 20
-203.72556076
 30
0.0
 11
91.62924147
 21
-203.72556076
 31
0.0
  0
LINE
  5
254
  8
LE_ALL
  6
DOT
 62
     3
 10
81.62924147
 20
-103.72556076
 30
0.0
 11
81.62924147
 21
-103.72556076
 31
0.0
  0
LINE
  5
255
  8
LE_ALL
  6
DOT
 62
     3
 10
91.62924147
 20
-103.72556076
 30
0.0
 11
91.62924147
 21
-103.72556076
 31
0.0
  0
LINE
  5
256
  8
LE_ALL
  6
DOT
 62
     3
 10
91.62924147
 20
-172.22556076
 30
0.0
 11
81.62924147
 21
-172.22556076
 31
0.0
  0
LINE
  5
257
  8
LE_ALL
  6
DOT
 62
     3
 10
91.62924147
 20
-181.22556076
 30
0.0
 11
81.62924147
 21
-181.22556076
 31
0.0
  0
LINE
  5
258
  8
LE_ALL
  6
DOT
 62
     3
 10
91.62924147
 20
-142.22556076
 30
0.0
 11
81.62924147
 21
-142.22556076
 31
0.0
  0
LINE
  5
259
  8
LE_ALL
  6
DOT
 62
     3
 10
91.62924147
 20
-151.22556076
 30
0.0
 11
81.62924147
 21
-151.22556076
 31
0.0
  0
LINE
  5
25A
  8
LE_ALL
  6
DOT
 62
     3
 10
91.62924147
 20
-162.22556076
 30
0.0
 11
81.62924147
 21
-162.22556076
 31
0.0
  0
LINE
  5
25B
  8
LE_ALL
  6
DOT
 62
     3
 10
91.62924147
 20
-171.22556076
 30
0.0
 11
81.62924147
 21
-171.22556076
 31
0.0
  0
LINE
  5
25C
  8
LE_ALL
  6
DOT
 62
     3
 10
91.62924147
 20
-132.22556076
 30
0.0
 11
81.62924147
 21
-132.22556076
 31
0.0
  0
LINE
  5
25D
  8
LE_ALL
  6
DOT
 62
     3
 10
91.62924147
 20
-141.22556076
 30
0.0
 11
81.62924147
 21
-141.22556076
 31
0.0
  0
LINE
  5
25E
  8
LE_ALL
  6
DOT
 62
     3
 10
91.62924147
 20
-122.22556076
 30
0.0
 11
81.62924147
 21
-122.22556076
 31
0.0
  0
LINE
  5
25F
  8
LE_ALL
  6
DOT
 62
     3
 10
91.62924147
 20
-131.22556076
 30
0.0
 11
81.62924147
 21
-131.22556076
 31
0.0
  0
LINE
  5
260
  8
LE_ALL
  6
DOT
 62
     3
 10
91.62924147
 20
-112.22556076
 30
0.0
 11
81.62924147
 21
-112.22556076
 31
0.0
  0
LINE
  5
261
  8
LE_ALL
  6
DOT
 62
     3
 10
91.62924147
 20
-121.22556076
 30
0.0
 11
81.62924147
 21
-121.22556076
 31
0.0
  0
LINE
  5
262
  8
LE_ALL
  6
DOT
 62
     3
 10
91.62924147
 20
-150.22556076
 30
0.0
 11
81.62924147
 21
-150.22556076
 31
0.0
  0
LINE
  5
263
  8
LE_ALL
  6
DOT
 62
     3
 10
91.62924147
 20
-163.22556076
 30
0.0
 11
81.62924147
 21
-163.22556076
 31
0.0
  0
POLYLINE
  5
264
  8
LE_ALL
 66
     1
 10
0.0
 20
0.0
 30
0.0
  0
VERTEX
  5
265
  8
LE_ALL
 10
81.62924147
 20
-103.72556076
 30
0.0
  0
VERTEX
  5
266
  8
LE_ALL
 10
91.62924147
 20
-103.72556076
 30
0.0
  0
VERTEX
  5
267
  8
LE_ALL
 10
91.62924147
 20
-203.72556076
 30
0.0
  0
SEQEND
  5
268
  8
LE_ALL
  0
LINE
  5
269
  8
LE_ALL
 10
81.62924147
 20
-203.72556076
 30
0.0
 11
81.62924147
 21
-103.72556076
 31
0.0
  0
ENDBLK
  8
0
  0
BLOCK
  8
0
  2
_00027
 70
     0
 10
0.0
 20
0.0
 30
0.0
  0
INSERT
  5
26C
  8
0
  2
_00028
 10
93.87924147
 20
-176.72556076
 30
0.0
  0
ENDBLK
  8
0
  0
BLOCK
  8
0
  2
_00028
 70
     0
 10
93.87924147
 20
-176.72556076
 30
0.0
  0
LINE
  5
26F
  8
LE_ALL
  6
STRICHPUNKT2
 62
     1
 10
93.87924147
 20
-176.72556076
 30
0.0
 11
79.37924147
 21
-176.72556076
 31
0.0
  0
LINE
  5
270
  8
LE_ALL
  6
STRICHPUNKT2
 62
     1
 10
93.87924147
 20
-126.72556076
 30
0.0
 11
79.37924147
 21
-126.72556076
 31
0.0
  0
LINE
  5
271
  8
LE_ALL
  6
STRICHPUNKT2
 62
     1
 10
93.87924147
 20
-116.72556076
 30
0.0
 11
79.37924147
 21
-116.72556076
 31
0.0
  0
LINE
  5
272
  8
LE_ALL
  6
STRICHPUNKT2
 62
     1
 10
93.87924147
 20
-166.72556076
 30
0.0
 11
79.37924147
 21
-166.72556076
 31
0.0
  0
LINE
  5
273
  8
LE_ALL
  6
STRICHPUNKT2
 62
     1
 10
93.87924147
 20
-136.72556076
 30
0.0
 11
79.37924147
 21
-136.72556076
 31
0.0
  0
LINE
  5
274
  8
LE_ALL
  6
STRICHPUNKT2
 62
     1
 10
94.62924147
 20
-156.72556076
 30
0.0
 11
78.62924147
 21
-156.72556076
 31
0.0
  0
LINE
  5
275
  8
LE_ALL
  6
STRICHPUNKT2
 62
     1
 10
93.87924147
 20
-146.72556076
 30
0.0
 11
79.37924147
 21
-146.72556076
 31
0.0
  0
ENDBLK
  8
0
  0
BLOCK
  8
0
  2
_ANS0004_00029
 70
     0
 10
0.0
 20
0.0
 30
0.0
  0
INSERT
  5
278
  8
0
  2
_A3D0004_00030
 10
0.0
 20
0.0
 30
0.0
  0
ENDBLK
  8
0
  0
BLOCK
  8
0
  2
_A3D0004_00030
 70
     0
 10
0.0
 20
0.0
 30
0.0
  0
INSERT
  5
27B
  8
0
  2
PLAATWERK__D___10MM_00031
 10
0.0
 20
0.0
 30
0.0
  0
ENDBLK
  8
0
  0
BLOCK
  8
0
  2
PLAATWERK__D___10MM_00031
 70
     0
 10
0.0
 20
0.0
 30
0.0
  0
INSERT
  5
27E
  8
0
  2
SHEET_FLANGE_00032
 10
0.0
 20
0.0
 30
0.0
  0
INSERT
  5
27F
  8
0
  2
BEND_ZONE_00036
 10
0.0
 20
0.0
 30
0.0
  0
INSERT
  5
280
  8
0
  2
SHEET_FLANGE_00038
 10
0.0
 20
0.0
 30
0.0
  0
ENDBLK
  8
0
  0
BLOCK
  8
0
  2
SHEET_FLANGE_00032
 70
     0
 10
0.0
 20
0.0
 30
0.0
  0
INSERT
  5
283
  8
0
  2
SHEET_FLANGE_00033
 10
290.20987425
 20
-223.72556076
 30
0.0
  0
INSERT
  5
284
  8
0
  2
_00034
 10
0.0
 20
0.0
 30
0.0
  0
ENDBLK
  8
0
  0
BLOCK
  8
0
  2
SHEET_FLANGE_00033
 70
     0
 10
290.20987425
 20
-223.72556076
 30
0.0
  0
LINE
  5
287
  8
LE_ALL
  6
DOT
 62
     3
 10
290.20987425
 20
-223.72556076
 30
0.0
 11
290.20987425
 21
-223.72556076
 31
0.0
  0
LINE
  5
288
  8
LE_ALL
  6
DOT
 62
     3
 10
290.20987425
 20
-213.72556076
 30
0.0
 11
290.20987425
 21
-213.72556076
 31
0.0
  0
LINE
  5
289
  8
LE_ALL
  6
DOT
 62
     3
 10
360.20987425
 20
-223.72556076
 30
0.0
 11
360.20987425
 21
-223.72556076
 31
0.0
  0
LINE
  5
28A
  8
LE_ALL
  6
DOT
 62
     3
 10
360.20987425
 20
-213.72556076
 30
0.0
 11
360.20987425
 21
-213.72556076
 31
0.0
  0
LINE
  5
28B
  8
LE_ALL
  6
DOT
 62
     3
 10
318.70987425
 20
-223.72556076
 30
0.0
 11
318.70987425
 21
-223.72556076
 31
0.0
  0
LINE
  5
28C
  8
LE_ALL
  6
DOT
 62
     3
 10
331.70987425
 20
-223.72556076
 30
0.0
 11
331.70987425
 21
-223.72556076
 31
0.0
  0
LINE
  5
28D
  8
LE_ALL
  6
DOT
 62
     3
 10
318.70987425
 20
-213.72556076
 30
0.0
 11
318.70987425
 21
-213.72556076
 31
0.0
  0
LINE
  5
28E
  8
LE_ALL
  6
DOT
 62
     3
 10
318.70987425
 20
-223.72556076
 30
0.0
 11
318.70987425
 21
-213.72556076
 31
0.0
  0
LINE
  5
28F
  8
LE_ALL
  6
DOT
 62
     3
 10
331.70987425
 20
-213.72556076
 30
0.0
 11
331.70987425
 21
-213.72556076
 31
0.0
  0
LINE
  5
290
  8
LE_ALL
  6
DOT
 62
     3
 10
331.70987425
 20
-223.72556076
 30
0.0
 11
331.70987425
 21
-213.72556076
 31
0.0
  0
LINE
  5
291
  8
LE_ALL
  6
DOT
 62
     3
 10
318.70987425
 20
-213.72556076
 30
0.0
 11
318.70987425
 21
-223.72556076
 31
0.0
  0
LINE
  5
292
  8
LE_ALL
  6
DOT
 62
     3
 10
331.70987425
 20
-213.72556076
 30
0.0
 11
331.70987425
 21
-223.72556076
 31
0.0
  0
LINE
  5
293
  8
LE_ALL
 10
290.20987425
 20
-223.72556076
 30
0.0
 11
290.20987425
 21
-213.72556076
 31
0.0
  0
LINE
  5
294
  8
LE_ALL
 10
360.20987425
 20
-213.72556076
 30
0.0
 11
290.20987425
 21
-213.72556076
 31
0.0
  0
LINE
  5
295
  8
LE_ALL
 10
360.20987425
 20
-223.72556076
 30
0.0
 11
360.20987425
 21
-213.72556076
 31
0.0
  0
LINE
  5
296
  8
LE_ALL
 10
290.20987425
 20
-223.72556076
 30
0.0
 11
360.20987425
 21
-223.72556076
 31
0.0
  0
ENDBLK
  8
0
  0
BLOCK
  8
0
  2
_00034
 70
     0
 10
0.0
 20
0.0
 30
0.0
  0
INSERT
  5
299
  8
0
  2
_00035
 10
325.20987425
 20
-210.72556076
 30
0.0
  0
ENDBLK
  8
0
  0
BLOCK
  8
0
  2
_00035
 70
     0
 10
325.20987425
 20
-210.72556076
 30
0.0
  0
LINE
  5
29C
  8
LE_ALL
  6
STRICHPUNKT2
 62
     1
 10
325.20987425
 20
-210.72556076
 30
0.0
 11
325.20987425
 21
-226.72556076
 31
0.0
  0
LINE
  5
29D
  8
LE_ALL
  6
STRICHPUNKT2
 62
     1
 10
325.20987425
 20
-210.72556076
 30
0.0
 11
325.20987425
 21
-226.72556076
 31
0.0
  0
LINE
  5
29E
  8
LE_ALL
  6
STRICHPUNKT2
 62
     1
 10
325.20987425
 20
-210.72556076
 30
0.0
 11
325.20987425
 21
-226.72556076
 31
0.0
  0
ENDBLK
  8
0
  0
BLOCK
  8
0
  2
BEND_ZONE_00036
 70
     0
 10
0.0
 20
0.0
 30
0.0
  0
INSERT
  5
2A1
  8
0
  2
BEND_ZONE_00037
 10
290.20987425
 20
-213.72556076
 30
0.0
  0
ENDBLK
  8
0
  0
BLOCK
  8
0
  2
BEND_ZONE_00037
 70
     0
 10
290.20987425
 20
-213.72556076
 30
0.0
  0
LINE
  5
2A4
  8
LE_ALL
  6
DOT
 62
     3
 10
290.20987425
 20
-213.72556076
 30
0.0
 11
360.20987425
 21
-213.72556076
 31
0.0
  0
LINE
  5
2A5
  8
LE_ALL
 10
290.20987425
 20
-203.72556076
 30
0.0
 11
290.20987425
 21
-213.72556076
 31
0.0
  0
LINE
  5
2A6
  8
LE_ALL
 10
290.20987425
 20
-203.72556076
 30
0.0
 11
360.20987425
 21
-203.72556076
 31
0.0
  0
LINE
  5
2A7
  8
LE_ALL
 10
360.20987425
 20
-213.72556076
 30
0.0
 11
360.20987425
 21
-203.72556076
 31
0.0
  0
ENDBLK
  8
0
  0
BLOCK
  8
0
  2
SHEET_FLANGE_00038
 70
     0
 10
0.0
 20
0.0
 30
0.0
  0
INSERT
  5
2AA
  8
0
  2
SHEET_FLANGE_00039
 10
360.20987425
 20
-103.72556076
 30
0.0
  0
INSERT
  5
2AB
  8
0
  2
_00040
 10
0.0
 20
0.0
 30
0.0
  0
ENDBLK
  8
0
  0
BLOCK
  8
0
  2
SHEET_FLANGE_00039
 70
     0
 10
360.20987425
 20
-103.72556076
 30
0.0
  0
LINE
  5
2AE
  8
LE_ALL
  6
DOT
 62
     3
 10
360.20987425
 20
-103.72556076
 30
0.0
 11
360.20987425
 21
-103.72556076
 31
0.0
  0
LINE
  5
2AF
  8
LE_ALL
  6
DOT
 62
     3
 10
290.20987425
 20
-103.72556076
 30
0.0
 11
290.20987425
 21
-103.72556076
 31
0.0
  0
CIRCLE
  5
2B0
  8
LE_ALL
 10
325.20987425
 20
-156.72556076
 30
0.0
 40
6.5
  0
CIRCLE
  5
2B1
  8
LE_ALL
 10
347.70987425
 20
-116.72556076
 30
0.0
 40
4.5
  0
CIRCLE
  5
2B2
  8
LE_ALL
 10
347.70987425
 20
-136.72556076
 30
0.0
 40
4.5
  0
CIRCLE
  5
2B3
  8
LE_ALL
 10
347.70987425
 20
-166.72556076
 30
0.0
 40
4.5
  0
CIRCLE
  5
2B4
  8
LE_ALL
 10
302.70987425
 20
-126.72556076
 30
0.0
 40
4.5
  0
CIRCLE
  5
2B5
  8
LE_ALL
 10
302.70987425
 20
-146.72556076
 30
0.0
 40
4.5
  0
CIRCLE
  5
2B6
  8
LE_ALL
 10
302.70987425
 20
-176.72556076
 30
0.0
 40
4.5
  0
POLYLINE
  5
2B7
  8
LE_ALL
 66
     1
 10
0.0
 20
0.0
 30
0.0
 70
     1
  0
VERTEX
  5
2B8
  8
LE_ALL
 10
360.20987425
 20
-203.72556076
 30
0.0
  0
VERTEX
  5
2B9
  8
LE_ALL
 10
360.20987425
 20
-103.72556076
 30
0.0
  0
VERTEX
  5
2BA
  8
LE_ALL
 10
290.20987425
 20
-103.72556076
 30
0.0
  0
VERTEX
  5
2BB
  8
LE_ALL
 10
290.20987425
 20
-203.72556076
 30
0.0
  0
SEQEND
  5
2BC
  8
LE_ALL
  0
ENDBLK
  8
0
  0
BLOCK
  8
0
  2
_00040
 70
     0
 10
0.0
 20
0.0
 30
0.0
  0
INSERT
  5
2BF
  8
0
  2
_00041
 10
302.70987425
 20
-176.72556076
 30
0.0
  0
ENDBLK
  8
0
  0
BLOCK
  8
0
  2
_00041
 70
     0
 10
302.70987425
 20
-176.72556076
 30
0.0
  0
LINE
  5
2C2
  8
LE_ALL
  6
STRICHPUNKT2
 62
     1
 10
302.70987425
 20
-176.72556076
 30
0.0
 11
309.45987425
 21
-176.72556076
 31
0.0
  0
LINE
  5
2C3
  8
LE_ALL
  6
STRICHPUNKT2
 62
     1
 10
302.70987425
 20
-176.72556076
 30
0.0
 11
295.95987425
 21
-176.72556076
 31
0.0
  0
LINE
  5
2C4
  8
LE_ALL
  6
STRICHPUNKT2
 62
     1
 10
302.70987425
 20
-176.72556076
 30
0.0
 11
302.70987425
 21
-169.97556076
 31
0.0
  0
LINE
  5
2C5
  8
LE_ALL
  6
STRICHPUNKT2
 62
     1
 10
302.70987425
 20
-176.72556076
 30
0.0
 11
302.70987425
 21
-183.47556076
 31
0.0
  0
LINE
  5
2C6
  8
LE_ALL
  6
STRICHPUNKT2
 62
     1
 10
302.70987425
 20
-176.72556076
 30
0.0
 11
309.45987425
 21
-176.72556076
 31
0.0
  0
LINE
  5
2C7
  8
LE_ALL
  6
STRICHPUNKT2
 62
     1
 10
302.70987425
 20
-176.72556076
 30
0.0
 11
295.95987425
 21
-176.72556076
 31
0.0
  0
LINE
  5
2C8
  8
LE_ALL
  6
STRICHPUNKT2
 62
     1
 10
302.70987425
 20
-176.72556076
 30
0.0
 11
302.70987425
 21
-169.97556076
 31
0.0
  0
LINE
  5
2C9
  8
LE_ALL
  6
STRICHPUNKT2
 62
     1
 10
302.70987425
 20
-176.72556076
 30
0.0
 11
302.70987425
 21
-183.47556076
 31
0.0
  0
LINE
  5
2CA
  8
LE_ALL
  6
STRICHPUNKT2
 62
     1
 10
302.70987425
 20
-146.72556076
 30
0.0
 11
309.45987425
 21
-146.72556076
 31
0.0
  0
LINE
  5
2CB
  8
LE_ALL
  6
STRICHPUNKT2
 62
     1
 10
302.70987425
 20
-146.72556076
 30
0.0
 11
295.95987425
 21
-146.72556076
 31
0.0
  0
LINE
  5
2CC
  8
LE_ALL
  6
STRICHPUNKT2
 62
     1
 10
302.70987425
 20
-146.72556076
 30
0.0
 11
302.70987425
 21
-139.97556076
 31
0.0
  0
LINE
  5
2CD
  8
LE_ALL
  6
STRICHPUNKT2
 62
     1
 10
302.70987425
 20
-146.72556076
 30
0.0
 11
302.70987425
 21
-153.47556076
 31
0.0
  0
LINE
  5
2CE
  8
LE_ALL
  6
STRICHPUNKT2
 62
     1
 10
302.70987425
 20
-146.72556076
 30
0.0
 11
309.45987425
 21
-146.72556076
 31
0.0
  0
LINE
  5
2CF
  8
LE_ALL
  6
STRICHPUNKT2
 62
     1
 10
302.70987425
 20
-146.72556076
 30
0.0
 11
295.95987425
 21
-146.72556076
 31
0.0
  0
LINE
  5
2D0
  8
LE_ALL
  6
STRICHPUNKT2
 62
     1
 10
302.70987425
 20
-146.72556076
 30
0.0
 11
302.70987425
 21
-139.97556076
 31
0.0
  0
LINE
  5
2D1
  8
LE_ALL
  6
STRICHPUNKT2
 62
     1
 10
302.70987425
 20
-146.72556076
 30
0.0
 11
302.70987425
 21
-153.47556076
 31
0.0
  0
LINE
  5
2D2
  8
LE_ALL
  6
STRICHPUNKT2
 62
     1
 10
302.70987425
 20
-126.72556076
 30
0.0
 11
309.45987425
 21
-126.72556076
 31
0.0
  0
LINE
  5
2D3
  8
LE_ALL
  6
STRICHPUNKT2
 62
     1
 10
302.70987425
 20
-126.72556076
 30
0.0
 11
295.95987425
 21
-126.72556076
 31
0.0
  0
LINE
  5
2D4
  8
LE_ALL
  6
STRICHPUNKT2
 62
     1
 10
302.70987425
 20
-126.72556076
 30
0.0
 11
302.70987425
 21
-119.97556076
 31
0.0
  0
LINE
  5
2D5
  8
LE_ALL
  6
STRICHPUNKT2
 62
     1
 10
302.70987425
 20
-126.72556076
 30
0.0
 11
302.70987425
 21
-133.47556076
 31
0.0
  0
LINE
  5
2D6
  8
LE_ALL
  6
STRICHPUNKT2
 62
     1
 10
302.70987425
 20
-126.72556076
 30
0.0
 11
309.45987425
 21
-126.72556076
 31
0.0
  0
LINE
  5
2D7
  8
LE_ALL
  6
STRICHPUNKT2
 62
     1
 10
302.70987425
 20
-126.72556076
 30
0.0
 11
295.95987425
 21
-126.72556076
 31
0.0
  0
LINE
  5
2D8
  8
LE_ALL
  6
STRICHPUNKT2
 62
     1
 10
302.70987425
 20
-126.72556076
 30
0.0
 11
302.70987425
 21
-119.97556076
 31
0.0
  0
LINE
  5
2D9
  8
LE_ALL
  6
STRICHPUNKT2
 62
     1
 10
302.70987425
 20
-126.72556076
 30
0.0
 11
302.70987425
 21
-133.47556076
 31
0.0
  0
LINE
  5
2DA
  8
LE_ALL
  6
STRICHPUNKT2
 62
     1
 10
347.70987425
 20
-166.72556076
 30
0.0
 11
354.45987425
 21
-166.72556076
 31
0.0
  0
LINE
  5
2DB
  8
LE_ALL
  6
STRICHPUNKT2
 62
     1
 10
347.70987425
 20
-166.72556076
 30
0.0
 11
340.95987425
 21
-166.72556076
 31
0.0
  0
LINE
  5
2DC
  8
LE_ALL
  6
STRICHPUNKT2
 62
     1
 10
347.70987425
 20
-166.72556076
 30
0.0
 11
347.70987425
 21
-159.97556076
 31
0.0
  0
LINE
  5
2DD
  8
LE_ALL
  6
STRICHPUNKT2
 62
     1
 10
347.70987425
 20
-166.72556076
 30
0.0
 11
347.70987425
 21
-173.47556076
 31
0.0
  0
LINE
  5
2DE
  8
LE_ALL
  6
STRICHPUNKT2
 62
     1
 10
347.70987425
 20
-166.72556076
 30
0.0
 11
354.45987425
 21
-166.72556076
 31
0.0
  0
LINE
  5
2DF
  8
LE_ALL
  6
STRICHPUNKT2
 62
     1
 10
347.70987425
 20
-166.72556076
 30
0.0
 11
340.95987425
 21
-166.72556076
 31
0.0
  0
LINE
  5
2E0
  8
LE_ALL
  6
STRICHPUNKT2
 62
     1
 10
347.70987425
 20
-166.72556076
 30
0.0
 11
347.70987425
 21
-159.97556076
 31
0.0
  0
LINE
  5
2E1
  8
LE_ALL
  6
STRICHPUNKT2
 62
     1
 10
347.70987425
 20
-166.72556076
 30
0.0
 11
347.70987425
 21
-173.47556076
 31
0.0
  0
LINE
  5
2E2
  8
LE_ALL
  6
STRICHPUNKT2
 62
     1
 10
347.70987425
 20
-136.72556076
 30
0.0
 11
354.45987425
 21
-136.72556076
 31
0.0
  0
LINE
  5
2E3
  8
LE_ALL
  6
STRICHPUNKT2
 62
     1
 10
347.70987425
 20
-136.72556076
 30
0.0
 11
340.95987425
 21
-136.72556076
 31
0.0
  0
LINE
  5
2E4
  8
LE_ALL
  6
STRICHPUNKT2
 62
     1
 10
347.70987425
 20
-136.72556076
 30
0.0
 11
347.70987425
 21
-129.97556076
 31
0.0
  0
LINE
  5
2E5
  8
LE_ALL
  6
STRICHPUNKT2
 62
     1
 10
347.70987425
 20
-136.72556076
 30
0.0
 11
347.70987425
 21
-143.47556076
 31
0.0
  0
LINE
  5
2E6
  8
LE_ALL
  6
STRICHPUNKT2
 62
     1
 10
347.70987425
 20
-136.72556076
 30
0.0
 11
354.45987425
 21
-136.72556076
 31
0.0
  0
LINE
  5
2E7
  8
LE_ALL
  6
STRICHPUNKT2
 62
     1
 10
347.70987425
 20
-136.72556076
 30
0.0
 11
340.95987425
 21
-136.72556076
 31
0.0
  0
LINE
  5
2E8
  8
LE_ALL
  6
STRICHPUNKT2
 62
     1
 10
347.70987425
 20
-136.72556076
 30
0.0
 11
347.70987425
 21
-129.97556076
 31
0.0
  0
LINE
  5
2E9
  8
LE_ALL
  6
STRICHPUNKT2
 62
     1
 10
347.70987425
 20
-136.72556076
 30
0.0
 11
347.70987425
 21
-143.47556076
 31
0.0
  0
LINE
  5
2EA
  8
LE_ALL
  6
STRICHPUNKT2
 62
     1
 10
347.70987425
 20
-116.72556076
 30
0.0
 11
354.45987425
 21
-116.72556076
 31
0.0
  0
LINE
  5
2EB
  8
LE_ALL
  6
STRICHPUNKT2
 62
     1
 10
347.70987425
 20
-116.72556076
 30
0.0
 11
340.95987425
 21
-116.72556076
 31
0.0
  0
LINE
  5
2EC
  8
LE_ALL
  6
STRICHPUNKT2
 62
     1
 10
347.70987425
 20
-116.72556076
 30
0.0
 11
347.70987425
 21
-109.97556076
 31
0.0
  0
LINE
  5
2ED
  8
LE_ALL
  6
STRICHPUNKT2
 62
     1
 10
347.70987425
 20
-116.72556076
 30
0.0
 11
347.70987425
 21
-123.47556076
 31
0.0
  0
LINE
  5
2EE
  8
LE_ALL
  6
STRICHPUNKT2
 62
     1
 10
347.70987425
 20
-116.72556076
 30
0.0
 11
354.45987425
 21
-116.72556076
 31
0.0
  0
LINE
  5
2EF
  8
LE_ALL
  6
STRICHPUNKT2
 62
     1
 10
347.70987425
 20
-116.72556076
 30
0.0
 11
340.95987425
 21
-116.72556076
 31
0.0
  0
LINE
  5
2F0
  8
LE_ALL
  6
STRICHPUNKT2
 62
     1
 10
347.70987425
 20
-116.72556076
 30
0.0
 11
347.70987425
 21
-109.97556076
 31
0.0
  0
LINE
  5
2F1
  8
LE_ALL
  6
STRICHPUNKT2
 62
     1
 10
347.70987425
 20
-116.72556076
 30
0.0
 11
347.70987425
 21
-123.47556076
 31
0.0
  0
LINE
  5
2F2
  8
LE_ALL
  6
STRICHPUNKT2
 62
     1
 10
325.20987425
 20
-156.72556076
 30
0.0
 11
334.70987425
 21
-156.72556076
 31
0.0
  0
LINE
  5
2F3
  8
LE_ALL
  6
STRICHPUNKT2
 62
     1
 10
325.20987425
 20
-156.72556076
 30
0.0
 11
315.70987425
 21
-156.72556076
 31
0.0
  0
LINE
  5
2F4
  8
LE_ALL
  6
STRICHPUNKT2
 62
     1
 10
325.20987425
 20
-156.72556076
 30
0.0
 11
325.20987425
 21
-147.22556076
 31
0.0
  0
LINE
  5
2F5
  8
LE_ALL
  6
STRICHPUNKT2
 62
     1
 10
325.20987425
 20
-156.72556076
 30
0.0
 11
325.20987425
 21
-166.22556076
 31
0.0
  0
LINE
  5
2F6
  8
LE_ALL
  6
STRICHPUNKT2
 62
     1
 10
325.20987425
 20
-156.72556076
 30
0.0
 11
334.70987425
 21
-156.72556076
 31
0.0
  0
LINE
  5
2F7
  8
LE_ALL
  6
STRICHPUNKT2
 62
     1
 10
325.20987425
 20
-156.72556076
 30
0.0
 11
315.70987425
 21
-156.72556076
 31
0.0
  0
LINE
  5
2F8
  8
LE_ALL
  6
STRICHPUNKT2
 62
     1
 10
325.20987425
 20
-156.72556076
 30
0.0
 11
325.20987425
 21
-147.22556076
 31
0.0
  0
LINE
  5
2F9
  8
LE_ALL
  6
STRICHPUNKT2
 62
     1
 10
325.20987425
 20
-156.72556076
 30
0.0
 11
325.20987425
 21
-166.22556076
 31
0.0
  0
ENDBLK
  8
0
  0
BLOCK
  8
0
  2
_ANS0005_00042
 70
     0
 10
0.0
 20
0.0
 30
0.0
  0
INSERT
  5
2FC
  8
0
  2
_A3D0005_00043
 10
0.0
 20
0.0
 30
0.0
  0
ENDBLK
  8
0
  0
BLOCK
  8
0
  2
_A3D0005_00043
 70
     0
 10
0.0
 20
0.0
 30
0.0
  0
INSERT
  5
2FF
  8
0
  2
PLAATWERK__D___10MM_00044
 10
0.0
 20
0.0
 30
0.0
  0
ENDBLK
  8
0
  0
BLOCK
  8
0
  2
PLAATWERK__D___10MM_00044
 70
     0
 10
0.0
 20
0.0
 30
0.0
  0
INSERT
  5
302
  8
0
  2
SHEET_FLANGE_00045
 10
0.0
 20
0.0
 30
0.0
  0
INSERT
  5
303
  8
0
  2
BEND_ZONE_00049
 10
0.0
 20
0.0
 30
0.0
  0
INSERT
  5
304
  8
0
  2
SHEET_FLANGE_00051
 10
0.0
 20
0.0
 30
0.0
  0
ENDBLK
  8
0
  0
BLOCK
  8
0
  2
SHEET_FLANGE_00045
 70
     0
 10
0.0
 20
0.0
 30
0.0
  0
INSERT
  5
307
  8
0
  2
SHEET_FLANGE_00046
 10
251.62924147
 20
-80.68567271
 30
0.0
  0
INSERT
  5
308
  8
0
  2
_00047
 10
0.0
 20
0.0
 30
0.0
  0
ENDBLK
  8
0
  0
BLOCK
  8
0
  2
SHEET_FLANGE_00046
 70
     0
 10
251.62924147
 20
-80.68567271
 30
0.0
  0
LINE
  5
30B
  8
LE_ALL
  6
DOT
 62
     3
 10
251.62924147
 20
-80.68567271
 30
0.0
 11
251.62924147
 21
-80.68567271
 31
0.0
  0
LINE
  5
30C
  8
LE_ALL
  6
DOT
 62
     3
 10
251.62924147
 20
-10.68567271
 30
0.0
 11
251.62924147
 21
-10.68567271
 31
0.0
  0
LINE
  5
30D
  8
LE_ALL
  6
DOT
 62
     3
 10
172.62924147
 20
-52.18567271
 30
0.0
 11
172.62924147
 21
-52.18567271
 31
0.0
  0
LINE
  5
30E
  8
LE_ALL
  6
DOT
 62
     3
 10
120.62924147
 20
-52.18567271
 30
0.0
 11
120.62924147
 21
-52.18567271
 31
0.0
  0
LINE
  5
30F
  8
LE_ALL
  6
DOT
 62
     3
 10
120.62924147
 20
-39.18567271
 30
0.0
 11
120.62924147
 21
-39.18567271
 31
0.0
  0
LINE
  5
310
  8
LE_ALL
  6
DOT
 62
     3
 10
172.62924147
 20
-39.18567271
 30
0.0
 11
172.62924147
 21
-39.18567271
 31
0.0
  0
CIRCLE
  5
311
  8
LE_ALL
 10
220.62924147
 20
-45.68567271
 30
0.0
 40
6.5
  0
POLYLINE
  5
312
  8
LE_ALL
 66
     1
 10
0.0
 20
0.0
 30
0.0
 70
     1
  0
VERTEX
  5
313
  8
LE_ALL
 10
120.62924147
 20
-52.18567271
 30
0.0
 42
-1.0
  0
VERTEX
  5
314
  8
LE_ALL
 10
120.62924147
 20
-39.18567271
 30
0.0
  0
VERTEX
  5
315
  8
LE_ALL
 10
172.62924147
 20
-39.18567271
 30
0.0
 42
-1.0
  0
VERTEX
  5
316
  8
LE_ALL
 10
172.62924147
 20
-52.18567271
 30
0.0
  0
SEQEND
  5
317
  8
LE_ALL
  0
POLYLINE
  5
318
  8
LE_ALL
 66
     1
 10
0.0
 20
0.0
 30
0.0
 70
     1
  0
VERTEX
  5
319
  8
LE_ALL
 10
251.62924147
 20
-80.68567271
 30
0.0
  0
VERTEX
  5
31A
  8
LE_ALL
 10
101.62924147
 20
-80.68567271
 30
0.0
  0
VERTEX
  5
31B
  8
LE_ALL
 10
101.62924147
 20
-10.68567271
 30
0.0
  0
VERTEX
  5
31C
  8
LE_ALL
 10
251.62924147
 20
-10.68567271
 30
0.0
  0
SEQEND
  5
31D
  8
LE_ALL
  0
ENDBLK
  8
0
  0
BLOCK
  8
0
  2
_00047
 70
     0
 10
0.0
 20
0.0
 30
0.0
  0
INSERT
  5
320
  8
0
  2
_00048
 10
111.12924147
 20
-45.68567271
 30
0.0
  0
ENDBLK
  8
0
  0
BLOCK
  8
0
  2
_00048
 70
     0
 10
111.12924147
 20
-45.68567271
 30
0.0
  0
LINE
  5
323
  8
LE_ALL
  6
STRICHPUNKT2
 62
     1
 10
111.12924147
 20
-45.68567271
 30
0.0
 11
182.12924147
 21
-45.68567271
 31
0.0
  0
LINE
  5
324
  8
LE_ALL
  6
STRICHPUNKT2
 62
     1
 10
120.62924147
 20
-55.18567271
 30
0.0
 11
120.62924147
 21
-36.18567271
 31
0.0
  0
LINE
  5
325
  8
LE_ALL
  6
STRICHPUNKT2
 62
     1
 10
172.62924147
 20
-55.18567271
 30
0.0
 11
172.62924147
 21
-36.18567271
 31
0.0
  0
LINE
  5
326
  8
LE_ALL
  6
STRICHPUNKT2
 62
     1
 10
111.12924147
 20
-45.68567271
 30
0.0
 11
182.12924147
 21
-45.68567271
 31
0.0
  0
LINE
  5
327
  8
LE_ALL
  6
STRICHPUNKT2
 62
     1
 10
120.62924147
 20
-55.18567271
 30
0.0
 11
120.62924147
 21
-36.18567271
 31
0.0
  0
LINE
  5
328
  8
LE_ALL
  6
STRICHPUNKT2
 62
     1
 10
172.62924147
 20
-55.18567271
 30
0.0
 11
172.62924147
 21
-36.18567271
 31
0.0
  0
LINE
  5
329
  8
LE_ALL
  6
STRICHPUNKT2
 62
     1
 10
220.62924147
 20
-45.68567271
 30
0.0
 11
230.12924147
 21
-45.68567271
 31
0.0
  0
LINE
  5
32A
  8
LE_ALL
  6
STRICHPUNKT2
 62
     1
 10
220.62924147
 20
-45.68567271
 30
0.0
 11
211.12924147
 21
-45.68567271
 31
0.0
  0
LINE
  5
32B
  8
LE_ALL
  6
STRICHPUNKT2
 62
     1
 10
220.62924147
 20
-45.68567271
 30
0.0
 11
220.62924147
 21
-36.18567271
 31
0.0
  0
LINE
  5
32C
  8
LE_ALL
  6
STRICHPUNKT2
 62
     1
 10
220.62924147
 20
-45.68567271
 30
0.0
 11
220.62924147
 21
-55.18567271
 31
0.0
  0
LINE
  5
32D
  8
LE_ALL
  6
STRICHPUNKT2
 62
     1
 10
220.62924147
 20
-45.68567271
 30
0.0
 11
230.12924147
 21
-45.68567271
 31
0.0
  0
LINE
  5
32E
  8
LE_ALL
  6
STRICHPUNKT2
 62
     1
 10
220.62924147
 20
-45.68567271
 30
0.0
 11
211.12924147
 21
-45.68567271
 31
0.0
  0
LINE
  5
32F
  8
LE_ALL
  6
STRICHPUNKT2
 62
     1
 10
220.62924147
 20
-45.68567271
 30
0.0
 11
220.62924147
 21
-36.18567271
 31
0.0
  0
LINE
  5
330
  8
LE_ALL
  6
STRICHPUNKT2
 62
     1
 10
220.62924147
 20
-45.68567271
 30
0.0
 11
220.62924147
 21
-55.18567271
 31
0.0
  0
ENDBLK
  8
0
  0
BLOCK
  8
0
  2
BEND_ZONE_00049
 70
     0
 10
0.0
 20
0.0
 30
0.0
  0
INSERT
  5
333
  8
0
  2
BEND_ZONE_00050
 10
91.62924147
 20
-80.68567271
 30
0.0
  0
ENDBLK
  8
0
  0
BLOCK
  8
0
  2
BEND_ZONE_00050
 70
     0
 10
91.62924147
 20
-80.68567271
 30
0.0
  0
LINE
  5
336
  8
LE_ALL
  6
DOT
 62
     3
 10
91.62924147
 20
-80.68567271
 30
0.0
 11
91.62924147
 21
-10.68567271
 31
0.0
  0
POLYLINE
  5
337
  8
LE_ALL
 66
     1
 10
0.0
 20
0.0
 30
0.0
  0
VERTEX
  5
338
  8
LE_ALL
 10
91.62924147
 20
-80.68567271
 30
0.0
  0
VERTEX
  5
339
  8
LE_ALL
 10
101.62924147
 20
-80.68567271
 30
0.0
  0
VERTEX
  5
33A
  8
LE_ALL
 10
101.62924147
 20
-10.68567271
 30
0.0
  0
VERTEX
  5
33B
  8
LE_ALL
 10
91.62924147
 20
-10.68567271
 30
0.0
  0
SEQEND
  5
33C
  8
LE_ALL
  0
ENDBLK
  8
0
  0
BLOCK
  8
0
  2
SHEET_FLANGE_00051
 70
     0
 10
0.0
 20
0.0
 30
0.0
  0
INSERT
  5
33F
  8
0
  2
SHEET_FLANGE_00052
 10
81.62924147
 20
-10.68567271
 30
0.0
  0
INSERT
  5
340
  8
0
  2
_00053
 10
0.0
 20
0.0
 30
0.0
  0
ENDBLK
  8
0
  0
BLOCK
  8
0
  2
SHEET_FLANGE_00052
 70
     0
 10
81.62924147
 20
-10.68567271
 30
0.0
  0
LINE
  5
343
  8
LE_ALL
  6
DOT
 62
     3
 10
81.62924147
 20
-10.68567271
 30
0.0
 11
81.62924147
 21
-10.68567271
 31
0.0
  0
LINE
  5
344
  8
LE_ALL
  6
DOT
 62
     3
 10
91.62924147
 20
-10.68567271
 30
0.0
 11
91.62924147
 21
-10.68567271
 31
0.0
  0
LINE
  5
345
  8
LE_ALL
  6
DOT
 62
     3
 10
81.62924147
 20
-80.68567271
 30
0.0
 11
81.62924147
 21
-80.68567271
 31
0.0
  0
LINE
  5
346
  8
LE_ALL
  6
DOT
 62
     3
 10
91.62924147
 20
-80.68567271
 30
0.0
 11
91.62924147
 21
-80.68567271
 31
0.0
  0
LINE
  5
347
  8
LE_ALL
  6
DOT
 62
     3
 10
91.62924147
 20
-63.68567271
 30
0.0
 11
81.62924147
 21
-63.68567271
 31
0.0
  0
LINE
  5
348
  8
LE_ALL
  6
DOT
 62
     3
 10
91.62924147
 20
-72.68567271
 30
0.0
 11
81.62924147
 21
-72.68567271
 31
0.0
  0
LINE
  5
349
  8
LE_ALL
  6
DOT
 62
     3
 10
91.62924147
 20
-18.68567271
 30
0.0
 11
81.62924147
 21
-18.68567271
 31
0.0
  0
LINE
  5
34A
  8
LE_ALL
  6
DOT
 62
     3
 10
91.62924147
 20
-27.68567271
 30
0.0
 11
81.62924147
 21
-27.68567271
 31
0.0
  0
LINE
  5
34B
  8
LE_ALL
  6
DOT
 62
     3
 10
91.62924147
 20
-39.18567271
 30
0.0
 11
81.62924147
 21
-39.18567271
 31
0.0
  0
LINE
  5
34C
  8
LE_ALL
  6
DOT
 62
     3
 10
91.62924147
 20
-52.18567271
 30
0.0
 11
81.62924147
 21
-52.18567271
 31
0.0
  0
POLYLINE
  5
34D
  8
LE_ALL
 66
     1
 10
0.0
 20
0.0
 30
0.0
  0
VERTEX
  5
34E
  8
LE_ALL
 10
81.62924147
 20
-10.68567271
 30
0.0
  0
VERTEX
  5
34F
  8
LE_ALL
 10
91.62924147
 20
-10.68567271
 30
0.0
  0
VERTEX
  5
350
  8
LE_ALL
 10
91.62924147
 20
-80.68567271
 30
0.0
  0
SEQEND
  5
351
  8
LE_ALL
  0
LINE
  5
352
  8
LE_ALL
 10
81.62924147
 20
-80.68567271
 30
0.0
 11
91.62924147
 21
-80.68567271
 31
0.0
  0
LINE
  5
353
  8
LE_ALL
 10
81.62924147
 20
-80.68567271
 30
0.0
 11
81.62924147
 21
-10.68567271
 31
0.0
  0
ENDBLK
  8
0
  0
BLOCK
  8
0
  2
_00053
 70
     0
 10
0.0
 20
0.0
 30
0.0
  0
INSERT
  5
356
  8
0
  2
_00054
 10
93.87924147
 20
-68.18567271
 30
0.0
  0
ENDBLK
  8
0
  0
BLOCK
  8
0
  2
_00054
 70
     0
 10
93.87924147
 20
-68.18567271
 30
0.0
  0
LINE
  5
359
  8
LE_ALL
  6
STRICHPUNKT2
 62
     1
 10
93.87924147
 20
-68.18567271
 30
0.0
 11
79.37924147
 21
-68.18567271
 31
0.0
  0
LINE
  5
35A
  8
LE_ALL
  6
STRICHPUNKT2
 62
     1
 10
93.87924147
 20
-68.18567271
 30
0.0
 11
79.37924147
 21
-68.18567271
 31
0.0
  0
LINE
  5
35B
  8
LE_ALL
  6
STRICHPUNKT2
 62
     1
 10
93.87924147
 20
-23.18567271
 30
0.0
 11
79.37924147
 21
-23.18567271
 31
0.0
  0
LINE
  5
35C
  8
LE_ALL
  6
STRICHPUNKT2
 62
     1
 10
93.87924147
 20
-23.18567271
 30
0.0
 11
79.37924147
 21
-23.18567271
 31
0.0
  0
LINE
  5
35D
  8
LE_ALL
  6
STRICHPUNKT2
 62
     1
 10
93.87924147
 20
-23.18567271
 30
0.0
 11
79.37924147
 21
-23.18567271
 31
0.0
  0
LINE
  5
35E
  8
LE_ALL
  6
STRICHPUNKT2
 62
     1
 10
94.62924147
 20
-45.68567271
 30
0.0
 11
78.62924147
 21
-45.68567271
 31
0.0
  0
LINE
  5
35F
  8
LE_ALL
  6
STRICHPUNKT2
 62
     1
 10
93.87924147
 20
-68.18567271
 30
0.0
 11
79.37924147
 21
-68.18567271
 31
0.0
  0
ENDBLK
  8
0
  0
BLOCK
  8
0
  2
_ANS0006_00055
 70
     0
 10
0.0
 20
0.0
 30
0.0
  0
INSERT
  5
362
  8
0
  2
_A3D0006_00056
 10
0.0
 20
0.0
 30
0.0
  0
ENDBLK
  8
0
  0
BLOCK
  8
0
  2
_A3D0006_00056
 70
     0
 10
0.0
 20
0.0
 30
0.0
  0
INSERT
  5
365
  8
0
  2
PLAATWERK__D___10MM_00057
 10
0.0
 20
0.0
 30
0.0
  0
ENDBLK
  8
0
  0
BLOCK
  8
0
  2
PLAATWERK__D___10MM_00057
 70
     0
 10
0.0
 20
0.0
 30
0.0
  0
INSERT
  5
368
  8
0
  2
SHEET_FLANGE_00058
 10
0.0
 20
0.0
 30
0.0
  0
INSERT
  5
369
  8
0
  2
BEND_ZONE_00062
 10
0.0
 20
0.0
 30
0.0
  0
INSERT
  5
36A
  8
0
  2
SHEET_FLANGE_00064
 10
0.0
 20
0.0
 30
0.0
  0
ENDBLK
  8
0
  0
BLOCK
  8
0
  2
SHEET_FLANGE_00058
 70
     0
 10
0.0
 20
0.0
 30
0.0
  0
INSERT
  5
36D
  8
0
  2
SHEET_FLANGE_00059
 10
424.73180688
 20
-65.1272763
 30
0.0
  0
INSERT
  5
36E
  8
0
  2
_00060
 10
0.0
 20
0.0
 30
0.0
  0
ENDBLK
  8
0
  0
BLOCK
  8
0
  2
SHEET_FLANGE_00059
 70
     0
 10
424.73180688
 20
-65.1272763
 30
0.0
  0
POLYLINE
  5
371
  8
LE_ALL
 66
     1
 10
0.0
 20
0.0
 30
0.0
  0
VERTEX
  5
5DA
  8
LE_ALL
 10
424.73180688
 20
-65.1272763
 30
0.0
  0
VERTEX
  5
5DB
  8
LE_ALL
 10
424.6693590414528
 20
-64.91592845350107
 30
0.0
  0
VERTEX
  5
5DC
  8
LE_ALL
 10
424.4844153612198
 20
-64.71270258619934
 30
0.0
  0
VERTEX
  5
5DD
  8
LE_ALL
 10
424.1840831211986
 20
-64.52540855418707
 30
0.0
  0
VERTEX
  5
5DE
  8
LE_ALL
 10
423.7799039209187
 20
-64.36124396206237
 30
0.0
  0
VERTEX
  5
5DF
  8
LE_ALL
 10
423.2874101403452
 20
-64.22651756302169
 30
0.0
  0
VERTEX
  5
5E0
  8
LE_ALL
 10
422.7255280392286
 20
-64.12640681701289
 30
0.0
  0
VERTEX
  5
5E1
  8
LE_ALL
 10
422.1158504315586
 20
-64.0647589238536
 30
0.0
  0
VERTEX
  5
5E2
  8
LE_ALL
 10
421.4818068858334
 20
-64.04394297750001
 30
0.0
  0
VERTEX
  5
5E3
  8
LE_ALL
 10
420.8477633398841
 20
-64.06475892309491
 30
0.0
  0
VERTEX
  5
5E4
  8
LE_ALL
 10
420.2380857315502
 20
-64.12640681552466
 30
0.0
  0
VERTEX
  5
5E5
  8
LE_ALL
 10
419.6762036293555
 20
-64.2265175608611
 30
0.0
  0
VERTEX
  5
5E6
  8
LE_ALL
 10
419.183709847331
 20
-64.36124395931247
 30
0.0
  0
VERTEX
  5
5E7
  8
LE_ALL
 10
418.7795306452832
 20
-64.52540855095353
 30
0.0
  0
VERTEX
  5
5E8
  8
LE_ALL
 10
418.4791984032449
 20
-64.71270258260643
 30
0.0
  0
VERTEX
  5
5E9
  8
LE_ALL
 10
418.2942547208233
 20
-64.91592844968685
 30
0.0
  0
VERTEX
  5
5EA
  8
LE_ALL
 10
418.23180688
 20
-65.12727629611106
 30
0.0
  0
SEQEND
  5
729
  8
LE_ALL
  0
POLYLINE
  5
372
  8
LE_ALL
 66
     1
 10
0.0
 20
0.0
 30
0.0
  0
VERTEX
  5
5EB
  8
LE_ALL
 10
418.23180688
 20
-65.12727629611106
 30
0.0
  0
VERTEX
  5
5EC
  8
LE_ALL
 10
418.2942547165557
 20
-65.33862414316151
 30
0.0
  0
VERTEX
  5
5ED
  8
LE_ALL
 10
418.4791983954318
 20
-65.54185001110598
 30
0.0
  0
VERTEX
  5
5EE
  8
LE_ALL
 10
418.7795306347504
 20
-65.72914404379198
 30
0.0
  0
VERTEX
  5
5EF
  8
LE_ALL
 10
419.1837098349565
 20
-65.89330863656268
 30
0.0
  0
VERTEX
  5
5F0
  8
LE_ALL
 10
419.6762036160171
 20
-66.0280350361681
 30
0.0
  0
VERTEX
  5
5F1
  8
LE_ALL
 10
420.2380857180768
 20
-66.12814578261506
 30
0.0
  0
VERTEX
  5
5F2
  8
LE_ALL
 10
420.8477633270111
 20
-66.18979367605156
 30
0.0
  0
VERTEX
  5
5F3
  8
LE_ALL
 10
421.4818068741666
 20
-66.2106096225
 30
0.0
  0
VERTEX
  5
5F4
  8
LE_ALL
 10
422.1158504215463
 20
-66.18979367681025
 30
0.0
  0
VERTEX
  5
5F5
  8
LE_ALL
 10
422.7255280311445
 20
-66.1281457841033
 30
0.0
  0
VERTEX
  5
5F6
  8
LE_ALL
 10
423.2874101342823
 20
-66.0280350383287
 30
0.0
  0
VERTEX
  5
5F7
  8
LE_ALL
 10
423.7799039167939
 20
-65.89330863931258
 30
0.0
  0
VERTEX
  5
5F8
  8
LE_ALL
 10
424.1840831187679
 20
-65.72914404702551
 30
0.0
  0
VERTEX
  5
5F9
  8
LE_ALL
 10
424.4844153601036
 20
-65.5418500146989
 30
0.0
  0
VERTEX
  5
5FA
  8
LE_ALL
 10
424.6693590411683
 20
-65.33862414697572
 30
0.0
  0
VERTEX
  5
5FB
  8
LE_ALL
 10
424.73180688
 20
-65.1272763
 30
0.0
  0
SEQEND
  5
72A
  8
LE_ALL
  0
POLYLINE
  5
373
  8
LE_ALL
 66
     1
 10
0.0
 20
0.0
 30
0.0
  0
VERTEX
  5
5FC
  8
LE_ALL
 10
371.46108954
 20
-59.23471978611106
 30
0.0
  0
VERTEX
  5
5FD
  8
LE_ALL
 10
371.5268917939335
 20
-59.45161318559582
 30
0.0
  0
VERTEX
  5
5FE
  8
LE_ALL
 10
371.7216339839281
 20
-59.65972376981897
 30
0.0
  0
VERTEX
  5
5FF
  8
LE_ALL
 10
372.0374302789112
 20
-59.85062437201409
 30
0.0
  0
VERTEX
  5
600
  8
LE_ALL
 10
372.4614929196638
 20
-60.01658472119802
 30
0.0
  0
VERTEX
  5
601
  8
LE_ALL
 10
372.9766500424557
 20
-60.15088446941535
 30
0.0
  0
VERTEX
  5
602
  8
LE_ALL
 10
373.5620410312791
 20
-60.24808532346661
 30
0.0
  0
SEQEND
  5
72B
  8
LE_ALL
  0
POLYLINE
  5
374
  8
LE_ALL
 66
     1
 10
0.0
 20
0.0
 30
0.0
  0
VERTEX
  5
603
  8
LE_ALL
 10
375.8601380682085
 20
-58.2213542589886
 30
0.0
  0
VERTEX
  5
604
  8
LE_ALL
 10
375.2550079135165
 20
-58.16666586930445
 30
0.0
  0
VERTEX
  5
605
  8
LE_ALL
 10
374.6296349896195
 20
-58.15172676934407
 30
0.0
  0
VERTEX
  5
606
  8
LE_ALL
 10
374.0072935236478
 20
-58.17709294097414
 30
0.0
  0
VERTEX
  5
607
  8
LE_ALL
 10
373.4111449223042
 20
-58.24182034261982
 30
0.0
  0
VERTEX
  5
608
  8
LE_ALL
 10
372.8633757840499
 20
-58.34350004324192
 30
0.0
  0
VERTEX
  5
609
  8
LE_ALL
 10
372.3843721902956
 20
-58.47834787445649
 30
0.0
  0
VERTEX
  5
60A
  8
LE_ALL
 10
371.9919610056384
 20
-58.64134526425354
 30
0.0
  0
VERTEX
  5
60B
  8
LE_ALL
 10
371.7007464233382
 20
-58.82642601096879
 30
0.0
  0
VERTEX
  5
60C
  8
LE_ALL
 10
371.5215664475252
 20
-59.02670204642428
 30
0.0
  0
VERTEX
  5
60D
  8
LE_ALL
 10
371.46108954
 20
-59.23471978611106
 30
0.0
  0
SEQEND
  5
72C
  8
LE_ALL
  0
POLYLINE
  5
375
  8
LE_ALL
 66
     1
 10
0.0
 20
0.0
 30
0.0
  0
VERTEX
  5
376
  8
LE_ALL
 10
375.86013806
 20
-58.22135424
 30
0.0
  0
VERTEX
  5
377
  8
LE_ALL
 10
400.18091108
 20
-61.28548363
 30
0.0
  0
SEQEND
  5
378
  8
LE_ALL
  0
POLYLINE
  5
379
  8
LE_ALL
 66
     1
 10
0.0
 20
0.0
 30
0.0
  0
VERTEX
  5
60E
  8
LE_ALL
 10
402.28186256
 20
-62.29884917
 30
0.0
  0
VERTEX
  5
60F
  8
LE_ALL
 10
402.2160603048151
 20
-62.08195577236297
 30
0.0
  0
VERTEX
  5
610
  8
LE_ALL
 10
402.0213181157449
 20
-61.87384518992547
 30
0.0
  0
VERTEX
  5
611
  8
LE_ALL
 10
401.7055218236944
 20
-61.68294458924272
 30
0.0
  0
VERTEX
  5
612
  8
LE_ALL
 10
401.2814591875533
 20
-61.51698424110922
 30
0.0
  0
VERTEX
  5
613
  8
LE_ALL
 10
400.7663020705818
 20
-61.38268449332712
 30
0.0
  0
VERTEX
  5
614
  8
LE_ALL
 10
400.1809110882085
 20
-61.2854836389886
 30
0.0
  0
SEQEND
  5
72D
  8
LE_ALL
  0
POLYLINE
  5
37A
  8
LE_ALL
 66
     1
 10
0.0
 20
0.0
 30
0.0
  0
VERTEX
  5
615
  8
LE_ALL
 10
397.8828140512791
 20
-63.31221470346661
 30
0.0
  0
VERTEX
  5
616
  8
LE_ALL
 10
398.4879442061192
 20
-63.36690309180662
 30
0.0
  0
VERTEX
  5
617
  8
LE_ALL
 10
399.1133171293744
 20
-63.38184219049719
 30
0.0
  0
VERTEX
  5
618
  8
LE_ALL
 10
399.7356585940064
 20
-63.35647601772053
 30
0.0
  0
VERTEX
  5
619
  8
LE_ALL
 10
400.3318071934294
 20
-63.29174861509139
 30
0.0
  0
VERTEX
  5
61A
  8
LE_ALL
 10
400.8795763293183
 20
-63.19006891367856
 30
0.0
  0
VERTEX
  5
61B
  8
LE_ALL
 10
401.35857992041
 20
-63.05522108188439
 30
0.0
  0
VERTEX
  5
61C
  8
LE_ALL
 10
401.7509911022581
 20
-62.89222369172585
 30
0.0
  0
VERTEX
  5
61D
  8
LE_ALL
 10
402.0422056817497
 20
-62.70714294486301
 30
0.0
  0
VERTEX
  5
61E
  8
LE_ALL
 10
402.221385654891
 20
-62.50686690945928
 30
0.0
  0
VERTEX
  5
61F
  8
LE_ALL
 10
402.28186256
 20
-62.29884917
 30
0.0
  0
SEQEND
  5
72E
  8
LE_ALL
  0
LINE
  5
37B
  8
LE_ALL
 10
397.88281404
 20
-63.31221471
 30
0.0
 11
373.56204103
 21
-60.24808533
 31
0.0
  0
LINE
  5
37C
  8
LE_ALL
 10
375.86013806
 20
-60.53761834
 30
0.0
 11
375.86013806
 21
-58.22135424
 31
0.0
  0
LINE
  5
37D
  8
LE_ALL
 10
400.18091108
 20
-63.31221471
 30
0.0
 11
400.18091108
 21
-61.28548363
 31
0.0
  0
LINE
  5
37E
  8
LE_ALL
 10
429.79354492
 20
-72.4105525
 30
0.0
 11
359.63746892
 21
-63.57171774
 31
0.0
  0
LINE
  5
37F
  8
LE_ALL
 10
429.79354492
 20
-77.12459771
 30
0.0
 11
429.79354492
 21
-72.4105525
 31
0.0
  0
POLYLINE
  5
380
  8
LE_ALL
 66
     1
 10
0.0
 20
0.0
 30
0.0
  0
VERTEX
  5
381
  8
LE_ALL
 10
359.63746892
 20
-68.28576295
 30
0.0
  0
VERTEX
  5
382
  8
LE_ALL
 10
429.79354492
 20
-77.12459771
 30
0.0
  0
VERTEX
  5
383
  8
LE_ALL
 10
442.16791359
 20
-66.21143033
 30
0.0
  0
VERTEX
  5
384
  8
LE_ALL
 10
442.16791359
 20
-61.49738512
 30
0.0
  0
VERTEX
  5
385
  8
LE_ALL
 10
429.79354492
 20
-72.4105525
 30
0.0
  0
SEQEND
  5
386
  8
LE_ALL
  0
LINE
  5
387
  8
LE_ALL
 10
372.01183759
 20
-52.65855036
 30
0.0
 11
442.16791359
 21
-61.49738512
 31
0.0
  0
LINE
  5
388
  8
LE_ALL
 10
359.63746892
 20
-63.57171774
 30
0.0
 11
372.01183759
 21
-52.65855036
 31
0.0
  0
ENDBLK
  8
0
  0
BLOCK
  8
0
  2
_00060
 70
     0
 10
0.0
 20
0.0
 30
0.0
  0
INSERT
  5
38B
  8
0
  2
_00061
 10
374.71108954
 20
-57.82050622
 30
0.0
  0
ENDBLK
  8
0
  0
BLOCK
  8
0
  2
_00061
 70
     0
 10
374.71108954
 20
-57.82050622
 30
0.0
  0
LINE
  5
38E
  8
LE_ALL
  6
STRICHPUNKT2
 62
     1
 10
374.71108954
 20
-57.82050622
 30
0.0
 11
374.71108954
 21
-60.39285183
 31
0.0
  0
LINE
  5
38F
  8
LE_ALL
  6
STRICHPUNKT2
 62
     1
 10
399.03186256
 20
-60.88463561
 30
0.0
 11
399.03186256
 21
-63.3821825
 31
0.0
  0
LINE
  5
390
  8
LE_ALL
  6
STRICHPUNKT2
 62
     1
 10
370.2678714
 20
-58.67492692
 30
0.0
 11
403.47508071
 21
-62.85864204
 31
0.0
  0
LINE
  5
391
  8
LE_ALL
  6
STRICHPUNKT2
 62
     1
 10
373.03171094
 20
-60.7157925
 30
0.0
 11
376.39046815
 21
-57.75364707
 31
0.0
  0
LINE
  5
392
  8
LE_ALL
  6
STRICHPUNKT2
 62
     1
 10
397.35248395
 20
-63.77992189
 30
0.0
 11
400.71124116
 21
-60.81777645
 31
0.0
  0
LINE
  5
393
  8
LE_ALL
  6
STRICHPUNKT2
 62
     1
 10
421.48180688
 20
-63.71306273
 30
0.0
 11
421.48180688
 21
-66.21060963
 31
0.0
  0
LINE
  5
394
  8
LE_ALL
  6
STRICHPUNKT2
 62
     1
 10
421.48180688
 20
-65.1272763
 30
0.0
 11
425.92502503
 21
-65.68706916
 31
0.0
  0
LINE
  5
395
  8
LE_ALL
  6
STRICHPUNKT2
 62
     1
 10
421.48180688
 20
-65.1272763
 30
0.0
 11
417.03858873
 21
-64.56748343
 31
0.0
  0
LINE
  5
396
  8
LE_ALL
  6
STRICHPUNKT2
 62
     1
 10
421.48180688
 20
-65.1272763
 30
0.0
 11
423.16118548
 21
-63.64620358
 31
0.0
  0
LINE
  5
397
  8
LE_ALL
  6
STRICHPUNKT2
 62
     1
 10
421.48180688
 20
-65.1272763
 30
0.0
 11
419.80242827
 21
-66.60834901
 31
0.0
  0
ENDBLK
  8
0
  0
BLOCK
  8
0
  2
BEND_ZONE_00062
 70
     0
 10
0.0
 20
0.0
 30
0.0
  0
INSERT
  5
39A
  8
0
  2
BEND_ZONE_00063
 10
354.96039718
 20
-58.26841688
 30
0.0
  0
ENDBLK
  8
0
  0
BLOCK
  8
0
  2
BEND_ZONE_00063
 70
     0
 10
354.96039718
 20
-58.26841688
 30
0.0
  0
LINE
  5
39D
  8
LE_ALL
 10
354.96039718
 20
-58.26841688
 30
0.0
 11
367.33476585
 21
-47.3552495
 31
0.0
  0
POLYLINE
  5
39E
  8
LE_ALL
 66
     1
 10
0.0
 20
0.0
 30
0.0
  0
VERTEX
  5
620
  8
LE_ALL
 10
350.2833254709712
 20
-57.67916124063535
 30
0.0
  0
VERTEX
  5
621
  8
LE_ALL
 10
350.4630627224987
 20
-59.54113518938435
 30
0.0
  0
VERTEX
  5
622
  8
LE_ALL
 10
350.9953672560895
 20
-61.37684405164999
 30
0.0
  0
VERTEX
  5
623
  8
LE_ALL
 10
351.8597829072139
 20
-63.11574256594115
 30
0.0
  0
VERTEX
  5
624
  8
LE_ALL
 10
353.0230906674555
 20
-64.69100583811542
 30
0.0
  0
VERTEX
  5
625
  8
LE_ALL
 10
354.4405852723643
 20
-66.04209738456302
 30
0.0
  0
VERTEX
  5
626
  8
LE_ALL
 10
356.0577931996836
 20
-67.1170955153026
 30
0.0
  0
VERTEX
  5
627
  8
LE_ALL
 10
357.812566056243
 20
-67.87468865539196
 30
0.0
  0
VERTEX
  5
628
  8
LE_ALL
 10
359.6374689058345
 20
-68.28576292557172
 30
0.0
  0
SEQEND
  5
72F
  8
LE_ALL
  0
POLYLINE
  5
39F
  8
LE_ALL
 66
     1
 10
0.0
 20
0.0
 30
0.0
  0
VERTEX
  5
629
  8
LE_ALL
 10
354.9603971954856
 20
-58.26841688531767
 30
0.0
  0
VERTEX
  5
62A
  8
LE_ALL
 10
355.0502658212494
 20
-59.19940385969218
 30
0.0
  0
VERTEX
  5
62B
  8
LE_ALL
 10
355.3164180880448
 20
-60.11725829082499
 30
0.0
  0
VERTEX
  5
62C
  8
LE_ALL
 10
355.7486259136069
 20
-60.98670754797057
 30
0.0
  0
VERTEX
  5
62D
  8
LE_ALL
 10
356.3302797937278
 20
-61.77433918405771
 30
0.0
  0
VERTEX
  5
62E
  8
LE_ALL
 10
357.0390270961822
 20
-62.44988495728151
 30
0.0
  0
VERTEX
  5
62F
  8
LE_ALL
 10
357.8476310598418
 20
-62.9873840226513
 30
0.0
  0
VERTEX
  5
630
  8
LE_ALL
 10
358.7250174881215
 20
-63.36618059269598
 30
0.0
  0
VERTEX
  5
631
  8
LE_ALL
 10
359.6374689129173
 20
-63.57171772778586
 30
0.0
  0
SEQEND
  5
730
  8
LE_ALL
  0
POLYLINE
  5
3A0
  8
LE_ALL
 66
     1
 10
0.0
 20
0.0
 30
0.0
  0
VERTEX
  5
3A1
  8
LE_ALL
 10
359.63746892
 20
-63.57171774
 30
0.0
  0
VERTEX
  5
3A2
  8
LE_ALL
 10
372.01183759
 20
-52.65855036
 30
0.0
  0
SEQEND
  5
3A3
  8
LE_ALL
  0
POLYLINE
  5
3A4
  8
LE_ALL
 66
     1
 10
0.0
 20
0.0
 30
0.0
  0
VERTEX
  5
632
  8
LE_ALL
 10
367.3347658654856
 20
-47.35524950531767
 30
0.0
  0
VERTEX
  5
633
  8
LE_ALL
 10
367.4246344912494
 20
-48.28623647969217
 30
0.0
  0
VERTEX
  5
634
  8
LE_ALL
 10
367.6907867580448
 20
-49.20409091082499
 30
0.0
  0
VERTEX
  5
635
  8
LE_ALL
 10
368.122994583607
 20
-50.07354016797057
 30
0.0
  0
VERTEX
  5
636
  8
LE_ALL
 10
368.7046484637278
 20
-50.8611718040577
 30
0.0
  0
VERTEX
  5
637
  8
LE_ALL
 10
369.4133957661822
 20
-51.53671757728151
 30
0.0
  0
VERTEX
  5
638
  8
LE_ALL
 10
370.2219997298419
 20
-52.07421664265129
 30
0.0
  0
VERTEX
  5
639
  8
LE_ALL
 10
371.0993861581215
 20
-52.45301321269598
 30
0.0
  0
VERTEX
  5
63A
  8
LE_ALL
 10
372.0118375829173
 20
-52.65855034778586
 30
0.0
  0
SEQEND
  5
731
  8
LE_ALL
  0
ENDBLK
  8
0
  0
BLOCK
  8
0
  2
SHEET_FLANGE_00064
 70
     0
 10
0.0
 20
0.0
 30
0.0
  0
INSERT
  5
3A7
  8
0
  2
SHEET_FLANGE_00065
 10
360.74133152
 20
-33.88033012
 30
0.0
  0
INSERT
  5
3A8
  8
0
  2
_00066
 10
0.0
 20
0.0
 30
0.0
  0
ENDBLK
  8
0
  0
BLOCK
  8
0
  2
SHEET_FLANGE_00065
 70
     0
 10
360.74133152
 20
-33.88033012
 30
0.0
  0
POLYLINE
  5
3AB
  8
LE_ALL
 66
     1
 10
0.0
 20
0.0
 30
0.0
  0
VERTEX
  5
63B
  8
LE_ALL
 10
360.74133152
 20
-33.88033012
 30
0.0
  0
VERTEX
  5
63C
  8
LE_ALL
 10
360.958827690532
 20
-33.84479055680321
 30
0.0
  0
VERTEX
  5
63D
  8
LE_ALL
 10
361.1835775648595
 20
-33.68670067106784
 30
0.0
  0
VERTEX
  5
63E
  8
LE_ALL
 10
361.4069441313731
 20
-33.41213576843101
 30
0.0
  0
VERTEX
  5
63F
  8
LE_ALL
 10
361.6203435382065
 20
-33.03164722409929
 30
0.0
  0
VERTEX
  5
640
  8
LE_ALL
 10
361.8155749658496
 20
-32.55985699941755
 30
0.0
  0
VERTEX
  5
641
  8
LE_ALL
 10
361.9851357800422
 20
-32.01489572809604
 30
0.0
  0
VERTEX
  5
642
  8
LE_ALL
 10
362.1225098538006
 20
-31.41770596612613
 30
0.0
  0
VERTEX
  5
643
  8
LE_ALL
 10
362.2224179785225
 20
-30.79123738110016
 30
0.0
  0
VERTEX
  5
644
  8
LE_ALL
 10
362.2810207410126
 20
-30.15956480935821
 30
0.0
  0
VERTEX
  5
645
  8
LE_ALL
 10
362.2960660699786
 20
-29.54696307353096
 30
0.0
  0
VERTEX
  5
646
  8
LE_ALL
 10
362.266975781867
 20
-28.97697411472162
 30
0.0
  0
VERTEX
  5
647
  8
LE_ALL
 10
362.1948678001332
 20
-28.47150228891385
 30
0.0
  0
VERTEX
  5
648
  8
LE_ALL
 10
362.0825131940707
 20
-28.04997259485731
 30
0.0
  0
VERTEX
  5
649
  8
LE_ALL
 10
361.9342296881711
 20
-27.72858418226113
 30
0.0
  0
VERTEX
  5
64A
  8
LE_ALL
 10
361.7557157343949
 20
-27.51968782755653
 30
0.0
  0
VERTEX
  5
64B
  8
LE_ALL
 10
361.5538315238584
 20
-27.43131130048612
 30
0.0
  0
SEQEND
  5
732
  8
LE_ALL
  0
POLYLINE
  5
3AC
  8
LE_ALL
 66
     1
 10
0.0
 20
0.0
 30
0.0
  0
VERTEX
  5
64C
  8
LE_ALL
 10
361.5538315238584
 20
-27.43131130048612
 30
0.0
  0
VERTEX
  5
64D
  8
LE_ALL
 10
361.3363353530282
 20
-27.46685086163802
 30
0.0
  0
VERTEX
  5
64E
  8
LE_ALL
 10
361.1115854782326
 20
-27.62494074594673
 30
0.0
  0
VERTEX
  5
64F
  8
LE_ALL
 10
360.8882189111385
 20
-27.89950564780228
 30
0.0
  0
VERTEX
  5
650
  8
LE_ALL
 10
360.6748195036733
 20
-28.27999419198009
 30
0.0
  0
VERTEX
  5
651
  8
LE_ALL
 10
360.479588075409
 20
-28.75178441707452
 30
0.0
  0
VERTEX
  5
652
  8
LE_ALL
 10
360.3100272606638
 20
-29.29674568927691
 30
0.0
  0
VERTEX
  5
653
  8
LE_ALL
 10
360.1726531864723
 20
-29.89393545246661
 30
0.0
  0
VERTEX
  5
654
  8
LE_ALL
 10
360.0727450614776
 20
-30.52040403889984
 30
0.0
  0
VERTEX
  5
655
  8
LE_ALL
 10
360.0141422989026
 20
-31.15207661207276
 30
0.0
  0
VERTEX
  5
656
  8
LE_ALL
 10
359.9990969700538
 20
-31.76467834918909
 30
0.0
  0
VERTEX
  5
657
  8
LE_ALL
 10
360.0281872584823
 20
-32.33466730898885
 30
0.0
  0
VERTEX
  5
658
  8
LE_ALL
 10
360.1002952407153
 20
-32.84013913535051
 30
0.0
  0
VERTEX
  5
659
  8
LE_ALL
 10
360.2126498474281
 20
-33.26166882941462
 30
0.0
  0
VERTEX
  5
65A
  8
LE_ALL
 10
360.360933354084
 20
-33.58305724139797
 30
0.0
  0
VERTEX
  5
65B
  8
LE_ALL
 10
360.5394473086674
 20
-33.7919535948366
 30
0.0
  0
VERTEX
  5
65C
  8
LE_ALL
 10
360.74133152
 20
-33.88033012
 30
0.0
  0
SEQEND
  5
733
  8
LE_ALL
  0
POLYLINE
  5
3AD
  8
LE_ALL
 66
     1
 10
0.0
 20
0.0
 30
0.0
  0
VERTEX
  5
65D
  8
LE_ALL
 10
364.84380716
 20
-10.52418875
 30
0.0
  0
VERTEX
  5
65E
  8
LE_ALL
 10
364.9943814320068
 20
-10.49958443698805
 30
0.0
  0
VERTEX
  5
65F
  8
LE_ALL
 10
365.1499774989451
 20
-10.39013759292985
 30
0.0
  0
VERTEX
  5
660
  8
LE_ALL
 10
365.3046158912355
 20
-10.20005419865451
 30
0.0
  0
VERTEX
  5
661
  8
LE_ALL
 10
365.4523539421979
 20
-9.93663905238736
 30
0.0
  0
VERTEX
  5
662
  8
LE_ALL
 10
365.5875141613992
 20
-9.610015050451493
 30
0.0
  0
VERTEX
  5
663
  8
LE_ALL
 10
365.7049024174261
 20
-9.232734170039851
 30
0.0
  0
VERTEX
  5
664
  8
LE_ALL
 10
365.8000075454418
 20
-8.819295103772076
 30
0.0
  0
VERTEX
  5
665
  8
LE_ALL
 10
365.8691747087207
 20
-8.385586083069342
 30
0.0
  0
VERTEX
  5
666
  8
LE_ALL
 10
365.9097458519732
 20
-7.948274302332467
 30
0.0
  0
VERTEX
  5
667
  8
LE_ALL
 10
365.9201618489205
 20
-7.524165408009616
 30
0.0
  0
VERTEX
  5
668
  8
LE_ALL
 10
365.900022418642
 20
-7.129557667029479
 30
0.0
  0
VERTEX
  5
669
  8
LE_ALL
 10
365.8501015081471
 20
-6.779615633544808
 30
0.0
  0
VERTEX
  5
66A
  8
LE_ALL
 10
365.7723175500261
 20
-6.48778738362203
 30
0.0
  0
VERTEX
  5
66B
  8
LE_ALL
 10
365.6696597381608
 20
-6.265287713220965
 30
0.0
  0
VERTEX
  5
66C
  8
LE_ALL
 10
365.5460731546811
 20
-6.120667159876393
 30
0.0
  0
VERTEX
  5
66D
  8
LE_ALL
 10
365.4063071626712
 20
-6.059483410336544
 30
0.0
  0
SEQEND
  5
734
  8
LE_ALL
  0
POLYLINE
  5
3AE
  8
LE_ALL
 66
     1
 10
0.0
 20
0.0
 30
0.0
  0
VERTEX
  5
66E
  8
LE_ALL
 10
365.4063071626712
 20
-6.059483410336544
 30
0.0
  0
VERTEX
  5
66F
  8
LE_ALL
 10
365.255732890458
 20
-6.084087721932801
 30
0.0
  0
VERTEX
  5
670
  8
LE_ALL
 10
365.1001368231956
 20
-6.19353456500331
 30
0.0
  0
VERTEX
  5
671
  8
LE_ALL
 10
364.9454984305032
 20
-6.383617958737783
 30
0.0
  0
VERTEX
  5
672
  8
LE_ALL
 10
364.7977603791035
 20
-6.64703310489836
 30
0.0
  0
VERTEX
  5
673
  8
LE_ALL
 10
364.6626001594722
 20
-6.973657107119946
 30
0.0
  0
VERTEX
  5
674
  8
LE_ALL
 10
364.5452119030626
 20
-7.350937988141424
 30
0.0
  0
VERTEX
  5
675
  8
LE_ALL
 10
364.4501067747471
 20
-7.764377055253667
 30
0.0
  0
VERTEX
  5
676
  8
LE_ALL
 10
364.3809396112793
 20
-8.198086076930657
 30
0.0
  0
VERTEX
  5
677
  8
LE_ALL
 10
364.3403684679681
 20
-8.6353978586582
 30
0.0
  0
VERTEX
  5
678
  8
LE_ALL
 10
364.3299524711019
 20
-9.0595067538735
 30
0.0
  0
VERTEX
  5
679
  8
LE_ALL
 10
364.3500919015997
 20
-9.45411449553931
 30
0.0
  0
VERTEX
  5
67A
  8
LE_ALL
 10
364.4000128124403
 20
-9.804056529407442
 30
0.0
  0
VERTEX
  5
67B
  8
LE_ALL
 10
364.4777967710114
 20
-10.09588477933546
 30
0.0
  0
VERTEX
  5
67C
  8
LE_ALL
 10
364.5804545834003
 20
-10.31838444931226
 30
0.0
  0
VERTEX
  5
67D
  8
LE_ALL
 10
364.7040411674389
 20
-10.46300500178039
 30
0.0
  0
VERTEX
  5
67E
  8
LE_ALL
 10
364.84380716
 20
-10.52418875
 30
0.0
  0
SEQEND
  5
735
  8
LE_ALL
  0
POLYLINE
  5
3AF
  8
LE_ALL
 66
     1
 10
0.0
 20
0.0
 30
0.0
  0
VERTEX
  5
67F
  8
LE_ALL
 10
364.84380716
 20
-19.95227917
 30
0.0
  0
VERTEX
  5
680
  8
LE_ALL
 10
364.9943814320068
 20
-19.92767485698804
 30
0.0
  0
VERTEX
  5
681
  8
LE_ALL
 10
365.1499774989451
 20
-19.81822801292985
 30
0.0
  0
VERTEX
  5
682
  8
LE_ALL
 10
365.3046158912355
 20
-19.62814461865451
 30
0.0
  0
VERTEX
  5
683
  8
LE_ALL
 10
365.4523539421979
 20
-19.36472947238736
 30
0.0
  0
VERTEX
  5
684
  8
LE_ALL
 10
365.5875141613992
 20
-19.03810547045149
 30
0.0
  0
VERTEX
  5
685
  8
LE_ALL
 10
365.7049024174261
 20
-18.66082459003985
 30
0.0
  0
VERTEX
  5
686
  8
LE_ALL
 10
365.8000075454418
 20
-18.24738552377207
 30
0.0
  0
VERTEX
  5
687
  8
LE_ALL
 10
365.8691747087207
 20
-17.81367650306934
 30
0.0
  0
VERTEX
  5
688
  8
LE_ALL
 10
365.9097458519732
 20
-17.37636472233246
 30
0.0
  0
VERTEX
  5
689
  8
LE_ALL
 10
365.9201618489205
 20
-16.95225582800962
 30
0.0
  0
VERTEX
  5
68A
  8
LE_ALL
 10
365.900022418642
 20
-16.55764808702948
 30
0.0
  0
VERTEX
  5
68B
  8
LE_ALL
 10
365.8501015081471
 20
-16.20770605354481
 30
0.0
  0
VERTEX
  5
68C
  8
LE_ALL
 10
365.7723175500261
 20
-15.91587780362203
 30
0.0
  0
VERTEX
  5
68D
  8
LE_ALL
 10
365.6696597381608
 20
-15.69337813322096
 30
0.0
  0
VERTEX
  5
68E
  8
LE_ALL
 10
365.5460731546811
 20
-15.54875757987639
 30
0.0
  0
VERTEX
  5
68F
  8
LE_ALL
 10
365.4063071626712
 20
-15.48757383033654
 30
0.0
  0
SEQEND
  5
736
  8
LE_ALL
  0
POLYLINE
  5
3B0
  8
LE_ALL
 66
     1
 10
0.0
 20
0.0
 30
0.0
  0
VERTEX
  5
690
  8
LE_ALL
 10
365.4063071626712
 20
-15.48757383033654
 30
0.0
  0
VERTEX
  5
691
  8
LE_ALL
 10
365.255732890458
 20
-15.5121781419328
 30
0.0
  0
VERTEX
  5
692
  8
LE_ALL
 10
365.1001368231956
 20
-15.62162498500331
 30
0.0
  0
VERTEX
  5
693
  8
LE_ALL
 10
364.9454984305032
 20
-15.81170837873778
 30
0.0
  0
VERTEX
  5
694
  8
LE_ALL
 10
364.7977603791035
 20
-16.07512352489836
 30
0.0
  0
VERTEX
  5
695
  8
LE_ALL
 10
364.6626001594722
 20
-16.40174752711994
 30
0.0
  0
VERTEX
  5
696
  8
LE_ALL
 10
364.5452119030626
 20
-16.77902840814142
 30
0.0
  0
VERTEX
  5
697
  8
LE_ALL
 10
364.4501067747471
 20
-17.19246747525367
 30
0.0
  0
VERTEX
  5
698
  8
LE_ALL
 10
364.3809396112793
 20
-17.62617649693066
 30
0.0
  0
VERTEX
  5
699
  8
LE_ALL
 10
364.3403684679681
 20
-18.0634882786582
 30
0.0
  0
VERTEX
  5
69A
  8
LE_ALL
 10
364.3299524711019
 20
-18.4875971738735
 30
0.0
  0
VERTEX
  5
69B
  8
LE_ALL
 10
364.3500919015997
 20
-18.88220491553931
 30
0.0
  0
VERTEX
  5
69C
  8
LE_ALL
 10
364.4000128124403
 20
-19.23214694940744
 30
0.0
  0
VERTEX
  5
69D
  8
LE_ALL
 10
364.4777967710114
 20
-19.52397519933546
 30
0.0
  0
VERTEX
  5
69E
  8
LE_ALL
 10
364.5804545834003
 20
-19.74647486931226
 30
0.0
  0
VERTEX
  5
69F
  8
LE_ALL
 10
364.7040411674389
 20
-19.89109542178039
 30
0.0
  0
VERTEX
  5
6A0
  8
LE_ALL
 10
364.84380716
 20
-19.95227917
 30
0.0
  0
SEQEND
  5
737
  8
LE_ALL
  0
POLYLINE
  5
3B1
  8
LE_ALL
 66
     1
 10
0.0
 20
0.0
 30
0.0
  0
VERTEX
  5
6A1
  8
LE_ALL
 10
364.84380716
 20
-34.09441479
 30
0.0
  0
VERTEX
  5
6A2
  8
LE_ALL
 10
364.9943814320068
 20
-34.06981047698805
 30
0.0
  0
VERTEX
  5
6A3
  8
LE_ALL
 10
365.1499774989451
 20
-33.96036363292986
 30
0.0
  0
VERTEX
  5
6A4
  8
LE_ALL
 10
365.3046158912355
 20
-33.7702802386545
 30
0.0
  0
VERTEX
  5
6A5
  8
LE_ALL
 10
365.4523539421979
 20
-33.50686509238736
 30
0.0
  0
VERTEX
  5
6A6
  8
LE_ALL
 10
365.5875141613992
 20
-33.18024109045149
 30
0.0
  0
VERTEX
  5
6A7
  8
LE_ALL
 10
365.7049024174261
 20
-32.80296021003986
 30
0.0
  0
VERTEX
  5
6A8
  8
LE_ALL
 10
365.8000075454418
 20
-32.38952114377208
 30
0.0
  0
VERTEX
  5
6A9
  8
LE_ALL
 10
365.8691747087207
 20
-31.95581212306934
 30
0.0
  0
VERTEX
  5
6AA
  8
LE_ALL
 10
365.9097458519732
 20
-31.51850034233247
 30
0.0
  0
VERTEX
  5
6AB
  8
LE_ALL
 10
365.9201618489205
 20
-31.09439144800962
 30
0.0
  0
VERTEX
  5
6AC
  8
LE_ALL
 10
365.900022418642
 20
-30.69978370702948
 30
0.0
  0
VERTEX
  5
6AD
  8
LE_ALL
 10
365.8501015081471
 20
-30.34984167354481
 30
0.0
  0
VERTEX
  5
6AE
  8
LE_ALL
 10
365.7723175500261
 20
-30.05801342362203
 30
0.0
  0
VERTEX
  5
6AF
  8
LE_ALL
 10
365.6696597381608
 20
-29.83551375322097
 30
0.0
  0
VERTEX
  5
6B0
  8
LE_ALL
 10
365.5460731546811
 20
-29.6908931998764
 30
0.0
  0
VERTEX
  5
6B1
  8
LE_ALL
 10
365.4063071626712
 20
-29.62970945033654
 30
0.0
  0
SEQEND
  5
738
  8
LE_ALL
  0
POLYLINE
  5
3B2
  8
LE_ALL
 66
     1
 10
0.0
 20
0.0
 30
0.0
  0
VERTEX
  5
6B2
  8
LE_ALL
 10
365.4063071626712
 20
-29.62970945033654
 30
0.0
  0
VERTEX
  5
6B3
  8
LE_ALL
 10
365.255732890458
 20
-29.6543137619328
 30
0.0
  0
VERTEX
  5
6B4
  8
LE_ALL
 10
365.1001368231956
 20
-29.76376060500331
 30
0.0
  0
VERTEX
  5
6B5
  8
LE_ALL
 10
364.9454984305032
 20
-29.95384399873778
 30
0.0
  0
VERTEX
  5
6B6
  8
LE_ALL
 10
364.7977603791035
 20
-30.21725914489836
 30
0.0
  0
VERTEX
  5
6B7
  8
LE_ALL
 10
364.6626001594722
 20
-30.54388314711995
 30
0.0
  0
VERTEX
  5
6B8
  8
LE_ALL
 10
364.5452119030626
 20
-30.92116402814143
 30
0.0
  0
VERTEX
  5
6B9
  8
LE_ALL
 10
364.4501067747471
 20
-31.33460309525367
 30
0.0
  0
VERTEX
  5
6BA
  8
LE_ALL
 10
364.3809396112793
 20
-31.76831211693066
 30
0.0
  0
VERTEX
  5
6BB
  8
LE_ALL
 10
364.3403684679681
 20
-32.2056238986582
 30
0.0
  0
VERTEX
  5
6BC
  8
LE_ALL
 10
364.3299524711019
 20
-32.6297327938735
 30
0.0
  0
VERTEX
  5
6BD
  8
LE_ALL
 10
364.3500919015997
 20
-33.02434053553931
 30
0.0
  0
VERTEX
  5
6BE
  8
LE_ALL
 10
364.4000128124403
 20
-33.37428256940744
 30
0.0
  0
VERTEX
  5
6BF
  8
LE_ALL
 10
364.4777967710114
 20
-33.66611081933546
 30
0.0
  0
VERTEX
  5
6C0
  8
LE_ALL
 10
364.5804545834003
 20
-33.88861048931226
 30
0.0
  0
VERTEX
  5
6C1
  8
LE_ALL
 10
364.7040411674389
 20
-34.0332310417804
 30
0.0
  0
VERTEX
  5
6C2
  8
LE_ALL
 10
364.84380716
 20
-34.09441479
 30
0.0
  0
SEQEND
  5
739
  8
LE_ALL
  0
POLYLINE
  5
3B3
  8
LE_ALL
 66
     1
 10
0.0
 20
0.0
 30
0.0
  0
VERTEX
  5
6C3
  8
LE_ALL
 10
356.88885587
 20
-22.25384156
 30
0.0
  0
VERTEX
  5
6C4
  8
LE_ALL
 10
357.0394301420068
 20
-22.22923724698805
 30
0.0
  0
VERTEX
  5
6C5
  8
LE_ALL
 10
357.1950262089451
 20
-22.11979040292985
 30
0.0
  0
VERTEX
  5
6C6
  8
LE_ALL
 10
357.3496646012355
 20
-21.92970700865451
 30
0.0
  0
VERTEX
  5
6C7
  8
LE_ALL
 10
357.4974026521979
 20
-21.66629186238736
 30
0.0
  0
VERTEX
  5
6C8
  8
LE_ALL
 10
357.6325628713992
 20
-21.33966786045149
 30
0.0
  0
VERTEX
  5
6C9
  8
LE_ALL
 10
357.7499511274261
 20
-20.96238698003985
 30
0.0
  0
VERTEX
  5
6CA
  8
LE_ALL
 10
357.8450562554418
 20
-20.54894791377207
 30
0.0
  0
VERTEX
  5
6CB
  8
LE_ALL
 10
357.9142234187207
 20
-20.11523889306934
 30
0.0
  0
VERTEX
  5
6CC
  8
LE_ALL
 10
357.9547945619732
 20
-19.67792711233247
 30
0.0
  0
VERTEX
  5
6CD
  8
LE_ALL
 10
357.9652105589205
 20
-19.25381821800962
 30
0.0
  0
VERTEX
  5
6CE
  8
LE_ALL
 10
357.945071128642
 20
-18.85921047702948
 30
0.0
  0
VERTEX
  5
6CF
  8
LE_ALL
 10
357.8951502181471
 20
-18.50926844354481
 30
0.0
  0
VERTEX
  5
6D0
  8
LE_ALL
 10
357.8173662600261
 20
-18.21744019362203
 30
0.0
  0
VERTEX
  5
6D1
  8
LE_ALL
 10
357.7147084481608
 20
-17.99494052322096
 30
0.0
  0
VERTEX
  5
6D2
  8
LE_ALL
 10
357.5911218646811
 20
-17.8503199698764
 30
0.0
  0
VERTEX
  5
6D3
  8
LE_ALL
 10
357.4513558726712
 20
-17.78913622033654
 30
0.0
  0
SEQEND
  5
73A
  8
LE_ALL
  0
POLYLINE
  5
3B4
  8
LE_ALL
 66
     1
 10
0.0
 20
0.0
 30
0.0
  0
VERTEX
  5
6D4
  8
LE_ALL
 10
357.4513558726712
 20
-17.78913622033654
 30
0.0
  0
VERTEX
  5
6D5
  8
LE_ALL
 10
357.300781600458
 20
-17.8137405319328
 30
0.0
  0
VERTEX
  5
6D6
  8
LE_ALL
 10
357.1451855331956
 20
-17.92318737500331
 30
0.0
  0
VERTEX
  5
6D7
  8
LE_ALL
 10
356.9905471405032
 20
-18.11327076873778
 30
0.0
  0
VERTEX
  5
6D8
  8
LE_ALL
 10
356.8428090891035
 20
-18.37668591489836
 30
0.0
  0
VERTEX
  5
6D9
  8
LE_ALL
 10
356.7076488694722
 20
-18.70330991711995
 30
0.0
  0
VERTEX
  5
6DA
  8
LE_ALL
 10
356.5902606130626
 20
-19.08059079814143
 30
0.0
  0
VERTEX
  5
6DB
  8
LE_ALL
 10
356.4951554847471
 20
-19.49402986525367
 30
0.0
  0
VERTEX
  5
6DC
  8
LE_ALL
 10
356.4259883212793
 20
-19.92773888693066
 30
0.0
  0
VERTEX
  5
6DD
  8
LE_ALL
 10
356.3854171779681
 20
-20.3650506686582
 30
0.0
  0
VERTEX
  5
6DE
  8
LE_ALL
 10
356.3750011811019
 20
-20.7891595638735
 30
0.0
  0
VERTEX
  5
6DF
  8
LE_ALL
 10
356.3951406115997
 20
-21.18376730553931
 30
0.0
  0
VERTEX
  5
6E0
  8
LE_ALL
 10
356.4450615224403
 20
-21.53370933940744
 30
0.0
  0
VERTEX
  5
6E1
  8
LE_ALL
 10
356.5228454810114
 20
-21.82553758933546
 30
0.0
  0
VERTEX
  5
6E2
  8
LE_ALL
 10
356.6255032934003
 20
-22.04803725931226
 30
0.0
  0
VERTEX
  5
6E3
  8
LE_ALL
 10
356.7490898774389
 20
-22.19265781178039
 30
0.0
  0
VERTEX
  5
6E4
  8
LE_ALL
 10
356.88885587
 20
-22.25384156
 30
0.0
  0
SEQEND
  5
73B
  8
LE_ALL
  0
POLYLINE
  5
3B5
  8
LE_ALL
 66
     1
 10
0.0
 20
0.0
 30
0.0
  0
VERTEX
  5
6E5
  8
LE_ALL
 10
356.88885587
 20
-31.68193197
 30
0.0
  0
VERTEX
  5
6E6
  8
LE_ALL
 10
357.0394301420068
 20
-31.65732765698804
 30
0.0
  0
VERTEX
  5
6E7
  8
LE_ALL
 10
357.1950262089451
 20
-31.54788081292985
 30
0.0
  0
VERTEX
  5
6E8
  8
LE_ALL
 10
357.3496646012355
 20
-31.35779741865451
 30
0.0
  0
VERTEX
  5
6E9
  8
LE_ALL
 10
357.4974026521979
 20
-31.09438227238736
 30
0.0
  0
VERTEX
  5
6EA
  8
LE_ALL
 10
357.6325628713992
 20
-30.76775827045149
 30
0.0
  0
VERTEX
  5
6EB
  8
LE_ALL
 10
357.7499511274261
 20
-30.39047739003985
 30
0.0
  0
VERTEX
  5
6EC
  8
LE_ALL
 10
357.8450562554418
 20
-29.97703832377207
 30
0.0
  0
VERTEX
  5
6ED
  8
LE_ALL
 10
357.9142234187207
 20
-29.54332930306934
 30
0.0
  0
VERTEX
  5
6EE
  8
LE_ALL
 10
357.9547945619732
 20
-29.10601752233246
 30
0.0
  0
VERTEX
  5
6EF
  8
LE_ALL
 10
357.9652105589205
 20
-28.68190862800962
 30
0.0
  0
VERTEX
  5
6F0
  8
LE_ALL
 10
357.945071128642
 20
-28.28730088702948
 30
0.0
  0
VERTEX
  5
6F1
  8
LE_ALL
 10
357.8951502181471
 20
-27.93735885354481
 30
0.0
  0
VERTEX
  5
6F2
  8
LE_ALL
 10
357.8173662600261
 20
-27.64553060362203
 30
0.0
  0
VERTEX
  5
6F3
  8
LE_ALL
 10
357.7147084481608
 20
-27.42303093322096
 30
0.0
  0
VERTEX
  5
6F4
  8
LE_ALL
 10
357.5911218646811
 20
-27.27841037987639
 30
0.0
  0
VERTEX
  5
6F5
  8
LE_ALL
 10
357.4513558726712
 20
-27.21722663033654
 30
0.0
  0
SEQEND
  5
73C
  8
LE_ALL
  0
POLYLINE
  5
3B6
  8
LE_ALL
 66
     1
 10
0.0
 20
0.0
 30
0.0
  0
VERTEX
  5
6F6
  8
LE_ALL
 10
357.4513558726712
 20
-27.21722663033654
 30
0.0
  0
VERTEX
  5
6F7
  8
LE_ALL
 10
357.300781600458
 20
-27.2418309419328
 30
0.0
  0
VERTEX
  5
6F8
  8
LE_ALL
 10
357.1451855331956
 20
-27.35127778500331
 30
0.0
  0
VERTEX
  5
6F9
  8
LE_ALL
 10
356.9905471405032
 20
-27.54136117873778
 30
0.0
  0
VERTEX
  5
6FA
  8
LE_ALL
 10
356.8428090891035
 20
-27.80477632489836
 30
0.0
  0
VERTEX
  5
6FB
  8
LE_ALL
 10
356.7076488694722
 20
-28.13140032711994
 30
0.0
  0
VERTEX
  5
6FC
  8
LE_ALL
 10
356.5902606130626
 20
-28.50868120814143
 30
0.0
  0
VERTEX
  5
6FD
  8
LE_ALL
 10
356.4951554847471
 20
-28.92212027525367
 30
0.0
  0
VERTEX
  5
6FE
  8
LE_ALL
 10
356.4259883212793
 20
-29.35582929693066
 30
0.0
  0
VERTEX
  5
6FF
  8
LE_ALL
 10
356.3854171779681
 20
-29.7931410786582
 30
0.0
  0
VERTEX
  5
700
  8
LE_ALL
 10
356.3750011811019
 20
-30.2172499738735
 30
0.0
  0
VERTEX
  5
701
  8
LE_ALL
 10
356.3951406115997
 20
-30.61185771553931
 30
0.0
  0
VERTEX
  5
702
  8
LE_ALL
 10
356.4450615224403
 20
-30.96179974940744
 30
0.0
  0
VERTEX
  5
703
  8
LE_ALL
 10
356.5228454810114
 20
-31.25362799933546
 30
0.0
  0
VERTEX
  5
704
  8
LE_ALL
 10
356.6255032934003
 20
-31.47612766931226
 30
0.0
  0
VERTEX
  5
705
  8
LE_ALL
 10
356.7490898774389
 20
-31.62074822178039
 30
0.0
  0
VERTEX
  5
706
  8
LE_ALL
 10
356.88885587
 20
-31.68193197
 30
0.0
  0
SEQEND
  5
73D
  8
LE_ALL
  0
POLYLINE
  5
3B7
  8
LE_ALL
 66
     1
 10
0.0
 20
0.0
 30
0.0
  0
VERTEX
  5
707
  8
LE_ALL
 10
356.88885587
 20
-45.8240676
 30
0.0
  0
VERTEX
  5
708
  8
LE_ALL
 10
357.0394301420068
 20
-45.79946328698805
 30
0.0
  0
VERTEX
  5
709
  8
LE_ALL
 10
357.1950262089451
 20
-45.69001644292986
 30
0.0
  0
VERTEX
  5
70A
  8
LE_ALL
 10
357.3496646012355
 20
-45.4999330486545
 30
0.0
  0
VERTEX
  5
70B
  8
LE_ALL
 10
357.4974026521979
 20
-45.23651790238736
 30
0.0
  0
VERTEX
  5
70C
  8
LE_ALL
 10
357.6325628713992
 20
-44.90989390045149
 30
0.0
  0
VERTEX
  5
70D
  8
LE_ALL
 10
357.7499511274261
 20
-44.53261302003985
 30
0.0
  0
VERTEX
  5
70E
  8
LE_ALL
 10
357.8450562554418
 20
-44.11917395377208
 30
0.0
  0
VERTEX
  5
70F
  8
LE_ALL
 10
357.9142234187207
 20
-43.68546493306935
 30
0.0
  0
VERTEX
  5
710
  8
LE_ALL
 10
357.9547945619732
 20
-43.24815315233247
 30
0.0
  0
VERTEX
  5
711
  8
LE_ALL
 10
357.9652105589205
 20
-42.82404425800961
 30
0.0
  0
VERTEX
  5
712
  8
LE_ALL
 10
357.945071128642
 20
-42.42943651702948
 30
0.0
  0
VERTEX
  5
713
  8
LE_ALL
 10
357.8951502181471
 20
-42.07949448354481
 30
0.0
  0
VERTEX
  5
714
  8
LE_ALL
 10
357.8173662600261
 20
-41.78766623362203
 30
0.0
  0
VERTEX
  5
715
  8
LE_ALL
 10
357.7147084481608
 20
-41.56516656322097
 30
0.0
  0
VERTEX
  5
716
  8
LE_ALL
 10
357.5911218646811
 20
-41.4205460098764
 30
0.0
  0
VERTEX
  5
717
  8
LE_ALL
 10
357.4513558726712
 20
-41.35936226033655
 30
0.0
  0
SEQEND
  5
73E
  8
LE_ALL
  0
POLYLINE
  5
3B8
  8
LE_ALL
 66
     1
 10
0.0
 20
0.0
 30
0.0
  0
VERTEX
  5
718
  8
LE_ALL
 10
357.4513558726712
 20
-41.35936226033655
 30
0.0
  0
VERTEX
  5
719
  8
LE_ALL
 10
357.300781600458
 20
-41.38396657193281
 30
0.0
  0
VERTEX
  5
71A
  8
LE_ALL
 10
357.1451855331956
 20
-41.49341341500331
 30
0.0
  0
VERTEX
  5
71B
  8
LE_ALL
 10
356.9905471405032
 20
-41.68349680873779
 30
0.0
  0
VERTEX
  5
71C
  8
LE_ALL
 10
356.8428090891035
 20
-41.94691195489836
 30
0.0
  0
VERTEX
  5
71D
  8
LE_ALL
 10
356.7076488694722
 20
-42.27353595711995
 30
0.0
  0
VERTEX
  5
71E
  8
LE_ALL
 10
356.5902606130626
 20
-42.65081683814142
 30
0.0
  0
VERTEX
  5
71F
  8
LE_ALL
 10
356.4951554847471
 20
-43.06425590525367
 30
0.0
  0
VERTEX
  5
720
  8
LE_ALL
 10
356.4259883212793
 20
-43.49796492693066
 30
0.0
  0
VERTEX
  5
721
  8
LE_ALL
 10
356.3854171779681
 20
-43.93527670865821
 30
0.0
  0
VERTEX
  5
722
  8
LE_ALL
 10
356.3750011811019
 20
-44.35938560387351
 30
0.0
  0
VERTEX
  5
723
  8
LE_ALL
 10
356.3951406115997
 20
-44.75399334553931
 30
0.0
  0
VERTEX
  5
724
  8
LE_ALL
 10
356.4450615224403
 20
-45.10393537940744
 30
0.0
  0
VERTEX
  5
725
  8
LE_ALL
 10
356.5228454810114
 20
-45.39576362933546
 30
0.0
  0
VERTEX
  5
726
  8
LE_ALL
 10
356.6255032934003
 20
-45.61826329931226
 30
0.0
  0
VERTEX
  5
727
  8
LE_ALL
 10
356.7490898774389
 20
-45.7628838517804
 30
0.0
  0
VERTEX
  5
728
  8
LE_ALL
 10
356.88885587
 20
-45.8240676
 30
0.0
  0
SEQEND
  5
73F
  8
LE_ALL
  0
POLYLINE
  5
3B9
  8
LE_ALL
 66
     1
 10
0.0
 20
0.0
 30
0.0
  0
VERTEX
  5
3BA
  8
LE_ALL
 10
350.28332545
 20
-10.53870915
 30
0.0
  0
VERTEX
  5
3BB
  8
LE_ALL
 10
354.96039718
 20
-11.1279648
 30
0.0
  0
VERTEX
  5
3BC
  8
LE_ALL
 10
354.96039718
 20
-58.26841688
 30
0.0
  0
SEQEND
  5
3BD
  8
LE_ALL
  0
POLYLINE
  5
3BE
  8
LE_ALL
 66
     1
 10
0.0
 20
0.0
 30
0.0
  0
VERTEX
  5
3BF
  8
LE_ALL
 10
350.28332545
 20
-57.67916123
 30
0.0
  0
VERTEX
  5
3C0
  8
LE_ALL
 10
350.28332545
 20
-10.53870915
 30
0.0
  0
VERTEX
  5
3C1
  8
LE_ALL
 10
362.65769412
 20
0.37445823
 30
0.0
  0
VERTEX
  5
3C2
  8
LE_ALL
 10
367.33476585
 20
-0.21479742
 30
0.0
  0
VERTEX
  5
3C3
  8
LE_ALL
 10
354.96039718
 20
-11.1279648
 30
0.0
  0
SEQEND
  5
3C4
  8
LE_ALL
  0
LINE
  5
3C5
  8
LE_ALL
 10
367.33476585
 20
-47.3552495
 30
0.0
 11
367.33476585
 21
-0.21479742
 31
0.0
  0
LINE
  5
3C6
  8
LE_ALL
 10
354.96039718
 20
-58.26841688
 30
0.0
 11
367.33476585
 21
-47.3552495
 31
0.0
  0
ENDBLK
  8
0
  0
BLOCK
  8
0
  2
_00066
 70
     0
 10
0.0
 20
0.0
 30
0.0
  0
INSERT
  5
3C9
  8
0
  2
_00067
 10
358.22244701
 20
-43.72429745
 30
0.0
  0
ENDBLK
  8
0
  0
BLOCK
  8
0
  2
_00067
 70
     0
 10
358.22244701
 20
-43.72429745
 30
0.0
  0
LINE
  5
3CC
  8
LE_ALL
  6
STRICHPUNKT2
 62
     1
 10
358.22244701
 20
-43.72429745
 30
0.0
 11
356.42598832
 21
-43.49796493
 31
0.0
  0
LINE
  5
3CD
  8
LE_ALL
  6
STRICHPUNKT2
 62
     1
 10
357.17010587
 20
-43.59171493
 30
0.0
 11
358.36334857
 21
-42.53937379
 31
0.0
  0
LINE
  5
3CE
  8
LE_ALL
  6
STRICHPUNKT2
 62
     1
 10
357.17010587
 20
-43.59171493
 30
0.0
 11
355.97686318
 21
-44.64405607
 31
0.0
  0
LINE
  5
3CF
  8
LE_ALL
  6
STRICHPUNKT2
 62
     1
 10
357.17010587
 20
-43.59171493
 30
0.0
 11
357.17010587
 21
-40.40973441
 31
0.0
  0
LINE
  5
3D0
  8
LE_ALL
  6
STRICHPUNKT2
 62
     1
 10
357.17010587
 20
-43.59171493
 30
0.0
 11
357.17010587
 21
-46.77369544
 31
0.0
  0
LINE
  5
3D1
  8
LE_ALL
  6
STRICHPUNKT2
 62
     1
 10
358.22244701
 20
-29.58216183
 30
0.0
 11
356.42598832
 21
-29.3558293
 31
0.0
  0
LINE
  5
3D2
  8
LE_ALL
  6
STRICHPUNKT2
 62
     1
 10
357.17010587
 20
-29.4495793
 30
0.0
 11
358.36334857
 21
-28.39723816
 31
0.0
  0
LINE
  5
3D3
  8
LE_ALL
  6
STRICHPUNKT2
 62
     1
 10
357.17010587
 20
-29.4495793
 30
0.0
 11
355.97686318
 21
-30.50192044
 31
0.0
  0
LINE
  5
3D4
  8
LE_ALL
  6
STRICHPUNKT2
 62
     1
 10
357.17010587
 20
-29.4495793
 30
0.0
 11
357.17010587
 21
-26.26759879
 31
0.0
  0
LINE
  5
3D5
  8
LE_ALL
  6
STRICHPUNKT2
 62
     1
 10
357.17010587
 20
-29.4495793
 30
0.0
 11
357.17010587
 21
-32.63155982
 31
0.0
  0
LINE
  5
3D6
  8
LE_ALL
  6
STRICHPUNKT2
 62
     1
 10
358.22244701
 20
-20.15407141
 30
0.0
 11
356.42598832
 21
-19.92773889
 31
0.0
  0
LINE
  5
3D7
  8
LE_ALL
  6
STRICHPUNKT2
 62
     1
 10
357.17010587
 20
-20.02148889
 30
0.0
 11
358.36334857
 21
-18.96914775
 31
0.0
  0
LINE
  5
3D8
  8
LE_ALL
  6
STRICHPUNKT2
 62
     1
 10
357.17010587
 20
-20.02148889
 30
0.0
 11
355.97686318
 21
-21.07383003
 31
0.0
  0
LINE
  5
3D9
  8
LE_ALL
  6
STRICHPUNKT2
 62
     1
 10
357.17010587
 20
-20.02148889
 30
0.0
 11
357.17010587
 21
-16.83950837
 31
0.0
  0
LINE
  5
3DA
  8
LE_ALL
  6
STRICHPUNKT2
 62
     1
 10
357.17010587
 20
-20.02148889
 30
0.0
 11
357.17010587
 21
-23.2034694
 31
0.0
  0
LINE
  5
3DB
  8
LE_ALL
  6
STRICHPUNKT2
 62
     1
 10
366.1773983
 20
-31.99464464
 30
0.0
 11
364.38093961
 21
-31.76831212
 31
0.0
  0
LINE
  5
3DC
  8
LE_ALL
  6
STRICHPUNKT2
 62
     1
 10
365.12505716
 20
-31.86206212
 30
0.0
 11
366.31829986
 21
-30.80972098
 31
0.0
  0
LINE
  5
3DD
  8
LE_ALL
  6
STRICHPUNKT2
 62
     1
 10
365.12505716
 20
-31.86206212
 30
0.0
 11
363.93181447
 21
-32.91440326
 31
0.0
  0
LINE
  5
3DE
  8
LE_ALL
  6
STRICHPUNKT2
 62
     1
 10
365.12505716
 20
-31.86206212
 30
0.0
 11
365.12505716
 21
-28.6800816
 31
0.0
  0
LINE
  5
3DF
  8
LE_ALL
  6
STRICHPUNKT2
 62
     1
 10
365.12505716
 20
-31.86206212
 30
0.0
 11
365.12505716
 21
-35.04404264
 31
0.0
  0
LINE
  5
3E0
  8
LE_ALL
  6
STRICHPUNKT2
 62
     1
 10
366.1773983
 20
-17.85250902
 30
0.0
 11
364.38093961
 21
-17.6261765
 31
0.0
  0
LINE
  5
3E1
  8
LE_ALL
  6
STRICHPUNKT2
 62
     1
 10
365.12505716
 20
-17.7199265
 30
0.0
 11
366.31829986
 21
-16.66758536
 31
0.0
  0
LINE
  5
3E2
  8
LE_ALL
  6
STRICHPUNKT2
 62
     1
 10
365.12505716
 20
-17.7199265
 30
0.0
 11
363.93181447
 21
-18.77226764
 31
0.0
  0
LINE
  5
3E3
  8
LE_ALL
  6
STRICHPUNKT2
 62
     1
 10
365.12505716
 20
-17.7199265
 30
0.0
 11
365.12505716
 21
-14.53794598
 31
0.0
  0
LINE
  5
3E4
  8
LE_ALL
  6
STRICHPUNKT2
 62
     1
 10
365.12505716
 20
-17.7199265
 30
0.0
 11
365.12505716
 21
-20.90190701
 31
0.0
  0
LINE
  5
3E5
  8
LE_ALL
  6
STRICHPUNKT2
 62
     1
 10
366.1773983
 20
-8.4244186
 30
0.0
 11
364.38093961
 21
-8.19808608
 31
0.0
  0
LINE
  5
3E6
  8
LE_ALL
  6
STRICHPUNKT2
 62
     1
 10
365.12505716
 20
-8.29183608
 30
0.0
 11
366.31829986
 21
-7.23949494
 31
0.0
  0
LINE
  5
3E7
  8
LE_ALL
  6
STRICHPUNKT2
 62
     1
 10
365.12505716
 20
-8.29183608
 30
0.0
 11
363.93181447
 21
-9.34417722
 31
0.0
  0
LINE
  5
3E8
  8
LE_ALL
  6
STRICHPUNKT2
 62
     1
 10
365.12505716
 20
-8.29183608
 30
0.0
 11
365.12505716
 21
-5.10985557
 31
0.0
  0
LINE
  5
3E9
  8
LE_ALL
  6
STRICHPUNKT2
 62
     1
 10
365.12505716
 20
-8.29183608
 30
0.0
 11
365.12505716
 21
-11.4738166
 31
0.0
  0
LINE
  5
3EA
  8
LE_ALL
  6
STRICHPUNKT2
 62
     1
 10
362.55070304
 20
-30.83259741
 30
0.0
 11
360.07274505
 21
-30.52040405
 31
0.0
  0
LINE
  5
3EB
  8
LE_ALL
  6
STRICHPUNKT2
 62
     1
 10
361.14758152
 20
-30.65582071
 30
0.0
 11
362.82696012
 21
-29.174748
 31
0.0
  0
LINE
  5
3EC
  8
LE_ALL
  6
STRICHPUNKT2
 62
     1
 10
361.14758152
 20
-30.65582071
 30
0.0
 11
359.46820291
 21
-32.13689343
 31
0.0
  0
LINE
  5
3ED
  8
LE_ALL
  6
STRICHPUNKT2
 62
     1
 10
361.14758152
 20
-30.65582071
 30
0.0
 11
361.14758152
 21
-26.17747776
 31
0.0
  0
LINE
  5
3EE
  8
LE_ALL
  6
STRICHPUNKT2
 62
     1
 10
361.14758152
 20
-30.65582071
 30
0.0
 11
361.14758152
 21
-35.13416366
 31
0.0
  0
ENDBLK
  8
0
  0
BLOCK
  8
0
  2
DVI_FIGURE_00068
 70
     0
 10
0.0
 20
0.0
 30
0.0
  0
INSERT
  5
3F1
  8
0
  2
VIEW_3_00069
 10
0.0
 20
0.0
 30
0.0
  0
INSERT
  5
3F2
  8
0
  2
VIEW_4_00075
 10
0.0
 20
0.0
 30
0.0
  0
INSERT
  5
3F3
  8
0
  2
VIEW_5_00092
 10
0.0
 20
0.0
 30
0.0
  0
ENDBLK
  8
0
  0
BLOCK
  8
0
  2
VIEW_3_00069
 70
     0
 10
0.0
 20
0.0
 30
0.0
  0
INSERT
  5
3F6
  8
0
  2
PART_2_00070
 10
0.0
 20
0.0
 30
0.0
  0
ENDBLK
  8
0
  0
BLOCK
  8
0
  2
PART_2_00070
 70
     0
 10
0.0
 20
0.0
 30
0.0
  0
INSERT
  5
3F9
  8
0
  2
_D1
 10
163.74948836
 20
-230.73612648
 30
0.0
  0
INSERT
  5
3FA
  8
0
  2
_D2
 10
73.54407885
 20
-166.60531388
 30
0.0
  0
INSERT
  5
3FB
  8
0
  2
_D3
 10
84.70940602
 20
-95.15754121
 30
0.0
  0
INSERT
  5
3FC
  8
0
  2
_D4
 10
256.61447505
 20
-220.64539621
 30
0.0
  0
ENDBLK
  8
0
  0
BLOCK
  8
0
  2
VIEW_4_00075
 70
     0
 10
0.0
 20
0.0
 30
0.0
  0
INSERT
  5
41F
  8
0
  2
PART_2_00076
 10
0.0
 20
0.0
 30
0.0
  0
ENDBLK
  8
0
  0
BLOCK
  8
0
  2
PART_2_00076
 70
     0
 10
0.0
 20
0.0
 30
0.0
  0
INSERT
  5
422
  8
0
  2
_D5
 10
299.90742001
 20
-188.11141092
 30
0.0
  0
INSERT
  5
423
  8
0
  2
_D6
 10
321.44750223
 20
-171.42277095
 30
0.0
  0
INSERT
  5
424
  8
0
  2
_D7
 10
293.10058341
 20
-95.41967741
 30
0.0
  0
INSERT
  5
425
  8
0
  2
_D8
 10
310.60058341
 20
-95.41967741
 30
0.0
  0
INSERT
  5
426
  8
0
  2
_D9
 10
333.10058341
 20
-95.41967741
 30
0.0
  0
INSERT
  5
427
  8
0
  2
_D10
 10
350.60058341
 20
-95.41967741
 30
0.0
  0
INSERT
  5
428
  8
0
  2
_D11
 10
280.92910918
 20
-112.14539621
 30
0.0
  0
INSERT
  5
429
  8
0
  2
_D12
 10
280.92910918
 20
-123.64539621
 30
0.0
  0
INSERT
  5
42A
  8
0
  2
_D13
 10
280.92910918
 20
-133.64539621
 30
0.0
  0
INSERT
  5
42B
  8
0
  2
_D14
 10
280.92910918
 20
-143.64539621
 30
0.0
  0
INSERT
  5
42C
  8
0
  2
_D15
 10
280.92910918
 20
-153.64539621
 30
0.0
  0
INSERT
  5
42D
  8
0
  2
_D16
 10
280.92910918
 20
-163.64539621
 30
0.0
  0
INSERT
  5
42E
  8
0
  2
_D17
 10
280.92910918
 20
-173.64539621
 30
0.0
  0
INSERT
  5
42F
  8
0
  2
_D18
 10
280.92910918
 20
-202.14539621
 30
0.0
  0
INSERT
  5
430
  8
0
  2
_D19
 10
344.90742001
 20
-181.39874327
 30
0.0
  0
ENDBLK
  8
0
  0
BLOCK
  8
0
  2
VIEW_5_00092
 70
     0
 10
0.0
 20
0.0
 30
0.0
  0
INSERT
  5
4AE
  8
0
  2
PART_2_00093
 10
0.0
 20
0.0
 30
0.0
  0
ENDBLK
  8
0
  0
BLOCK
  8
0
  2
PART_2_00093
 70
     0
 10
0.0
 20
0.0
 30
0.0
  0
INSERT
  5
4B1
  8
0
  2
_D20
 10
256.94267396
 20
-30.10550816
 30
0.0
  0
INSERT
  5
4B2
  8
0
  2
_D21
 10
256.94267396
 20
-65.10550816
 30
0.0
  0
INSERT
  5
4B3
  8
0
  2
_D22
 10
234.20940602
 20
-2.34868238
 30
0.0
  0
INSERT
  5
4B4
  8
0
  2
_D23
 10
197.95940602
 20
-2.34868238
 30
0.0
  0
INSERT
  5
4B5
  8
0
  2
_D24
 10
144.70940602
 20
-2.34868238
 30
0.0
  0
INSERT
  5
4B6
  8
0
  2
_D25
 10
95.95940602
 20
-2.34868238
 30
0.0
  0
INSERT
  5
4B7
  8
0
  2
_D26
 10
186.97177607
 20
-49.44804473
 30
0.0
  0
INSERT
  5
4B8
  8
0
  2
_D27
 10
216.86686945
 20
-31.93629696
 30
0.0
  0
INSERT
  5
4B9
  8
0
  2
_D28
 10
265.04819259
 20
-47.60550816
 30
0.0
  0
ENDBLK
  8
0
  0
ENDSEC
  0
SECTION
  2
ENTITIES
  0
INSERT
  5
505
  8
0
  2
_ZBL0002_00001
 10
0.0
 20
0.0
 30
0.0
  0
INSERT
  5
506
  8
0
  2
_ANS0003_00016
 10
0.0
 20
0.0
 30
0.0
  0
INSERT
  5
507
  8
0
  2
_ANS0004_00029
 10
0.0
 20
0.0
 30
0.0
  0
INSERT
  5
508
  8
0
  2
_ANS0005_00042
 10
0.0
 20
0.0
 30
0.0
  0
INSERT
  5
509
  8
0
  2
_ANS0006_00055
 10
0.0
 20
0.0
 30
0.0
  0
INSERT
  5
50A
  8
0
  2
DVI_FIGURE_00068
 10
0.0
 20
0.0
 30
0.0
  0
ENDSEC
  0
EOF
