  0
SECTION
  2
HEADER
  9
$ACADVER
  1
AC1006
  9
$DWGCODEPAGE
  3
ansi_1252
  9
$INSBASE
 10
0.0
 20
0.0
 30
0.0
  9
$EXTMIN
 10
108.82419099
 20
-418.61815116
  9
$EXTMAX
 10
537.22419099
 20
-104.92894491
  9
$LIMMIN
 10
108.82419099
 20
-418.61815116
  9
$LIMMAX
 10
537.22419099
 20
-104.92894491
  9
$ORTHOMODE
 70
     0
  9
$REGENMODE
 70
     1
  9
$FILLMODE
 70
     1
  9
$QTEXTMODE
 70
     0
  9
$MIRRTEXT
 70
     1
  9
$DRAGMODE
 70
     2
  9
$LTSCALE
 40
1.0
  9
$OSMODE
 70
    37
  9
$ATTMODE
 70
     1
  9
$TEXTSIZE
 40
1.0
  9
$TRACEWID
 40
0.05
  9
$TEXTSTYLE
  7
STANDARD
  9
$CLAYER
  8
0
  9
$CELTYPE
  6
BYBLOCK
  9
$CECOLOR
 62
   256
  9
$DIMSCALE
 40
1.0
  9
$DIMASZ
 40
0.18
  9
$DIMEXO
 40
0.0625
  9
$DIMDLI
 40
0.38
  9
$DIMRND
 40
0.0
  9
$DIMDLE
 40
0.0
  9
$DIMEXE
 40
0.18
  9
$DIMTP
 40
0.0
  9
$DIMTM
 40
0.0
  9
$DIMTXT
 40
0.18
  9
$DIMCEN
 40
0.09
  9
$DIMTSZ
 40
0.0
  9
$DIMTOL
 70
     0
  9
$DIMLIM
 70
     0
  9
$DIMTIH
 70
     1
  9
$DIMTOH
 70
     1
  9
$DIMSE1
 70
     0
  9
$DIMSE2
 70
     0
  9
$DIMTAD
 70
     0
  9
$DIMZIN
 70
     0
  9
$DIMBLK
  1

  9
$DIMASO
 70
     1
  9
$DIMSHO
 70
     1
  9
$DIMPOST
  1

  9
$DIMAPOST
  1

  9
$DIMALT
 70
     0
  9
$DIMALTD
 70
     2
  9
$DIMALTF
 40
25.4
  9
$DIMLFAC
 40
1.0
  9
$DIMTOFL
 70
     0
  9
$DIMTVP
 40
0.0
  9
$DIMTIX
 70
     0
  9
$DIMSOXD
 70
     0
  9
$DIMSAH
 70
     0
  9
$DIMBLK1
  1

  9
$DIMBLK2
  1

  9
$LUNITS
 70
     2
  9
$LUPREC
 70
     4
  9
$SKETCHINC
 40
0.1
  9
$FILLETRAD
 40
0.5
  9
$AUNITS
 70
     0
  9
$AUPREC
 70
     0
  9
$MENU
  1
.
  9
$ELEVATION
 40
0.0
  9
$THICKNESS
 40
0.0
  9
$LIMCHECK
 70
     0
  9
$CHAMFERA
 40
0.0
  9
$CHAMFERB
 40
0.0
  9
$SKPOLY
 70
     0
  9
$TDCREATE
 40
2447893.125
  9
$TDUPDATE
 40
2460791.480939745
  9
$TDINDWG
 40
0.0
  9
$TDUSRTIMER
 40
0.0
  9
$USRTIMER
 70
     1
  9
$ANGBASE
 50
0.0
  9
$ANGDIR
 70
     0
  9
$PDMODE
 70
     0
  9
$PDSIZE
 40
0.0
  9
$PLINEWID
 40
0.0
  9
$COORDS
 70
     1
  9
$SPLFRAME
 70
     0
  9
$SPLINETYPE
 70
     6
  9
$SPLINESEGS
 70
     8
  9
$ATTDIA
 70
     0
  9
$ATTREQ
 70
     1
  9
$HANDLING
 70
     1
  9
$HANDSEED
  5
5E9
  9
$SURFTAB1
 70
     6
  9
$SURFTAB2
 70
     6
  9
$SURFTYPE
 70
     6
  9
$SURFU
 70
     6
  9
$SURFV
 70
     6
  9
$UCSNAME
  2

  9
$UCSORG
 10
0.0
 20
0.0
 30
0.0
  9
$UCSXDIR
 10
1.0
 20
0.0
 30
0.0
  9
$UCSYDIR
 10
0.0
 20
1.0
 30
0.0
  9
$USERI1
 70
     0
  9
$USERI2
 70
     0
  9
$USERI3
 70
     0
  9
$USERI4
 70
     0
  9
$USERI5
 70
     0
  9
$USERR1
 40
0.0
  9
$USERR2
 40
0.0
  9
$USERR3
 40
0.0
  9
$USERR4
 40
0.0
  9
$USERR5
 40
0.0
  9
$WORLDVIEW
 70
     1
  0
ENDSEC
  0
SECTION
  2
TABLES
  0
TABLE
  2
VPORT
 70
     1
  0
VPORT
  2
*ACTIVE
 70
     0
 10
0.0
 20
0.0
 11
1.0
 21
1.0
 12
323.02419099
 22
-261.77354804
 13
0.0
 23
0.0
 14
1.0
 24
1.0
 15
0.0
 25
0.0
 16
0.0
 26
0.0
 36
1.0
 17
0.0
 27
0.0
 37
0.0
 40
313.68920625
 41
1.365682948
 42
50.0
 43
0.0
 44
0.0
 50
0.0
 51
0.0
 71
     0
 72
   100
 73
     1
 74
     1
 75
     0
 76
     0
 77
     0
 78
     0
  0
ENDTAB
  0
TABLE
  2
LTYPE
 70
    19
  0
LTYPE
  2
CONTINUOUS
 70
     0
  3
Solid line
 72
    65
 73
     0
 40
0.0
  0
LTYPE
  2
DOT
 70
     0
  3
..............
 72
    65
 73
     2
 40
2.0
 49
0.5
 49
-1.5
  0
LTYPE
  2
HIDDEN
 70
     0
  3
-- -- -- -- --
 72
    65
 73
     2
 40
7.0
 49
4.0
 49
-3.0
  0
LTYPE
  2
DASHDOT
 70
     0
  3
--.--.--.--.--
 72
    65
 73
     4
 40
8.5
 49
4.0
 49
-2.0
 49
0.5
 49
-2.0
  0
LTYPE
  2
STRICHPUNKT2
 70
     0
  3
--.--.--.--.--
 72
    65
 73
     4
 40
18.5
 49
10.0
 49
-4.0
 49
0.5
 49
-4.0
  0
LTYPE
  2
STRICHPUNKT3
 70
     0
  3
--.--.--.--.--
 72
    65
 73
     4
 40
35.5
 49
25.0
 49
-5.0
 49
0.5
 49
-5.0
  0
LTYPE
  2
PHANTOM
 70
     0
  3
--..--..--..--
 72
    65
 73
     6
 40
23.0
 49
10.0
 49
-4.0
 49
0.5
 49
-4.0
 49
0.5
 49
-4.0
  0
LTYPE
  2
PHANTOM2
 70
     0
  3
--..--..--..--
 72
    65
 73
     6
 40
33.0
 49
20.0
 49
-4.0
 49
0.5
 49
-4.0
 49
0.5
 49
-4.0
  0
LTYPE
  2
PHANTOM3
 70
     0
  3
--..--..--..--
 72
    65
 73
     6
 40
50.0
 49
37.0
 49
-4.0
 49
0.5
 49
-4.0
 49
0.5
 49
-4.0
  0
LTYPE
  2
STR3PKT
 70
     0
  3
--...--...--...
 72
    65
 73
     8
 40
31.5
 49
20.0
 49
-2.5
 49
0.5
 49
-2.5
 49
0.5
 49
-2.5
 49
0.5
 49
-2.5
  0
LTYPE
  2
2STRPKT
 70
     0
  3
--.--.--.--.--
 72
    65
 73
     6
 40
28.0
 49
10.0
 49
-2.5
 49
10.0
 49
-2.5
 49
0.5
 49
-2.5
  0
LTYPE
  2
GESTRICHELT2
 70
     0
  3
-- -- -- -- --
 72
    65
 73
     2
 40
25.0
 49
10.0
 49
-15.0
  0
LTYPE
  2
2STR2PKT
 70
     0
  3
--..--..--..--
 72
    65
 73
     8
 40
31.0
 49
10.0
 49
-2.5
 49
10.0
 49
-2.5
 49
0.5
 49
-2.5
 49
0.5
 49
-2.5
  0
LTYPE
  2
STR3PKT2
 70
     0
  3
--...--...--...
 72
    65
 73
     8
 40
21.0
 49
10.0
 49
-2.5
 49
0.5
 49
-2.5
 49
0.5
 49
-2.5
 49
0.5
 49
-2.0
  0
LTYPE
  2
2STR3PKT
 70
     0
  3
--...--...--...
 72
    65
 73
    10
 40
34.0
 49
10.0
 49
-2.5
 49
10.0
 49
-2.5
 49
0.5
 49
-2.5
 49
0.5
 49
-2.5
 49
0.5
 49
-2.5
  0
LTYPE
  2
STRKSTR
 70
     0
  3
-- - -- - -- -
 72
    65
 73
     4
 40
30.0
 49
20.0
 49
-2.5
 49
5.0
 49
-2.5
  0
LTYPE
  2
STRKSTR2
 70
     0
  3
-- - -- - -- -
 72
    65
 73
     6
 40
37.5
 49
20.0
 49
-2.5
 49
5.0
 49
-2.5
 49
5.0
 49
-2.5
  0
LTYPE
  2
STRKSTR3
 70
     0
  3
-- - -- - -- -
 72
    65
 73
     8
 40
45.0
 49
20.0
 49
-2.5
 49
5.0
 49
-2.5
 49
5.0
 49
-2.5
 49
5.0
 49
-2.5
  0
LTYPE
  2
PUNKT2
 70
     0
  3
..............
 72
    65
 73
     2
 40
3.5
 49
0.5
 49
-3.0
  0
ENDTAB
  0
TABLE
  2
LAYER
 70
    16
  0
LAYER
  2
0
 70
     0
 62
     7
  6
CONTINUOUS
  0
LAYER
  2
LE_GREEN
 70
     0
 62
     3
  6
CONTINUOUS
  0
LAYER
  2
LE_RED
 70
     0
 62
     1
  6
CONTINUOUS
  0
LAYER
  2
LE_ALL
 70
     0
 62
     7
  6
CONTINUOUS
  0
LAYER
  2
LE_HIDDEN1
 70
     0
 62
     3
  6
HIDDEN
  0
LAYER
  2
LE_HIDDEN
 70
     0
 62
     7
  6
CONTINUOUS
  0
LAYER
  2
LE_MIDDLE
 70
     0
 62
     7
  6
CONTINUOUS
  0
LAYER
  2
TXT_YELLOW
 70
     0
 62
     2
  6
CONTINUOUS
  0
LAYER
  2
TXT_DIM49
 70
     0
 62
     2
  6
CONTINUOUS
  0
LAYER
  2
TXT_ALL
 70
     0
 62
     7
  6
CONTINUOUS
  0
LAYER
  2
DIM49
 70
     0
 62
     4
  6
CONTINUOUS
  0
LAYER
  2
HATCH
 70
     0
 62
     3
  6
CONTINUOUS
  0
LAYER
  2
APPLE
 70
     0
 62
     7
  6
CONTINUOUS
  0
LAYER
  2
10
 70
     0
 62
     7
  6
CONTINUOUS
  0
LAYER
  2
20
 70
     0
 62
     7
  6
CONTINUOUS
  0
LAYER
  2
49
 70
     0
 62
     7
  6
CONTINUOUS
  0
ENDTAB
  0
TABLE
  2
STYLE
 70
     5
  0
STYLE
  2
MONOTXT
 70
     0
 40
0.0
 41
1.0
 50
0.0
 71
     0
 42
1.0
  3
monotxt.shx
  4

  0
STYLE
  2
STANDARD
 70
     0
 40
0.0
 41
1.0
 50
0.0
 71
     0
 42
1.0
  3
txt
  4

  0
STYLE
  2
ARIAL
 70
     0
 40
0.0
 41
1.0
 50
0.0
 71
     0
 42
1.0
  3
arial.ttf
  4

  0
STYLE
  2
ARIAL_NARROW
 70
     0
 40
0.0
 41
1.0
 50
0.0
 71
     0
 42
1.0
  3
ArialN.ttf
  4

  0
STYLE
  2
ISOCPEUR
 70
     0
 40
0.0
 41
1.0
 50
0.0
 71
     0
 42
1.0
  3
ISOCPEUR.ttf
  4

  0
ENDTAB
  0
TABLE
  2
VIEW
 70
     0
  0
ENDTAB
  0
TABLE
  2
UCS
 70
     0
  0
ENDTAB
  0
ENDSEC
  0
SECTION
  2
BLOCKS
  0
BLOCK
  8
0
  2
_D1
 70
     0
 10
229.51624197
 20
-326.60353287
 30
0.0
  0
TEXT
  5
399
  8
TXT_DIM49
 10
229.51624197
 20
-326.60353287
 30
0.0
 40
2.5
  1
150
  7
ARIAL
  0
LINE
  5
39A
  8
DIM49
 10
158.39599508
 20
-327.10353287
 30
0.0
 11
156.39599508
 21
-329.10353287
 31
0.0
  0
LINE
  5
39B
  8
DIM49
 10
306.64599508
 20
-328.85353287
 30
0.0
 11
308.14599508
 21
-327.35353287
 31
0.0
  0
LINE
  5
39C
  8
DIM49
 10
157.39599508
 20
-328.10353287
 30
0.0
 11
307.39599508
 21
-328.10353287
 31
0.0
  0
LINE
  5
39D
  8
DIM49
 10
157.39599508
 20
-326.10353287
 30
0.0
 11
157.39599508
 21
-330.10353287
 31
0.0
  0
LINE
  5
39E
  8
DIM49
 10
307.39599508
 20
-326.10353287
 30
0.0
 11
307.39599508
 21
-330.10353287
 31
0.0
  0
ENDBLK
  8
0
  0
BLOCK
  8
0
  2
_D2
 70
     0
 10
145.78159205
 20
-286.8638873
 30
0.0
  0
TEXT
  5
3A1
  8
TXT_DIM49
 10
145.78159205
 20
-286.8638873
 30
0.0
 40
2.5
  1
70
 50
90.00020741
  7
ARIAL
  0
LINE
  5
3A2
  8
DIM49
 10
146.28159205
 20
-318.94405185
 30
0.0
 11
148.28159205
 21
-320.94405185
 31
0.0
  0
LINE
  5
3A3
  8
DIM49
 10
148.03159205
 20
-250.69405185
 30
0.0
 11
146.53159205
 21
-249.19405185
 31
0.0
  0
LINE
  5
3A4
  8
DIM49
 10
147.28159205
 20
-319.94405185
 30
0.0
 11
147.28159205
 21
-249.94405185
 31
0.0
  0
LINE
  5
3A5
  8
DIM49
 10
149.28159205
 20
-319.94405185
 30
0.0
 11
145.28159205
 21
-319.94405185
 31
0.0
  0
LINE
  5
3A6
  8
DIM49
 10
149.28159205
 20
-249.94405185
 30
0.0
 11
145.28159205
 21
-249.94405185
 31
0.0
  0
ENDBLK
  8
0
  0
BLOCK
  8
0
  2
_D3
 70
     0
 10
313.4503494
 20
-316.90396957
 30
0.0
  0
TEXT
  5
3A9
  8
TXT_DIM49
 10
313.4503494
 20
-316.90396957
 30
0.0
 40
2.5
  1
8
 50
90.00020741
  7
ARIAL
  0
LINE
  5
3AA
  8
DIM49
 10
313.9503494
 20
-318.94405185
 30
0.0
 11
315.9503494
 21
-320.94405185
 31
0.0
  0
LINE
  5
3AB
  8
DIM49
 10
315.7003494
 20
-312.69405185
 30
0.0
 11
314.2003494
 21
-311.19405185
 31
0.0
  0
LINE
  5
3AC
  8
DIM49
 10
314.9503494
 20
-319.94405185
 30
0.0
 11
314.9503494
 21
-311.94405185
 31
0.0
  0
LINE
  5
3AD
  8
DIM49
 10
312.9503494
 20
-319.94405185
 30
0.0
 11
316.9503494
 21
-319.94405185
 31
0.0
  0
LINE
  5
3AE
  8
DIM49
 10
312.9503494
 20
-311.94405185
 30
0.0
 11
316.9503494
 21
-311.94405185
 31
0.0
  0
ENDBLK
  8
0
  0
BLOCK
  8
0
  2
_D4
 70
     0
 10
160.43607736
 20
-243.1582992
 30
0.0
  0
TEXT
  5
3B1
  8
TXT_DIM49
 10
160.43607736
 20
-243.1582992
 30
0.0
 40
2.5
  1
8
  7
ARIAL
  0
LINE
  5
3B2
  8
DIM49
 10
164.39599508
 20
-245.6582992
 30
0.0
 11
166.39599508
 21
-243.6582992
 31
0.0
  0
LINE
  5
3B3
  8
DIM49
 10
158.14599508
 20
-243.9082992
 30
0.0
 11
156.64599508
 21
-245.4082992
 31
0.0
  0
LINE
  5
3B4
  8
DIM49
 10
165.39599508
 20
-244.6582992
 30
0.0
 11
157.39599508
 21
-244.6582992
 31
0.0
  0
LINE
  5
3B5
  8
DIM49
 10
165.39599508
 20
-246.6582992
 30
0.0
 11
165.39599508
 21
-242.6582992
 31
0.0
  0
LINE
  5
3B6
  8
DIM49
 10
157.39599508
 20
-246.6582992
 30
0.0
 11
157.39599508
 21
-242.6582992
 31
0.0
  0
ENDBLK
  8
0
  0
BLOCK
  8
0
  2
_D5
 70
     0
 10
368.43962184
 20
-278.23168461
 30
0.0
  0
TEXT
  5
3C9
  8
TXT_DIM49
 10
368.43962184
 20
-278.23168461
 30
0.0
 40
2.5
  1
Ø
  7
ARIAL
  0
TEXT
  5
3CA
  8
TXT_DIM49
 10
372.12469474
 20
-278.23168461
 30
0.0
 40
2.5
  1
10
  7
ARIAL
  0
LINE
  5
3CB
  8
DIM49
 10
376.20199386
 20
-280.73168461
 30
0.0
 11
378.20199386
 21
-278.73168461
 31
0.0
  0
LINE
  5
3CC
  8
DIM49
 10
367.95199386
 20
-278.98168461
 30
0.0
 11
366.45199386
 21
-280.48168461
 31
0.0
  0
LINE
  5
3CD
  8
DIM49
 10
377.20199386
 20
-279.73168461
 30
0.0
 11
367.20199386
 21
-279.73168461
 31
0.0
  0
LINE
  5
3CE
  8
DIM49
 10
377.20199386
 20
-277.73168461
 30
0.0
 11
377.20199386
 21
-281.73168461
 31
0.0
  0
LINE
  5
3CF
  8
DIM49
 10
367.20199386
 20
-277.73168461
 30
0.0
 11
367.20199386
 21
-281.73168461
 31
0.0
  0
ENDBLK
  8
0
  0
BLOCK
  8
0
  2
_D6
 70
     0
 10
388.43962184
 20
-288.21363191
 30
0.0
  0
TEXT
  5
3D2
  8
TXT_DIM49
 10
388.43962184
 20
-288.21363191
 30
0.0
 40
2.5
  1
Ø
  7
ARIAL
  0
TEXT
  5
3D3
  8
TXT_DIM49
 10
392.12469474
 20
-288.21363191
 30
0.0
 40
2.5
  1
12
  7
ARIAL
  0
LINE
  5
3D4
  8
DIM49
 10
397.20199386
 20
-290.71363191
 30
0.0
 11
399.20199386
 21
-288.71363191
 31
0.0
  0
LINE
  5
3D5
  8
DIM49
 10
386.95199386
 20
-288.96363191
 30
0.0
 11
385.45199386
 21
-290.46363191
 31
0.0
  0
LINE
  5
3D6
  8
DIM49
 10
398.20199386
 20
-289.71363191
 30
0.0
 11
386.20199386
 21
-289.71363191
 31
0.0
  0
LINE
  5
3D7
  8
DIM49
 10
398.20199386
 20
-287.71363191
 30
0.0
 11
398.20199386
 21
-291.71363191
 31
0.0
  0
LINE
  5
3D8
  8
DIM49
 10
386.20199386
 20
-287.71363191
 30
0.0
 11
386.20199386
 21
-291.71363191
 31
0.0
  0
ENDBLK
  8
0
  0
BLOCK
  8
0
  2
_D7
 70
     0
 10
408.43962184
 20
-297.62196093
 30
0.0
  0
TEXT
  5
3DB
  8
TXT_DIM49
 10
408.43962184
 20
-297.62196093
 30
0.0
 40
2.5
  1
Ø
  7
ARIAL
  0
TEXT
  5
3DC
  8
TXT_DIM49
 10
412.12469474
 20
-297.62196093
 30
0.0
 40
2.5
  1
10
  7
ARIAL
  0
LINE
  5
3DD
  8
DIM49
 10
416.20199386
 20
-300.12196093
 30
0.0
 11
418.20199386
 21
-298.12196093
 31
0.0
  0
LINE
  5
3DE
  8
DIM49
 10
407.95199386
 20
-298.37196093
 30
0.0
 11
406.45199386
 21
-299.87196093
 31
0.0
  0
LINE
  5
3DF
  8
DIM49
 10
417.20199386
 20
-299.12196093
 30
0.0
 11
407.20199386
 21
-299.12196093
 31
0.0
  0
LINE
  5
3E0
  8
DIM49
 10
417.20199386
 20
-297.12196093
 30
0.0
 11
417.20199386
 21
-301.12196093
 31
0.0
  0
LINE
  5
3E1
  8
DIM49
 10
407.20199386
 20
-297.12196093
 30
0.0
 11
407.20199386
 21
-301.12196093
 31
0.0
  0
ENDBLK
  8
0
  0
BLOCK
  8
0
  2
_D8
 70
     0
 10
362.78215841
 20
-241.46272847
 30
0.0
  0
TEXT
  5
3E4
  8
TXT_DIM49
 10
362.78215841
 20
-241.46272847
 30
0.0
 40
2.5
  1
15
  7
ARIAL
  0
LINE
  5
3E5
  8
DIM49
 10
358.20199386
 20
-241.96272847
 30
0.0
 11
356.20199386
 21
-243.96272847
 31
0.0
  0
LINE
  5
3E6
  8
DIM49
 10
371.45199386
 20
-243.71272847
 30
0.0
 11
372.95199386
 21
-242.21272847
 31
0.0
  0
LINE
  5
3E7
  8
DIM49
 10
357.20199386
 20
-242.96272847
 30
0.0
 11
372.20199386
 21
-242.96272847
 31
0.0
  0
LINE
  5
3E8
  8
DIM49
 10
357.20199386
 20
-244.96272847
 30
0.0
 11
357.20199386
 21
-240.96272847
 31
0.0
  0
LINE
  5
3E9
  8
DIM49
 10
372.20199386
 20
-244.96272847
 30
0.0
 11
372.20199386
 21
-240.96272847
 31
0.0
  0
ENDBLK
  8
0
  0
BLOCK
  8
0
  2
_D9
 70
     0
 10
380.28215841
 20
-241.46272847
 30
0.0
  0
TEXT
  5
3EC
  8
TXT_DIM49
 10
380.28215841
 20
-241.46272847
 30
0.0
 40
2.5
  1
20
  7
ARIAL
  0
LINE
  5
3ED
  8
DIM49
 10
373.20199386
 20
-241.96272847
 30
0.0
 11
371.20199386
 21
-243.96272847
 31
0.0
  0
LINE
  5
3EE
  8
DIM49
 10
391.45199386
 20
-243.71272847
 30
0.0
 11
392.95199386
 21
-242.21272847
 31
0.0
  0
LINE
  5
3EF
  8
DIM49
 10
372.20199386
 20
-242.96272847
 30
0.0
 11
392.20199386
 21
-242.96272847
 31
0.0
  0
LINE
  5
3F0
  8
DIM49
 10
372.20199386
 20
-244.96272847
 30
0.0
 11
372.20199386
 21
-240.96272847
 31
0.0
  0
LINE
  5
3F1
  8
DIM49
 10
392.20199386
 20
-244.96272847
 30
0.0
 11
392.20199386
 21
-240.96272847
 31
0.0
  0
ENDBLK
  8
0
  0
BLOCK
  8
0
  2
_D10
 70
     0
 10
400.28215841
 20
-241.46272847
 30
0.0
  0
TEXT
  5
3F4
  8
TXT_DIM49
 10
400.28215841
 20
-241.46272847
 30
0.0
 40
2.5
  1
20
  7
ARIAL
  0
LINE
  5
3F5
  8
DIM49
 10
393.20199386
 20
-241.96272847
 30
0.0
 11
391.20199386
 21
-243.96272847
 31
0.0
  0
LINE
  5
3F6
  8
DIM49
 10
411.45199386
 20
-243.71272847
 30
0.0
 11
412.95199386
 21
-242.21272847
 31
0.0
  0
LINE
  5
3F7
  8
DIM49
 10
392.20199386
 20
-242.96272847
 30
0.0
 11
412.20199386
 21
-242.96272847
 31
0.0
  0
LINE
  5
3F8
  8
DIM49
 10
392.20199386
 20
-244.96272847
 30
0.0
 11
392.20199386
 21
-240.96272847
 31
0.0
  0
LINE
  5
3F9
  8
DIM49
 10
412.20199386
 20
-244.96272847
 30
0.0
 11
412.20199386
 21
-240.96272847
 31
0.0
  0
ENDBLK
  8
0
  0
BLOCK
  8
0
  2
_D11
 70
     0
 10
417.78215841
 20
-241.46272847
 30
0.0
  0
TEXT
  5
3FC
  8
TXT_DIM49
 10
417.78215841
 20
-241.46272847
 30
0.0
 40
2.5
  1
15
  7
ARIAL
  0
LINE
  5
3FD
  8
DIM49
 10
413.20199386
 20
-241.96272847
 30
0.0
 11
411.20199386
 21
-243.96272847
 31
0.0
  0
LINE
  5
3FE
  8
DIM49
 10
426.45199386
 20
-243.71272847
 30
0.0
 11
427.95199386
 21
-242.21272847
 31
0.0
  0
LINE
  5
3FF
  8
DIM49
 10
412.20199386
 20
-242.96272847
 30
0.0
 11
427.20199386
 21
-242.96272847
 31
0.0
  0
LINE
  5
400
  8
DIM49
 10
412.20199386
 20
-244.96272847
 30
0.0
 11
412.20199386
 21
-240.96272847
 31
0.0
  0
LINE
  5
401
  8
DIM49
 10
427.20199386
 20
-244.96272847
 30
0.0
 11
427.20199386
 21
-240.96272847
 31
0.0
  0
ENDBLK
  8
0
  0
BLOCK
  8
0
  2
_D12
 70
     0
 10
349.7849871
 20
-259.3638873
 30
0.0
  0
TEXT
  5
404
  8
TXT_DIM49
 10
349.7849871
 20
-259.3638873
 30
0.0
 40
2.5
  1
15
 50
90.00020741
  7
ARIAL
  0
LINE
  5
405
  8
DIM49
 10
352.2849871
 20
-250.94405185
 30
0.0
 11
350.2849871
 21
-248.94405185
 31
0.0
  0
LINE
  5
406
  8
DIM49
 10
350.5349871
 20
-264.19405185
 30
0.0
 11
352.0349871
 21
-265.69405185
 31
0.0
  0
LINE
  5
407
  8
DIM49
 10
351.2849871
 20
-249.94405185
 30
0.0
 11
351.2849871
 21
-264.94405185
 31
0.0
  0
LINE
  5
408
  8
DIM49
 10
353.2849871
 20
-249.94405185
 30
0.0
 11
349.2849871
 21
-249.94405185
 31
0.0
  0
LINE
  5
409
  8
DIM49
 10
353.2849871
 20
-264.94405185
 30
0.0
 11
349.2849871
 21
-264.94405185
 31
0.0
  0
ENDBLK
  8
0
  0
BLOCK
  8
0
  2
_D13
 70
     0
 10
349.7849871
 20
-271.82501494
 30
0.0
  0
TEXT
  5
40C
  8
TXT_DIM49
 10
349.7849871
 20
-271.82501494
 30
0.0
 40
2.5
  1
10
 50
90.00020741
  7
ARIAL
  0
LINE
  5
40D
  8
DIM49
 10
352.2849871
 20
-265.94405185
 30
0.0
 11
350.2849871
 21
-263.94405185
 31
0.0
  0
LINE
  5
40E
  8
DIM49
 10
350.5349871
 20
-274.19405185
 30
0.0
 11
352.0349871
 21
-275.69405185
 31
0.0
  0
LINE
  5
40F
  8
DIM49
 10
351.2849871
 20
-264.94405185
 30
0.0
 11
351.2849871
 21
-274.94405185
 31
0.0
  0
LINE
  5
410
  8
DIM49
 10
353.2849871
 20
-264.94405185
 30
0.0
 11
349.2849871
 21
-264.94405185
 31
0.0
  0
LINE
  5
411
  8
DIM49
 10
353.2849871
 20
-274.94405185
 30
0.0
 11
349.2849871
 21
-274.94405185
 31
0.0
  0
ENDBLK
  8
0
  0
BLOCK
  8
0
  2
_D14
 70
     0
 10
349.7849871
 20
-281.8638873
 30
0.0
  0
TEXT
  5
414
  8
TXT_DIM49
 10
349.7849871
 20
-281.8638873
 30
0.0
 40
2.5
  1
10
 50
90.00020741
  7
ARIAL
  0
LINE
  5
415
  8
DIM49
 10
352.2849871
 20
-275.94405185
 30
0.0
 11
350.2849871
 21
-273.94405185
 31
0.0
  0
LINE
  5
416
  8
DIM49
 10
350.5349871
 20
-284.19405185
 30
0.0
 11
352.0349871
 21
-285.69405185
 31
0.0
  0
LINE
  5
417
  8
DIM49
 10
351.2849871
 20
-274.94405185
 30
0.0
 11
351.2849871
 21
-284.94405185
 31
0.0
  0
LINE
  5
418
  8
DIM49
 10
353.2849871
 20
-274.94405185
 30
0.0
 11
349.2849871
 21
-274.94405185
 31
0.0
  0
LINE
  5
419
  8
DIM49
 10
353.2849871
 20
-284.94405185
 30
0.0
 11
349.2849871
 21
-284.94405185
 31
0.0
  0
ENDBLK
  8
0
  0
BLOCK
  8
0
  2
_D15
 70
     0
 10
349.7849871
 20
-304.3638873
 30
0.0
  0
TEXT
  5
41C
  8
TXT_DIM49
 10
349.7849871
 20
-304.3638873
 30
0.0
 40
2.5
  1
35
 50
90.00020741
  7
ARIAL
  0
LINE
  5
41D
  8
DIM49
 10
352.2849871
 20
-285.94405185
 30
0.0
 11
350.2849871
 21
-283.94405185
 31
0.0
  0
LINE
  5
41E
  8
DIM49
 10
350.5349871
 20
-319.19405185
 30
0.0
 11
352.0349871
 21
-320.69405185
 31
0.0
  0
LINE
  5
41F
  8
DIM49
 10
351.2849871
 20
-284.94405185
 30
0.0
 11
351.2849871
 21
-319.94405185
 31
0.0
  0
LINE
  5
420
  8
DIM49
 10
353.2849871
 20
-284.94405185
 30
0.0
 11
349.2849871
 21
-284.94405185
 31
0.0
  0
LINE
  5
421
  8
DIM49
 10
353.2849871
 20
-319.94405185
 30
0.0
 11
349.2849871
 21
-319.94405185
 31
0.0
  0
ENDBLK
  8
0
  0
BLOCK
  8
0
  2
_D16
 70
     0
 10
300.22615963
 20
-148.62989474
 30
0.0
  0
TEXT
  5
430
  8
TXT_DIM49
 10
300.22615963
 20
-148.62989474
 30
0.0
 40
2.5
  1
11
  7
ARIAL
  0
LINE
  5
431
  8
DIM49
 10
306.39599508
 20
-151.12989474
 30
0.0
 11
308.39599508
 21
-149.12989474
 31
0.0
  0
LINE
  5
432
  8
DIM49
 10
297.64599508
 20
-149.37989474
 30
0.0
 11
296.14599508
 21
-150.87989474
 31
0.0
  0
LINE
  5
433
  8
DIM49
 10
307.39599508
 20
-150.12989474
 30
0.0
 11
296.89599508
 21
-150.12989474
 31
0.0
  0
LINE
  5
434
  8
DIM49
 10
307.39599508
 20
-152.12989474
 30
0.0
 11
307.39599508
 21
-148.12989474
 31
0.0
  0
LINE
  5
435
  8
DIM49
 10
296.89599508
 20
-152.12989474
 30
0.0
 11
296.89599508
 21
-148.12989474
 31
0.0
  0
ENDBLK
  8
0
  0
BLOCK
  8
0
  2
_D17
 70
     0
 10
262.47615963
 20
-148.62989474
 30
0.0
  0
TEXT
  5
438
  8
TXT_DIM49
 10
262.47615963
 20
-148.62989474
 30
0.0
 40
2.5
  1
65
  7
ARIAL
  0
LINE
  5
439
  8
DIM49
 10
295.89599508
 20
-151.12989474
 30
0.0
 11
297.89599508
 21
-149.12989474
 31
0.0
  0
LINE
  5
43A
  8
DIM49
 10
232.64599508
 20
-149.37989474
 30
0.0
 11
231.14599508
 21
-150.87989474
 31
0.0
  0
LINE
  5
43B
  8
DIM49
 10
296.89599508
 20
-150.12989474
 30
0.0
 11
231.89599508
 21
-150.12989474
 31
0.0
  0
LINE
  5
43C
  8
DIM49
 10
296.89599508
 20
-152.12989474
 30
0.0
 11
296.89599508
 21
-148.12989474
 31
0.0
  0
LINE
  5
43D
  8
DIM49
 10
231.89599508
 20
-152.12989474
 30
0.0
 11
231.89599508
 21
-148.12989474
 31
0.0
  0
ENDBLK
  8
0
  0
BLOCK
  8
0
  2
_D18
 70
     0
 10
192.72615963
 20
-148.62989474
 30
0.0
  0
TEXT
  5
440
  8
TXT_DIM49
 10
192.72615963
 20
-148.62989474
 30
0.0
 40
2.5
  1
75
  7
ARIAL
  0
LINE
  5
441
  8
DIM49
 10
230.89599508
 20
-151.12989474
 30
0.0
 11
232.89599508
 21
-149.12989474
 31
0.0
  0
LINE
  5
442
  8
DIM49
 10
158.14599508
 20
-149.37989474
 30
0.0
 11
156.64599508
 21
-150.87989474
 31
0.0
  0
LINE
  5
443
  8
DIM49
 10
231.89599508
 20
-150.12989474
 30
0.0
 11
157.39599508
 21
-150.12989474
 31
0.0
  0
LINE
  5
444
  8
DIM49
 10
231.89599508
 20
-152.12989474
 30
0.0
 11
231.89599508
 21
-148.12989474
 31
0.0
  0
LINE
  5
445
  8
DIM49
 10
157.39599508
 20
-152.12989474
 30
0.0
 11
157.39599508
 21
-148.12989474
 31
0.0
  0
ENDBLK
  8
0
  0
BLOCK
  8
0
  2
_D19
 70
     0
 10
222.97642075
 20
-196.40096111
 30
0.0
  0
TEXT
  5
448
  8
TXT_DIM49
 10
222.97642075
 20
-196.40096111
 30
0.0
 40
2.5
  1
Ø
 50
90.00020741
  7
ARIAL
  0
TEXT
  5
449
  8
TXT_DIM49
 10
222.97642075
 20
-192.71588821
 30
0.0
 40
2.5
  1
14
 50
90.00020741
  7
ARIAL
  0
LINE
  5
44A
  8
DIM49
 10
223.47642075
 20
-198.63858909
 30
0.0
 11
225.47642075
 21
-200.63858909
 31
0.0
  0
LINE
  5
44B
  8
DIM49
 10
225.22642075
 20
-186.38858909
 30
0.0
 11
223.72642075
 21
-184.88858909
 31
0.0
  0
LINE
  5
44C
  8
DIM49
 10
224.47642075
 20
-199.63858909
 30
0.0
 11
224.47642075
 21
-185.63858909
 31
0.0
  0
LINE
  5
44D
  8
DIM49
 10
226.47642075
 20
-199.63858909
 30
0.0
 11
222.47642075
 21
-199.63858909
 31
0.0
  0
LINE
  5
44E
  8
DIM49
 10
226.47642075
 20
-185.63858909
 30
0.0
 11
222.47642075
 21
-185.63858909
 31
0.0
  0
ENDBLK
  8
0
  0
BLOCK
  8
0
  2
_D20
 70
     0
 10
313.68976391
 20
-212.05842454
 30
0.0
  0
TEXT
  5
451
  8
TXT_DIM49
 10
313.68976391
 20
-212.05842454
 30
0.0
 40
2.5
  1
35
 50
90.00020741
  7
ARIAL
  0
LINE
  5
452
  8
DIM49
 10
314.18976391
 20
-226.63858909
 30
0.0
 11
316.18976391
 21
-228.63858909
 31
0.0
  0
LINE
  5
453
  8
DIM49
 10
315.93976391
 20
-193.38858909
 30
0.0
 11
314.43976391
 21
-191.88858909
 31
0.0
  0
LINE
  5
454
  8
DIM49
 10
315.18976391
 20
-227.63858909
 30
0.0
 11
315.18976391
 21
-192.63858909
 31
0.0
  0
LINE
  5
455
  8
DIM49
 10
313.18976391
 20
-227.63858909
 30
0.0
 11
317.18976391
 21
-227.63858909
 31
0.0
  0
LINE
  5
456
  8
DIM49
 10
313.18976391
 20
-192.63858909
 30
0.0
 11
317.18976391
 21
-192.63858909
 31
0.0
  0
ENDBLK
  8
0
  0
BLOCK
  8
0
  2
_D21
 70
     0
 10
313.68976391
 20
-177.05842454
 30
0.0
  0
TEXT
  5
459
  8
TXT_DIM49
 10
313.68976391
 20
-177.05842454
 30
0.0
 40
2.5
  1
35
 50
90.00020741
  7
ARIAL
  0
LINE
  5
45A
  8
DIM49
 10
314.18976391
 20
-191.63858909
 30
0.0
 11
316.18976391
 21
-193.63858909
 31
0.0
  0
LINE
  5
45B
  8
DIM49
 10
315.93976391
 20
-158.38858909
 30
0.0
 11
314.43976391
 21
-156.88858909
 31
0.0
  0
LINE
  5
45C
  8
DIM49
 10
315.18976391
 20
-192.63858909
 30
0.0
 11
315.18976391
 21
-157.63858909
 31
0.0
  0
LINE
  5
45D
  8
DIM49
 10
313.18976391
 20
-192.63858909
 30
0.0
 11
317.18976391
 21
-192.63858909
 31
0.0
  0
LINE
  5
45E
  8
DIM49
 10
313.18976391
 20
-157.63858909
 30
0.0
 11
317.18976391
 21
-157.63858909
 31
0.0
  0
ENDBLK
  8
0
  0
BLOCK
  8
0
  2
_D22
 70
     0
 10
323.68976391
 20
-194.55842454
 30
0.0
  0
TEXT
  5
461
  8
TXT_DIM49
 10
323.68976391
 20
-194.55842454
 30
0.0
 40
2.5
  1
70
 50
90.00020741
  7
ARIAL
  0
LINE
  5
462
  8
DIM49
 10
326.18976391
 20
-158.63858909
 30
0.0
 11
324.18976391
 21
-156.63858909
 31
0.0
  0
LINE
  5
463
  8
DIM49
 10
324.43976391
 20
-226.88858909
 30
0.0
 11
325.93976391
 21
-228.38858909
 31
0.0
  0
LINE
  5
464
  8
DIM49
 10
325.18976391
 20
-157.63858909
 30
0.0
 11
325.18976391
 21
-227.63858909
 31
0.0
  0
LINE
  5
465
  8
DIM49
 10
323.18976391
 20
-157.63858909
 30
0.0
 11
327.18976391
 21
-157.63858909
 31
0.0
  0
LINE
  5
466
  8
DIM49
 10
323.18976391
 20
-227.63858909
 30
0.0
 11
327.18976391
 21
-227.63858909
 31
0.0
  0
ENDBLK
  8
0
  0
BLOCK
  8
0
  2
_ZBL0002_00001
 70
     0
 10
0.0
 20
0.0
 30
0.0
  0
INSERT
  5
1B8
  8
0
  2
DINA3_00002
 10
113.02419099
 20
-410.27354804
 30
0.0
  0
ENDBLK
  8
0
  0
BLOCK
  8
0
  2
DINA3_00002
 70
     0
 10
113.02419099
 20
-410.27354804
 30
0.0
  0
POLYLINE
  5
1BB
  8
0
 66
     1
 10
0.0
 20
0.0
 30
0.0
 70
     1
  0
VERTEX
  5
1BC
  8
0
 10
113.02419099
 20
-410.27354804
 30
0.0
  0
VERTEX
  5
1BD
  8
0
 10
533.02419099
 20
-410.27354804
 30
0.0
  0
VERTEX
  5
1BE
  8
0
 10
533.02419099
 20
-113.27354804
 30
0.0
  0
VERTEX
  5
1BF
  8
0
 10
113.02419099
 20
-113.27354804
 30
0.0
  0
SEQEND
  5
1C0
  8
0
  0
POLYLINE
  5
1C1
  8
0
 66
     1
 10
0.0
 20
0.0
 30
0.0
 70
     1
  0
VERTEX
  5
1C2
  8
0
 10
118.02419099
 20
-405.27354804
 30
0.0
  0
VERTEX
  5
1C3
  8
0
 10
528.02419099
 20
-405.27354804
 30
0.0
  0
VERTEX
  5
1C4
  8
0
 10
528.02419099
 20
-118.27354804
 30
0.0
  0
VERTEX
  5
1C5
  8
0
 10
118.02419099
 20
-118.27354804
 30
0.0
  0
SEQEND
  5
1C6
  8
0
  0
LINE
  5
1C7
  8
0
 10
343.02419099
 20
-405.27354804
 30
0.0
 11
343.02419099
 21
-410.27354804
 31
0.0
  0
LINE
  5
1C8
  8
0
 10
343.02419099
 20
-118.27354804
 30
0.0
 11
343.02419099
 21
-113.27354804
 31
0.0
  0
LINE
  5
1C9
  8
0
 10
133.02419099
 20
-405.27354804
 30
0.0
 11
133.02419099
 21
-410.27354804
 31
0.0
  0
LINE
  5
1CA
  8
0
 10
133.02419099
 20
-118.27354804
 30
0.0
 11
133.02419099
 21
-113.27354804
 31
0.0
  0
TEXT
  5
1CB
  8
TXT_ALL
 62
     4
 10
532.02419099
 20
-409.27354804
 30
0.0
 40
2.5
  1

 50
90.00020741
  0
POLYLINE
  5
1CC
  8
0
 66
     1
 10
0.0
 20
0.0
 30
0.0
  0
VERTEX
  5
1CD
  8
0
 10
528.02419099
 20
-128.27354804
 30
0.0
  0
VERTEX
  5
1CE
  8
0
 10
459.03089099
 20
-128.27354804
 30
0.0
  0
VERTEX
  5
1CF
  8
0
 10
459.03089099
 20
-118.27354804
 30
0.0
  0
SEQEND
  5
1D0
  8
0
  0
LINE
  5
1D1
  8
0
 10
460.93419099
 20
-385.77354804
 30
0.0
 11
321.04419099
 21
-385.77354804
 31
0.0
  0
LINE
  5
1D2
  8
0
 10
321.04419099
 20
-395.52354804
 30
0.0
 11
460.93419099
 21
-395.52354804
 31
0.0
  0
POLYLINE
  5
1D3
  8
0
 66
     1
 10
0.0
 20
0.0
 30
0.0
  0
VERTEX
  5
1D4
  8
0
 10
321.04419099
 20
-385.77354804
 30
0.0
  0
VERTEX
  5
1D5
  8
0
 10
321.04419099
 20
-395.52354804
 30
0.0
  0
VERTEX
  5
1D6
  8
0
 10
321.04419099
 20
-405.27354804
 30
0.0
  0
SEQEND
  5
1D7
  8
0
  0
POLYLINE
  5
1D8
  8
0
 66
     1
 10
0.0
 20
0.0
 30
0.0
  0
VERTEX
  5
1D9
  8
0
 10
390.98919099
 20
-385.77354804
 30
0.0
  0
VERTEX
  5
1DA
  8
0
 10
390.98919099
 20
-395.52354804
 30
0.0
  0
VERTEX
  5
1DB
  8
0
 10
390.98919099
 20
-405.27354804
 30
0.0
  0
SEQEND
  5
1DC
  8
0
  0
INSERT
  5
1DD
  8
0
  2
FLEX_00003
 10
323.04419099
 20
-390.64854804
 30
0.0
  0
INSERT
  5
1DE
  8
0
  2
FLEX_00005
 10
323.04419099
 20
-400.39854804
 30
0.0
  0
INSERT
  5
1DF
  8
0
  2
FLEX_00007
 10
392.98919099
 20
-400.39854804
 30
0.0
  0
INSERT
  5
1E0
  8
0
  2
FLEX_00009
 10
392.98919099
 20
-390.64854804
 30
0.0
  0
INSERT
  5
1E1
  8
0
  2
SCHRIFE_00011
 10
121.46615124
 20
-123.27354804
 30
0.0
  0
INSERT
  5
1E2
  8
0
  2
_B_M_P___00015
 10
509.86661707
 20
-410.16354804
 30
0.0
  0
ENDBLK
  8
0
  0
BLOCK
  8
0
  2
FLEX_00003
 70
     0
 10
323.04419099
 20
-390.64854804
 30
0.0
  0
INSERT
  5
1E5
  8
0
  2
TFIELD_00004
 10
323.04419099
 20
-390.64854804
 30
0.0
  0
ENDBLK
  8
0
  0
BLOCK
  8
0
  2
TFIELD_00004
 70
     0
 10
323.04419099
 20
-390.64854804
 30
0.0
  0
TEXT
  5
1E8
  8
TXT_ALL
 10
323.04419099
 20
-391.94854799
 30
0.0
 40
2.5999999
  1
E-mail: verkoop@jonkers-bouwmetaal.nl
  7
ARIAL
  0
ENDBLK
  8
0
  0
BLOCK
  8
0
  2
FLEX_00005
 70
     0
 10
323.04419099
 20
-400.39854804
 30
0.0
  0
INSERT
  5
1EB
  8
0
  2
TFIELD_00006
 10
323.04419099
 20
-400.39854804
 30
0.0
  0
ENDBLK
  8
0
  0
BLOCK
  8
0
  2
TFIELD_00006
 70
     0
 10
323.04419099
 20
-400.39854804
 30
0.0
  0
TEXT
  5
1EE
  8
TXT_ALL
 10
323.04419099
 20
-401.69854799
 30
0.0
 40
2.5999999
  1
Telefoon: 0527-685156
  7
ARIAL
  0
ENDBLK
  8
0
  0
BLOCK
  8
0
  2
FLEX_00007
 70
     0
 10
392.98919099
 20
-400.39854804
 30
0.0
  0
INSERT
  5
1F1
  8
0
  2
TFIELD_00008
 10
392.98919099
 20
-400.39854804
 30
0.0
  0
ENDBLK
  8
0
  0
BLOCK
  8
0
  2
TFIELD_00008
 70
     0
 10
392.98919099
 20
-400.39854804
 30
0.0
  0
TEXT
  5
1F4
  8
TXT_ALL
 10
392.98919099
 20
-401.69854799
 30
0.0
 40
2.5999999
  1
Website: www.jonkers-bouwmetaal.nl
  7
ARIAL
  0
ENDBLK
  8
0
  0
BLOCK
  8
0
  2
FLEX_00009
 70
     0
 10
392.98919099
 20
-390.64854804
 30
0.0
  0
INSERT
  5
1F7
  8
0
  2
TFIELD_00010
 10
392.98919099
 20
-390.64854804
 30
0.0
  0
ENDBLK
  8
0
  0
BLOCK
  8
0
  2
TFIELD_00010
 70
     0
 10
392.98919099
 20
-390.64854804
 30
0.0
  0
TEXT
  5
1FA
  8
TXT_ALL
 10
392.98919099
 20
-391.94854799
 30
0.0
 40
2.5999999
  1
Adres: Hoornse Hop 10, 8321 WX Urk
  7
ARIAL
  0
ENDBLK
  8
0
  0
BLOCK
  8
0
  2
SCHRIFE_00011
 70
     0
 10
121.46615124
 20
-123.27354804
 30
0.0
  0
TEXT
  5
1FD
  8
TXT_ALL
 10
121.46615124
 20
-124.52354804
 30
0.0
 40
2.5
  1
Art. nr. 91017433
  7
ARIAL
  0
TEXT
  5
1FE
  8
TXT_ALL
 10
164.20418806
 20
-124.52354804
 30
0.0
 40
2.5
  1
Omschrijving: H1508-anker 150x70 70x8
  7
ARIAL
  0
LINE
  5
1FF
  8
0
 10
528.02419099
 20
-128.27354804
 30
0.0
 11
118.02419099
 21
-128.27354804
 31
0.0
  0
LINE
  5
200
  8
0
 10
161.04419099
 20
-128.27354804
 30
0.0
 11
161.04419099
 21
-118.27354804
 31
0.0
  0
LINE
  5
201
  8
0
 10
321.04419099
 20
-128.27354804
 30
0.0
 11
321.04419099
 21
-118.27354804
 31
0.0
  0
TEXT
  5
202
  8
TXT_ALL
 10
392.03789099
 20
-124.52354804
 30
0.0
 40
2.5
  1
Behandeling: Thermisch Verzinkt
  7
ARIAL
  0
LINE
  5
203
  8
0
 10
460.93419099
 20
-385.77354804
 30
0.0
 11
528.02419099
 21
-385.77354804
 31
0.0
  0
LINE
  5
204
  8
0
 10
460.93419099
 20
-405.27354804
 30
0.0
 11
460.93419099
 21
-385.77354804
 31
0.0
  0
LINE
  5
205
  8
0
 10
460.93419099
 20
-405.27354804
 30
0.0
 11
460.93419099
 21
-385.77354804
 31
0.0
  0
TEXT
  5
206
  8
TXT_ALL
 10
255.38938908
 20
-404.11901462
 30
0.0
 40
2.5
  1

  0
TEXT
  5
207
  8
TXT_ALL
 10
376.52457205
 20
-394.02354804
 30
0.0
 40
2.5
  1

  0
POLYLINE
  5
208
  8
0
 66
     1
 10
0.0
 20
0.0
 30
0.0
  0
VERTEX
  5
209
  8
0
 10
459.03089099
 20
-128.27354804
 30
0.0
  0
VERTEX
  5
20A
  8
0
 10
390.03789099
 20
-128.27354804
 30
0.0
  0
VERTEX
  5
20B
  8
0
 10
390.03789099
 20
-118.27354804
 30
0.0
  0
SEQEND
  5
20C
  8
0
  0
TEXT
  5
20D
  8
TXT_ALL
 10
461.03089099
 20
-124.52354804
 30
0.0
 40
2.5
  1
Verpakkingshoeveelheid: 1 st.
  7
ARIAL
  0
TEXT
  5
20E
  8
TXT_ALL
 10
323.04419099
 20
-124.52354804
 30
0.0
 40
2.5
  1
Materiaal: S355
  7
ARIAL
  0
INSERT
  5
20F
  8
0
  2
FLEX_00012
 10
502.5994264
 20
-409.27305789
 30
0.0
  0
INSERT
  5
210
  8
0
  2
_B_M_P___00014
 10
461.69355831
 20
-404.48086598
 30
0.0
  0
ENDBLK
  8
0
  0
BLOCK
  8
0
  2
FLEX_00012
 70
     0
 10
502.5994264
 20
-409.27305789
 30
0.0
  0
INSERT
  5
213
  8
0
  2
TFIELD_00013
 10
495.80583822
 20
-407.77305789
 30
0.0
  0
ENDBLK
  8
0
  0
BLOCK
  8
0
  2
TFIELD_00013
 70
     0
 10
495.80583822
 20
-407.77305789
 30
0.0
  0
TEXT
  5
216
  8
TXT_ALL
 10
495.80583822
 20
-408.52305789
 30
0.0
 40
1.5
  1
Onderdeel van
  7
ARIAL
  0
ENDBLK
  8
0
  0
BLOCK
  8
0
  2
_B_M_P___00014
 70
     0
 10
461.69355831
 20
-404.48086598
 30
0.0
  0
ENDBLK
  8
0
  0
BLOCK
  8
0
  2
_B_M_P___00015
 70
     0
 10
509.86661707
 20
-410.16354804
 30
0.0
  0
ENDBLK
  8
0
  0
BLOCK
  8
0
  2
_ANS0003_00016
 70
     0
 10
0.0
 20
0.0
 30
0.0
  0
INSERT
  5
21D
  8
0
  2
_A3D0003_00017
 10
0.0
 20
0.0
 30
0.0
  0
ENDBLK
  8
0
  0
BLOCK
  8
0
  2
_A3D0003_00017
 70
     0
 10
0.0
 20
0.0
 30
0.0
  0
INSERT
  5
220
  8
0
  2
PLAATWERK__D___8MM_00018
 10
0.0
 20
0.0
 30
0.0
  0
ENDBLK
  8
0
  0
BLOCK
  8
0
  2
PLAATWERK__D___8MM_00018
 70
     0
 10
0.0
 20
0.0
 30
0.0
  0
INSERT
  5
223
  8
0
  2
SHEET_FLANGE_00019
 10
0.0
 20
0.0
 30
0.0
  0
INSERT
  5
224
  8
0
  2
BEND_ZONE_00023
 10
0.0
 20
0.0
 30
0.0
  0
INSERT
  5
225
  8
0
  2
SHEET_FLANGE_00025
 10
0.0
 20
0.0
 30
0.0
  0
ENDBLK
  8
0
  0
BLOCK
  8
0
  2
SHEET_FLANGE_00019
 70
     0
 10
0.0
 20
0.0
 30
0.0
  0
INSERT
  5
228
  8
0
  2
SHEET_FLANGE_00020
 10
173.39599508
 20
-319.94405185
 30
0.0
  0
INSERT
  5
229
  8
0
  2
_00021
 10
0.0
 20
0.0
 30
0.0
  0
ENDBLK
  8
0
  0
BLOCK
  8
0
  2
SHEET_FLANGE_00020
 70
     0
 10
173.39599508
 20
-319.94405185
 30
0.0
  0
LINE
  5
22C
  8
LE_ALL
  6
DOT
 62
     3
 10
173.39599508
 20
-319.94405185
 30
0.0
 11
173.39599508
 21
-319.94405185
 31
0.0
  0
LINE
  5
22D
  8
LE_ALL
  6
DOT
 62
     3
 10
173.39599508
 20
-311.94405185
 30
0.0
 11
173.39599508
 21
-311.94405185
 31
0.0
  0
LINE
  5
22E
  8
LE_ALL
  6
DOT
 62
     3
 10
307.39599508
 20
-319.94405185
 30
0.0
 11
307.39599508
 21
-319.94405185
 31
0.0
  0
LINE
  5
22F
  8
LE_ALL
  6
DOT
 62
     3
 10
307.39599508
 20
-311.94405185
 30
0.0
 11
307.39599508
 21
-311.94405185
 31
0.0
  0
LINE
  5
230
  8
LE_ALL
  6
DOT
 62
     3
 10
289.89599508
 20
-319.94405185
 30
0.0
 11
289.89599508
 21
-311.94405185
 31
0.0
  0
LINE
  5
231
  8
LE_ALL
  6
DOT
 62
     3
 10
238.89599508
 20
-319.94405185
 30
0.0
 11
238.89599508
 21
-311.94405185
 31
0.0
  0
LINE
  5
232
  8
LE_ALL
  6
DOT
 62
     3
 10
231.89599508
 20
-319.94405185
 30
0.0
 11
231.89599508
 21
-311.94405185
 31
0.0
  0
LINE
  5
233
  8
LE_ALL
  6
DOT
 62
     3
 10
296.89599508
 20
-319.94405185
 30
0.0
 11
296.89599508
 21
-311.94405185
 31
0.0
  0
LINE
  5
234
  8
LE_ALL
 10
307.39599508
 20
-311.94405185
 30
0.0
 11
173.39599508
 21
-311.94405185
 31
0.0
  0
LINE
  5
235
  8
LE_ALL
 10
307.39599508
 20
-319.94405185
 30
0.0
 11
307.39599508
 21
-311.94405185
 31
0.0
  0
LINE
  5
236
  8
LE_ALL
 10
173.39599508
 20
-319.94405185
 30
0.0
 11
307.39599508
 21
-319.94405185
 31
0.0
  0
ENDBLK
  8
0
  0
BLOCK
  8
0
  2
_00021
 70
     0
 10
0.0
 20
0.0
 30
0.0
  0
INSERT
  5
239
  8
0
  2
_00022
 10
238.89599508
 20
-308.94405185
 30
0.0
  0
ENDBLK
  8
0
  0
BLOCK
  8
0
  2
_00022
 70
     0
 10
238.89599508
 20
-308.94405185
 30
0.0
  0
LINE
  5
23C
  8
LE_ALL
  6
STRICHPUNKT2
 62
     1
 10
238.89599508
 20
-308.94405185
 30
0.0
 11
238.89599508
 21
-322.94405185
 31
0.0
  0
LINE
  5
23D
  8
LE_ALL
  6
STRICHPUNKT2
 62
     1
 10
289.89599508
 20
-308.94405185
 30
0.0
 11
289.89599508
 21
-322.94405185
 31
0.0
  0
ENDBLK
  8
0
  0
BLOCK
  8
0
  2
BEND_ZONE_00023
 70
     0
 10
0.0
 20
0.0
 30
0.0
  0
INSERT
  5
240
  8
0
  2
BEND_ZONE_00024
 10
157.39599508
 20
-303.94405185
 30
0.0
  0
ENDBLK
  8
0
  0
BLOCK
  8
0
  2
BEND_ZONE_00024
 70
     0
 10
157.39599508
 20
-303.94405185
 30
0.0
  0
LINE
  5
243
  8
LE_ALL
  6
DOT
 62
     3
 10
157.39599508
 20
-303.94405185
 30
0.0
 11
157.39599508
 21
-303.94405185
 31
0.0
  0
LINE
  5
244
  8
LE_ALL
  6
DOT
 62
     3
 10
165.39599508
 20
-303.94405185
 30
0.0
 11
165.39599508
 21
-303.94405185
 31
0.0
  0
LINE
  5
245
  8
LE_ALL
  6
DOT
 62
     3
 10
173.39599508
 20
-319.94405185
 30
0.0
 11
173.39599508
 21
-319.94405185
 31
0.0
  0
LINE
  5
246
  8
LE_ALL
  6
DOT
 62
     3
 10
173.39599508
 20
-311.94405185
 30
0.0
 11
173.39599508
 21
-311.94405185
 31
0.0
  0
ARC
  5
247
  8
LE_ALL
 10
173.39599508
 20
-303.94405185
 30
0.0
 40
16.0
 50
180.0
 51
-90.0
  0
ARC
  5
248
  8
LE_ALL
 10
173.39599508
 20
-303.94405185
 30
0.0
 40
8.0
 50
180.0
 51
-90.0
  0
ENDBLK
  8
0
  0
BLOCK
  8
0
  2
SHEET_FLANGE_00025
 70
     0
 10
0.0
 20
0.0
 30
0.0
  0
INSERT
  5
24B
  8
0
  2
SHEET_FLANGE_00026
 10
157.39599508
 20
-303.94405185
 30
0.0
  0
INSERT
  5
24C
  8
0
  2
_00027
 10
0.0
 20
0.0
 30
0.0
  0
ENDBLK
  8
0
  0
BLOCK
  8
0
  2
SHEET_FLANGE_00026
 70
     0
 10
157.39599508
 20
-303.94405185
 30
0.0
  0
LINE
  5
24F
  8
LE_ALL
  6
DOT
 62
     3
 10
157.39599508
 20
-303.94405185
 30
0.0
 11
157.39599508
 21
-303.94405185
 31
0.0
  0
LINE
  5
250
  8
LE_ALL
  6
DOT
 62
     3
 10
165.39599508
 20
-303.94405185
 30
0.0
 11
165.39599508
 21
-303.94405185
 31
0.0
  0
LINE
  5
251
  8
LE_ALL
  6
DOT
 62
     3
 10
157.39599508
 20
-249.94405185
 30
0.0
 11
157.39599508
 21
-249.94405185
 31
0.0
  0
LINE
  5
252
  8
LE_ALL
  6
DOT
 62
     3
 10
165.39599508
 20
-249.94405185
 30
0.0
 11
165.39599508
 21
-249.94405185
 31
0.0
  0
LINE
  5
253
  8
LE_ALL
  6
DOT
 62
     3
 10
165.39599508
 20
-259.94405185
 30
0.0
 11
157.39599508
 21
-259.94405185
 31
0.0
  0
LINE
  5
254
  8
LE_ALL
  6
DOT
 62
     3
 10
165.39599508
 20
-269.94405185
 30
0.0
 11
157.39599508
 21
-269.94405185
 31
0.0
  0
LINE
  5
255
  8
LE_ALL
  6
DOT
 62
     3
 10
165.39599508
 20
-279.94405185
 30
0.0
 11
157.39599508
 21
-279.94405185
 31
0.0
  0
LINE
  5
256
  8
LE_ALL
  6
DOT
 62
     3
 10
165.39599508
 20
-289.94405185
 30
0.0
 11
157.39599508
 21
-289.94405185
 31
0.0
  0
LINE
  5
257
  8
LE_ALL
  6
DOT
 62
     3
 10
165.39599508
 20
-268.94405185
 30
0.0
 11
157.39599508
 21
-268.94405185
 31
0.0
  0
LINE
  5
258
  8
LE_ALL
  6
DOT
 62
     3
 10
165.39599508
 20
-280.94405185
 30
0.0
 11
157.39599508
 21
-280.94405185
 31
0.0
  0
POLYLINE
  5
259
  8
LE_ALL
 66
     1
 10
0.0
 20
0.0
 30
0.0
  0
VERTEX
  5
25A
  8
LE_ALL
 10
157.39599508
 20
-249.94405185
 30
0.0
  0
VERTEX
  5
25B
  8
LE_ALL
 10
165.39599508
 20
-249.94405185
 30
0.0
  0
VERTEX
  5
25C
  8
LE_ALL
 10
165.39599508
 20
-303.94405185
 30
0.0
  0
SEQEND
  5
25D
  8
LE_ALL
  0
LINE
  5
25E
  8
LE_ALL
 10
157.39599508
 20
-303.94405185
 30
0.0
 11
157.39599508
 21
-249.94405185
 31
0.0
  0
ENDBLK
  8
0
  0
BLOCK
  8
0
  2
_00027
 70
     0
 10
0.0
 20
0.0
 30
0.0
  0
INSERT
  5
261
  8
0
  2
_00028
 10
167.89599508
 20
-264.94405185
 30
0.0
  0
ENDBLK
  8
0
  0
BLOCK
  8
0
  2
_00028
 70
     0
 10
167.89599508
 20
-264.94405185
 30
0.0
  0
LINE
  5
264
  8
LE_ALL
  6
STRICHPUNKT2
 62
     1
 10
167.89599508
 20
-264.94405185
 30
0.0
 11
154.89599508
 21
-264.94405185
 31
0.0
  0
LINE
  5
265
  8
LE_ALL
  6
STRICHPUNKT2
 62
     1
 10
168.39599508
 20
-274.94405185
 30
0.0
 11
154.39599508
 21
-274.94405185
 31
0.0
  0
LINE
  5
266
  8
LE_ALL
  6
STRICHPUNKT2
 62
     1
 10
167.89599508
 20
-284.94405185
 30
0.0
 11
154.89599508
 21
-284.94405185
 31
0.0
  0
ENDBLK
  8
0
  0
BLOCK
  8
0
  2
_ANS0004_00029
 70
     0
 10
0.0
 20
0.0
 30
0.0
  0
INSERT
  5
269
  8
0
  2
_A3D0004_00030
 10
0.0
 20
0.0
 30
0.0
  0
ENDBLK
  8
0
  0
BLOCK
  8
0
  2
_A3D0004_00030
 70
     0
 10
0.0
 20
0.0
 30
0.0
  0
INSERT
  5
26C
  8
0
  2
PLAATWERK__D___8MM_00031
 10
0.0
 20
0.0
 30
0.0
  0
ENDBLK
  8
0
  0
BLOCK
  8
0
  2
PLAATWERK__D___8MM_00031
 70
     0
 10
0.0
 20
0.0
 30
0.0
  0
INSERT
  5
26F
  8
0
  2
SHEET_FLANGE_00032
 10
0.0
 20
0.0
 30
0.0
  0
INSERT
  5
270
  8
0
  2
BEND_ZONE_00036
 10
0.0
 20
0.0
 30
0.0
  0
INSERT
  5
271
  8
0
  2
SHEET_FLANGE_00038
 10
0.0
 20
0.0
 30
0.0
  0
ENDBLK
  8
0
  0
BLOCK
  8
0
  2
SHEET_FLANGE_00032
 70
     0
 10
0.0
 20
0.0
 30
0.0
  0
INSERT
  5
274
  8
0
  2
SHEET_FLANGE_00033
 10
357.20199386
 20
-319.94405185
 30
0.0
  0
INSERT
  5
275
  8
0
  2
_00034
 10
0.0
 20
0.0
 30
0.0
  0
ENDBLK
  8
0
  0
BLOCK
  8
0
  2
SHEET_FLANGE_00033
 70
     0
 10
357.20199386
 20
-319.94405185
 30
0.0
  0
LINE
  5
278
  8
LE_ALL
  6
DOT
 62
     3
 10
357.20199386
 20
-319.94405185
 30
0.0
 11
357.20199386
 21
-319.94405185
 31
0.0
  0
LINE
  5
279
  8
LE_ALL
  6
DOT
 62
     3
 10
357.20199386
 20
-311.94405185
 30
0.0
 11
357.20199386
 21
-311.94405185
 31
0.0
  0
LINE
  5
27A
  8
LE_ALL
  6
DOT
 62
     3
 10
427.20199386
 20
-319.94405185
 30
0.0
 11
427.20199386
 21
-319.94405185
 31
0.0
  0
LINE
  5
27B
  8
LE_ALL
  6
DOT
 62
     3
 10
427.20199386
 20
-311.94405185
 30
0.0
 11
427.20199386
 21
-311.94405185
 31
0.0
  0
LINE
  5
27C
  8
LE_ALL
  6
DOT
 62
     3
 10
385.20199386
 20
-319.94405185
 30
0.0
 11
385.20199386
 21
-319.94405185
 31
0.0
  0
LINE
  5
27D
  8
LE_ALL
  6
DOT
 62
     3
 10
399.20199386
 20
-319.94405185
 30
0.0
 11
399.20199386
 21
-319.94405185
 31
0.0
  0
LINE
  5
27E
  8
LE_ALL
  6
DOT
 62
     3
 10
385.20199386
 20
-311.94405185
 30
0.0
 11
385.20199386
 21
-311.94405185
 31
0.0
  0
LINE
  5
27F
  8
LE_ALL
  6
DOT
 62
     3
 10
385.20199386
 20
-319.94405185
 30
0.0
 11
385.20199386
 21
-311.94405185
 31
0.0
  0
LINE
  5
280
  8
LE_ALL
  6
DOT
 62
     3
 10
399.20199386
 20
-311.94405185
 30
0.0
 11
399.20199386
 21
-311.94405185
 31
0.0
  0
LINE
  5
281
  8
LE_ALL
  6
DOT
 62
     3
 10
399.20199386
 20
-319.94405185
 30
0.0
 11
399.20199386
 21
-311.94405185
 31
0.0
  0
LINE
  5
282
  8
LE_ALL
 10
357.20199386
 20
-319.94405185
 30
0.0
 11
357.20199386
 21
-311.94405185
 31
0.0
  0
LINE
  5
283
  8
LE_ALL
 10
427.20199386
 20
-311.94405185
 30
0.0
 11
357.20199386
 21
-311.94405185
 31
0.0
  0
LINE
  5
284
  8
LE_ALL
 10
427.20199386
 20
-319.94405185
 30
0.0
 11
427.20199386
 21
-311.94405185
 31
0.0
  0
LINE
  5
285
  8
LE_ALL
 10
357.20199386
 20
-319.94405185
 30
0.0
 11
427.20199386
 21
-319.94405185
 31
0.0
  0
ENDBLK
  8
0
  0
BLOCK
  8
0
  2
_00034
 70
     0
 10
0.0
 20
0.0
 30
0.0
  0
INSERT
  5
288
  8
0
  2
_00035
 10
392.20199386
 20
-308.94405185
 30
0.0
  0
ENDBLK
  8
0
  0
BLOCK
  8
0
  2
_00035
 70
     0
 10
392.20199386
 20
-308.94405185
 30
0.0
  0
LINE
  5
28B
  8
LE_ALL
  6
STRICHPUNKT2
 62
     1
 10
392.20199386
 20
-308.94405185
 30
0.0
 11
392.20199386
 21
-322.94405185
 31
0.0
  0
LINE
  5
28C
  8
LE_ALL
  6
STRICHPUNKT2
 62
     1
 10
392.20199386
 20
-308.94405185
 30
0.0
 11
392.20199386
 21
-322.94405185
 31
0.0
  0
ENDBLK
  8
0
  0
BLOCK
  8
0
  2
BEND_ZONE_00036
 70
     0
 10
0.0
 20
0.0
 30
0.0
  0
INSERT
  5
28F
  8
0
  2
BEND_ZONE_00037
 10
357.20199386
 20
-311.94405185
 30
0.0
  0
ENDBLK
  8
0
  0
BLOCK
  8
0
  2
BEND_ZONE_00037
 70
     0
 10
357.20199386
 20
-311.94405185
 30
0.0
  0
LINE
  5
292
  8
LE_ALL
  6
DOT
 62
     3
 10
357.20199386
 20
-311.94405185
 30
0.0
 11
427.20199386
 21
-311.94405185
 31
0.0
  0
LINE
  5
293
  8
LE_ALL
 10
357.20199386
 20
-303.94405185
 30
0.0
 11
357.20199386
 21
-311.94405185
 31
0.0
  0
LINE
  5
294
  8
LE_ALL
 10
357.20199386
 20
-303.94405185
 30
0.0
 11
427.20199386
 21
-303.94405185
 31
0.0
  0
LINE
  5
295
  8
LE_ALL
 10
427.20199386
 20
-311.94405185
 30
0.0
 11
427.20199386
 21
-303.94405185
 31
0.0
  0
ENDBLK
  8
0
  0
BLOCK
  8
0
  2
SHEET_FLANGE_00038
 70
     0
 10
0.0
 20
0.0
 30
0.0
  0
INSERT
  5
298
  8
0
  2
SHEET_FLANGE_00039
 10
427.20199386
 20
-249.94405185
 30
0.0
  0
INSERT
  5
299
  8
0
  2
_00040
 10
0.0
 20
0.0
 30
0.0
  0
ENDBLK
  8
0
  0
BLOCK
  8
0
  2
SHEET_FLANGE_00039
 70
     0
 10
427.20199386
 20
-249.94405185
 30
0.0
  0
LINE
  5
29C
  8
LE_ALL
  6
DOT
 62
     3
 10
427.20199386
 20
-249.94405185
 30
0.0
 11
427.20199386
 21
-249.94405185
 31
0.0
  0
LINE
  5
29D
  8
LE_ALL
  6
DOT
 62
     3
 10
357.20199386
 20
-249.94405185
 30
0.0
 11
357.20199386
 21
-249.94405185
 31
0.0
  0
CIRCLE
  5
29E
  8
LE_ALL
 10
392.20199386
 20
-274.94405185
 30
0.0
 40
6.0
  0
CIRCLE
  5
29F
  8
LE_ALL
 10
412.20199386
 20
-284.94405185
 30
0.0
 40
5.0
  0
CIRCLE
  5
2A0
  8
LE_ALL
 10
372.20199386
 20
-264.94405185
 30
0.0
 40
5.0
  0
POLYLINE
  5
2A1
  8
LE_ALL
 66
     1
 10
0.0
 20
0.0
 30
0.0
 70
     1
  0
VERTEX
  5
2A2
  8
LE_ALL
 10
427.20199386
 20
-303.94405185
 30
0.0
  0
VERTEX
  5
2A3
  8
LE_ALL
 10
427.20199386
 20
-249.94405185
 30
0.0
  0
VERTEX
  5
2A4
  8
LE_ALL
 10
357.20199386
 20
-249.94405185
 30
0.0
  0
VERTEX
  5
2A5
  8
LE_ALL
 10
357.20199386
 20
-303.94405185
 30
0.0
  0
SEQEND
  5
2A6
  8
LE_ALL
  0
ENDBLK
  8
0
  0
BLOCK
  8
0
  2
_00040
 70
     0
 10
0.0
 20
0.0
 30
0.0
  0
INSERT
  5
2A9
  8
0
  2
_00041
 10
372.20199386
 20
-264.94405185
 30
0.0
  0
ENDBLK
  8
0
  0
BLOCK
  8
0
  2
_00041
 70
     0
 10
372.20199386
 20
-264.94405185
 30
0.0
  0
LINE
  5
2AC
  8
LE_ALL
  6
STRICHPUNKT2
 62
     1
 10
372.20199386
 20
-264.94405185
 30
0.0
 11
379.70199386
 21
-264.94405185
 31
0.0
  0
LINE
  5
2AD
  8
LE_ALL
  6
STRICHPUNKT2
 62
     1
 10
372.20199386
 20
-264.94405185
 30
0.0
 11
364.70199386
 21
-264.94405185
 31
0.0
  0
LINE
  5
2AE
  8
LE_ALL
  6
STRICHPUNKT2
 62
     1
 10
372.20199386
 20
-264.94405185
 30
0.0
 11
372.20199386
 21
-257.44405185
 31
0.0
  0
LINE
  5
2AF
  8
LE_ALL
  6
STRICHPUNKT2
 62
     1
 10
372.20199386
 20
-264.94405185
 30
0.0
 11
372.20199386
 21
-272.44405185
 31
0.0
  0
LINE
  5
2B0
  8
LE_ALL
  6
STRICHPUNKT2
 62
     1
 10
372.20199386
 20
-264.94405185
 30
0.0
 11
379.70199386
 21
-264.94405185
 31
0.0
  0
LINE
  5
2B1
  8
LE_ALL
  6
STRICHPUNKT2
 62
     1
 10
372.20199386
 20
-264.94405185
 30
0.0
 11
364.70199386
 21
-264.94405185
 31
0.0
  0
LINE
  5
2B2
  8
LE_ALL
  6
STRICHPUNKT2
 62
     1
 10
372.20199386
 20
-264.94405185
 30
0.0
 11
372.20199386
 21
-257.44405185
 31
0.0
  0
LINE
  5
2B3
  8
LE_ALL
  6
STRICHPUNKT2
 62
     1
 10
372.20199386
 20
-264.94405185
 30
0.0
 11
372.20199386
 21
-272.44405185
 31
0.0
  0
LINE
  5
2B4
  8
LE_ALL
  6
STRICHPUNKT2
 62
     1
 10
412.20199386
 20
-284.94405185
 30
0.0
 11
419.70199386
 21
-284.94405185
 31
0.0
  0
LINE
  5
2B5
  8
LE_ALL
  6
STRICHPUNKT2
 62
     1
 10
412.20199386
 20
-284.94405185
 30
0.0
 11
404.70199386
 21
-284.94405185
 31
0.0
  0
LINE
  5
2B6
  8
LE_ALL
  6
STRICHPUNKT2
 62
     1
 10
412.20199386
 20
-284.94405185
 30
0.0
 11
412.20199386
 21
-277.44405185
 31
0.0
  0
LINE
  5
2B7
  8
LE_ALL
  6
STRICHPUNKT2
 62
     1
 10
412.20199386
 20
-284.94405185
 30
0.0
 11
412.20199386
 21
-292.44405185
 31
0.0
  0
LINE
  5
2B8
  8
LE_ALL
  6
STRICHPUNKT2
 62
     1
 10
412.20199386
 20
-284.94405185
 30
0.0
 11
419.70199386
 21
-284.94405185
 31
0.0
  0
LINE
  5
2B9
  8
LE_ALL
  6
STRICHPUNKT2
 62
     1
 10
412.20199386
 20
-284.94405185
 30
0.0
 11
404.70199386
 21
-284.94405185
 31
0.0
  0
LINE
  5
2BA
  8
LE_ALL
  6
STRICHPUNKT2
 62
     1
 10
412.20199386
 20
-284.94405185
 30
0.0
 11
412.20199386
 21
-277.44405185
 31
0.0
  0
LINE
  5
2BB
  8
LE_ALL
  6
STRICHPUNKT2
 62
     1
 10
412.20199386
 20
-284.94405185
 30
0.0
 11
412.20199386
 21
-292.44405185
 31
0.0
  0
LINE
  5
2BC
  8
LE_ALL
  6
STRICHPUNKT2
 62
     1
 10
392.20199386
 20
-274.94405185
 30
0.0
 11
401.20199386
 21
-274.94405185
 31
0.0
  0
LINE
  5
2BD
  8
LE_ALL
  6
STRICHPUNKT2
 62
     1
 10
392.20199386
 20
-274.94405185
 30
0.0
 11
383.20199386
 21
-274.94405185
 31
0.0
  0
LINE
  5
2BE
  8
LE_ALL
  6
STRICHPUNKT2
 62
     1
 10
392.20199386
 20
-274.94405185
 30
0.0
 11
392.20199386
 21
-265.94405185
 31
0.0
  0
LINE
  5
2BF
  8
LE_ALL
  6
STRICHPUNKT2
 62
     1
 10
392.20199386
 20
-274.94405185
 30
0.0
 11
392.20199386
 21
-283.94405185
 31
0.0
  0
LINE
  5
2C0
  8
LE_ALL
  6
STRICHPUNKT2
 62
     1
 10
392.20199386
 20
-274.94405185
 30
0.0
 11
401.20199386
 21
-274.94405185
 31
0.0
  0
LINE
  5
2C1
  8
LE_ALL
  6
STRICHPUNKT2
 62
     1
 10
392.20199386
 20
-274.94405185
 30
0.0
 11
383.20199386
 21
-274.94405185
 31
0.0
  0
LINE
  5
2C2
  8
LE_ALL
  6
STRICHPUNKT2
 62
     1
 10
392.20199386
 20
-274.94405185
 30
0.0
 11
392.20199386
 21
-265.94405185
 31
0.0
  0
LINE
  5
2C3
  8
LE_ALL
  6
STRICHPUNKT2
 62
     1
 10
392.20199386
 20
-274.94405185
 30
0.0
 11
392.20199386
 21
-283.94405185
 31
0.0
  0
ENDBLK
  8
0
  0
BLOCK
  8
0
  2
_ANS0005_00042
 70
     0
 10
0.0
 20
0.0
 30
0.0
  0
INSERT
  5
2C6
  8
0
  2
_A3D0005_00043
 10
0.0
 20
0.0
 30
0.0
  0
ENDBLK
  8
0
  0
BLOCK
  8
0
  2
_A3D0005_00043
 70
     0
 10
0.0
 20
0.0
 30
0.0
  0
INSERT
  5
2C9
  8
0
  2
PLAATWERK__D___8MM_00044
 10
0.0
 20
0.0
 30
0.0
  0
ENDBLK
  8
0
  0
BLOCK
  8
0
  2
PLAATWERK__D___8MM_00044
 70
     0
 10
0.0
 20
0.0
 30
0.0
  0
INSERT
  5
2CC
  8
0
  2
SHEET_FLANGE_00045
 10
0.0
 20
0.0
 30
0.0
  0
INSERT
  5
2CD
  8
0
  2
BEND_ZONE_00049
 10
0.0
 20
0.0
 30
0.0
  0
INSERT
  5
2CE
  8
0
  2
SHEET_FLANGE_00051
 10
0.0
 20
0.0
 30
0.0
  0
ENDBLK
  8
0
  0
BLOCK
  8
0
  2
SHEET_FLANGE_00045
 70
     0
 10
0.0
 20
0.0
 30
0.0
  0
INSERT
  5
2D1
  8
0
  2
SHEET_FLANGE_00046
 10
307.39599508
 20
-227.63858909
 30
0.0
  0
INSERT
  5
2D2
  8
0
  2
_00047
 10
0.0
 20
0.0
 30
0.0
  0
ENDBLK
  8
0
  0
BLOCK
  8
0
  2
SHEET_FLANGE_00046
 70
     0
 10
307.39599508
 20
-227.63858909
 30
0.0
  0
LINE
  5
2D5
  8
LE_ALL
  6
DOT
 62
     3
 10
307.39599508
 20
-227.63858909
 30
0.0
 11
307.39599508
 21
-227.63858909
 31
0.0
  0
LINE
  5
2D6
  8
LE_ALL
  6
DOT
 62
     3
 10
307.39599508
 20
-157.63858909
 30
0.0
 11
307.39599508
 21
-157.63858909
 31
0.0
  0
LINE
  5
2D7
  8
LE_ALL
  6
DOT
 62
     3
 10
289.89599508
 20
-199.63858909
 30
0.0
 11
289.89599508
 21
-199.63858909
 31
0.0
  0
LINE
  5
2D8
  8
LE_ALL
  6
DOT
 62
     3
 10
238.89599508
 20
-199.63858909
 30
0.0
 11
238.89599508
 21
-199.63858909
 31
0.0
  0
LINE
  5
2D9
  8
LE_ALL
  6
DOT
 62
     3
 10
238.89599508
 20
-185.63858909
 30
0.0
 11
238.89599508
 21
-185.63858909
 31
0.0
  0
LINE
  5
2DA
  8
LE_ALL
  6
DOT
 62
     3
 10
289.89599508
 20
-185.63858909
 30
0.0
 11
289.89599508
 21
-185.63858909
 31
0.0
  0
POLYLINE
  5
2DB
  8
LE_ALL
 66
     1
 10
0.0
 20
0.0
 30
0.0
 70
     1
  0
VERTEX
  5
2DC
  8
LE_ALL
 10
238.89599508
 20
-199.63858909
 30
0.0
 42
-1.0
  0
VERTEX
  5
2DD
  8
LE_ALL
 10
238.89599508
 20
-185.63858909
 30
0.0
  0
VERTEX
  5
2DE
  8
LE_ALL
 10
289.89599508
 20
-185.63858909
 30
0.0
 42
-1.0
  0
VERTEX
  5
2DF
  8
LE_ALL
 10
289.89599508
 20
-199.63858909
 30
0.0
  0
SEQEND
  5
2E0
  8
LE_ALL
  0
POLYLINE
  5
2E1
  8
LE_ALL
 66
     1
 10
0.0
 20
0.0
 30
0.0
 70
     1
  0
VERTEX
  5
2E2
  8
LE_ALL
 10
307.39599508
 20
-227.63858909
 30
0.0
  0
VERTEX
  5
2E3
  8
LE_ALL
 10
173.39599508
 20
-227.63858909
 30
0.0
  0
VERTEX
  5
2E4
  8
LE_ALL
 10
173.39599508
 20
-157.63858909
 30
0.0
  0
VERTEX
  5
2E5
  8
LE_ALL
 10
307.39599508
 20
-157.63858909
 30
0.0
  0
SEQEND
  5
2E6
  8
LE_ALL
  0
ENDBLK
  8
0
  0
BLOCK
  8
0
  2
_00047
 70
     0
 10
0.0
 20
0.0
 30
0.0
  0
INSERT
  5
2E9
  8
0
  2
_00048
 10
228.89599508
 20
-192.63858909
 30
0.0
  0
ENDBLK
  8
0
  0
BLOCK
  8
0
  2
_00048
 70
     0
 10
228.89599508
 20
-192.63858909
 30
0.0
  0
LINE
  5
2EC
  8
LE_ALL
  6
STRICHPUNKT2
 62
     1
 10
228.89599508
 20
-192.63858909
 30
0.0
 11
299.89599508
 21
-192.63858909
 31
0.0
  0
LINE
  5
2ED
  8
LE_ALL
  6
STRICHPUNKT2
 62
     1
 10
238.89599508
 20
-202.63858909
 30
0.0
 11
238.89599508
 21
-182.63858909
 31
0.0
  0
LINE
  5
2EE
  8
LE_ALL
  6
STRICHPUNKT2
 62
     1
 10
289.89599508
 20
-202.63858909
 30
0.0
 11
289.89599508
 21
-182.63858909
 31
0.0
  0
LINE
  5
2EF
  8
LE_ALL
  6
STRICHPUNKT2
 62
     1
 10
228.89599508
 20
-192.63858909
 30
0.0
 11
299.89599508
 21
-192.63858909
 31
0.0
  0
LINE
  5
2F0
  8
LE_ALL
  6
STRICHPUNKT2
 62
     1
 10
238.89599508
 20
-202.63858909
 30
0.0
 11
238.89599508
 21
-182.63858909
 31
0.0
  0
LINE
  5
2F1
  8
LE_ALL
  6
STRICHPUNKT2
 62
     1
 10
289.89599508
 20
-202.63858909
 30
0.0
 11
289.89599508
 21
-182.63858909
 31
0.0
  0
ENDBLK
  8
0
  0
BLOCK
  8
0
  2
BEND_ZONE_00049
 70
     0
 10
0.0
 20
0.0
 30
0.0
  0
INSERT
  5
2F4
  8
0
  2
BEND_ZONE_00050
 10
165.39599508
 20
-227.63858909
 30
0.0
  0
ENDBLK
  8
0
  0
BLOCK
  8
0
  2
BEND_ZONE_00050
 70
     0
 10
165.39599508
 20
-227.63858909
 30
0.0
  0
LINE
  5
2F7
  8
LE_ALL
  6
DOT
 62
     3
 10
165.39599508
 20
-227.63858909
 30
0.0
 11
165.39599508
 21
-157.63858909
 31
0.0
  0
POLYLINE
  5
2F8
  8
LE_ALL
 66
     1
 10
0.0
 20
0.0
 30
0.0
  0
VERTEX
  5
2F9
  8
LE_ALL
 10
165.39599508
 20
-227.63858909
 30
0.0
  0
VERTEX
  5
2FA
  8
LE_ALL
 10
173.39599508
 20
-227.63858909
 30
0.0
  0
VERTEX
  5
2FB
  8
LE_ALL
 10
173.39599508
 20
-157.63858909
 30
0.0
  0
VERTEX
  5
2FC
  8
LE_ALL
 10
165.39599508
 20
-157.63858909
 30
0.0
  0
SEQEND
  5
2FD
  8
LE_ALL
  0
ENDBLK
  8
0
  0
BLOCK
  8
0
  2
SHEET_FLANGE_00051
 70
     0
 10
0.0
 20
0.0
 30
0.0
  0
INSERT
  5
300
  8
0
  2
SHEET_FLANGE_00052
 10
157.39599508
 20
-157.63858909
 30
0.0
  0
INSERT
  5
301
  8
0
  2
_00053
 10
0.0
 20
0.0
 30
0.0
  0
ENDBLK
  8
0
  0
BLOCK
  8
0
  2
SHEET_FLANGE_00052
 70
     0
 10
157.39599508
 20
-157.63858909
 30
0.0
  0
LINE
  5
304
  8
LE_ALL
  6
DOT
 62
     3
 10
157.39599508
 20
-157.63858909
 30
0.0
 11
157.39599508
 21
-157.63858909
 31
0.0
  0
LINE
  5
305
  8
LE_ALL
  6
DOT
 62
     3
 10
165.39599508
 20
-157.63858909
 30
0.0
 11
165.39599508
 21
-157.63858909
 31
0.0
  0
LINE
  5
306
  8
LE_ALL
  6
DOT
 62
     3
 10
157.39599508
 20
-227.63858909
 30
0.0
 11
157.39599508
 21
-227.63858909
 31
0.0
  0
LINE
  5
307
  8
LE_ALL
  6
DOT
 62
     3
 10
165.39599508
 20
-227.63858909
 30
0.0
 11
165.39599508
 21
-227.63858909
 31
0.0
  0
LINE
  5
308
  8
LE_ALL
  6
DOT
 62
     3
 10
165.39599508
 20
-207.63858909
 30
0.0
 11
157.39599508
 21
-207.63858909
 31
0.0
  0
LINE
  5
309
  8
LE_ALL
  6
DOT
 62
     3
 10
165.39599508
 20
-217.63858909
 30
0.0
 11
157.39599508
 21
-217.63858909
 31
0.0
  0
LINE
  5
30A
  8
LE_ALL
  6
DOT
 62
     3
 10
165.39599508
 20
-167.63858909
 30
0.0
 11
157.39599508
 21
-167.63858909
 31
0.0
  0
LINE
  5
30B
  8
LE_ALL
  6
DOT
 62
     3
 10
165.39599508
 20
-177.63858909
 30
0.0
 11
157.39599508
 21
-177.63858909
 31
0.0
  0
LINE
  5
30C
  8
LE_ALL
  6
DOT
 62
     3
 10
165.39599508
 20
-186.63858909
 30
0.0
 11
157.39599508
 21
-186.63858909
 31
0.0
  0
LINE
  5
30D
  8
LE_ALL
  6
DOT
 62
     3
 10
165.39599508
 20
-198.63858909
 30
0.0
 11
157.39599508
 21
-198.63858909
 31
0.0
  0
POLYLINE
  5
30E
  8
LE_ALL
 66
     1
 10
0.0
 20
0.0
 30
0.0
  0
VERTEX
  5
30F
  8
LE_ALL
 10
157.39599508
 20
-157.63858909
 30
0.0
  0
VERTEX
  5
310
  8
LE_ALL
 10
165.39599508
 20
-157.63858909
 30
0.0
  0
VERTEX
  5
311
  8
LE_ALL
 10
165.39599508
 20
-227.63858909
 30
0.0
  0
SEQEND
  5
312
  8
LE_ALL
  0
LINE
  5
313
  8
LE_ALL
 10
157.39599508
 20
-227.63858909
 30
0.0
 11
165.39599508
 21
-227.63858909
 31
0.0
  0
LINE
  5
314
  8
LE_ALL
 10
157.39599508
 20
-227.63858909
 30
0.0
 11
157.39599508
 21
-157.63858909
 31
0.0
  0
ENDBLK
  8
0
  0
BLOCK
  8
0
  2
_00053
 70
     0
 10
0.0
 20
0.0
 30
0.0
  0
INSERT
  5
317
  8
0
  2
_00054
 10
167.89599508
 20
-212.63858909
 30
0.0
  0
ENDBLK
  8
0
  0
BLOCK
  8
0
  2
_00054
 70
     0
 10
167.89599508
 20
-212.63858909
 30
0.0
  0
LINE
  5
31A
  8
LE_ALL
  6
STRICHPUNKT2
 62
     1
 10
167.89599508
 20
-212.63858909
 30
0.0
 11
154.89599508
 21
-212.63858909
 31
0.0
  0
LINE
  5
31B
  8
LE_ALL
  6
STRICHPUNKT2
 62
     1
 10
168.39599508
 20
-192.63858909
 30
0.0
 11
154.39599508
 21
-192.63858909
 31
0.0
  0
LINE
  5
31C
  8
LE_ALL
  6
STRICHPUNKT2
 62
     1
 10
167.89599508
 20
-172.63858909
 30
0.0
 11
154.89599508
 21
-172.63858909
 31
0.0
  0
ENDBLK
  8
0
  0
BLOCK
  8
0
  2
_ANS0006_00055
 70
     0
 10
0.0
 20
0.0
 30
0.0
  0
INSERT
  5
31F
  8
0
  2
_A3D0006_00056
 10
0.0
 20
0.0
 30
0.0
  0
ENDBLK
  8
0
  0
BLOCK
  8
0
  2
_A3D0006_00056
 70
     0
 10
0.0
 20
0.0
 30
0.0
  0
INSERT
  5
322
  8
0
  2
PLAATWERK__D___8MM_00057
 10
0.0
 20
0.0
 30
0.0
  0
ENDBLK
  8
0
  0
BLOCK
  8
0
  2
PLAATWERK__D___8MM_00057
 70
     0
 10
0.0
 20
0.0
 30
0.0
  0
INSERT
  5
325
  8
0
  2
SHEET_FLANGE_00058
 10
0.0
 20
0.0
 30
0.0
  0
INSERT
  5
326
  8
0
  2
BEND_ZONE_00062
 10
0.0
 20
0.0
 30
0.0
  0
INSERT
  5
327
  8
0
  2
SHEET_FLANGE_00064
 10
0.0
 20
0.0
 30
0.0
  0
ENDBLK
  8
0
  0
BLOCK
  8
0
  2
SHEET_FLANGE_00058
 70
     0
 10
0.0
 20
0.0
 30
0.0
  0
INSERT
  5
32A
  8
0
  2
SHEET_FLANGE_00059
 10
456.24974205
 20
-182.57014483
 30
0.0
  0
INSERT
  5
32B
  8
0
  2
_00060
 10
0.0
 20
0.0
 30
0.0
  0
ENDBLK
  8
0
  0
BLOCK
  8
0
  2
SHEET_FLANGE_00059
 70
     0
 10
456.24974205
 20
-182.57014483
 30
0.0
  0
POLYLINE
  5
32E
  8
LE_ALL
 66
     1
 10
0.0
 20
0.0
 30
0.0
  0
VERTEX
  5
537
  8
LE_ALL
 10
453.98717892
 20
-181.4788280858119
 30
0.0
  0
VERTEX
  5
538
  8
LE_ALL
 10
454.0580428857746
 20
-181.7124055929494
 30
0.0
  0
VERTEX
  5
539
  8
LE_ALL
 10
454.2677652442302
 20
-181.9365246836512
 30
0.0
  0
VERTEX
  5
53A
  8
LE_ALL
 10
454.6078535619044
 20
-182.1421099475536
 30
0.0
  0
VERTEX
  5
53B
  8
LE_ALL
 10
455.0645364057918
 20
-182.320836477444
 30
0.0
  0
VERTEX
  5
53C
  8
LE_ALL
 10
455.6193209995677
 20
-182.4654669755242
 30
0.0
  0
VERTEX
  5
53D
  8
LE_ALL
 10
456.2497420644545
 20
-182.5701448183487
 30
0.0
  0
SEQEND
  5
5DC
  8
LE_ALL
  0
POLYLINE
  5
32F
  8
LE_ALL
 66
     1
 10
0.0
 20
0.0
 30
0.0
  0
VERTEX
  5
53E
  8
LE_ALL
 10
458.7246157965322
 20
-180.3875113642954
 30
0.0
  0
VERTEX
  5
53F
  8
LE_ALL
 10
458.0729371684023
 20
-180.3286161754048
 30
0.0
  0
VERTEX
  5
540
  8
LE_ALL
 10
457.3994586349749
 20
-180.312527913909
 30
0.0
  0
VERTEX
  5
541
  8
LE_ALL
 10
456.7292447485437
 20
-180.3398453295106
 30
0.0
  0
VERTEX
  5
542
  8
LE_ALL
 10
456.0872385624815
 20
-180.4095517620521
 30
0.0
  0
VERTEX
  5
543
  8
LE_ALL
 10
455.4973333366692
 20
-180.5190529781067
 30
0.0
  0
VERTEX
  5
544
  8
LE_ALL
 10
454.981483312626
 20
-180.6642737194147
 30
0.0
  0
VERTEX
  5
545
  8
LE_ALL
 10
454.558886652226
 20
-180.8398093699654
 30
0.0
  0
VERTEX
  5
546
  8
LE_ALL
 10
454.2452709482104
 20
-181.0391270971972
 30
0.0
  0
VERTEX
  5
547
  8
LE_ALL
 10
454.0523078973348
 20
-181.2548089815338
 30
0.0
  0
VERTEX
  5
548
  8
LE_ALL
 10
453.98717892
 20
-181.4788280858119
 30
0.0
  0
SEQEND
  5
5DD
  8
LE_ALL
  0
POLYLINE
  5
330
  8
LE_ALL
 66
     1
 10
0.0
 20
0.0
 30
0.0
  0
VERTEX
  5
331
  8
LE_ALL
 10
458.72461578
 20
-180.38751135
 30
0.0
  0
VERTEX
  5
332
  8
LE_ALL
 10
482.57768162
 20
-183.39271517
 30
0.0
  0
SEQEND
  5
333
  8
LE_ALL
  0
POLYLINE
  5
334
  8
LE_ALL
 66
     1
 10
0.0
 20
0.0
 30
0.0
  0
VERTEX
  5
549
  8
LE_ALL
 10
484.84024476
 20
-184.48403191
 30
0.0
  0
VERTEX
  5
54A
  8
LE_ALL
 10
484.7693807928778
 20
-184.2504544048524
 30
0.0
  0
VERTEX
  5
54B
  8
LE_ALL
 10
484.5596584354176
 20
-184.0263353160736
 30
0.0
  0
VERTEX
  5
54C
  8
LE_ALL
 10
484.2195701209017
 20
-183.8207500537999
 30
0.0
  0
VERTEX
  5
54D
  8
LE_ALL
 10
483.7628872819805
 20
-183.6420235250407
 30
0.0
  0
VERTEX
  5
54E
  8
LE_ALL
 10
483.2081026944728
 20
-183.4973930274292
 30
0.0
  0
VERTEX
  5
54F
  8
LE_ALL
 10
482.5776816365322
 20
-183.3927151842954
 30
0.0
  0
SEQEND
  5
5DE
  8
LE_ALL
  0
POLYLINE
  5
335
  8
LE_ALL
 66
     1
 10
0.0
 20
0.0
 30
0.0
  0
VERTEX
  5
550
  8
LE_ALL
 10
480.1028079044545
 20
-185.5753486383487
 30
0.0
  0
VERTEX
  5
551
  8
LE_ALL
 10
480.7544865327438
 20
-185.6342438257917
 30
0.0
  0
VERTEX
  5
552
  8
LE_ALL
 10
481.4279650654802
 20
-185.65033208592
 30
0.0
  0
VERTEX
  5
553
  8
LE_ALL
 10
482.0981789504685
 20
-185.6230146690837
 30
0.0
  0
VERTEX
  5
554
  8
LE_ALL
 10
482.7401851344624
 20
-185.553308235483
 30
0.0
  0
VERTEX
  5
555
  8
LE_ALL
 10
483.3300903577274
 20
-185.4438070185769
 30
0.0
  0
VERTEX
  5
556
  8
LE_ALL
 10
483.8459403789032
 20
-185.2985862766447
 30
0.0
  0
VERTEX
  5
557
  8
LE_ALL
 10
484.268537036278
 20
-185.1230506257048
 30
0.0
  0
VERTEX
  5
558
  8
LE_ALL
 10
484.582152737269
 20
-184.923732898314
 30
0.0
  0
VERTEX
  5
559
  8
LE_ALL
 10
484.7751157852673
 20
-184.7080510140331
 30
0.0
  0
VERTEX
  5
55A
  8
LE_ALL
 10
484.84024476
 20
-184.48403191
 30
0.0
  0
SEQEND
  5
5DF
  8
LE_ALL
  0
LINE
  5
336
  8
LE_ALL
 10
480.10280789
 20
-185.57534865
 30
0.0
 11
456.24974205
 21
-182.57014483
 31
0.0
  0
LINE
  5
337
  8
LE_ALL
 10
458.72461578
 20
-182.88194961
 30
0.0
 11
458.72461578
 21
-180.38751135
 31
0.0
  0
LINE
  5
338
  8
LE_ALL
 10
482.57768162
 20
-185.57534865
 30
0.0
 11
482.57768162
 21
-183.39271517
 31
0.0
  0
LINE
  5
339
  8
LE_ALL
 10
483.33793596
 20
-190.97181299
 30
0.0
 11
420.66517473
 21
-183.07578726
 31
0.0
  0
LINE
  5
33A
  8
LE_ALL
 10
483.33793596
 20
-194.74304915
 30
0.0
 11
483.33793596
 21
-190.97181299
 31
0.0
  0
POLYLINE
  5
33B
  8
LE_ALL
 66
     1
 10
0.0
 20
0.0
 30
0.0
  0
VERTEX
  5
33C
  8
LE_ALL
 10
420.66517473
 20
-186.84702343
 30
0.0
  0
VERTEX
  5
33D
  8
LE_ALL
 10
483.33793596
 20
-194.74304915
 30
0.0
  0
VERTEX
  5
33E
  8
LE_ALL
 10
495.71230463
 20
-183.82988177
 30
0.0
  0
VERTEX
  5
33F
  8
LE_ALL
 10
495.71230463
 20
-180.05864561
 30
0.0
  0
VERTEX
  5
340
  8
LE_ALL
 10
483.33793596
 20
-190.97181299
 30
0.0
  0
SEQEND
  5
341
  8
LE_ALL
  0
LINE
  5
342
  8
LE_ALL
 10
433.0395434
 20
-172.16261988
 30
0.0
 11
495.71230463
 21
-180.05864561
 31
0.0
  0
LINE
  5
343
  8
LE_ALL
 10
420.66517473
 20
-183.07578726
 30
0.0
 11
433.0395434
 21
-172.16261988
 31
0.0
  0
ENDBLK
  8
0
  0
BLOCK
  8
0
  2
_00060
 70
     0
 10
0.0
 20
0.0
 30
0.0
  0
INSERT
  5
346
  8
0
  2
_00061
 10
457.48717892
 20
-180.06461452
 30
0.0
  0
ENDBLK
  8
0
  0
BLOCK
  8
0
  2
_00061
 70
     0
 10
457.48717892
 20
-180.06461452
 30
0.0
  0
LINE
  5
349
  8
LE_ALL
  6
STRICHPUNKT2
 62
     1
 10
457.48717892
 20
-180.06461452
 30
0.0
 11
457.48717892
 21
-182.72604722
 31
0.0
  0
LINE
  5
34A
  8
LE_ALL
  6
STRICHPUNKT2
 62
     1
 10
481.34024476
 20
-183.06981834
 30
0.0
 11
481.34024476
 21
-185.65069857
 31
0.0
  0
LINE
  5
34B
  8
LE_ALL
  6
STRICHPUNKT2
 62
     1
 10
452.81010718
 20
-180.88957244
 30
0.0
 11
486.01731649
 21
-185.07328756
 31
0.0
  0
LINE
  5
34C
  8
LE_ALL
  6
STRICHPUNKT2
 62
     1
 10
455.71941196
 20
-183.037852
 30
0.0
 11
459.25494587
 21
-179.91980418
 31
0.0
  0
LINE
  5
34D
  8
LE_ALL
  6
STRICHPUNKT2
 62
     1
 10
479.5724778
 20
-186.04305582
 30
0.0
 11
483.10801171
 21
-182.925008
 31
0.0
  0
ENDBLK
  8
0
  0
BLOCK
  8
0
  2
BEND_ZONE_00062
 70
     0
 10
0.0
 20
0.0
 30
0.0
  0
INSERT
  5
350
  8
0
  2
BEND_ZONE_00063
 10
416.92351734
 20
-178.83314658
 30
0.0
  0
ENDBLK
  8
0
  0
BLOCK
  8
0
  2
BEND_ZONE_00063
 70
     0
 10
416.92351734
 20
-178.83314658
 30
0.0
  0
LINE
  5
353
  8
LE_ALL
 10
416.92351734
 20
-178.83314658
 30
0.0
 11
429.29788601
 21
-167.9199792
 31
0.0
  0
POLYLINE
  5
354
  8
LE_ALL
 66
     1
 10
0.0
 20
0.0
 30
0.0
  0
VERTEX
  5
55B
  8
LE_ALL
 10
413.1818599736054
 20
-178.3617420660138
 30
0.0
  0
VERTEX
  5
55C
  8
LE_ALL
 10
413.3256497742212
 20
-179.8513212245743
 30
0.0
  0
VERTEX
  5
55D
  8
LE_ALL
 10
413.7514934004023
 20
-181.3198883140608
 30
0.0
  0
VERTEX
  5
55E
  8
LE_ALL
 10
414.4430259205515
 20
-182.711007125293
 30
0.0
  0
VERTEX
  5
55F
  8
LE_ALL
 10
415.3736721279644
 20
-183.9712177429647
 30
0.0
  0
VERTEX
  5
560
  8
LE_ALL
 10
416.5076678111111
 20
-185.0520909801905
 30
0.0
  0
VERTEX
  5
561
  8
LE_ALL
 10
417.8014341522161
 20
-185.9120894849829
 30
0.0
  0
VERTEX
  5
562
  8
LE_ALL
 10
419.2052524367721
 20
-186.5181639973804
 30
0.0
  0
VERTEX
  5
563
  8
LE_ALL
 10
420.6651747158392
 20
-186.8470234139629
 30
0.0
  0
SEQEND
  5
5E0
  8
LE_ALL
  0
POLYLINE
  5
355
  8
LE_ALL
 66
     1
 10
0.0
 20
0.0
 30
0.0
  0
VERTEX
  5
564
  8
LE_ALL
 10
416.9235173518027
 20
-178.8331465830069
 30
0.0
  0
VERTEX
  5
565
  8
LE_ALL
 10
416.9954122521106
 20
-179.5779361622872
 30
0.0
  0
VERTEX
  5
566
  8
LE_ALL
 10
417.2083340652011
 20
-180.3122197070304
 30
0.0
  0
VERTEX
  5
567
  8
LE_ALL
 10
417.5541003252757
 20
-181.0077791126465
 30
0.0
  0
VERTEX
  5
568
  8
LE_ALL
 10
418.0194234289822
 20
-181.6378844214823
 30
0.0
  0
VERTEX
  5
569
  8
LE_ALL
 10
418.5864212705555
 20
-182.1783210400953
 30
0.0
  0
VERTEX
  5
56A
  8
LE_ALL
 10
419.233304441108
 20
-182.6083202924915
 30
0.0
  0
VERTEX
  5
56B
  8
LE_ALL
 10
419.9352135833861
 20
-182.9113575486902
 30
0.0
  0
VERTEX
  5
56C
  8
LE_ALL
 10
420.6651747229196
 20
-183.0757872569815
 30
0.0
  0
SEQEND
  5
5E1
  8
LE_ALL
  0
POLYLINE
  5
356
  8
LE_ALL
 66
     1
 10
0.0
 20
0.0
 30
0.0
  0
VERTEX
  5
357
  8
LE_ALL
 10
420.66517473
 20
-183.07578726
 30
0.0
  0
VERTEX
  5
358
  8
LE_ALL
 10
433.0395434
 20
-172.16261988
 30
0.0
  0
SEQEND
  5
359
  8
LE_ALL
  0
POLYLINE
  5
35A
  8
LE_ALL
 66
     1
 10
0.0
 20
0.0
 30
0.0
  0
VERTEX
  5
56D
  8
LE_ALL
 10
429.2978860218027
 20
-167.9199792030069
 30
0.0
  0
VERTEX
  5
56E
  8
LE_ALL
 10
429.3697809221106
 20
-168.6647687822872
 30
0.0
  0
VERTEX
  5
56F
  8
LE_ALL
 10
429.5827027352012
 20
-169.3990523270304
 30
0.0
  0
VERTEX
  5
570
  8
LE_ALL
 10
429.9284689952758
 20
-170.0946117326465
 30
0.0
  0
VERTEX
  5
571
  8
LE_ALL
 10
430.3937920989823
 20
-170.7247170414823
 30
0.0
  0
VERTEX
  5
572
  8
LE_ALL
 10
430.9607899405556
 20
-171.2651536600953
 30
0.0
  0
VERTEX
  5
573
  8
LE_ALL
 10
431.6076731111081
 20
-171.6951529124915
 30
0.0
  0
VERTEX
  5
574
  8
LE_ALL
 10
432.3095822533861
 20
-171.9981901686902
 30
0.0
  0
VERTEX
  5
575
  8
LE_ALL
 10
433.0395433929197
 20
-172.1626198769815
 30
0.0
  0
SEQEND
  5
5E2
  8
LE_ALL
  0
ENDBLK
  8
0
  0
BLOCK
  8
0
  2
SHEET_FLANGE_00064
 70
     0
 10
0.0
 20
0.0
 30
0.0
  0
INSERT
  5
35D
  8
0
  2
SHEET_FLANGE_00065
 10
422.73570168
 20
-162.68230201
 30
0.0
  0
INSERT
  5
35E
  8
0
  2
_00066
 10
0.0
 20
0.0
 30
0.0
  0
ENDBLK
  8
0
  0
BLOCK
  8
0
  2
SHEET_FLANGE_00065
 70
     0
 10
422.73570168
 20
-162.68230201
 30
0.0
  0
POLYLINE
  5
361
  8
LE_ALL
 66
     1
 10
0.0
 20
0.0
 30
0.0
  0
VERTEX
  5
576
  8
LE_ALL
 10
422.73570168
 20
-162.682302
 30
0.0
  0
VERTEX
  5
577
  8
LE_ALL
 10
422.9364673755755
 20
-162.6494962494455
 30
0.0
  0
VERTEX
  5
578
  8
LE_ALL
 10
423.1439287977431
 20
-162.503567124414
 30
0.0
  0
VERTEX
  5
579
  8
LE_ALL
 10
423.3501133204127
 20
-162.2501225993295
 30
0.0
  0
VERTEX
  5
57A
  8
LE_ALL
 10
423.5470973880257
 20
-161.8989024051358
 30
0.0
  0
VERTEX
  5
57B
  8
LE_ALL
 10
423.7273110133511
 20
-161.4634037368982
 30
0.0
  0
VERTEX
  5
57C
  8
LE_ALL
 10
423.8838286878483
 20
-160.9603625641686
 30
0.0
  0
VERTEX
  5
57D
  8
LE_ALL
 10
424.0106355250762
 20
-160.4091104770622
 30
0.0
  0
VERTEX
  5
57E
  8
LE_ALL
 10
424.1028584094053
 20
-159.8308317840925
 30
0.0
  0
VERTEX
  5
57F
  8
LE_ALL
 10
424.1569532671181
 20
-159.2477494110773
 30
0.0
  0
VERTEX
  5
580
  8
LE_ALL
 10
424.1708412631742
 20
-158.6822708865641
 30
0.0
  0
VERTEX
  5
581
  8
LE_ALL
 10
424.1439886896749
 20
-158.1561272330765
 30
0.0
  0
VERTEX
  5
582
  8
LE_ALL
 10
424.0774274759582
 20
-157.6895378561071
 30
0.0
  0
VERTEX
  5
583
  8
LE_ALL
 10
423.9737155321336
 20
-157.3004335237059
 30
0.0
  0
VERTEX
  5
584
  8
LE_ALL
 10
423.8368384500307
 20
-157.0037672971205
 30
0.0
  0
VERTEX
  5
585
  8
LE_ALL
 10
423.6720563391413
 20
-156.8109398930404
 30
0.0
  0
VERTEX
  5
586
  8
LE_ALL
 10
423.4857016835616
 20
-156.7293615604487
 30
0.0
  0
SEQEND
  5
5E3
  8
LE_ALL
  0
POLYLINE
  5
362
  8
LE_ALL
 66
     1
 10
0.0
 20
0.0
 30
0.0
  0
VERTEX
  5
587
  8
LE_ALL
 10
423.4857016835616
 20
-156.7293615604487
 30
0.0
  0
VERTEX
  5
588
  8
LE_ALL
 10
423.2849359877108
 20
-156.7621673091157
 30
0.0
  0
VERTEX
  5
589
  8
LE_ALL
 10
423.0774745651111
 20
-156.9080964328303
 30
0.0
  0
VERTEX
  5
58A
  8
LE_ALL
 10
422.8712900419056
 20
-157.1615409571935
 30
0.0
  0
VERTEX
  5
58B
  8
LE_ALL
 10
422.6743059737094
 20
-157.5127611512452
 30
0.0
  0
VERTEX
  5
58C
  8
LE_ALL
 10
422.4940923478105
 20
-157.9482598198638
 30
0.0
  0
VERTEX
  5
58D
  8
LE_ALL
 10
422.3375746728033
 20
-158.4513009934065
 30
0.0
  0
VERTEX
  5
58E
  8
LE_ALL
 10
422.2107678351756
 20
-159.0025530816388
 30
0.0
  0
VERTEX
  5
58F
  8
LE_ALL
 10
422.1185449505946
 20
-159.5808317759075
 30
0.0
  0
VERTEX
  5
590
  8
LE_ALL
 10
422.0644500928036
 20
-160.1639141502437
 30
0.0
  0
VERTEX
  5
591
  8
LE_ALL
 10
422.0505620968556
 20
-160.7293926759468
 30
0.0
  0
VERTEX
  5
592
  8
LE_ALL
 10
422.0774146706474
 20
-161.2555363303486
 30
0.0
  0
VERTEX
  5
593
  8
LE_ALL
 10
422.143975884825
 20
-161.7221257078292
 30
0.0
  0
VERTEX
  5
594
  8
LE_ALL
 10
422.2476878292499
 20
-162.1112300402375
 30
0.0
  0
VERTEX
  5
595
  8
LE_ALL
 10
422.3845649120508
 20
-162.4078962662572
 30
0.0
  0
VERTEX
  5
596
  8
LE_ALL
 10
422.5493470236854
 20
-162.6007236691686
 30
0.0
  0
VERTEX
  5
597
  8
LE_ALL
 10
422.73570168
 20
-162.682302
 30
0.0
  0
SEQEND
  5
5E4
  8
LE_ALL
  0
POLYLINE
  5
363
  8
LE_ALL
 66
     1
 10
0.0
 20
0.0
 30
0.0
  0
VERTEX
  5
598
  8
LE_ALL
 10
426.33373558
 20
-163.78222102
 30
0.0
  0
VERTEX
  5
599
  8
LE_ALL
 10
426.5010403263129
 20
-163.7548828945379
 30
0.0
  0
VERTEX
  5
59A
  8
LE_ALL
 10
426.6739248447859
 20
-163.6332752903449
 30
0.0
  0
VERTEX
  5
59B
  8
LE_ALL
 10
426.8457452803439
 20
-163.4220715194413
 30
0.0
  0
VERTEX
  5
59C
  8
LE_ALL
 10
427.0098986700215
 20
-163.1293880242798
 30
0.0
  0
VERTEX
  5
59D
  8
LE_ALL
 10
427.160076691126
 20
-162.7664724674151
 30
0.0
  0
VERTEX
  5
59E
  8
LE_ALL
 10
427.2905080865403
 20
-162.3472714901405
 30
0.0
  0
VERTEX
  5
59F
  8
LE_ALL
 10
427.3961804508968
 20
-161.8878947508851
 30
0.0
  0
VERTEX
  5
5A0
  8
LE_ALL
 10
427.4730328545044
 20
-161.405995840077
 30
0.0
  0
VERTEX
  5
5A1
  8
LE_ALL
 10
427.5181119025985
 20
-160.9200938625644
 30
0.0
  0
VERTEX
  5
5A2
  8
LE_ALL
 10
427.5296852326452
 20
-160.4488617588034
 30
0.0
  0
VERTEX
  5
5A3
  8
LE_ALL
 10
427.5073080880624
 20
-160.0104087142304
 30
0.0
  0
VERTEX
  5
5A4
  8
LE_ALL
 10
427.4518404099651
 20
-159.6215842334226
 30
0.0
  0
VERTEX
  5
5A5
  8
LE_ALL
 10
427.3654137901113
 20
-159.2973306230882
 30
0.0
  0
VERTEX
  5
5A6
  8
LE_ALL
 10
427.2513495550256
 20
-159.0501087676004
 30
0.0
  0
VERTEX
  5
5A7
  8
LE_ALL
 10
427.1140311292845
 20
-158.8894192642003
 30
0.0
  0
VERTEX
  5
5A8
  8
LE_ALL
 10
426.958735582968
 20
-158.8214373203739
 30
0.0
  0
SEQEND
  5
5E5
  8
LE_ALL
  0
POLYLINE
  5
364
  8
LE_ALL
 66
     1
 10
0.0
 20
0.0
 30
0.0
  0
VERTEX
  5
5A9
  8
LE_ALL
 10
426.958735582968
 20
-158.8214373203739
 30
0.0
  0
VERTEX
  5
5AA
  8
LE_ALL
 10
426.7914308364257
 20
-158.848775444263
 30
0.0
  0
VERTEX
  5
5AB
  8
LE_ALL
 10
426.6185463175926
 20
-158.9703830473586
 30
0.0
  0
VERTEX
  5
5AC
  8
LE_ALL
 10
426.446725881588
 20
-159.1815868176612
 30
0.0
  0
VERTEX
  5
5AD
  8
LE_ALL
 10
426.2825724914244
 20
-159.4742703127043
 30
0.0
  0
VERTEX
  5
5AE
  8
LE_ALL
 10
426.1323944698422
 20
-159.8371858698864
 30
0.0
  0
VERTEX
  5
5AF
  8
LE_ALL
 10
426.0019630740027
 20
-160.2563868478387
 30
0.0
  0
VERTEX
  5
5B0
  8
LE_ALL
 10
425.896290709313
 20
-160.7157635880324
 30
0.0
  0
VERTEX
  5
5B1
  8
LE_ALL
 10
425.8194383054956
 20
-161.197662499923
 30
0.0
  0
VERTEX
  5
5B2
  8
LE_ALL
 10
425.7743592573364
 20
-161.6835644785364
 30
0.0
  0
VERTEX
  5
5B3
  8
LE_ALL
 10
425.7627859273796
 20
-162.154796583289
 30
0.0
  0
VERTEX
  5
5B4
  8
LE_ALL
 10
425.7851630722062
 20
-162.5932496286238
 30
0.0
  0
VERTEX
  5
5B5
  8
LE_ALL
 10
425.8406307506875
 20
-162.9820741098576
 30
0.0
  0
VERTEX
  5
5B6
  8
LE_ALL
 10
425.9270573710416
 20
-163.3063277201979
 30
0.0
  0
VERTEX
  5
5B7
  8
LE_ALL
 10
426.041121606709
 20
-163.5535495752143
 30
0.0
  0
VERTEX
  5
5B8
  8
LE_ALL
 10
426.1784400330712
 20
-163.7142390776405
 30
0.0
  0
VERTEX
  5
5B9
  8
LE_ALL
 10
426.33373558
 20
-163.78222102
 30
0.0
  0
SEQEND
  5
5E6
  8
LE_ALL
  0
POLYLINE
  5
365
  8
LE_ALL
 66
     1
 10
0.0
 20
0.0
 30
0.0
  0
VERTEX
  5
5BA
  8
LE_ALL
 10
419.26266777
 20
-160.59022625
 30
0.0
  0
VERTEX
  5
5BB
  8
LE_ALL
 10
419.4299725163129
 20
-160.5628881245379
 30
0.0
  0
VERTEX
  5
5BC
  8
LE_ALL
 10
419.6028570347859
 20
-160.4412805203449
 30
0.0
  0
VERTEX
  5
5BD
  8
LE_ALL
 10
419.7746774703439
 20
-160.2300767494413
 30
0.0
  0
VERTEX
  5
5BE
  8
LE_ALL
 10
419.9388308600215
 20
-159.9373932542798
 30
0.0
  0
VERTEX
  5
5BF
  8
LE_ALL
 10
420.089008881126
 20
-159.5744776974151
 30
0.0
  0
VERTEX
  5
5C0
  8
LE_ALL
 10
420.2194402765403
 20
-159.1552767201405
 30
0.0
  0
VERTEX
  5
5C1
  8
LE_ALL
 10
420.3251126408969
 20
-158.6958999808851
 30
0.0
  0
VERTEX
  5
5C2
  8
LE_ALL
 10
420.4019650445044
 20
-158.214001070077
 30
0.0
  0
VERTEX
  5
5C3
  8
LE_ALL
 10
420.4470440925985
 20
-157.7280990925644
 30
0.0
  0
VERTEX
  5
5C4
  8
LE_ALL
 10
420.4586174226452
 20
-157.2568669888034
 30
0.0
  0
VERTEX
  5
5C5
  8
LE_ALL
 10
420.4362402780624
 20
-156.8184139442304
 30
0.0
  0
VERTEX
  5
5C6
  8
LE_ALL
 10
420.3807725999652
 20
-156.4295894634226
 30
0.0
  0
VERTEX
  5
5C7
  8
LE_ALL
 10
420.2943459801113
 20
-156.1053358530882
 30
0.0
  0
VERTEX
  5
5C8
  8
LE_ALL
 10
420.1802817450256
 20
-155.8581139976004
 30
0.0
  0
VERTEX
  5
5C9
  8
LE_ALL
 10
420.0429633192845
 20
-155.6974244942004
 30
0.0
  0
VERTEX
  5
5CA
  8
LE_ALL
 10
419.887667772968
 20
-155.629442550374
 30
0.0
  0
SEQEND
  5
5E7
  8
LE_ALL
  0
POLYLINE
  5
366
  8
LE_ALL
 66
     1
 10
0.0
 20
0.0
 30
0.0
  0
VERTEX
  5
5CB
  8
LE_ALL
 10
419.887667772968
 20
-155.629442550374
 30
0.0
  0
VERTEX
  5
5CC
  8
LE_ALL
 10
419.7203630264257
 20
-155.656780674263
 30
0.0
  0
VERTEX
  5
5CD
  8
LE_ALL
 10
419.5474785075926
 20
-155.7783882773586
 30
0.0
  0
VERTEX
  5
5CE
  8
LE_ALL
 10
419.375658071588
 20
-155.9895920476613
 30
0.0
  0
VERTEX
  5
5CF
  8
LE_ALL
 10
419.2115046814245
 20
-156.2822755427044
 30
0.0
  0
VERTEX
  5
5D0
  8
LE_ALL
 10
419.0613266598422
 20
-156.6451910998865
 30
0.0
  0
VERTEX
  5
5D1
  8
LE_ALL
 10
418.9308952640027
 20
-157.0643920778387
 30
0.0
  0
VERTEX
  5
5D2
  8
LE_ALL
 10
418.825222899313
 20
-157.5237688180324
 30
0.0
  0
VERTEX
  5
5D3
  8
LE_ALL
 10
418.7483704954956
 20
-158.005667729923
 30
0.0
  0
VERTEX
  5
5D4
  8
LE_ALL
 10
418.7032914473364
 20
-158.4915697085364
 30
0.0
  0
VERTEX
  5
5D5
  8
LE_ALL
 10
418.6917181173797
 20
-158.962801813289
 30
0.0
  0
VERTEX
  5
5D6
  8
LE_ALL
 10
418.7140952622062
 20
-159.4012548586238
 30
0.0
  0
VERTEX
  5
5D7
  8
LE_ALL
 10
418.7695629406875
 20
-159.7900793398577
 30
0.0
  0
VERTEX
  5
5D8
  8
LE_ALL
 10
418.8559895610416
 20
-160.1143329501979
 30
0.0
  0
VERTEX
  5
5D9
  8
LE_ALL
 10
418.970053796709
 20
-160.3615548052143
 30
0.0
  0
VERTEX
  5
5DA
  8
LE_ALL
 10
419.1073722230712
 20
-160.5222443076405
 30
0.0
  0
VERTEX
  5
5DB
  8
LE_ALL
 10
419.26266777
 20
-160.59022625
 30
0.0
  0
SEQEND
  5
5E8
  8
LE_ALL
  0
POLYLINE
  5
367
  8
LE_ALL
 66
     1
 10
0.0
 20
0.0
 30
0.0
  0
VERTEX
  5
368
  8
LE_ALL
 10
413.18185995
 20
-152.90589793
 30
0.0
  0
VERTEX
  5
369
  8
LE_ALL
 10
416.92351734
 20
-153.37730245
 30
0.0
  0
VERTEX
  5
36A
  8
LE_ALL
 10
416.92351734
 20
-178.83314658
 30
0.0
  0
SEQEND
  5
36B
  8
LE_ALL
  0
POLYLINE
  5
36C
  8
LE_ALL
 66
     1
 10
0.0
 20
0.0
 30
0.0
  0
VERTEX
  5
36D
  8
LE_ALL
 10
413.18185995
 20
-178.36174205
 30
0.0
  0
VERTEX
  5
36E
  8
LE_ALL
 10
413.18185995
 20
-152.90589793
 30
0.0
  0
VERTEX
  5
36F
  8
LE_ALL
 10
425.55622862
 20
-141.99273055
 30
0.0
  0
VERTEX
  5
370
  8
LE_ALL
 10
429.29788601
 20
-142.46413507
 30
0.0
  0
VERTEX
  5
371
  8
LE_ALL
 10
416.92351734
 20
-153.37730245
 30
0.0
  0
SEQEND
  5
372
  8
LE_ALL
  0
LINE
  5
373
  8
LE_ALL
 10
429.29788601
 20
-167.9199792
 30
0.0
 11
429.29788601
 21
-142.46413507
 31
0.0
  0
LINE
  5
374
  8
LE_ALL
 10
416.92351734
 20
-178.83314658
 30
0.0
 11
429.29788601
 21
-167.9199792
 31
0.0
  0
ENDBLK
  8
0
  0
BLOCK
  8
0
  2
_00066
 70
     0
 10
0.0
 20
0.0
 30
0.0
  0
INSERT
  5
377
  8
0
  2
_00067
 10
420.7444357
 20
-158.25714831
 30
0.0
  0
ENDBLK
  8
0
  0
BLOCK
  8
0
  2
_00067
 70
     0
 10
420.7444357
 20
-158.25714831
 30
0.0
  0
LINE
  5
37A
  8
LE_ALL
  6
STRICHPUNKT2
 62
     1
 10
420.7444357
 20
-158.25714831
 30
0.0
 11
418.74837049
 21
-158.00566773
 31
0.0
  0
LINE
  5
37B
  8
LE_ALL
  6
STRICHPUNKT2
 62
     1
 10
419.57516777
 20
-158.1098344
 30
0.0
 11
420.90099298
 21
-156.94056646
 31
0.0
  0
LINE
  5
37C
  8
LE_ALL
  6
STRICHPUNKT2
 62
     1
 10
419.57516777
 20
-158.1098344
 30
0.0
 11
418.24934256
 21
-159.27910233
 31
0.0
  0
LINE
  5
37D
  8
LE_ALL
  6
STRICHPUNKT2
 62
     1
 10
419.57516777
 20
-158.1098344
 30
0.0
 11
419.57516777
 21
-154.57430049
 31
0.0
  0
LINE
  5
37E
  8
LE_ALL
  6
STRICHPUNKT2
 62
     1
 10
419.57516777
 20
-158.1098344
 30
0.0
 11
419.57516777
 21
-161.6453683
 31
0.0
  0
LINE
  5
37F
  8
LE_ALL
  6
STRICHPUNKT2
 62
     1
 10
427.81550352
 20
-161.44914308
 30
0.0
 11
425.8194383
 21
-161.1976625
 31
0.0
  0
LINE
  5
380
  8
LE_ALL
  6
STRICHPUNKT2
 62
     1
 10
426.64623558
 20
-161.30182917
 30
0.0
 11
427.9720608
 21
-160.13256124
 31
0.0
  0
LINE
  5
381
  8
LE_ALL
  6
STRICHPUNKT2
 62
     1
 10
426.64623558
 20
-161.30182917
 30
0.0
 11
425.32041037
 21
-162.4710971
 31
0.0
  0
LINE
  5
382
  8
LE_ALL
  6
STRICHPUNKT2
 62
     1
 10
426.64623558
 20
-161.30182917
 30
0.0
 11
426.64623558
 21
-157.76629526
 31
0.0
  0
LINE
  5
383
  8
LE_ALL
  6
STRICHPUNKT2
 62
     1
 10
426.64623558
 20
-161.30182917
 30
0.0
 11
426.64623558
 21
-164.83736307
 31
0.0
  0
LINE
  5
384
  8
LE_ALL
  6
STRICHPUNKT2
 62
     1
 10
424.5138232
 20
-159.88260848
 30
0.0
 11
422.11854493
 21
-159.58083178
 31
0.0
  0
LINE
  5
385
  8
LE_ALL
  6
STRICHPUNKT2
 62
     1
 10
423.11070168
 20
-159.70583178
 30
0.0
 11
424.70169193
 21
-158.30271026
 31
0.0
  0
LINE
  5
386
  8
LE_ALL
  6
STRICHPUNKT2
 62
     1
 10
423.11070168
 20
-159.70583178
 30
0.0
 11
421.51971142
 21
-161.1089533
 31
0.0
  0
LINE
  5
387
  8
LE_ALL
  6
STRICHPUNKT2
 62
     1
 10
423.11070168
 20
-159.70583178
 30
0.0
 11
423.11070168
 21
-155.4631911
 31
0.0
  0
LINE
  5
388
  8
LE_ALL
  6
STRICHPUNKT2
 62
     1
 10
423.11070168
 20
-159.70583178
 30
0.0
 11
423.11070168
 21
-163.94847247
 31
0.0
  0
ENDBLK
  8
0
  0
BLOCK
  8
0
  2
DVI_FIGURE_00068
 70
     0
 10
0.0
 20
0.0
 30
0.0
  0
INSERT
  5
38B
  8
0
  2
VIEW_3_00069
 10
0.0
 20
0.0
 30
0.0
  0
INSERT
  5
38C
  8
0
  2
VIEW_4_00075
 10
0.0
 20
0.0
 30
0.0
  0
INSERT
  5
38D
  8
0
  2
VIEW_5_00088
 10
0.0
 20
0.0
 30
0.0
  0
ENDBLK
  8
0
  0
BLOCK
  8
0
  2
VIEW_3_00069
 70
     0
 10
0.0
 20
0.0
 30
0.0
  0
INSERT
  5
390
  8
0
  2
PART_2_00070
 10
0.0
 20
0.0
 30
0.0
  0
ENDBLK
  8
0
  0
BLOCK
  8
0
  2
PART_2_00070
 70
     0
 10
0.0
 20
0.0
 30
0.0
  0
INSERT
  5
393
  8
0
  2
_D1
 10
229.51624197
 20
-326.60353287
 30
0.0
  0
INSERT
  5
394
  8
0
  2
_D2
 10
145.78159205
 20
-286.8638873
 30
0.0
  0
INSERT
  5
395
  8
0
  2
_D3
 10
313.4503494
 20
-316.90396957
 30
0.0
  0
INSERT
  5
396
  8
0
  2
_D4
 10
160.43607736
 20
-243.1582992
 30
0.0
  0
ENDBLK
  8
0
  0
BLOCK
  8
0
  2
VIEW_4_00075
 70
     0
 10
0.0
 20
0.0
 30
0.0
  0
INSERT
  5
3B9
  8
0
  2
PART_2_00076
 10
0.0
 20
0.0
 30
0.0
  0
ENDBLK
  8
0
  0
BLOCK
  8
0
  2
PART_2_00076
 70
     0
 10
0.0
 20
0.0
 30
0.0
  0
INSERT
  5
3BC
  8
0
  2
_D5
 10
368.43962184
 20
-278.23168461
 30
0.0
  0
INSERT
  5
3BD
  8
0
  2
_D6
 10
388.43962184
 20
-288.21363191
 30
0.0
  0
INSERT
  5
3BE
  8
0
  2
_D7
 10
408.43962184
 20
-297.62196093
 30
0.0
  0
INSERT
  5
3BF
  8
0
  2
_D8
 10
362.78215841
 20
-241.46272847
 30
0.0
  0
INSERT
  5
3C0
  8
0
  2
_D9
 10
380.28215841
 20
-241.46272847
 30
0.0
  0
INSERT
  5
3C1
  8
0
  2
_D10
 10
400.28215841
 20
-241.46272847
 30
0.0
  0
INSERT
  5
3C2
  8
0
  2
_D11
 10
417.78215841
 20
-241.46272847
 30
0.0
  0
INSERT
  5
3C3
  8
0
  2
_D12
 10
349.7849871
 20
-259.3638873
 30
0.0
  0
INSERT
  5
3C4
  8
0
  2
_D13
 10
349.7849871
 20
-271.82501494
 30
0.0
  0
INSERT
  5
3C5
  8
0
  2
_D14
 10
349.7849871
 20
-281.8638873
 30
0.0
  0
INSERT
  5
3C6
  8
0
  2
_D15
 10
349.7849871
 20
-304.3638873
 30
0.0
  0
ENDBLK
  8
0
  0
BLOCK
  8
0
  2
VIEW_5_00088
 70
     0
 10
0.0
 20
0.0
 30
0.0
  0
INSERT
  5
424
  8
0
  2
PART_2_00089
 10
0.0
 20
0.0
 30
0.0
  0
ENDBLK
  8
0
  0
BLOCK
  8
0
  2
PART_2_00089
 70
     0
 10
0.0
 20
0.0
 30
0.0
  0
INSERT
  5
427
  8
0
  2
_D16
 10
300.22615963
 20
-148.62989474
 30
0.0
  0
INSERT
  5
428
  8
0
  2
_D17
 10
262.47615963
 20
-148.62989474
 30
0.0
  0
INSERT
  5
429
  8
0
  2
_D18
 10
192.72615963
 20
-148.62989474
 30
0.0
  0
INSERT
  5
42A
  8
0
  2
_D19
 10
222.97642075
 20
-196.40096111
 30
0.0
  0
INSERT
  5
42B
  8
0
  2
_D20
 10
313.68976391
 20
-212.05842454
 30
0.0
  0
INSERT
  5
42C
  8
0
  2
_D21
 10
313.68976391
 20
-177.05842454
 30
0.0
  0
INSERT
  5
42D
  8
0
  2
_D22
 10
323.68976391
 20
-194.55842454
 30
0.0
  0
ENDBLK
  8
0
  0
ENDSEC
  0
SECTION
  2
ENTITIES
  0
INSERT
  5
468
  8
0
  2
_ZBL0002_00001
 10
0.0
 20
0.0
 30
0.0
  0
INSERT
  5
469
  8
0
  2
_ANS0003_00016
 10
0.0
 20
0.0
 30
0.0
  0
INSERT
  5
46A
  8
0
  2
_ANS0004_00029
 10
0.0
 20
0.0
 30
0.0
  0
INSERT
  5
46B
  8
0
  2
_ANS0005_00042
 10
0.0
 20
0.0
 30
0.0
  0
INSERT
  5
46C
  8
0
  2
_ANS0006_00055
 10
0.0
 20
0.0
 30
0.0
  0
INSERT
  5
46D
  8
0
  2
DVI_FIGURE_00068
 10
0.0
 20
0.0
 30
0.0
  0
ENDSEC
  0
EOF
