  0
SECTION
  2
HEADER
  9
$ACADVER
  1
AC1006
  9
$DWGCODEPAGE
  3
ansi_1252
  9
$INSBASE
 10
0.0
 20
0.0
 30
0.0
  9
$EXTMIN
 10
-144.1936249
 20
201.05493445
  9
$EXTMAX
 10
671.49873857
 20
598.83241357
  9
$LIMMIN
 10
-144.1936249
 20
201.05493445
  9
$LIMMAX
 10
671.49873857
 20
598.83241357
  9
$ORTHOMODE
 70
     0
  9
$REGENMODE
 70
     1
  9
$FILLMODE
 70
     1
  9
$QTEXTMODE
 70
     0
  9
$MIRRTEXT
 70
     1
  9
$DRAGMODE
 70
     2
  9
$LTSCALE
 40
1.0
  9
$OSMODE
 70
    37
  9
$ATTMODE
 70
     1
  9
$TEXTSIZE
 40
1.0
  9
$TRACEWID
 40
0.05
  9
$TEXTSTYLE
  7
STANDARD
  9
$CLAYER
  8
0
  9
$CELTYPE
  6
BYBLOCK
  9
$CECOLOR
 62
   256
  9
$DIMSCALE
 40
1.0
  9
$DIMASZ
 40
0.18
  9
$DIMEXO
 40
0.0625
  9
$DIMDLI
 40
0.38
  9
$DIMRND
 40
0.0
  9
$DIMDLE
 40
0.0
  9
$DIMEXE
 40
0.18
  9
$DIMTP
 40
0.0
  9
$DIMTM
 40
0.0
  9
$DIMTXT
 40
0.18
  9
$DIMCEN
 40
0.09
  9
$DIMTSZ
 40
0.0
  9
$DIMTOL
 70
     0
  9
$DIMLIM
 70
     0
  9
$DIMTIH
 70
     1
  9
$DIMTOH
 70
     1
  9
$DIMSE1
 70
     0
  9
$DIMSE2
 70
     0
  9
$DIMTAD
 70
     0
  9
$DIMZIN
 70
     0
  9
$DIMBLK
  1

  9
$DIMASO
 70
     1
  9
$DIMSHO
 70
     1
  9
$DIMPOST
  1

  9
$DIMAPOST
  1

  9
$DIMALT
 70
     0
  9
$DIMALTD
 70
     2
  9
$DIMALTF
 40
25.4
  9
$DIMLFAC
 40
1.0
  9
$DIMTOFL
 70
     0
  9
$DIMTVP
 40
0.0
  9
$DIMTIX
 70
     0
  9
$DIMSOXD
 70
     0
  9
$DIMSAH
 70
     0
  9
$DIMBLK1
  1

  9
$DIMBLK2
  1

  9
$LUNITS
 70
     2
  9
$LUPREC
 70
     4
  9
$SKETCHINC
 40
0.1
  9
$FILLETRAD
 40
0.5
  9
$AUNITS
 70
     0
  9
$AUPREC
 70
     0
  9
$MENU
  1
.
  9
$ELEVATION
 40
0.0
  9
$THICKNESS
 40
0.0
  9
$LIMCHECK
 70
     0
  9
$CHAMFERA
 40
0.0
  9
$CHAMFERB
 40
0.0
  9
$SKPOLY
 70
     0
  9
$TDCREATE
 40
2447893.125
  9
$TDUPDATE
 40
2460791.51162596
  9
$TDINDWG
 40
0.0
  9
$TDUSRTIMER
 40
0.0
  9
$USRTIMER
 70
     1
  9
$ANGBASE
 50
0.0
  9
$ANGDIR
 70
     0
  9
$PDMODE
 70
     0
  9
$PDSIZE
 40
0.0
  9
$PLINEWID
 40
0.0
  9
$COORDS
 70
     1
  9
$SPLFRAME
 70
     0
  9
$SPLINETYPE
 70
     6
  9
$SPLINESEGS
 70
     8
  9
$ATTDIA
 70
     0
  9
$ATTREQ
 70
     1
  9
$HANDLING
 70
     1
  9
$HANDSEED
  5
A04
  9
$SURFTAB1
 70
     6
  9
$SURFTAB2
 70
     6
  9
$SURFTYPE
 70
     6
  9
$SURFU
 70
     6
  9
$SURFV
 70
     6
  9
$UCSNAME
  2

  9
$UCSORG
 10
0.0
 20
0.0
 30
0.0
  9
$UCSXDIR
 10
1.0
 20
0.0
 30
0.0
  9
$UCSYDIR
 10
0.0
 20
1.0
 30
0.0
  9
$USERI1
 70
     0
  9
$USERI2
 70
     0
  9
$USERI3
 70
     0
  9
$USERI4
 70
     0
  9
$USERI5
 70
     0
  9
$USERR1
 40
0.0
  9
$USERR2
 40
0.0
  9
$USERR3
 40
0.0
  9
$USERR4
 40
0.0
  9
$USERR5
 40
0.0
  9
$WORLDVIEW
 70
     1
  0
ENDSEC
  0
SECTION
  2
TABLES
  0
TABLE
  2
VPORT
 70
     1
  0
VPORT
  2
*ACTIVE
 70
     0
 10
0.0
 20
0.0
 11
1.0
 21
1.0
 12
263.65255684
 22
399.94367401
 13
0.0
 23
0.0
 14
1.0
 24
1.0
 15
0.0
 25
0.0
 16
0.0
 26
0.0
 36
1.0
 17
0.0
 27
0.0
 37
0.0
 40
397.77747912
 41
2.0506248
 42
50.0
 43
0.0
 44
0.0
 50
0.0
 51
0.0
 71
     0
 72
   100
 73
     1
 74
     1
 75
     0
 76
     0
 77
     0
 78
     0
  0
ENDTAB
  0
TABLE
  2
LTYPE
 70
    19
  0
LTYPE
  2
CONTINUOUS
 70
     0
  3
Solid line
 72
    65
 73
     0
 40
0.0
  0
LTYPE
  2
DOT
 70
     0
  3
..............
 72
    65
 73
     2
 40
2.0
 49
0.5
 49
-1.5
  0
LTYPE
  2
HIDDEN
 70
     0
  3
-- -- -- -- --
 72
    65
 73
     2
 40
7.0
 49
4.0
 49
-3.0
  0
LTYPE
  2
DASHDOT
 70
     0
  3
--.--.--.--.--
 72
    65
 73
     4
 40
8.5
 49
4.0
 49
-2.0
 49
0.5
 49
-2.0
  0
LTYPE
  2
STRICHPUNKT2
 70
     0
  3
--.--.--.--.--
 72
    65
 73
     4
 40
18.5
 49
10.0
 49
-4.0
 49
0.5
 49
-4.0
  0
LTYPE
  2
STRICHPUNKT3
 70
     0
  3
--.--.--.--.--
 72
    65
 73
     4
 40
35.5
 49
25.0
 49
-5.0
 49
0.5
 49
-5.0
  0
LTYPE
  2
PHANTOM
 70
     0
  3
--..--..--..--
 72
    65
 73
     6
 40
23.0
 49
10.0
 49
-4.0
 49
0.5
 49
-4.0
 49
0.5
 49
-4.0
  0
LTYPE
  2
PHANTOM2
 70
     0
  3
--..--..--..--
 72
    65
 73
     6
 40
33.0
 49
20.0
 49
-4.0
 49
0.5
 49
-4.0
 49
0.5
 49
-4.0
  0
LTYPE
  2
PHANTOM3
 70
     0
  3
--..--..--..--
 72
    65
 73
     6
 40
50.0
 49
37.0
 49
-4.0
 49
0.5
 49
-4.0
 49
0.5
 49
-4.0
  0
LTYPE
  2
STR3PKT
 70
     0
  3
--...--...--...
 72
    65
 73
     8
 40
31.5
 49
20.0
 49
-2.5
 49
0.5
 49
-2.5
 49
0.5
 49
-2.5
 49
0.5
 49
-2.5
  0
LTYPE
  2
2STRPKT
 70
     0
  3
--.--.--.--.--
 72
    65
 73
     6
 40
28.0
 49
10.0
 49
-2.5
 49
10.0
 49
-2.5
 49
0.5
 49
-2.5
  0
LTYPE
  2
GESTRICHELT2
 70
     0
  3
-- -- -- -- --
 72
    65
 73
     2
 40
25.0
 49
10.0
 49
-15.0
  0
LTYPE
  2
2STR2PKT
 70
     0
  3
--..--..--..--
 72
    65
 73
     8
 40
31.0
 49
10.0
 49
-2.5
 49
10.0
 49
-2.5
 49
0.5
 49
-2.5
 49
0.5
 49
-2.5
  0
LTYPE
  2
STR3PKT2
 70
     0
  3
--...--...--...
 72
    65
 73
     8
 40
21.0
 49
10.0
 49
-2.5
 49
0.5
 49
-2.5
 49
0.5
 49
-2.5
 49
0.5
 49
-2.0
  0
LTYPE
  2
2STR3PKT
 70
     0
  3
--...--...--...
 72
    65
 73
    10
 40
34.0
 49
10.0
 49
-2.5
 49
10.0
 49
-2.5
 49
0.5
 49
-2.5
 49
0.5
 49
-2.5
 49
0.5
 49
-2.5
  0
LTYPE
  2
STRKSTR
 70
     0
  3
-- - -- - -- -
 72
    65
 73
     4
 40
30.0
 49
20.0
 49
-2.5
 49
5.0
 49
-2.5
  0
LTYPE
  2
STRKSTR2
 70
     0
  3
-- - -- - -- -
 72
    65
 73
     6
 40
37.5
 49
20.0
 49
-2.5
 49
5.0
 49
-2.5
 49
5.0
 49
-2.5
  0
LTYPE
  2
STRKSTR3
 70
     0
  3
-- - -- - -- -
 72
    65
 73
     8
 40
45.0
 49
20.0
 49
-2.5
 49
5.0
 49
-2.5
 49
5.0
 49
-2.5
 49
5.0
 49
-2.5
  0
LTYPE
  2
PUNKT2
 70
     0
  3
..............
 72
    65
 73
     2
 40
3.5
 49
0.5
 49
-3.0
  0
ENDTAB
  0
TABLE
  2
LAYER
 70
    17
  0
LAYER
  2
0
 70
     0
 62
     7
  6
CONTINUOUS
  0
LAYER
  2
LE_GREEN
 70
     0
 62
     3
  6
CONTINUOUS
  0
LAYER
  2
LE_RED
 70
     0
 62
     1
  6
CONTINUOUS
  0
LAYER
  2
LE_ALL
 70
     0
 62
     7
  6
CONTINUOUS
  0
LAYER
  2
LE_HIDDEN1
 70
     0
 62
     3
  6
HIDDEN
  0
LAYER
  2
LE_HIDDEN
 70
     0
 62
     7
  6
CONTINUOUS
  0
LAYER
  2
LE_MIDDLE
 70
     0
 62
     7
  6
CONTINUOUS
  0
LAYER
  2
TXT_YELLOW
 70
     0
 62
     2
  6
CONTINUOUS
  0
LAYER
  2
TXT_DIM49
 70
     0
 62
     2
  6
CONTINUOUS
  0
LAYER
  2
TXT_ALL
 70
     0
 62
     7
  6
CONTINUOUS
  0
LAYER
  2
DIM49
 70
     0
 62
     4
  6
CONTINUOUS
  0
LAYER
  2
HATCH
 70
     0
 62
     3
  6
CONTINUOUS
  0
LAYER
  2
APPLE
 70
     0
 62
     7
  6
CONTINUOUS
  0
LAYER
  2
10
 70
     0
 62
     7
  6
CONTINUOUS
  0
LAYER
  2
20
 70
     0
 62
     7
  6
CONTINUOUS
  0
LAYER
  2
47
 70
     0
 62
     7
  6
CONTINUOUS
  0
LAYER
  2
49
 70
     0
 62
     7
  6
CONTINUOUS
  0
ENDTAB
  0
TABLE
  2
STYLE
 70
     5
  0
STYLE
  2
MONOTXT
 70
     0
 40
0.0
 41
1.0
 50
0.0
 71
     0
 42
1.0
  3
monotxt.shx
  4

  0
STYLE
  2
STANDARD
 70
     0
 40
0.0
 41
1.0
 50
0.0
 71
     0
 42
1.0
  3
txt
  4

  0
STYLE
  2
ARIAL
 70
     0
 40
0.0
 41
1.0
 50
0.0
 71
     0
 42
1.0
  3
arial.ttf
  4

  0
STYLE
  2
ARIAL_NARROW
 70
     0
 40
0.0
 41
1.0
 50
0.0
 71
     0
 42
1.0
  3
ArialN.ttf
  4

  0
STYLE
  2
ISOCPEUR
 70
     0
 40
0.0
 41
1.0
 50
0.0
 71
     0
 42
1.0
  3
ISOCPEUR.ttf
  4

  0
ENDTAB
  0
TABLE
  2
VIEW
 70
     0
  0
ENDTAB
  0
TABLE
  2
UCS
 70
     0
  0
ENDTAB
  0
ENDSEC
  0
SECTION
  2
BLOCKS
  0
ENDSEC
  0
SECTION
  2
ENTITIES
  0
POLYLINE
  5
16E
  8
0
 66
     1
 10
0.0
 20
0.0
 30
0.0
 70
     1
  0
VERTEX
  5
16F
  8
0
 10
-37.85910516
 20
254.96994443
 30
0.0
  0
VERTEX
  5
170
  8
0
 10
382.14089484
 20
254.96994443
 30
0.0
  0
VERTEX
  5
171
  8
0
 10
382.14089484
 20
551.96994443
 30
0.0
  0
VERTEX
  5
172
  8
0
 10
-37.85910516
 20
551.96994443
 30
0.0
  0
SEQEND
  5
173
  8
0
  0
POLYLINE
  5
174
  8
0
 66
     1
 10
0.0
 20
0.0
 30
0.0
 70
     1
  0
VERTEX
  5
175
  8
0
 10
-32.85910516
 20
259.96994443
 30
0.0
  0
VERTEX
  5
176
  8
0
 10
377.14089484
 20
259.96994443
 30
0.0
  0
VERTEX
  5
177
  8
0
 10
377.14089484
 20
546.96994443
 30
0.0
  0
VERTEX
  5
178
  8
0
 10
-32.85910516
 20
546.96994443
 30
0.0
  0
SEQEND
  5
179
  8
0
  0
LINE
  5
17A
  8
0
 10
192.14089484
 20
259.96994443
 30
0.0
 11
192.14089484
 21
254.96994443
 31
0.0
  0
LINE
  5
17B
  8
0
 10
192.14089484
 20
546.96994443
 30
0.0
 11
192.14089484
 21
551.96994443
 31
0.0
  0
LINE
  5
17C
  8
0
 10
-17.85910516
 20
259.96994443
 30
0.0
 11
-17.85910516
 21
254.96994443
 31
0.0
  0
LINE
  5
17D
  8
0
 10
-17.85910516
 20
546.96994443
 30
0.0
 11
-17.85910516
 21
551.96994443
 31
0.0
  0
TEXT
  5
17E
  8
TXT_ALL
 62
     4
 10
381.14089484
 20
255.96994443
 30
0.0
 40
2.5
  1

 50
90.00020741
  0
POLYLINE
  5
17F
  8
0
 66
     1
 10
0.0
 20
0.0
 30
0.0
  0
VERTEX
  5
180
  8
0
 10
377.14089484
 20
536.96994443
 30
0.0
  0
VERTEX
  5
181
  8
0
 10
308.14759484
 20
536.96994443
 30
0.0
  0
VERTEX
  5
182
  8
0
 10
308.14759484
 20
546.96994443
 30
0.0
  0
SEQEND
  5
183
  8
0
  0
LINE
  5
184
  8
0
 10
310.05089484
 20
279.46994443
 30
0.0
 11
170.16089484
 21
279.46994443
 31
0.0
  0
LINE
  5
185
  8
0
 10
170.16089484
 20
269.71994443
 30
0.0
 11
310.05089484
 21
269.71994443
 31
0.0
  0
POLYLINE
  5
186
  8
0
 66
     1
 10
0.0
 20
0.0
 30
0.0
  0
VERTEX
  5
187
  8
0
 10
170.16089484
 20
279.46994443
 30
0.0
  0
VERTEX
  5
188
  8
0
 10
170.16089484
 20
269.71994443
 30
0.0
  0
VERTEX
  5
189
  8
0
 10
170.16089484
 20
259.96994443
 30
0.0
  0
SEQEND
  5
18A
  8
0
  0
POLYLINE
  5
18B
  8
0
 66
     1
 10
0.0
 20
0.0
 30
0.0
  0
VERTEX
  5
18C
  8
0
 10
240.10589484
 20
279.46994443
 30
0.0
  0
VERTEX
  5
18D
  8
0
 10
240.10589484
 20
269.71994443
 30
0.0
  0
VERTEX
  5
18E
  8
0
 10
240.10589484
 20
259.96994443
 30
0.0
  0
SEQEND
  5
18F
  8
0
  0
TEXT
  5
190
  8
TXT_ALL
 10
172.16089484
 20
273.29494447
 30
0.0
 40
2.5999999
  1
E-mail: verkoop@jonkers-bouwmetaal.nl
  7
ARIAL
  0
TEXT
  5
191
  8
TXT_ALL
 10
172.16089484
 20
263.54494447
 30
0.0
 40
2.5999999
  1
Telefoon: 0527-685156
  7
ARIAL
  0
TEXT
  5
192
  8
TXT_ALL
 10
242.10589484
 20
263.54494447
 30
0.0
 40
2.5999999
  1
Website: www.jonkers-bouwmetaal.nl
  7
ARIAL
  0
TEXT
  5
193
  8
TXT_ALL
 10
242.10589484
 20
273.29494447
 30
0.0
 40
2.5999999
  1
Adres: Hoornse Hop 10, 8321 WX Urk
  7
ARIAL
  0
TEXT
  5
194
  8
TXT_ALL
 10
-29.41714491
 20
540.71994443
 30
0.0
 40
2.5
  1
Art. nr. 91017067
  7
ARIAL
  0
TEXT
  5
195
  8
TXT_ALL
 10
13.32089191
 20
540.71994443
 30
0.0
 40
2.5
  1
Omschrijving: T09-anker 340x45.5 111x3
  7
ARIAL
  0
LINE
  5
196
  8
0
 10
377.14089484
 20
536.96994443
 30
0.0
 11
-32.85910516
 21
536.96994443
 31
0.0
  0
LINE
  5
197
  8
0
 10
10.16089484
 20
536.96994443
 30
0.0
 11
10.16089484
 21
546.96994443
 31
0.0
  0
LINE
  5
198
  8
0
 10
170.16089484
 20
536.96994443
 30
0.0
 11
170.16089484
 21
546.96994443
 31
0.0
  0
TEXT
  5
199
  8
TXT_ALL
 10
241.15459484
 20
540.71994443
 30
0.0
 40
2.5
  1
Behandeling: N.V.T.
  7
ARIAL
  0
LINE
  5
19A
  8
0
 10
310.05089484
 20
279.46994443
 30
0.0
 11
377.14089484
 21
279.46994443
 31
0.0
  0
LINE
  5
19B
  8
0
 10
310.05089484
 20
259.96994443
 30
0.0
 11
310.05089484
 21
279.46994443
 31
0.0
  0
LINE
  5
19C
  8
0
 10
310.05089484
 20
259.96994443
 30
0.0
 11
310.05089484
 21
279.46994443
 31
0.0
  0
TEXT
  5
19D
  8
TXT_ALL
 10
104.50609293
 20
261.12447784
 30
0.0
 40
2.5
  1

  0
TEXT
  5
19E
  8
TXT_ALL
 10
225.6412759
 20
271.21994443
 30
0.0
 40
2.5
  1

  0
POLYLINE
  5
19F
  8
0
 66
     1
 10
0.0
 20
0.0
 30
0.0
  0
VERTEX
  5
1A0
  8
0
 10
308.14759484
 20
536.96994443
 30
0.0
  0
VERTEX
  5
1A1
  8
0
 10
239.15459484
 20
536.96994443
 30
0.0
  0
VERTEX
  5
1A2
  8
0
 10
239.15459484
 20
546.96994443
 30
0.0
  0
SEQEND
  5
1A3
  8
0
  0
TEXT
  5
1A4
  8
TXT_ALL
 10
310.14759484
 20
540.71994443
 30
0.0
 40
2.5
  1
Verpakkingshoeveelheid: 15 st.
  7
ARIAL
  0
TEXT
  5
1A5
  8
TXT_ALL
 10
172.16089484
 20
540.71994443
 30
0.0
 40
2.5
  1
Materiaal: Sendzimir Verzinkt
  7
ARIAL
  0
TEXT
  5
1A6
  8
TXT_ALL
 10
344.92254207
 20
256.72043458
 30
0.0
 40
1.5
  1
Onderdeel van
  7
ARIAL
  0
LINE
  5
1A7
  8
0
 10
178.3790763
 20
479.30690401
 30
0.0
 11
178.3790763
 21
482.30690401
 31
0.0
  0
POLYLINE
  5
1A8
  8
0
 66
     1
 10
0.0
 20
0.0
 30
0.0
  0
VERTEX
  5
1A9
  8
0
 10
348.3790763
 20
482.30690401
 30
0.0
  0
VERTEX
  5
1AA
  8
0
 10
348.3790763
 20
479.30690401
 30
0.0
  0
VERTEX
  5
1AB
  8
0
 10
178.3790763
 20
479.30690401
 30
0.0
  0
SEQEND
  5
1AC
  8
0
  0
POLYLINE
  5
1AD
  8
0
 66
     1
 10
0.0
 20
0.0
 30
0.0
 70
     1
  0
VERTEX
  5
1AE
  8
0
 10
336.81841613
 20
462.65004976
 30
0.0
 42
-1.0
  0
VERTEX
  5
1AF
  8
0
 10
332.22222205
 20
467.24624384
 30
0.0
  0
VERTEX
  5
1B0
  8
0
 10
338.93973647
 20
473.96375826
 30
0.0
 42
-1.0
  0
VERTEX
  5
1B1
  8
0
 10
343.53593055
 20
469.36756418
 30
0.0
  0
SEQEND
  5
1B2
  8
0
  0
POLYLINE
  5
1B3
  8
0
 66
     1
 10
0.0
 20
0.0
 30
0.0
 70
     1
  0
VERTEX
  5
1B4
  8
0
 10
321.81841613
 20
462.65004976
 30
0.0
 42
-1.0
  0
VERTEX
  5
1B5
  8
0
 10
317.22222205
 20
467.24624384
 30
0.0
  0
VERTEX
  5
1B6
  8
0
 10
323.93973647
 20
473.96375826
 30
0.0
 42
-1.0
  0
VERTEX
  5
1B7
  8
0
 10
328.53593055
 20
469.36756418
 30
0.0
  0
SEQEND
  5
1B8
  8
0
  0
LINE
  5
1B9
  8
0
 10
178.3790763
 20
458.80690401
 30
0.0
 11
178.3790763
 21
477.80690401
 31
0.0
  0
LINE
  5
1BA
  8
0
 10
348.3790763
 20
477.80690401
 30
0.0
 11
348.3790763
 21
458.80690401
 31
0.0
  0
LINE
  5
1BB
  8
0
  6
STRICHPUNKT2
 62
     1
 10
316.16156188
 20
461.58938959
 30
0.0
 11
329.59659072
 21
475.02441843
 31
0.0
  0
LINE
  5
1BC
  8
0
  6
STRICHPUNKT2
 62
     1
 10
322.8790763
 20
461.58938959
 30
0.0
 11
316.16156188
 21
468.30690401
 31
0.0
  0
LINE
  5
1BD
  8
0
  6
STRICHPUNKT2
 62
     1
 10
329.59659072
 20
468.30690401
 30
0.0
 11
322.8790763
 21
475.02441843
 31
0.0
  0
LINE
  5
1BE
  8
0
  6
STRICHPUNKT2
 62
     1
 10
331.16156188
 20
461.58938959
 30
0.0
 11
344.59659072
 21
475.02441843
 31
0.0
  0
LINE
  5
1BF
  8
0
  6
STRICHPUNKT2
 62
     1
 10
337.8790763
 20
461.58938959
 30
0.0
 11
331.16156188
 21
468.30690401
 31
0.0
  0
LINE
  5
1C0
  8
0
  6
STRICHPUNKT2
 62
     1
 10
344.59659072
 20
468.30690401
 30
0.0
 11
337.8790763
 21
475.02441843
 31
0.0
  0
LINE
  5
1C1
  8
0
 10
348.3790763
 20
479.30690401
 30
0.0
 11
348.3790763
 21
477.80690401
 31
0.0
  0
LINE
  5
1C2
  8
0
 10
178.3790763
 20
477.80690401
 30
0.0
 11
178.3790763
 21
479.30690401
 31
0.0
  0
LINE
  5
1C3
  8
0
 10
178.3790763
 20
457.30690401
 30
0.0
 11
178.3790763
 21
458.80690401
 31
0.0
  0
LINE
  5
1C4
  8
0
 10
348.3790763
 20
458.80690401
 30
0.0
 11
348.3790763
 21
457.30690401
 31
0.0
  0
LINE
  5
1C5
  8
0
 10
178.3790763
 20
454.30690401
 30
0.0
 11
178.3790763
 21
457.30690401
 31
0.0
  0
LINE
  5
1C6
  8
0
 10
348.3790763
 20
457.30690401
 30
0.0
 11
178.3790763
 21
457.30690401
 31
0.0
  0
LINE
  5
1C7
  8
0
 10
348.3790763
 20
457.30690401
 30
0.0
 11
348.3790763
 21
454.30690401
 31
0.0
  0
CIRCLE
  5
1C8
  8
0
 10
189.6290763
 20
445.55690401
 30
0.0
 40
1.625
  0
POLYLINE
  5
1C9
  8
0
 66
     1
 10
0.0
 20
0.0
 30
0.0
  0
VERTEX
  5
6C5
  8
0
 10
314.879076308325
 20
443.8069040122883
 30
0.0
  0
VERTEX
  5
6C6
  8
0
 10
315.4129220319711
 20
444.1561325023827
 30
0.0
  0
VERTEX
  5
6C7
  8
0
 10
315.83441974912
 20
444.5752100652039
 30
0.0
  0
VERTEX
  5
6C8
  8
0
 10
316.1257346325025
 20
445.0464042774405
 30
0.0
  0
VERTEX
  5
6C9
  8
0
 10
316.2745402793536
 20
445.5497775046911
 30
0.0
  0
VERTEX
  5
6CA
  8
0
 10
316.274540278328
 20
446.0640305223225
 30
0.0
  0
VERTEX
  5
6CB
  8
0
 10
316.1257346294692
 20
446.5674037492764
 30
0.0
  0
VERTEX
  5
6CC
  8
0
 10
315.8344197442072
 20
447.038597960932
 30
0.0
  0
VERTEX
  5
6CD
  8
0
 10
315.4129220253868
 20
447.4576755229126
 30
0.0
  0
VERTEX
  5
6CE
  8
0
 10
314.8790763003477
 20
447.8069040119423
 30
0.0
  0
SEQEND
  5
9B2
  8
0
  0
POLYLINE
  5
1CA
  8
0
 66
     1
 10
0.0
 20
0.0
 30
0.0
  0
VERTEX
  5
1CB
  8
0
 10
314.8790763
 20
451.05690401
 30
0.0
  0
VERTEX
  5
1CC
  8
0
 10
315.8790763
 20
451.05690401
 30
0.0
 42
1.0
  0
VERTEX
  5
1CD
  8
0
 10
315.8790763
 20
453.05690401
 30
0.0
  0
VERTEX
  5
1CE
  8
0
 10
293.8790763
 20
453.05690401
 30
0.0
  0
SEQEND
  5
1CF
  8
0
  0
ARC
  5
1D0
  8
0
 10
293.8790763
 20
452.05690401
 30
0.0
 40
1.0
 50
90.0
 51
180.0
  0
LINE
  5
1D1
  8
0
 10
292.8790763
 20
452.05690401
 30
0.0
 11
292.8790763
 21
441.55690401
 31
0.0
  0
ARC
  5
1D2
  8
0
 10
291.8790763
 20
441.55690401
 30
0.0
 40
1.0
 50
-90.0
 51
0.0
  0
POLYLINE
  5
1D3
  8
0
 66
     1
 10
0.0
 20
0.0
 30
0.0
  0
VERTEX
  5
1D4
  8
0
 10
291.8790763
 20
440.55690401
 30
0.0
  0
VERTEX
  5
1D5
  8
0
 10
178.3790763
 20
440.55690401
 30
0.0
  0
VERTEX
  5
1D6
  8
0
 10
178.3790763
 20
454.30690401
 30
0.0
  0
SEQEND
  5
1D7
  8
0
  0
POLYLINE
  5
1D8
  8
0
 66
     1
 10
0.0
 20
0.0
 30
0.0
  0
VERTEX
  5
1D9
  8
0
 10
348.3790763
 20
454.30690401
 30
0.0
  0
VERTEX
  5
1DA
  8
0
 10
348.3790763
 20
440.55690401
 30
0.0
  0
VERTEX
  5
1DB
  8
0
 10
314.8790763
 20
440.55690401
 30
0.0
  0
SEQEND
  5
1DC
  8
0
  0
LINE
  5
1DD
  8
0
  6
STRICHPUNKT2
 62
     1
 10
189.6290763
 20
445.55690401
 30
0.0
 11
187.1915763
 21
445.55690401
 31
0.0
  0
LINE
  5
1DE
  8
0
  6
STRICHPUNKT2
 62
     1
 10
189.6290763
 20
445.55690401
 30
0.0
 11
192.0665763
 21
445.55690401
 31
0.0
  0
LINE
  5
1DF
  8
0
  6
STRICHPUNKT2
 62
     1
 10
189.6290763
 20
445.55690401
 30
0.0
 11
189.6290763
 21
443.11940401
 31
0.0
  0
LINE
  5
1E0
  8
0
  6
STRICHPUNKT2
 62
     1
 10
189.6290763
 20
445.55690401
 30
0.0
 11
189.6290763
 21
447.99440401
 31
0.0
  0
CIRCLE
  5
1E1
  8
0
 10
189.6290763
 20
491.05690401
 30
0.0
 40
1.625
  0
POLYLINE
  5
1E2
  8
0
 66
     1
 10
0.0
 20
0.0
 30
0.0
  0
VERTEX
  5
6CF
  8
0
 10
314.879076308325
 20
488.8069040122883
 30
0.0
  0
VERTEX
  5
6D0
  8
0
 10
315.4129220319711
 20
489.1561325023827
 30
0.0
  0
VERTEX
  5
6D1
  8
0
 10
315.83441974912
 20
489.5752100652039
 30
0.0
  0
VERTEX
  5
6D2
  8
0
 10
316.1257346325025
 20
490.0464042774405
 30
0.0
  0
VERTEX
  5
6D3
  8
0
 10
316.2745402793536
 20
490.5497775046911
 30
0.0
  0
VERTEX
  5
6D4
  8
0
 10
316.274540278328
 20
491.0640305223225
 30
0.0
  0
VERTEX
  5
6D5
  8
0
 10
316.1257346294692
 20
491.5674037492764
 30
0.0
  0
VERTEX
  5
6D6
  8
0
 10
315.8344197442072
 20
492.038597960932
 30
0.0
  0
VERTEX
  5
6D7
  8
0
 10
315.4129220253868
 20
492.4576755229126
 30
0.0
  0
VERTEX
  5
6D8
  8
0
 10
314.8790763003477
 20
492.8069040119423
 30
0.0
  0
SEQEND
  5
9B3
  8
0
  0
LINE
  5
1E3
  8
0
 10
348.3790763
 20
496.05690401
 30
0.0
 11
314.8790763
 21
496.05690401
 31
0.0
  0
LINE
  5
1E4
  8
0
 10
348.3790763
 20
496.05690401
 30
0.0
 11
348.3790763
 21
482.30690401
 31
0.0
  0
LINE
  5
1E5
  8
0
 10
178.3790763
 20
482.30690401
 30
0.0
 11
178.3790763
 21
496.05690401
 31
0.0
  0
LINE
  5
1E6
  8
0
 10
291.8790763
 20
496.05690401
 30
0.0
 11
178.3790763
 21
496.05690401
 31
0.0
  0
ARC
  5
1E7
  8
0
 10
291.8790763
 20
495.05690401
 30
0.0
 40
1.0
 50
0.0
 51
90.0
  0
LINE
  5
1E8
  8
0
 10
292.8790763
 20
495.05690401
 30
0.0
 11
292.8790763
 21
484.55690401
 31
0.0
  0
ARC
  5
1E9
  8
0
 10
293.8790763
 20
484.55690401
 30
0.0
 40
1.0
 50
180.0
 51
-90.0
  0
POLYLINE
  5
1EA
  8
0
 66
     1
 10
0.0
 20
0.0
 30
0.0
  0
VERTEX
  5
1EB
  8
0
 10
293.8790763
 20
483.55690401
 30
0.0
  0
VERTEX
  5
1EC
  8
0
 10
315.8790763
 20
483.55690401
 30
0.0
 42
0.414213562
  0
VERTEX
  5
1ED
  8
0
 10
316.8790763
 20
484.55690401
 30
0.0
 42
0.414213562
  0
VERTEX
  5
1EE
  8
0
 10
315.8790763
 20
485.55690401
 30
0.0
  0
VERTEX
  5
1EF
  8
0
 10
314.8790763
 20
485.55690401
 30
0.0
  0
SEQEND
  5
1F0
  8
0
  0
LINE
  5
1F1
  8
0
  6
STRICHPUNKT2
 62
     1
 10
189.6290763
 20
491.05690401
 30
0.0
 11
187.1915763
 21
491.05690401
 31
0.0
  0
LINE
  5
1F2
  8
0
  6
STRICHPUNKT2
 62
     1
 10
189.6290763
 20
491.05690401
 30
0.0
 11
192.0665763
 21
491.05690401
 31
0.0
  0
LINE
  5
1F3
  8
0
  6
STRICHPUNKT2
 62
     1
 10
189.6290763
 20
491.05690401
 30
0.0
 11
189.6290763
 21
488.61940401
 31
0.0
  0
LINE
  5
1F4
  8
0
  6
STRICHPUNKT2
 62
     1
 10
189.6290763
 20
491.05690401
 30
0.0
 11
189.6290763
 21
493.49440401
 31
0.0
  0
POLYLINE
  5
1F5
  8
0
 66
     1
 10
0.0
 20
0.0
 30
0.0
  0
VERTEX
  5
1F6
  8
0
 10
314.8790763
 20
488.806904
 30
0.0
  0
VERTEX
  5
1F7
  8
0
 10
314.77450666
 20
488.75528024
 30
0.0
  0
VERTEX
  5
1F8
  8
0
 10
314.66467887
 20
488.7086293
 30
0.0
  0
VERTEX
  5
1F9
  8
0
 10
314.54949637
 20
488.66705336
 30
0.0
  0
VERTEX
  5
1FA
  8
0
 10
314.42890042
 20
488.63068426
 30
0.0
  0
VERTEX
  5
1FB
  8
0
 10
314.30584028
 20
488.6003274
 30
0.0
  0
VERTEX
  5
1FC
  8
0
 10
314.17403296
 20
488.57471768
 30
0.0
  0
VERTEX
  5
1FD
  8
0
 10
314.0447625
 20
488.55652635
 30
0.0
  0
VERTEX
  5
1FE
  8
0
 10
313.92130715
 20
488.54601454
 30
0.0
  0
VERTEX
  5
1FF
  8
0
 10
313.81841613
 20
488.54305773
 30
0.0
  0
VERTEX
  5
200
  8
0
 10
313.71671027
 20
488.54658031
 30
0.0
  0
VERTEX
  5
201
  8
0
 10
313.63428753
 20
488.55624126
 30
0.0
  0
VERTEX
  5
202
  8
0
 10
313.56812196
 20
488.57084049
 30
0.0
  0
VERTEX
  5
203
  8
0
 10
313.51558102
 20
488.58939806
 30
0.0
  0
VERTEX
  5
204
  8
0
 10
313.4929304
 20
488.6003274
 30
0.0
  0
VERTEX
  5
205
  8
0
 10
313.45680496
 20
488.62363476
 30
0.0
  0
VERTEX
  5
206
  8
0
 10
313.42918371
 20
488.64971311
 30
0.0
  0
VERTEX
  5
207
  8
0
 10
313.40830688
 20
488.6790497
 30
0.0
  0
VERTEX
  5
208
  8
0
 10
313.39315837
 20
488.71252572
 30
0.0
  0
VERTEX
  5
209
  8
0
 10
313.38337563
 20
488.75143139
 30
0.0
  0
VERTEX
  5
20A
  8
0
 10
313.37918556
 20
488.79749125
 30
0.0
  0
VERTEX
  5
20B
  8
0
 10
313.37907631
 20
488.806904
 30
0.0
  0
SEQEND
  5
20C
  8
0
  0
LINE
  5
20D
  8
0
 10
313.3790763
 20
485.55690401
 30
0.0
 11
314.8790763
 21
485.55690401
 31
0.0
  0
POLYLINE
  5
20E
  8
0
 66
     1
 10
0.0
 20
0.0
 30
0.0
  0
VERTEX
  5
20F
  8
0
 10
313.37907631
 20
492.80690402
 30
0.0
  0
VERTEX
  5
210
  8
0
 10
313.38260675
 20
492.8575307
 30
0.0
  0
VERTEX
  5
211
  8
0
 10
313.39236092
 20
492.8989376
 30
0.0
  0
VERTEX
  5
212
  8
0
 10
313.40758158
 20
492.93348143
 30
0.0
  0
VERTEX
  5
213
  8
0
 10
313.42814094
 20
492.96288667
 30
0.0
  0
VERTEX
  5
214
  8
0
 10
313.45453051
 20
492.98836986
 30
0.0
  0
VERTEX
  5
215
  8
0
 10
313.48785689
 20
493.01070473
 30
0.0
  0
VERTEX
  5
216
  8
0
 10
313.4929304
 20
493.01348062
 30
0.0
  0
VERTEX
  5
217
  8
0
 10
313.53633106
 20
493.03270211
 30
0.0
  0
VERTEX
  5
218
  8
0
 10
313.59024765
 20
493.04872678
 30
0.0
  0
VERTEX
  5
219
  8
0
 10
313.65665085
 20
493.06096176
 30
0.0
  0
VERTEX
  5
21A
  8
0
 10
313.73779976
 20
493.0686026
 30
0.0
  0
VERTEX
  5
21B
  8
0
 10
313.81841613
 20
493.07075029
 30
0.0
  0
VERTEX
  5
21C
  8
0
 10
313.93102127
 20
493.06722771
 30
0.0
  0
VERTEX
  5
21D
  8
0
 10
314.05391777
 20
493.05622689
 30
0.0
  0
VERTEX
  5
21E
  8
0
 10
314.18402843
 20
493.03739458
 30
0.0
  0
VERTEX
  5
21F
  8
0
 10
314.30584028
 20
493.01348062
 30
0.0
  0
VERTEX
  5
220
  8
0
 10
314.44001996
 20
492.98005551
 30
0.0
  0
VERTEX
  5
221
  8
0
 10
314.56702229
 20
492.94087919
 30
0.0
  0
VERTEX
  5
222
  8
0
 10
314.68719957
 20
492.89619836
 30
0.0
  0
VERTEX
  5
223
  8
0
 10
314.80086384
 20
492.84621507
 30
0.0
  0
VERTEX
  5
224
  8
0
 10
314.8790763
 20
492.80690402
 30
0.0
  0
SEQEND
  5
225
  8
0
  0
LINE
  5
226
  8
0
 10
314.8790763
 20
496.05690401
 30
0.0
 11
313.3790763
 21
496.05690401
 31
0.0
  0
LINE
  5
227
  8
0
 10
313.3790763
 20
496.05690401
 30
0.0
 11
311.8790763
 21
496.05690401
 31
0.0
  0
LINE
  5
228
  8
0
 10
311.8790763
 20
495.05690401
 30
0.0
 11
311.8790763
 21
496.05690401
 31
0.0
  0
POLYLINE
  5
229
  8
0
 66
     1
 10
0.0
 20
0.0
 30
0.0
  0
VERTEX
  5
22A
  8
0
 10
313.3790763
 20
496.05690401
 30
0.0
  0
VERTEX
  5
22B
  8
0
 10
313.3790763
 20
495.05690401
 30
0.0
  0
VERTEX
  5
22C
  8
0
 10
313.3790763
 20
486.55690401
 30
0.0
  0
SEQEND
  5
22D
  8
0
  0
LINE
  5
22E
  8
0
 10
311.8790763
 20
486.55690401
 30
0.0
 11
311.8790763
 21
495.05690401
 31
0.0
  0
LINE
  5
22F
  8
0
 10
311.8790763
 20
485.55690401
 30
0.0
 11
311.8790763
 21
486.55690401
 31
0.0
  0
LINE
  5
230
  8
0
 10
313.3790763
 20
485.55690401
 30
0.0
 11
311.8790763
 21
485.55690401
 31
0.0
  0
LINE
  5
231
  8
0
 10
313.3790763
 20
486.55690401
 30
0.0
 11
313.3790763
 21
485.55690401
 31
0.0
  0
LINE
  5
232
  8
0
  6
STRICHPUNKT2
 62
     1
 10
313.3790763
 20
490.80690401
 30
0.0
 11
314.1915763
 21
490.80690401
 31
0.0
  0
LINE
  5
233
  8
0
  6
STRICHPUNKT2
 62
     1
 10
311.0665763
 20
490.80690401
 30
0.0
 11
311.8790763
 21
490.80690401
 31
0.0
  0
POLYLINE
  5
234
  8
0
 66
     1
 10
0.0
 20
0.0
 30
0.0
  0
VERTEX
  5
235
  8
0
 10
313.37907631
 20
447.80690402
 30
0.0
  0
VERTEX
  5
236
  8
0
 10
313.38260675
 20
447.8575307
 30
0.0
  0
VERTEX
  5
237
  8
0
 10
313.39236092
 20
447.8989376
 30
0.0
  0
VERTEX
  5
238
  8
0
 10
313.40758158
 20
447.93348143
 30
0.0
  0
VERTEX
  5
239
  8
0
 10
313.42814094
 20
447.96288667
 30
0.0
  0
VERTEX
  5
23A
  8
0
 10
313.45453051
 20
447.98836986
 30
0.0
  0
VERTEX
  5
23B
  8
0
 10
313.48785689
 20
448.01070473
 30
0.0
  0
VERTEX
  5
23C
  8
0
 10
313.4929304
 20
448.01348062
 30
0.0
  0
VERTEX
  5
23D
  8
0
 10
313.53633106
 20
448.03270211
 30
0.0
  0
VERTEX
  5
23E
  8
0
 10
313.59024765
 20
448.04872678
 30
0.0
  0
VERTEX
  5
23F
  8
0
 10
313.65665085
 20
448.06096176
 30
0.0
  0
VERTEX
  5
240
  8
0
 10
313.73779976
 20
448.0686026
 30
0.0
  0
VERTEX
  5
241
  8
0
 10
313.81841613
 20
448.07075029
 30
0.0
  0
VERTEX
  5
242
  8
0
 10
313.93102127
 20
448.06722771
 30
0.0
  0
VERTEX
  5
243
  8
0
 10
314.05391777
 20
448.05622689
 30
0.0
  0
VERTEX
  5
244
  8
0
 10
314.18402843
 20
448.03739458
 30
0.0
  0
VERTEX
  5
245
  8
0
 10
314.30584028
 20
448.01348062
 30
0.0
  0
VERTEX
  5
246
  8
0
 10
314.44001996
 20
447.98005551
 30
0.0
  0
VERTEX
  5
247
  8
0
 10
314.56702229
 20
447.94087919
 30
0.0
  0
VERTEX
  5
248
  8
0
 10
314.68719957
 20
447.89619836
 30
0.0
  0
VERTEX
  5
249
  8
0
 10
314.80086384
 20
447.84621507
 30
0.0
  0
VERTEX
  5
24A
  8
0
 10
314.8790763
 20
447.80690402
 30
0.0
  0
SEQEND
  5
24B
  8
0
  0
LINE
  5
24C
  8
0
 10
314.8790763
 20
451.05690401
 30
0.0
 11
313.3790763
 21
451.05690401
 31
0.0
  0
POLYLINE
  5
24D
  8
0
 66
     1
 10
0.0
 20
0.0
 30
0.0
  0
VERTEX
  5
24E
  8
0
 10
314.8790763
 20
443.806904
 30
0.0
  0
VERTEX
  5
24F
  8
0
 10
314.77450666
 20
443.75528024
 30
0.0
  0
VERTEX
  5
250
  8
0
 10
314.66467887
 20
443.7086293
 30
0.0
  0
VERTEX
  5
251
  8
0
 10
314.54949637
 20
443.66705336
 30
0.0
  0
VERTEX
  5
252
  8
0
 10
314.42890042
 20
443.63068426
 30
0.0
  0
VERTEX
  5
253
  8
0
 10
314.30584028
 20
443.6003274
 30
0.0
  0
VERTEX
  5
254
  8
0
 10
314.17403296
 20
443.57471768
 30
0.0
  0
VERTEX
  5
255
  8
0
 10
314.0447625
 20
443.55652635
 30
0.0
  0
VERTEX
  5
256
  8
0
 10
313.92130715
 20
443.54601454
 30
0.0
  0
VERTEX
  5
257
  8
0
 10
313.81841613
 20
443.54305773
 30
0.0
  0
VERTEX
  5
258
  8
0
 10
313.71671027
 20
443.54658031
 30
0.0
  0
VERTEX
  5
259
  8
0
 10
313.63428753
 20
443.55624126
 30
0.0
  0
VERTEX
  5
25A
  8
0
 10
313.56812196
 20
443.57084049
 30
0.0
  0
VERTEX
  5
25B
  8
0
 10
313.51558102
 20
443.58939806
 30
0.0
  0
VERTEX
  5
25C
  8
0
 10
313.4929304
 20
443.6003274
 30
0.0
  0
VERTEX
  5
25D
  8
0
 10
313.45680496
 20
443.62363476
 30
0.0
  0
VERTEX
  5
25E
  8
0
 10
313.42918371
 20
443.64971311
 30
0.0
  0
VERTEX
  5
25F
  8
0
 10
313.40830688
 20
443.6790497
 30
0.0
  0
VERTEX
  5
260
  8
0
 10
313.39315837
 20
443.71252572
 30
0.0
  0
VERTEX
  5
261
  8
0
 10
313.38337563
 20
443.75143139
 30
0.0
  0
VERTEX
  5
262
  8
0
 10
313.37918556
 20
443.79749125
 30
0.0
  0
VERTEX
  5
263
  8
0
 10
313.37907631
 20
443.806904
 30
0.0
  0
SEQEND
  5
264
  8
0
  0
LINE
  5
265
  8
0
 10
313.3790763
 20
440.55690401
 30
0.0
 11
314.8790763
 21
440.55690401
 31
0.0
  0
LINE
  5
266
  8
0
 10
313.3790763
 20
451.05690401
 30
0.0
 11
311.8790763
 21
451.05690401
 31
0.0
  0
LINE
  5
267
  8
0
 10
311.8790763
 20
450.05690401
 30
0.0
 11
311.8790763
 21
451.05690401
 31
0.0
  0
POLYLINE
  5
268
  8
0
 66
     1
 10
0.0
 20
0.0
 30
0.0
  0
VERTEX
  5
269
  8
0
 10
313.3790763
 20
451.05690401
 30
0.0
  0
VERTEX
  5
26A
  8
0
 10
313.3790763
 20
450.05690401
 30
0.0
  0
VERTEX
  5
26B
  8
0
 10
313.3790763
 20
441.55690401
 30
0.0
  0
SEQEND
  5
26C
  8
0
  0
LINE
  5
26D
  8
0
 10
311.8790763
 20
441.55690401
 30
0.0
 11
311.8790763
 21
450.05690401
 31
0.0
  0
LINE
  5
26E
  8
0
 10
311.8790763
 20
440.55690401
 30
0.0
 11
311.8790763
 21
441.55690401
 31
0.0
  0
LINE
  5
26F
  8
0
 10
311.8790763
 20
440.55690401
 30
0.0
 11
313.3790763
 21
440.55690401
 31
0.0
  0
LINE
  5
270
  8
0
 10
313.3790763
 20
441.55690401
 30
0.0
 11
313.3790763
 21
440.55690401
 31
0.0
  0
LINE
  5
271
  8
0
  6
STRICHPUNKT2
 62
     1
 10
313.3790763
 20
445.80690401
 30
0.0
 11
314.1915763
 21
445.80690401
 31
0.0
  0
LINE
  5
272
  8
0
  6
STRICHPUNKT2
 62
     1
 10
311.0665763
 20
445.80690401
 30
0.0
 11
311.8790763
 21
445.80690401
 31
0.0
  0
LINE
  5
273
  8
0
 10
109.54529047
 20
320.27886054
 30
0.0
 11
109.32876916
 21
320.84670626
 31
0.0
  0
LINE
  5
274
  8
0
 10
70.45840184
 20
309.18937919
 30
0.0
 11
70.24188053
 21
309.75722491
 31
0.0
  0
POLYLINE
  5
275
  8
0
 66
     1
 10
0.0
 20
0.0
 30
0.0
  0
VERTEX
  5
6D9
  8
0
 10
32.97697773753806
 20
376.0292166466432
 30
0.0
  0
VERTEX
  5
6DA
  8
0
 10
32.46861282409092
 20
375.834976552537
 30
0.0
  0
VERTEX
  5
6DB
  8
0
 10
31.97978408934729
 20
375.548180872608
 30
0.0
  0
VERTEX
  5
6DC
  8
0
 10
31.52927694752149
 20
375.1798510040439
 30
0.0
  0
VERTEX
  5
6DD
  8
0
 10
31.13440413549699
 20
374.7441416571892
 30
0.0
  0
VERTEX
  5
6DE
  8
0
 10
30.81034039405439
 20
374.2577968979633
 30
0.0
  0
VERTEX
  5
6DF
  8
0
 10
30.56953931109095
 20
373.7395066827938
 30
0.0
  0
VERTEX
  5
6E0
  8
0
 10
30.42125473721979
 20
373.2091886140702
 30
0.0
  0
VERTEX
  5
6E1
  8
0
 10
30.37118516547902
 20
372.6872225178507
 30
0.0
  0
SEQEND
  5
9B4
  8
0
  0
POLYLINE
  5
276
  8
0
 66
     1
 10
0.0
 20
0.0
 30
0.0
  0
VERTEX
  5
6E2
  8
0
 10
117.2150807775381
 20
302.5936292466432
 30
0.0
  0
VERTEX
  5
6E3
  8
0
 10
116.7067158640909
 20
302.399389152537
 30
0.0
  0
VERTEX
  5
6E4
  8
0
 10
116.2178871293473
 20
302.1125934726081
 30
0.0
  0
VERTEX
  5
6E5
  8
0
 10
115.7673799875215
 20
301.7442636040439
 30
0.0
  0
VERTEX
  5
6E6
  8
0
 10
115.372507175497
 20
301.3085542571892
 30
0.0
  0
VERTEX
  5
6E7
  8
0
 10
115.0484434340544
 20
300.8222094979633
 30
0.0
  0
VERTEX
  5
6E8
  8
0
 10
114.8076423510909
 20
300.3039192827938
 30
0.0
  0
VERTEX
  5
6E9
  8
0
 10
114.6593577772198
 20
299.7736012140702
 30
0.0
  0
VERTEX
  5
6EA
  8
0
 10
114.609288205479
 20
299.2516351178508
 30
0.0
  0
SEQEND
  5
9B5
  8
0
  0
POLYLINE
  5
277
  8
0
 66
     1
 10
0.0
 20
0.0
 30
0.0
  0
VERTEX
  5
6EB
  8
0
 10
117.2150807759186
 20
301.2922815665914
 30
0.0
  0
VERTEX
  5
6EC
  8
0
 10
116.960898318769
 20
301.1951615187375
 30
0.0
  0
VERTEX
  5
6ED
  8
0
 10
116.7164839510972
 20
301.0517636778774
 30
0.0
  0
VERTEX
  5
6EE
  8
0
 10
116.4912303800217
 20
300.8675987426391
 30
0.0
  0
VERTEX
  5
6EF
  8
0
 10
116.2937939739906
 20
300.6497440682319
 30
0.0
  0
VERTEX
  5
6F0
  8
0
 10
116.1317621033948
 20
300.4065716876531
 30
0.0
  0
VERTEX
  5
6F1
  8
0
 10
116.0113615621782
 20
300.1474265791535
 30
0.0
  0
VERTEX
  5
6F2
  8
0
 10
115.9372192756371
 20
299.8822675439631
 30
0.0
  0
VERTEX
  5
6F3
  8
0
 10
115.9121844902755
 20
299.6212844951427
 30
0.0
  0
SEQEND
  5
9B6
  8
0
  0
POLYLINE
  5
278
  8
0
 66
     1
 10
0.0
 20
0.0
 30
0.0
  0
VERTEX
  5
6F4
  8
0
 10
92.02004007
 20
298.4464188658022
 30
0.0
  0
VERTEX
  5
6F5
  8
0
 10
92.07625387107397
 20
298.1471020573182
 30
0.0
  0
VERTEX
  5
6F6
  8
0
 10
92.24295066843075
 20
297.8581395478193
 30
0.0
  0
VERTEX
  5
6F7
  8
0
 10
92.51436390147559
 20
297.5895274490908
 30
0.0
  0
VERTEX
  5
6F8
  8
0
 10
92.8811045424684
 20
297.3505578889261
 30
0.0
  0
VERTEX
  5
6F9
  8
0
 10
93.33048589219023
 20
297.1494975675309
 30
0.0
  0
VERTEX
  5
6FA
  8
0
 10
93.8469624523207
 20
296.9933017866559
 30
0.0
  0
VERTEX
  5
6FB
  8
0
 10
94.41266769256666
 20
296.8873738440811
 30
0.0
  0
SEQEND
  5
9B7
  8
0
  0
POLYLINE
  5
279
  8
0
 66
     1
 10
0.0
 20
0.0
 30
0.0
  0
VERTEX
  5
6FC
  8
0
 10
96.1274124361798
 20
300.0054638774496
 30
0.0
  0
VERTEX
  5
6FD
  8
0
 10
95.47391147624003
 20
300.0595373107554
 30
0.0
  0
VERTEX
  5
6FE
  8
0
 10
94.81193939692167
 20
300.0465835958201
 30
0.0
  0
VERTEX
  5
6FF
  8
0
 10
94.16900199029546
 20
299.967140976175
 30
0.0
  0
VERTEX
  5
700
  8
0
 10
93.57181413327788
 20
299.8245103949349
 30
0.0
  0
VERTEX
  5
701
  8
0
 10
93.04518975010458
 20
299.6246183363627
 30
0.0
  0
VERTEX
  5
702
  8
0
 10
92.61101076183462
 20
299.3757705728187
 30
0.0
  0
VERTEX
  5
703
  8
0
 10
92.28731786436128
 20
299.0883070492267
 30
0.0
  0
VERTEX
  5
704
  8
0
 10
92.08756091427347
 20
298.7741722450519
 30
0.0
  0
VERTEX
  5
705
  8
0
 10
92.02004007
 20
298.4464188658022
 30
0.0
  0
SEQEND
  5
9B8
  8
0
  0
POLYLINE
  5
27A
  8
0
 66
     1
 10
0.0
 20
0.0
 30
0.0
  0
VERTEX
  5
27B
  8
0
 10
96.12741244
 20
300.00546389
 30
0.0
  0
VERTEX
  5
27C
  8
0
 10
105.29087985
 20
298.75908871
 30
0.0
  0
SEQEND
  5
27D
  8
0
  0
POLYLINE
  5
27E
  8
0
 66
     1
 10
0.0
 20
0.0
 30
0.0
  0
VERTEX
  5
706
  8
0
 10
107.68350748
 20
297.20004368
 30
0.0
  0
VERTEX
  5
707
  8
0
 10
107.6272936767655
 20
297.4993604883836
 30
0.0
  0
VERTEX
  5
708
  8
0
 10
107.4605968773229
 20
297.7883229975849
 30
0.0
  0
VERTEX
  5
709
  8
0
 10
107.1891836423392
 20
298.0569350958289
 30
0.0
  0
VERTEX
  5
70A
  8
0
 10
106.8224429996214
 20
298.2959046553388
 30
0.0
  0
VERTEX
  5
70B
  8
0
 10
106.3730616484483
 20
298.4969649759318
 30
0.0
  0
VERTEX
  5
70C
  8
0
 10
105.8565850871904
 20
298.6531607558847
 30
0.0
  0
VERTEX
  5
70D
  8
0
 10
105.2908798461798
 20
298.7590886974496
 30
0.0
  0
SEQEND
  5
9B9
  8
0
  0
POLYLINE
  5
27F
  8
0
 66
     1
 10
0.0
 20
0.0
 30
0.0
  0
VERTEX
  5
70E
  8
0
 10
103.5761351025667
 20
295.6409986640811
 30
0.0
  0
VERTEX
  5
70F
  8
0
 10
104.2296360647036
 20
295.5869252295277
 30
0.0
  0
VERTEX
  5
710
  8
0
 10
104.8916081466615
 20
295.5998789437255
 30
0.0
  0
VERTEX
  5
711
  8
0
 10
105.5345455560456
 20
295.6793215631698
 30
0.0
  0
VERTEX
  5
712
  8
0
 10
106.1317334156168
 20
295.8219521447283
 30
0.0
  0
VERTEX
  5
713
  8
0
 10
106.6583578008403
 20
296.0218442040787
 30
0.0
  0
VERTEX
  5
714
  8
0
 10
107.0925367904015
 20
296.2706919687637
 30
0.0
  0
VERTEX
  5
715
  8
0
 10
107.4162296882128
 20
296.5581554937316
 30
0.0
  0
VERTEX
  5
716
  8
0
 10
107.6159866375666
 20
296.8722902993671
 30
0.0
  0
VERTEX
  5
717
  8
0
 10
107.68350748
 20
297.20004368
 30
0.0
  0
SEQEND
  5
9BA
  8
0
  0
LINE
  5
280
  8
0
 10
103.57613511
 20
295.64099864
 30
0.0
 11
94.4126677
 21
296.88737383
 31
0.0
  0
POLYLINE
  5
281
  8
0
 66
     1
 10
0.0
 20
0.0
 30
0.0
  0
VERTEX
  5
718
  8
0
 10
107.4085230314684
 20
296.5493698308783
 30
0.0
  0
VERTEX
  5
719
  8
0
 10
107.1300372619085
 20
296.8009274936753
 30
0.0
  0
VERTEX
  5
71A
  8
0
 10
106.7664340434378
 20
297.0240057217429
 30
0.0
  0
VERTEX
  5
71B
  8
0
 10
106.3291907120679
 20
297.2115629278499
 30
0.0
  0
VERTEX
  5
71C
  8
0
 10
105.8321090945649
 20
297.357678765403
 30
0.0
  0
VERTEX
  5
71D
  8
0
 10
105.2908798461798
 20
297.4577410074496
 30
0.0
  0
SEQEND
  5
9BB
  8
0
  0
POLYLINE
  5
282
  8
0
 66
     1
 10
0.0
 20
0.0
 30
0.0
  0
VERTEX
  5
283
  8
0
 10
105.29087985
 20
297.45774102
 30
0.0
  0
VERTEX
  5
284
  8
0
 10
96.12741244
 20
298.7041162
 30
0.0
  0
SEQEND
  5
285
  8
0
  0
POLYLINE
  5
286
  8
0
 66
     1
 10
0.0
 20
0.0
 30
0.0
  0
VERTEX
  5
71E
  8
0
 10
96.1274124361798
 20
298.7041161874496
 30
0.0
  0
VERTEX
  5
71F
  8
0
 10
95.47665936617777
 20
298.7581031446414
 30
0.0
  0
VERTEX
  5
720
  8
0
 10
94.81739184520129
 20
298.7456196321222
 30
0.0
  0
VERTEX
  5
721
  8
0
 10
94.17677723414182
 20
298.6671800754914
 30
0.0
  0
VERTEX
  5
722
  8
0
 10
93.58121423728446
 20
298.5260168435152
 30
0.0
  0
VERTEX
  5
723
  8
0
 10
93.05524505389494
 20
298.3279470473745
 30
0.0
  0
VERTEX
  5
724
  8
0
 10
92.62054403341149
 20
298.0811328268114
 30
0.0
  0
VERTEX
  5
725
  8
0
 10
92.29502451014476
 20
297.7957450013941
 30
0.0
  0
SEQEND
  5
9BC
  8
0
  0
POLYLINE
  5
287
  8
0
 66
     1
 10
0.0
 20
0.0
 30
0.0
  0
VERTEX
  5
726
  8
0
 10
84.58726627
 20
304.9260295158022
 30
0.0
  0
VERTEX
  5
727
  8
0
 10
84.64348007107398
 20
304.6267127073182
 30
0.0
  0
VERTEX
  5
728
  8
0
 10
84.81017686843076
 20
304.3377501978193
 30
0.0
  0
VERTEX
  5
729
  8
0
 10
85.0815901014756
 20
304.0691380990908
 30
0.0
  0
VERTEX
  5
72A
  8
0
 10
85.44833074246841
 20
303.8301685389261
 30
0.0
  0
VERTEX
  5
72B
  8
0
 10
85.89771209219023
 20
303.6291082175309
 30
0.0
  0
VERTEX
  5
72C
  8
0
 10
86.4141886523207
 20
303.4729124366559
 30
0.0
  0
VERTEX
  5
72D
  8
0
 10
86.97989389256666
 20
303.3669844940811
 30
0.0
  0
SEQEND
  5
9BD
  8
0
  0
POLYLINE
  5
288
  8
0
 66
     1
 10
0.0
 20
0.0
 30
0.0
  0
VERTEX
  5
72E
  8
0
 10
88.6946386361798
 20
306.4850745274496
 30
0.0
  0
VERTEX
  5
72F
  8
0
 10
88.04113767624004
 20
306.5391479607554
 30
0.0
  0
VERTEX
  5
730
  8
0
 10
87.37916559692168
 20
306.5261942458201
 30
0.0
  0
VERTEX
  5
731
  8
0
 10
86.73622819029546
 20
306.4467516261749
 30
0.0
  0
VERTEX
  5
732
  8
0
 10
86.13904033327789
 20
306.3041210449348
 30
0.0
  0
VERTEX
  5
733
  8
0
 10
85.6124159501046
 20
306.1042289863627
 30
0.0
  0
VERTEX
  5
734
  8
0
 10
85.17823696183463
 20
305.8553812228187
 30
0.0
  0
VERTEX
  5
735
  8
0
 10
84.85454406436129
 20
305.5679176992267
 30
0.0
  0
VERTEX
  5
736
  8
0
 10
84.65478711427347
 20
305.2537828950519
 30
0.0
  0
VERTEX
  5
737
  8
0
 10
84.58726627
 20
304.9260295158022
 30
0.0
  0
SEQEND
  5
9BE
  8
0
  0
POLYLINE
  5
289
  8
0
 66
     1
 10
0.0
 20
0.0
 30
0.0
  0
VERTEX
  5
28A
  8
0
 10
88.69463864
 20
306.48507454
 30
0.0
  0
VERTEX
  5
28B
  8
0
 10
97.85810605
 20
305.23869936
 30
0.0
  0
SEQEND
  5
28C
  8
0
  0
POLYLINE
  5
28D
  8
0
 66
     1
 10
0.0
 20
0.0
 30
0.0
  0
VERTEX
  5
738
  8
0
 10
100.25073368
 20
303.67965433
 30
0.0
  0
VERTEX
  5
739
  8
0
 10
100.1945198767655
 20
303.9789711383836
 30
0.0
  0
VERTEX
  5
73A
  8
0
 10
100.0278230773229
 20
304.2679336475849
 30
0.0
  0
VERTEX
  5
73B
  8
0
 10
99.75640984233917
 20
304.5365457458288
 30
0.0
  0
VERTEX
  5
73C
  8
0
 10
99.38966919962141
 20
304.7755153053388
 30
0.0
  0
VERTEX
  5
73D
  8
0
 10
98.9402878484483
 20
304.9765756259318
 30
0.0
  0
VERTEX
  5
73E
  8
0
 10
98.42381128719038
 20
305.1327714058847
 30
0.0
  0
VERTEX
  5
73F
  8
0
 10
97.8581060461798
 20
305.2386993474496
 30
0.0
  0
SEQEND
  5
9BF
  8
0
  0
POLYLINE
  5
28E
  8
0
 66
     1
 10
0.0
 20
0.0
 30
0.0
  0
VERTEX
  5
740
  8
0
 10
96.14336130256666
 20
302.1206093140811
 30
0.0
  0
VERTEX
  5
741
  8
0
 10
96.79686226470362
 20
302.0665358795277
 30
0.0
  0
VERTEX
  5
742
  8
0
 10
97.45883434666146
 20
302.0794895937255
 30
0.0
  0
VERTEX
  5
743
  8
0
 10
98.10177175604557
 20
302.1589322131698
 30
0.0
  0
VERTEX
  5
744
  8
0
 10
98.69895961561684
 20
302.3015627947283
 30
0.0
  0
VERTEX
  5
745
  8
0
 10
99.22558400084034
 20
302.5014548540786
 30
0.0
  0
VERTEX
  5
746
  8
0
 10
99.65976299040146
 20
302.7503026187637
 30
0.0
  0
VERTEX
  5
747
  8
0
 10
99.98345588821275
 20
303.0377661437316
 30
0.0
  0
VERTEX
  5
748
  8
0
 10
100.1832128375666
 20
303.3519009493671
 30
0.0
  0
VERTEX
  5
749
  8
0
 10
100.25073368
 20
303.67965433
 30
0.0
  0
SEQEND
  5
9C0
  8
0
  0
LINE
  5
28F
  8
0
 10
96.14336131
 20
302.1206093
 30
0.0
 11
86.9798939
 21
303.36698448
 31
0.0
  0
POLYLINE
  5
290
  8
0
 66
     1
 10
0.0
 20
0.0
 30
0.0
  0
VERTEX
  5
74A
  8
0
 10
99.97574923146844
 20
303.0289804808783
 30
0.0
  0
VERTEX
  5
74B
  8
0
 10
99.69726346190846
 20
303.2805381436752
 30
0.0
  0
VERTEX
  5
74C
  8
0
 10
99.3336602434378
 20
303.5036163717429
 30
0.0
  0
VERTEX
  5
74D
  8
0
 10
98.89641691206792
 20
303.6911735778499
 30
0.0
  0
VERTEX
  5
74E
  8
0
 10
98.39933529456488
 20
303.8372894154029
 30
0.0
  0
VERTEX
  5
74F
  8
0
 10
97.8581060461798
 20
303.9373516574496
 30
0.0
  0
SEQEND
  5
9C1
  8
0
  0
POLYLINE
  5
291
  8
0
 66
     1
 10
0.0
 20
0.0
 30
0.0
  0
VERTEX
  5
292
  8
0
 10
97.85810605
 20
303.93735168
 30
0.0
  0
VERTEX
  5
293
  8
0
 10
88.69463864
 20
305.18372686
 30
0.0
  0
SEQEND
  5
294
  8
0
  0
POLYLINE
  5
295
  8
0
 66
     1
 10
0.0
 20
0.0
 30
0.0
  0
VERTEX
  5
750
  8
0
 10
88.6946386361798
 20
305.1837268474496
 30
0.0
  0
VERTEX
  5
751
  8
0
 10
88.04388556617778
 20
305.2377138046414
 30
0.0
  0
VERTEX
  5
752
  8
0
 10
87.3846180452013
 20
305.2252302921221
 30
0.0
  0
VERTEX
  5
753
  8
0
 10
86.74400343414183
 20
305.1467907354914
 30
0.0
  0
VERTEX
  5
754
  8
0
 10
86.14844043728446
 20
305.0056275035151
 30
0.0
  0
VERTEX
  5
755
  8
0
 10
85.62247125389494
 20
304.8075577073745
 30
0.0
  0
VERTEX
  5
756
  8
0
 10
85.1877702334115
 20
304.5607434868114
 30
0.0
  0
VERTEX
  5
757
  8
0
 10
84.86225071014476
 20
304.2753556613941
 30
0.0
  0
SEQEND
  5
9C2
  8
0
  0
LINE
  5
296
  8
0
 10
14.9162524
 20
365.04907892
 30
0.0
 11
29.06828888
 21
369.06420394
 31
0.0
  0
LINE
  5
297
  8
0
 10
113.30639192
 20
295.62861654
 30
0.0
 11
96.80303894
 21
290.94639108
 31
0.0
  0
LINE
  5
298
  8
0
 10
113.30639192
 20
294.32726885
 30
0.0
 11
96.80303894
 21
289.6450434
 31
0.0
  0
LINE
  5
299
  8
0
  6
STRICHPUNKT2
 62
     1
 10
87.83726627
 20
306.22737719
 30
0.0
 11
87.83726627
 21
303.2503684
 31
0.0
  0
LINE
  5
29A
  8
0
  6
STRICHPUNKT2
 62
     1
 10
83.25553256
 20
305.5492171
 30
0.0
 11
101.58246739
 21
303.05646674
 31
0.0
  0
LINE
  5
29B
  8
0
  6
STRICHPUNKT2
 62
     1
 10
85.19653384
 20
303.98386282
 30
0.0
 11
98.30976539
 21
302.20025782
 31
0.0
  0
LINE
  5
29C
  8
0
  6
STRICHPUNKT2
 62
     1
 10
87.64574425
 20
303.27641839
 30
0.0
 11
88.69463864
 21
305.18372686
 31
0.0
  0
LINE
  5
29D
  8
0
  6
STRICHPUNKT2
 62
     1
 10
86.58418357
 20
302.64742523
 30
0.0
 11
89.09034896
 21
307.20463379
 31
0.0
  0
LINE
  5
29E
  8
0
  6
STRICHPUNKT2
 62
     1
 10
97.00073368
 20
304.98100201
 30
0.0
 11
97.00073368
 21
302.06335265
 31
0.0
  0
LINE
  5
29F
  8
0
  6
STRICHPUNKT2
 62
     1
 10
95.74765099
 20
301.40105005
 30
0.0
 11
98.25381638
 21
305.95825861
 31
0.0
  0
LINE
  5
2A0
  8
0
  6
STRICHPUNKT2
 62
     1
 10
96.82877473
 20
302.06561666
 30
0.0
 11
97.85810605
 21
303.93735168
 31
0.0
  0
LINE
  5
2A1
  8
0
  6
STRICHPUNKT2
 62
     1
 10
95.27004007
 20
299.74776654
 30
0.0
 11
95.27004007
 21
296.77075775
 31
0.0
  0
LINE
  5
2A2
  8
0
  6
STRICHPUNKT2
 62
     1
 10
90.68830636
 20
299.06960645
 30
0.0
 11
109.01524119
 21
296.57685609
 31
0.0
  0
LINE
  5
2A3
  8
0
  6
STRICHPUNKT2
 62
     1
 10
92.62930764
 20
297.50425217
 30
0.0
 11
105.74253919
 21
295.72064716
 31
0.0
  0
LINE
  5
2A4
  8
0
  6
STRICHPUNKT2
 62
     1
 10
95.07851805
 20
296.79680774
 30
0.0
 11
96.12741244
 21
298.7041162
 31
0.0
  0
LINE
  5
2A5
  8
0
  6
STRICHPUNKT2
 62
     1
 10
94.01695737
 20
296.16781458
 30
0.0
 11
96.52312276
 21
300.72502313
 31
0.0
  0
LINE
  5
2A6
  8
0
  6
STRICHPUNKT2
 62
     1
 10
104.43350748
 20
298.50139136
 30
0.0
 11
104.43350748
 21
295.58374199
 31
0.0
  0
LINE
  5
2A7
  8
0
  6
STRICHPUNKT2
 62
     1
 10
103.18042478
 20
294.9214394
 30
0.0
 11
105.68659017
 21
299.47864795
 31
0.0
  0
LINE
  5
2A8
  8
0
  6
STRICHPUNKT2
 62
     1
 10
104.26154853
 20
295.58600601
 30
0.0
 11
105.29087985
 21
297.45774102
 31
0.0
  0
POLYLINE
  5
2A9
  8
0
 66
     1
 10
0.0
 20
0.0
 30
0.0
  0
VERTEX
  5
758
  8
0
 10
113.3063919287586
 20
295.6286165347356
 30
0.0
  0
VERTEX
  5
759
  8
0
 10
113.5605743842209
 20
295.7257365827048
 30
0.0
  0
VERTEX
  5
75A
  8
0
 10
113.8049887502146
 20
295.8691344230375
 30
0.0
  0
VERTEX
  5
75B
  8
0
 10
114.0302423198047
 20
296.0532993571958
 30
0.0
  0
VERTEX
  5
75C
  8
0
 10
114.2276787247102
 20
296.2711540301017
 30
0.0
  0
VERTEX
  5
75D
  8
0
 10
114.3897105946796
 20
296.5143264089222
 30
0.0
  0
VERTEX
  5
75E
  8
0
 10
114.5101111358722
 20
296.7734715155922
 30
0.0
  0
VERTEX
  5
75F
  8
0
 10
114.5842534230512
 20
297.0386305490786
 30
0.0
  0
VERTEX
  5
760
  8
0
 10
114.6092882097245
 20
297.2996135965154
 30
0.0
  0
SEQEND
  5
9C3
  8
0
  0
POLYLINE
  5
2AA
  8
0
 66
     1
 10
0.0
 20
0.0
 30
0.0
  0
VERTEX
  5
761
  8
0
 10
29.06828888875858
 20
369.0642039347356
 30
0.0
  0
VERTEX
  5
762
  8
0
 10
29.32247134422088
 20
369.1613239827048
 30
0.0
  0
VERTEX
  5
763
  8
0
 10
29.56688571021459
 20
369.3047218230375
 30
0.0
  0
VERTEX
  5
764
  8
0
 10
29.79213927980471
 20
369.4888867571958
 30
0.0
  0
VERTEX
  5
765
  8
0
 10
29.9895756847102
 20
369.7067414301018
 30
0.0
  0
VERTEX
  5
766
  8
0
 10
30.1516075546796
 20
369.9499138089222
 30
0.0
  0
VERTEX
  5
767
  8
0
 10
30.27200809587218
 20
370.2090589155923
 30
0.0
  0
VERTEX
  5
768
  8
0
 10
30.34615038305123
 20
370.4742179490786
 30
0.0
  0
VERTEX
  5
769
  8
0
 10
30.37118516972449
 20
370.7352009965154
 30
0.0
  0
SEQEND
  5
9C4
  8
0
  0
POLYLINE
  5
2AB
  8
0
 66
     1
 10
0.0
 20
0.0
 30
0.0
  0
VERTEX
  5
76A
  8
0
 10
113.3063919318162
 20
294.3272688560107
 30
0.0
  0
VERTEX
  5
76B
  8
0
 10
113.8147568418889
 20
294.5215089503476
 30
0.0
  0
VERTEX
  5
76C
  8
0
 10
114.3035855732763
 20
294.8083046292217
 30
0.0
  0
VERTEX
  5
76D
  8
0
 10
114.7540927121314
 20
295.176634495626
 30
0.0
  0
VERTEX
  5
76E
  8
0
 10
115.1489655219046
 20
295.6123438394782
 30
0.0
  0
VERTEX
  5
76F
  8
0
 10
115.4730292620944
 20
296.0986885951872
 30
0.0
  0
VERTEX
  5
770
  8
0
 10
115.7138303450098
 20
296.6169788066975
 30
0.0
  0
VERTEX
  5
771
  8
0
 10
115.8621149201569
 20
297.1472968720132
 30
0.0
  0
VERTEX
  5
772
  8
0
 10
115.912184494521
 20
297.6692629654654
 30
0.0
  0
SEQEND
  5
9C5
  8
0
  0
POLYLINE
  5
2AC
  8
0
 66
     1
 10
0.0
 20
0.0
 30
0.0
  0
VERTEX
  5
773
  8
0
 10
95.81735717999999
 20
291.11706132
 30
0.0
  0
VERTEX
  5
774
  8
0
 10
96.02130820757218
 20
290.9848677068364
 30
0.0
  0
VERTEX
  5
775
  8
0
 10
96.26108854062753
 20
290.9105556516986
 30
0.0
  0
VERTEX
  5
776
  8
0
 10
96.52570825329322
 20
290.8975311219028
 30
0.0
  0
VERTEX
  5
777
  8
0
 10
96.80303894875857
 20
290.9463910747356
 30
0.0
  0
SEQEND
  5
9C6
  8
0
  0
POLYLINE
  5
2AD
  8
0
 66
     1
 10
0.0
 20
0.0
 30
0.0
  0
VERTEX
  5
778
  8
0
 10
95.5001426502755
 20
291.8780893751427
 30
0.0
  0
VERTEX
  5
779
  8
0
 10
95.52077508102708
 20
291.6532670790996
 30
0.0
  0
VERTEX
  5
77A
  8
0
 10
95.58201890749349
 20
291.4472726744497
 30
0.0
  0
VERTEX
  5
77B
  8
0
 10
95.68193443742314
 20
291.2666303412391
 30
0.0
  0
VERTEX
  5
77C
  8
0
 10
95.81735718240309
 20
291.1170613179051
 30
0.0
  0
SEQEND
  5
9C7
  8
0
  0
POLYLINE
  5
2AE
  8
0
 66
     1
 10
0.0
 20
0.0
 30
0.0
  0
VERTEX
  5
77D
  8
0
 10
94.197246365479
 20
291.5084399978508
 30
0.0
  0
VERTEX
  5
77E
  8
0
 10
94.2385112255679
 20
291.0587954085176
 30
0.0
  0
VERTEX
  5
77F
  8
0
 10
94.36099887633408
 20
290.6468066013471
 30
0.0
  0
VERTEX
  5
780
  8
0
 10
94.56082993337364
 20
290.2855219362604
 30
0.0
  0
VERTEX
  5
781
  8
0
 10
94.83167542
 20
289.98638389
 30
0.0
  0
SEQEND
  5
9C8
  8
0
  0
POLYLINE
  5
2AF
  8
0
 66
     1
 10
0.0
 20
0.0
 30
0.0
  0
VERTEX
  5
782
  8
0
 10
94.8316754248062
 20
289.9863838858101
 30
0.0
  0
VERTEX
  5
783
  8
0
 10
95.23957747795002
 20
289.7219966613914
 30
0.0
  0
VERTEX
  5
784
  8
0
 10
95.71913814146227
 20
289.5733725519125
 30
0.0
  0
VERTEX
  5
785
  8
0
 10
96.24837756386032
 20
289.5473234919244
 30
0.0
  0
VERTEX
  5
786
  8
0
 10
96.80303895181618
 20
289.6450433960107
 30
0.0
  0
SEQEND
  5
9C9
  8
0
  0
LINE
  5
2B0
  8
0
 10
94.83167542
 20
289.98638389
 30
0.0
 11
90.54303358
 21
293.7250594
 31
0.0
  0
LINE
  5
2B1
  8
0
 10
94.19724637
 20
291.50844001
 30
0.0
 11
94.19724637
 21
293.46046153
 31
0.0
  0
LINE
  5
2B2
  8
0
 10
95.50014265
 20
291.87808939
 30
0.0
 11
95.50014265
 21
293.83011091
 31
0.0
  0
POLYLINE
  5
2B3
  8
0
 66
     1
 10
0.0
 20
0.0
 30
0.0
  0
VERTEX
  5
787
  8
0
 10
10.62761056611729
 20
368.7877544146672
 30
0.0
  0
VERTEX
  5
788
  8
0
 10
10.21970851394309
 20
369.0521416430738
 30
0.0
  0
VERTEX
  5
789
  8
0
 10
9.740147850386055
 20
369.200765756036
 30
0.0
  0
VERTEX
  5
78A
  8
0
 10
9.210908427074813
 20
369.2268148187986
 30
0.0
  0
VERTEX
  5
78B
  8
0
 10
8.656247037538064
 20
369.1290949166432
 30
0.0
  0
SEQEND
  5
9CA
  8
0
  0
LINE
  5
2B4
  8
0
 10
65.11281463
 20
321.28961735
 30
0.0
 11
10.62761056
 21
368.78775443
 31
0.0
  0
LINE
  5
2B5
  8
0
 10
94.8657136
 20
295.35216703
 30
0.0
 11
72.72826926
 21
314.65075247
 31
0.0
  0
LINE
  5
2B6
  8
0
 10
68.41906514
 20
318.40735339
 30
0.0
 11
67.32061865
 21
319.36493743
 31
0.0
  0
POLYLINE
  5
2B7
  8
0
 66
     1
 10
0.0
 20
0.0
 30
0.0
  0
VERTEX
  5
78C
  8
0
 10
94.86571360611728
 20
295.3521670246672
 30
0.0
  0
VERTEX
  5
78D
  8
0
 10
94.45781155394307
 20
295.6165542530737
 30
0.0
  0
VERTEX
  5
78E
  8
0
 10
93.97825089038605
 20
295.765178366036
 30
0.0
  0
VERTEX
  5
78F
  8
0
 10
93.44901146707481
 20
295.7912274287986
 30
0.0
  0
VERTEX
  5
790
  8
0
 10
92.89435007753806
 20
295.6935075266432
 30
0.0
  0
SEQEND
  5
9CB
  8
0
  0
POLYLINE
  5
2B8
  8
0
 66
     1
 10
0.0
 20
0.0
 30
0.0
  0
VERTEX
  5
791
  8
0
 10
93.88003184305865
 20
294.2214895973336
 30
0.0
  0
VERTEX
  5
792
  8
0
 10
93.67608081616953
 20
294.3536832114223
 30
0.0
  0
VERTEX
  5
793
  8
0
 10
93.43630048362576
 20
294.4279952675649
 30
0.0
  0
VERTEX
  5
794
  8
0
 10
93.17168077127673
 20
294.4410197983993
 30
0.0
  0
VERTEX
  5
795
  8
0
 10
92.89435007591855
 20
294.3921598465914
 30
0.0
  0
SEQEND
  5
9CC
  8
0
  0
POLYLINE
  5
2B9
  8
0
 66
     1
 10
0.0
 20
0.0
 30
0.0
  0
VERTEX
  5
796
  8
0
 10
94.19724636972448
 20
293.4604615365154
 30
0.0
  0
VERTEX
  5
797
  8
0
 10
94.17661394045334
 20
293.6852838331106
 30
0.0
  0
VERTEX
  5
798
  8
0
 10
94.11537011542049
 20
293.8912782385593
 30
0.0
  0
VERTEX
  5
799
  8
0
 10
94.0154545868321
 20
294.0719205727902
 30
0.0
  0
VERTEX
  5
79A
  8
0
 10
93.88003184305865
 20
294.2214895973336
 30
0.0
  0
SEQEND
  5
9CD
  8
0
  0
POLYLINE
  5
2BA
  8
0
 66
     1
 10
0.0
 20
0.0
 30
0.0
  0
VERTEX
  5
79B
  8
0
 10
95.50014265452097
 20
293.8301109054654
 30
0.0
  0
VERTEX
  5
79C
  8
0
 10
95.45887779706727
 20
294.2797554976165
 30
0.0
  0
VERTEX
  5
79D
  8
0
 10
95.33639014821176
 20
294.691744307747
 30
0.0
  0
VERTEX
  5
79E
  8
0
 10
95.13655909232845
 20
295.0530289757387
 30
0.0
  0
VERTEX
  5
79F
  8
0
 10
94.86571360611728
 20
295.3521670246672
 30
0.0
  0
SEQEND
  5
9CE
  8
0
  0
LINE
  5
2BB
  8
0
 10
114.60928821
 20
297.2996136
 30
0.0
 11
114.60928821
 21
299.25163513
 31
0.0
  0
LINE
  5
2BC
  8
0
 10
30.37118517
 20
372.68722253
 30
0.0
 11
30.37118517
 21
370.735201
 31
0.0
  0
LINE
  5
2BD
  8
0
 10
115.9121845
 20
297.66926298
 30
0.0
 11
115.9121845
 21
299.62128451
 31
0.0
  0
POLYLINE
  5
2BE
  8
0
 66
     1
 10
0.0
 20
0.0
 30
0.0
  0
VERTEX
  5
7A0
  8
0
 10
5.00559904
 20
362.1130988929011
 30
0.0
  0
VERTEX
  5
7A1
  8
0
 10
5.036822958277836
 20
361.9554364862736
 30
0.0
  0
VERTEX
  5
7A2
  8
0
 10
5.129294797715852
 20
361.8038329574171
 30
0.0
  0
VERTEX
  5
7A3
  8
0
 10
5.279460917375157
 20
361.6641143449384
 30
0.0
  0
VERTEX
  5
7A4
  8
0
 10
5.481550517478226
 20
361.5416499567723
 30
0.0
  0
VERTEX
  5
7A5
  8
0
 10
5.72779740800856
 20
361.441146030688
 30
0.0
  0
VERTEX
  5
7A6
  8
0
 10
6.008738459038371
 20
361.3664648762103
 30
0.0
  0
VERTEX
  5
7A7
  8
0
 10
6.313577263505545
 20
361.3204764482307
 30
0.0
  0
VERTEX
  5
7A8
  8
0
 10
6.630599037083292
 20
361.30494805625
 30
0.0
  0
VERTEX
  5
7A9
  8
0
 10
6.947620810773127
 20
361.3204764476648
 30
0.0
  0
VERTEX
  5
7AA
  8
0
 10
7.252459615572256
 20
361.3664648751001
 30
0.0
  0
VERTEX
  5
7AB
  8
0
 10
7.533400667141132
 20
361.4411460290763
 30
0.0
  0
VERTEX
  5
7AC
  8
0
 10
7.779647558396928
 20
361.541649954721
 30
0.0
  0
VERTEX
  5
7AD
  8
0
 10
7.981737159383973
 20
361.6641143425263
 30
0.0
  0
VERTEX
  5
7AE
  8
0
 10
8.131903280051796
 20
361.8038329547368
 30
0.0
  0
VERTEX
  5
7AF
  8
0
 10
8.22437512058412
 20
361.9554364834283
 30
0.0
  0
VERTEX
  5
7B0
  8
0
 10
8.25559904
 20
362.11309889
 30
0.0
  0
SEQEND
  5
9CF
  8
0
  0
POLYLINE
  5
2BF
  8
0
 66
     1
 10
0.0
 20
0.0
 30
0.0
  0
VERTEX
  5
7B1
  8
0
 10
8.25559904
 20
362.11309889
 30
0.0
  0
VERTEX
  5
7B2
  8
0
 10
8.224375120726377
 20
362.2707612962161
 30
0.0
  0
VERTEX
  5
7B3
  8
0
 10
8.131903280609885
 20
362.4223648245931
 30
0.0
  0
VERTEX
  5
7B4
  8
0
 10
7.981737160599299
 20
362.5620834365692
 30
0.0
  0
VERTEX
  5
7B5
  8
0
 10
7.779647560459351
 20
362.6845478242533
 30
0.0
  0
VERTEX
  5
7B6
  8
0
 10
7.533400670172574
 20
362.7850517499164
 30
0.0
  0
VERTEX
  5
7B7
  8
0
 10
7.252459619614285
 20
362.8597329040672
 30
0.0
  0
VERTEX
  5
7B8
  8
0
 10
6.947620815779288
 20
362.90572133184
 30
0.0
  0
VERTEX
  5
7B9
  8
0
 10
6.630599042916707
 20
362.92124972375
 30
0.0
  0
VERTEX
  5
7BA
  8
0
 10
6.313577269942037
 20
362.905721332406
 30
0.0
  0
VERTEX
  5
7BB
  8
0
 10
6.008738465775086
 20
362.8597329051775
 30
0.0
  0
VERTEX
  5
7BC
  8
0
 10
5.727797414677731
 20
362.7850517515282
 30
0.0
  0
VERTEX
  5
7BD
  8
0
 10
5.481550523665495
 20
362.6845478263047
 30
0.0
  0
VERTEX
  5
7BE
  8
0
 10
5.279460922641571
 20
362.5620834389813
 30
0.0
  0
VERTEX
  5
7BF
  8
0
 10
5.129294801622466
 20
362.4223648272734
 30
0.0
  0
VERTEX
  5
7C0
  8
0
 10
5.036822960411666
 20
362.2707612990614
 30
0.0
  0
VERTEX
  5
7C1
  8
0
 10
5.00559904
 20
362.1130988929011
 30
0.0
  0
SEQEND
  5
9D0
  8
0
  0
POLYLINE
  5
2C0
  8
0
 66
     1
 10
0.0
 20
0.0
 30
0.0
  0
VERTEX
  5
7C2
  8
0
 10
7.594363821846273
 20
361.4624250464598
 30
0.0
  0
VERTEX
  5
7C3
  8
0
 10
7.298039737703145
 20
361.548587411031
 30
0.0
  0
VERTEX
  5
7C4
  8
0
 10
6.971934558004377
 20
361.6018722639562
 30
0.0
  0
VERTEX
  5
7C5
  8
0
 10
6.630599042916707
 20
361.61990204375
 30
0.0
  0
VERTEX
  5
7C6
  8
0
 10
6.289263527698894
 20
361.6018722645656
 30
0.0
  0
VERTEX
  5
7C7
  8
0
 10
5.963158347615503
 20
361.5485874122226
 30
0.0
  0
VERTEX
  5
7C8
  8
0
 10
5.666834262850436
 20
361.4624250481804
 30
0.0
  0
SEQEND
  5
9D1
  8
0
  0
POLYLINE
  5
2C1
  8
0
 66
     1
 10
0.0
 20
0.0
 30
0.0
  0
VERTEX
  5
7C9
  8
0
 10
67.17421458423414
 20
307.5770923382408
 30
0.0
  0
VERTEX
  5
7CA
  8
0
 10
67.74208388650347
 20
307.4325462389425
 30
0.0
  0
VERTEX
  5
7CB
  8
0
 10
68.31495343260373
 20
307.3537446729836
 30
0.0
  0
VERTEX
  5
7CC
  8
0
 10
68.86858340109151
 20
307.3440219699706
 30
0.0
  0
VERTEX
  5
7CD
  8
0
 10
69.37954805451358
 20
307.4037895265064
 30
0.0
  0
VERTEX
  5
7CE
  8
0
 10
69.82622695232253
 20
307.5305183987704
 30
0.0
  0
VERTEX
  5
7CF
  8
0
 10
70.1897197762886
 20
307.718846309685
 30
0.0
  0
VERTEX
  5
7D0
  8
0
 10
70.45464605941208
 20
307.9608045428743
 30
0.0
  0
VERTEX
  5
7D1
  8
0
 10
70.60979597941794
 20
308.2461551228529
 30
0.0
  0
VERTEX
  5
7D2
  8
0
 10
70.64860467981566
 20
308.5628240143459
 30
0.0
  0
SEQEND
  5
9D2
  8
0
  0
POLYLINE
  5
2C2
  8
0
 66
     1
 10
0.0
 20
0.0
 30
0.0
  0
VERTEX
  5
2C3
  8
0
 10
73.47154664
 20
309.36373099
 30
0.0
  0
VERTEX
  5
2C4
  8
0
 10
73.96706489
 20
308.93175695
 30
0.0
  0
SEQEND
  5
2C5
  8
0
  0
POLYLINE
  5
2C6
  8
0
 66
     1
 10
0.0
 20
0.0
 30
0.0
  0
VERTEX
  5
7D3
  8
0
 10
73.96706489536068
 20
308.9317569529383
 30
0.0
  0
VERTEX
  5
7D4
  8
0
 10
74.08399717158643
 20
308.8501826781056
 30
0.0
  0
VERTEX
  5
7D5
  8
0
 10
74.2314304208427
 20
308.7819182357214
 30
0.0
  0
VERTEX
  5
7D6
  8
0
 10
74.40338211624154
 20
308.7297336512998
 30
0.0
  0
VERTEX
  5
7D7
  8
0
 10
74.5928748246304
 20
308.6957464640052
 30
0.0
  0
VERTEX
  5
7D8
  8
0
 10
74.79221933595167
 20
308.6813358014282
 30
0.0
  0
VERTEX
  5
7D9
  8
0
 10
74.99332667499141
 20
308.6870864175291
 30
0.0
  0
VERTEX
  5
7DA
  8
0
 10
75.1880363347457
 20
308.712764964568
 30
0.0
  0
VERTEX
  5
7DB
  8
0
 10
75.36844741239447
 20
308.7573294618598
 30
0.0
  0
VERTEX
  5
7DC
  8
0
 10
75.52723921109109
 20
308.8189715771277
 30
0.0
  0
VERTEX
  5
7DD
  8
0
 10
75.65796829823076
 20
308.8951900047714
 30
0.0
  0
VERTEX
  5
7DE
  8
0
 10
75.75532996620653
 20
308.9828919635152
 30
0.0
  0
VERTEX
  5
7DF
  8
0
 10
75.81537348613291
 20
309.0785186948771
 30
0.0
  0
VERTEX
  5
7E0
  8
0
 10
75.83566242
 20
309.17818987
 30
0.0
  0
SEQEND
  5
9D3
  8
0
  0
POLYLINE
  5
2C7
  8
0
 66
     1
 10
0.0
 20
0.0
 30
0.0
  0
VERTEX
  5
7E1
  8
0
 10
75.83566242
 20
309.17818987
 30
0.0
  0
VERTEX
  5
7E2
  8
0
 10
75.82076781432814
 20
309.2637054705004
 30
0.0
  0
VERTEX
  5
7E3
  8
0
 10
75.77652769586875
 20
309.3466736287044
 30
0.0
  0
VERTEX
  5
7E4
  8
0
 10
75.70425994286053
 20
309.4246227886123
 30
0.0
  0
SEQEND
  5
9D4
  8
0
  0
LINE
  5
2C8
  8
0
 10
75.70425994
 20
309.42462279
 30
0.0
 11
72.72826926
 21
312.01897874
 31
0.0
  0
LINE
  5
2C9
  8
0
 10
62.86471787
 20
318.95073426
 30
0.0
 11
54.31846858
 21
316.52604722
 31
0.0
  0
POLYLINE
  5
2CA
  8
0
 66
     1
 10
0.0
 20
0.0
 30
0.0
  0
VERTEX
  5
7E5
  8
0
 10
52.95435280536067
 20
316.7115883529383
 30
0.0
  0
VERTEX
  5
7E6
  8
0
 10
53.06771347926759
 20
316.6320495377748
 30
0.0
  0
VERTEX
  5
7E7
  8
0
 10
53.2100974819245
 20
316.5650376335246
 30
0.0
  0
VERTEX
  5
7E8
  8
0
 10
53.37603307593692
 20
316.5131278700978
 30
0.0
  0
VERTEX
  5
7E9
  8
0
 10
53.55914344945877
 20
316.4783151105997
 30
0.0
  0
VERTEX
  5
7EA
  8
0
 10
53.75239177349646
 20
316.4619371898601
 30
0.0
  0
VERTEX
  5
7EB
  8
0
 10
53.9483516233019
 20
316.4646235021906
 30
0.0
  0
VERTEX
  5
7EC
  8
0
 10
54.13949237171201
 20
316.4862708141145
 30
0.0
  0
VERTEX
  5
7ED
  8
0
 10
54.31846858692846
 20
316.5260472315711
 30
0.0
  0
SEQEND
  5
9D5
  8
0
  0
POLYLINE
  5
2CB
  8
0
 66
     1
 10
0.0
 20
0.0
 30
0.0
  0
VERTEX
  5
2CC
  8
0
 10
52.9543528
 20
316.71158835
 30
0.0
  0
VERTEX
  5
2CD
  8
0
 10
-3.28696894
 20
365.74064229
 30
0.0
  0
VERTEX
  5
2CE
  8
0
 10
8.65624704
 20
369.12909492
 30
0.0
  0
SEQEND
  5
2CF
  8
0
  0
POLYLINE
  5
2D0
  8
0
 66
     1
 10
0.0
 20
0.0
 30
0.0
  0
VERTEX
  5
2D1
  8
0
 10
92.89435008
 20
295.69350752
 30
0.0
  0
VERTEX
  5
2D2
  8
0
 10
80.95113411
 20
292.30505489
 30
0.0
  0
VERTEX
  5
2D3
  8
0
 10
64.35127263
 20
306.77618535
 30
0.0
  0
SEQEND
  5
2D4
  8
0
  0
LINE
  5
2D5
  8
0
 10
80.95113411
 20
291.0037072
 30
0.0
 11
64.35127263
 21
305.47483766
 31
0.0
  0
LINE
  5
2D6
  8
0
 10
80.95113411
 20
292.30505489
 30
0.0
 11
80.95113411
 21
291.0037072
 31
0.0
  0
LINE
  5
2D7
  8
0
 10
92.89435008
 20
294.39215984
 30
0.0
 11
80.95113411
 21
291.0037072
 31
0.0
  0
LINE
  5
2D8
  8
0
 10
-3.28696894
 20
365.74064229
 30
0.0
 11
-3.28696894
 21
364.4392946
 31
0.0
  0
LINE
  5
2D9
  8
0
 10
52.9543528
 20
315.41024066
 30
0.0
 11
-3.28696894
 21
364.4392946
 31
0.0
  0
POLYLINE
  5
2DA
  8
0
 66
     1
 10
0.0
 20
0.0
 30
0.0
  0
VERTEX
  5
7EE
  8
0
 10
52.95435280536067
 20
315.4102406629383
 30
0.0
  0
VERTEX
  5
7EF
  8
0
 10
53.06771347926759
 20
315.3307018477748
 30
0.0
  0
VERTEX
  5
7F0
  8
0
 10
53.2100974819245
 20
315.2636899435246
 30
0.0
  0
VERTEX
  5
7F1
  8
0
 10
53.37603307593692
 20
315.2117801800978
 30
0.0
  0
VERTEX
  5
7F2
  8
0
 10
53.55914344945877
 20
315.1769674205997
 30
0.0
  0
VERTEX
  5
7F3
  8
0
 10
53.75239177349646
 20
315.1605894998601
 30
0.0
  0
VERTEX
  5
7F4
  8
0
 10
53.9483516233019
 20
315.1632758121906
 30
0.0
  0
VERTEX
  5
7F5
  8
0
 10
54.13949237171201
 20
315.1849231241145
 30
0.0
  0
VERTEX
  5
7F6
  8
0
 10
54.31846858692846
 20
315.2246995415711
 30
0.0
  0
SEQEND
  5
9D6
  8
0
  0
LINE
  5
2DB
  8
0
 10
54.31846858
 20
315.22469954
 30
0.0
 11
62.86471787
 21
317.64938657
 31
0.0
  0
LINE
  5
2DC
  8
0
 10
72.81062962
 20
310.64583241
 30
0.0
 11
75.05123304
 21
308.69255922
 31
0.0
  0
LINE
  5
2DD
  8
0
  6
STRICHPUNKT2
 62
     1
 10
6.63059904
 20
362.81799555
 30
0.0
 11
6.63059904
 21
361.30494805
 31
0.0
  0
LINE
  5
2DE
  8
0
  6
STRICHPUNKT2
 62
     1
 10
6.63059904
 20
362.11309889
 30
0.0
 11
5.4227733
 21
363.16603562
 31
0.0
  0
LINE
  5
2DF
  8
0
  6
STRICHPUNKT2
 62
     1
 10
6.63059904
 20
362.11309889
 30
0.0
 11
7.83842478
 21
361.06016216
 31
0.0
  0
LINE
  5
2E0
  8
0
  6
STRICHPUNKT2
 62
     1
 10
6.63059904
 20
362.11309889
 30
0.0
 11
4.51339257
 21
361.51241865
 31
0.0
  0
LINE
  5
2E1
  8
0
  6
STRICHPUNKT2
 62
     1
 10
6.63059904
 20
362.11309889
 30
0.0
 11
8.74780551
 21
362.71377913
 31
0.0
  0
LINE
  5
2E2
  8
0
  6
STRICHPUNKT2
 62
     1
 10
5.98970797
 20
361.37045577
 30
0.0
 11
5.82538188
 21
361.51370903
 31
0.0
  0
POLYLINE
  5
2E3
  8
0
 66
     1
 10
0.0
 20
0.0
 30
0.0
  0
VERTEX
  5
7F7
  8
0
 10
44.52678643
 20
373.3257967029011
 30
0.0
  0
VERTEX
  5
7F8
  8
0
 10
44.55801034827784
 20
373.1681342962736
 30
0.0
  0
VERTEX
  5
7F9
  8
0
 10
44.65048218771585
 20
373.0165307674171
 30
0.0
  0
VERTEX
  5
7FA
  8
0
 10
44.80064830737516
 20
372.8768121549384
 30
0.0
  0
VERTEX
  5
7FB
  8
0
 10
45.00273790747823
 20
372.7543477667724
 30
0.0
  0
VERTEX
  5
7FC
  8
0
 10
45.24898479800856
 20
372.653843840688
 30
0.0
  0
VERTEX
  5
7FD
  8
0
 10
45.52992584903837
 20
372.5791626862103
 30
0.0
  0
VERTEX
  5
7FE
  8
0
 10
45.83476465350554
 20
372.5331742582308
 30
0.0
  0
VERTEX
  5
7FF
  8
0
 10
46.15178642708329
 20
372.51764586625
 30
0.0
  0
VERTEX
  5
800
  8
0
 10
46.46880820077313
 20
372.5331742576648
 30
0.0
  0
VERTEX
  5
801
  8
0
 10
46.77364700557226
 20
372.5791626851001
 30
0.0
  0
VERTEX
  5
802
  8
0
 10
47.05458805714113
 20
372.6538438390763
 30
0.0
  0
VERTEX
  5
803
  8
0
 10
47.30083494839693
 20
372.754347764721
 30
0.0
  0
VERTEX
  5
804
  8
0
 10
47.50292454938398
 20
372.8768121525263
 30
0.0
  0
VERTEX
  5
805
  8
0
 10
47.6530906700518
 20
373.0165307647368
 30
0.0
  0
VERTEX
  5
806
  8
0
 10
47.74556251058412
 20
373.1681342934283
 30
0.0
  0
VERTEX
  5
807
  8
0
 10
47.77678643
 20
373.3257967
 30
0.0
  0
SEQEND
  5
9D7
  8
0
  0
POLYLINE
  5
2E4
  8
0
 66
     1
 10
0.0
 20
0.0
 30
0.0
  0
VERTEX
  5
808
  8
0
 10
47.77678643
 20
373.3257967
 30
0.0
  0
VERTEX
  5
809
  8
0
 10
47.74556251072638
 20
373.4834591062161
 30
0.0
  0
VERTEX
  5
80A
  8
0
 10
47.65309067060988
 20
373.6350626345931
 30
0.0
  0
VERTEX
  5
80B
  8
0
 10
47.5029245505993
 20
373.7747812465692
 30
0.0
  0
VERTEX
  5
80C
  8
0
 10
47.30083495045935
 20
373.8972456342534
 30
0.0
  0
VERTEX
  5
80D
  8
0
 10
47.05458806017258
 20
373.9977495599164
 30
0.0
  0
VERTEX
  5
80E
  8
0
 10
46.77364700961429
 20
374.0724307140673
 30
0.0
  0
VERTEX
  5
80F
  8
0
 10
46.46880820577929
 20
374.11841914184
 30
0.0
  0
VERTEX
  5
810
  8
0
 10
46.15178643291671
 20
374.13394753375
 30
0.0
  0
VERTEX
  5
811
  8
0
 10
45.83476465994204
 20
374.118419142406
 30
0.0
  0
VERTEX
  5
812
  8
0
 10
45.52992585577509
 20
374.0724307151775
 30
0.0
  0
VERTEX
  5
813
  8
0
 10
45.24898480467773
 20
373.9977495615282
 30
0.0
  0
VERTEX
  5
814
  8
0
 10
45.0027379136655
 20
373.8972456363047
 30
0.0
  0
VERTEX
  5
815
  8
0
 10
44.80064831264157
 20
373.7747812489814
 30
0.0
  0
VERTEX
  5
816
  8
0
 10
44.65048219162247
 20
373.6350626372734
 30
0.0
  0
VERTEX
  5
817
  8
0
 10
44.55801035041166
 20
373.4834591090614
 30
0.0
  0
VERTEX
  5
818
  8
0
 10
44.52678643
 20
373.3257967029011
 30
0.0
  0
SEQEND
  5
9D8
  8
0
  0
POLYLINE
  5
2E5
  8
0
 66
     1
 10
0.0
 20
0.0
 30
0.0
  0
VERTEX
  5
819
  8
0
 10
47.11555121184627
 20
372.6751228564598
 30
0.0
  0
VERTEX
  5
81A
  8
0
 10
46.81922712770314
 20
372.761285221031
 30
0.0
  0
VERTEX
  5
81B
  8
0
 10
46.49312194800438
 20
372.8145700739562
 30
0.0
  0
VERTEX
  5
81C
  8
0
 10
46.15178643291671
 20
372.83259985375
 30
0.0
  0
VERTEX
  5
81D
  8
0
 10
45.81045091769889
 20
372.8145700745656
 30
0.0
  0
VERTEX
  5
81E
  8
0
 10
45.48434573761551
 20
372.7612852222226
 30
0.0
  0
VERTEX
  5
81F
  8
0
 10
45.18802165285044
 20
372.6751228581804
 30
0.0
  0
SEQEND
  5
9D9
  8
0
  0
POLYLINE
  5
2E6
  8
0
 66
     1
 10
0.0
 20
0.0
 30
0.0
  0
VERTEX
  5
820
  8
0
 10
106.2611032142341
 20
318.6665736882408
 30
0.0
  0
VERTEX
  5
821
  8
0
 10
106.8289725165035
 20
318.5220275889425
 30
0.0
  0
VERTEX
  5
822
  8
0
 10
107.4018420626037
 20
318.4432260229836
 30
0.0
  0
VERTEX
  5
823
  8
0
 10
107.9554720310915
 20
318.4335033199707
 30
0.0
  0
VERTEX
  5
824
  8
0
 10
108.4664366845136
 20
318.4932708765065
 30
0.0
  0
VERTEX
  5
825
  8
0
 10
108.9131155823225
 20
318.6199997487704
 30
0.0
  0
VERTEX
  5
826
  8
0
 10
109.2766084062886
 20
318.8083276596851
 30
0.0
  0
VERTEX
  5
827
  8
0
 10
109.5415346894121
 20
319.0502858928743
 30
0.0
  0
VERTEX
  5
828
  8
0
 10
109.6966846094179
 20
319.3356364728529
 30
0.0
  0
VERTEX
  5
829
  8
0
 10
109.7354933098157
 20
319.6523053643459
 30
0.0
  0
SEQEND
  5
9DA
  8
0
  0
LINE
  5
2E7
  8
0
 10
129.15829675
 20
305.98208189
 30
0.0
 11
112.55843527
 21
320.45321234
 31
0.0
  0
LINE
  5
2E8
  8
0
 10
129.15829675
 20
305.98208189
 30
0.0
 11
117.21508078
 21
302.59362925
 31
0.0
  0
LINE
  5
2E9
  8
0
 10
32.97697774
 20
376.02921665
 30
0.0
 11
44.92019371
 21
379.41766928
 31
0.0
  0
LINE
  5
2EA
  8
0
 10
101.16151545
 20
330.38861535
 30
0.0
 11
44.92019371
 21
379.41766928
 31
0.0
  0
POLYLINE
  5
2EB
  8
0
 66
     1
 10
0.0
 20
0.0
 30
0.0
  0
VERTEX
  5
82A
  8
0
 10
101.29291792
 20
330.14218243
 30
0.0
  0
VERTEX
  5
82B
  8
0
 10
101.2780233143281
 20
330.2276980305004
 30
0.0
  0
VERTEX
  5
82C
  8
0
 10
101.2337831958687
 20
330.3106661887044
 30
0.0
  0
VERTEX
  5
82D
  8
0
 10
101.1615154428605
 20
330.3886153486123
 30
0.0
  0
SEQEND
  5
9DB
  8
0
  0
POLYLINE
  5
2EC
  8
0
 66
     1
 10
0.0
 20
0.0
 30
0.0
  0
VERTEX
  5
82E
  8
0
 10
100.7884361769285
 20
329.7102083915711
 30
0.0
  0
VERTEX
  5
82F
  8
0
 10
100.9589707247393
 20
329.7712264801983
 30
0.0
  0
VERTEX
  5
830
  8
0
 10
101.1001086409244
 20
329.8486169274856
 30
0.0
  0
VERTEX
  5
831
  8
0
 10
101.2056207206803
 20
329.9389640606003
 30
0.0
  0
VERTEX
  5
832
  8
0
 10
101.2708501264132
 20
330.0382803557728
 30
0.0
  0
VERTEX
  5
833
  8
0
 10
101.29291792
 20
330.14218243
 30
0.0
  0
SEQEND
  5
9DC
  8
0
  0
LINE
  5
2ED
  8
0
 10
100.78843618
 20
329.71020838
 30
0.0
 11
91.66816216
 21
327.12266273
 31
0.0
  0
POLYLINE
  5
2EE
  8
0
 66
     1
 10
0.0
 20
0.0
 30
0.0
  0
VERTEX
  5
834
  8
0
 10
91.66816216863943
 20
327.1226627300086
 30
0.0
  0
VERTEX
  5
835
  8
0
 10
91.49762761962133
 20
327.0616446417382
 30
0.0
  0
VERTEX
  5
836
  8
0
 10
91.35648970219357
 20
326.9842541946348
 30
0.0
  0
VERTEX
  5
837
  8
0
 10
91.25097762124757
 20
326.8939070615413
 30
0.0
  0
VERTEX
  5
838
  8
0
 10
91.18574821445466
 20
326.7945907662474
 30
0.0
  0
VERTEX
  5
839
  8
0
 10
91.16368042
 20
326.6906886917853
 30
0.0
  0
SEQEND
  5
9DD
  8
0
  0
POLYLINE
  5
2EF
  8
0
 66
     1
 10
0.0
 20
0.0
 30
0.0
  0
VERTEX
  5
83A
  8
0
 10
91.16368042
 20
326.6906886917853
 30
0.0
  0
VERTEX
  5
83B
  8
0
 10
91.17857502505461
 20
326.6051730912582
 30
0.0
  0
VERTEX
  5
83C
  8
0
 10
91.22281514291511
 20
326.5222049329753
 30
0.0
  0
VERTEX
  5
83D
  8
0
 10
91.29508289536068
 20
326.4442557729383
 30
0.0
  0
SEQEND
  5
9DE
  8
0
  0
POLYLINE
  5
2F0
  8
0
 66
     1
 10
0.0
 20
0.0
 30
0.0
  0
VERTEX
  5
2F1
  8
0
 10
91.29508289
 20
326.44425577
 30
0.0
  0
VERTEX
  5
2F2
  8
0
 10
102.19648446
 20
316.94082682
 30
0.0
  0
SEQEND
  5
2F3
  8
0
  0
POLYLINE
  5
2F4
  8
0
 66
     1
 10
0.0
 20
0.0
 30
0.0
  0
VERTEX
  5
83E
  8
0
 10
102.1964844653607
 20
316.9408268129383
 30
0.0
  0
VERTEX
  5
83F
  8
0
 10
102.3098451392676
 20
316.8612879977748
 30
0.0
  0
VERTEX
  5
840
  8
0
 10
102.4522291419245
 20
316.7942760935246
 30
0.0
  0
VERTEX
  5
841
  8
0
 10
102.6181647359369
 20
316.7423663300978
 30
0.0
  0
VERTEX
  5
842
  8
0
 10
102.8012751094588
 20
316.7075535705997
 30
0.0
  0
VERTEX
  5
843
  8
0
 10
102.9945234334965
 20
316.69117564986
 30
0.0
  0
VERTEX
  5
844
  8
0
 10
103.1904832833019
 20
316.6938619621906
 30
0.0
  0
VERTEX
  5
845
  8
0
 10
103.381624031712
 20
316.7155092741145
 30
0.0
  0
VERTEX
  5
846
  8
0
 10
103.5606002469285
 20
316.7552856915711
 30
0.0
  0
SEQEND
  5
9DF
  8
0
  0
POLYLINE
  5
2F5
  8
0
 66
     1
 10
0.0
 20
0.0
 30
0.0
  0
VERTEX
  5
847
  8
0
 10
103.5606002469285
 20
316.7552856915711
 30
0.0
  0
VERTEX
  5
848
  8
0
 10
103.7311347947393
 20
316.8163037801983
 30
0.0
  0
VERTEX
  5
849
  8
0
 10
103.8722727109244
 20
316.8936942274856
 30
0.0
  0
VERTEX
  5
84A
  8
0
 10
103.9777847906803
 20
316.9840413606003
 30
0.0
  0
VERTEX
  5
84B
  8
0
 10
104.0430141964132
 20
317.0833576557728
 30
0.0
  0
VERTEX
  5
84C
  8
0
 10
104.06508199
 20
317.18725973
 30
0.0
  0
SEQEND
  5
9E0
  8
0
  0
POLYLINE
  5
2F6
  8
0
 66
     1
 10
0.0
 20
0.0
 30
0.0
  0
VERTEX
  5
84D
  8
0
 10
104.06508199
 20
317.18725973
 30
0.0
  0
VERTEX
  5
84E
  8
0
 10
104.0501873843281
 20
317.2727753305005
 30
0.0
  0
VERTEX
  5
84F
  8
0
 10
104.0059472658687
 20
317.3557434887044
 30
0.0
  0
VERTEX
  5
850
  8
0
 10
103.9336795128605
 20
317.4336926486124
 30
0.0
  0
SEQEND
  5
9E1
  8
0
  0
LINE
  5
2F7
  8
0
 10
103.93367951
 20
317.43369265
 30
0.0
 11
103.43816126
 21
317.8656667
 31
0.0
  0
LINE
  5
2F8
  8
0
 10
91.92580873
 20
325.89441288
 30
0.0
 11
100.78843618
 21
328.4088607
 31
0.0
  0
POLYLINE
  5
2F9
  8
0
 66
     1
 10
0.0
 20
0.0
 30
0.0
  0
VERTEX
  5
851
  8
0
 10
100.7884361769285
 20
328.4088607015711
 30
0.0
  0
VERTEX
  5
852
  8
0
 10
100.9589707247393
 20
328.4698787901983
 30
0.0
  0
VERTEX
  5
853
  8
0
 10
101.1001086409244
 20
328.5472692374856
 30
0.0
  0
VERTEX
  5
854
  8
0
 10
101.2056207206803
 20
328.6376163706003
 30
0.0
  0
VERTEX
  5
855
  8
0
 10
101.2708501264132
 20
328.7369326657728
 30
0.0
  0
VERTEX
  5
856
  8
0
 10
101.29291792
 20
328.84083474
 30
0.0
  0
SEQEND
  5
9E2
  8
0
  0
LINE
  5
2FA
  8
0
 10
101.29291792
 20
330.14218243
 30
0.0
 11
101.29291792
 21
328.84083474
 31
0.0
  0
LINE
  5
2FB
  8
0
 10
129.15829675
 20
304.6807342
 30
0.0
 11
117.21508078
 21
301.29228157
 31
0.0
  0
LINE
  5
2FC
  8
0
 10
129.15829675
 20
305.98208189
 30
0.0
 11
129.15829675
 21
304.6807342
 31
0.0
  0
LINE
  5
2FD
  8
0
  6
STRICHPUNKT2
 62
     1
 10
46.15178643
 20
374.03069336
 30
0.0
 11
46.15178643
 21
372.51764586
 31
0.0
  0
LINE
  5
2FE
  8
0
  6
STRICHPUNKT2
 62
     1
 10
46.15178643
 20
373.3257967
 30
0.0
 11
44.94396069
 21
374.37873343
 31
0.0
  0
LINE
  5
2FF
  8
0
  6
STRICHPUNKT2
 62
     1
 10
46.15178643
 20
373.3257967
 30
0.0
 11
47.35961218
 21
372.27285997
 31
0.0
  0
LINE
  5
300
  8
0
  6
STRICHPUNKT2
 62
     1
 10
46.15178643
 20
373.3257967
 30
0.0
 11
44.03457997
 21
372.72511646
 31
0.0
  0
LINE
  5
301
  8
0
  6
STRICHPUNKT2
 62
     1
 10
46.15178643
 20
373.3257967
 30
0.0
 11
48.2689929
 21
373.92647694
 31
0.0
  0
LINE
  5
302
  8
0
  6
STRICHPUNKT2
 62
     1
 10
45.51089536
 20
372.58315358
 30
0.0
 11
45.34656927
 21
372.72640684
 31
0.0
  0
POLYLINE
  5
303
  8
0
 66
     1
 10
0.0
 20
0.0
 30
0.0
  0
VERTEX
  5
304
  8
0
 10
108.99221595
 20
321.60161411
 30
0.0
  0
VERTEX
  5
305
  8
0
 10
109.0448114
 20
321.51119738
 30
0.0
  0
VERTEX
  5
306
  8
0
 10
109.10006404
 20
321.4027251
 30
0.0
  0
VERTEX
  5
307
  8
0
 10
109.160463
 20
321.26948255
 30
0.0
  0
VERTEX
  5
308
  8
0
 10
109.22806466
 20
321.10601979
 30
0.0
  0
VERTEX
  5
309
  8
0
 10
109.32876916
 20
320.84670626
 30
0.0
  0
SEQEND
  5
30A
  8
0
  0
POLYLINE
  5
30B
  8
0
 66
     1
 10
0.0
 20
0.0
 30
0.0
  0
VERTEX
  5
30C
  8
0
 10
109.54529047
 20
320.27886054
 30
0.0
  0
VERTEX
  5
30D
  8
0
 10
109.63087634
 20
320.04961157
 30
0.0
  0
VERTEX
  5
30E
  8
0
 10
109.64896249
 20
319.99856209
 30
0.0
  0
VERTEX
  5
30F
  8
0
 10
109.67687708
 20
319.91547084
 30
0.0
  0
VERTEX
  5
310
  8
0
 10
109.69641224
 20
319.85152744
 30
0.0
  0
VERTEX
  5
311
  8
0
 10
109.71075653
 20
319.7984168
 30
0.0
  0
VERTEX
  5
312
  8
0
 10
109.7212403
 20
319.75277804
 30
0.0
  0
VERTEX
  5
313
  8
0
 10
109.73363949
 20
319.67473641
 30
0.0
  0
VERTEX
  5
314
  8
0
 10
109.73549332
 20
319.65230537
 30
0.0
  0
SEQEND
  5
315
  8
0
  0
POLYLINE
  5
316
  8
0
 66
     1
 10
0.0
 20
0.0
 30
0.0
  0
VERTEX
  5
857
  8
0
 10
111.8151578954838
 20
322.4025210993492
 30
0.0
  0
VERTEX
  5
858
  8
0
 10
111.8294397623033
 20
322.1361903706684
 30
0.0
  0
VERTEX
  5
859
  8
0
 10
111.8717365177723
 20
321.8551938019568
 30
0.0
  0
VERTEX
  5
85A
  8
0
 10
111.9404227212915
 20
321.5703299338093
 30
0.0
  0
VERTEX
  5
85B
  8
0
 10
112.0328588005689
 20
321.2925459249698
 30
0.0
  0
VERTEX
  5
85C
  8
0
 10
112.1454924889019
 20
321.0325168591583
 30
0.0
  0
VERTEX
  5
85D
  8
0
 10
112.2739953367961
 20
320.8002355075886
 30
0.0
  0
VERTEX
  5
85E
  8
0
 10
112.4134290518521
 20
320.604628312373
 30
0.0
  0
VERTEX
  5
85F
  8
0
 10
112.5584352745737
 20
320.4532123483565
 30
0.0
  0
SEQEND
  5
9E3
  8
0
  0
POLYLINE
  5
317
  8
0
 66
     1
 10
0.0
 20
0.0
 30
0.0
  0
VERTEX
  5
860
  8
0
 10
101.9516065109675
 20
320.4629365186984
 30
0.0
  0
VERTEX
  5
861
  8
0
 10
101.9767392129573
 20
319.9644596968589
 30
0.0
  0
VERTEX
  5
862
  8
0
 10
102.0512874963655
 20
319.4390185740074
 30
0.0
  0
VERTEX
  5
863
  8
0
 10
102.1727306336746
 20
318.9043800769803
 30
0.0
  0
VERTEX
  5
864
  8
0
 10
102.3369622250591
 20
318.3786221266854
 30
0.0
  0
VERTEX
  5
865
  8
0
 10
102.5384290495365
 20
317.8795223629575
 30
0.0
  0
VERTEX
  5
866
  8
0
 10
102.7703188379968
 20
317.4239570229249
 30
0.0
  0
VERTEX
  5
867
  8
0
 10
103.0247906188705
 20
317.0273302988244
 30
0.0
  0
VERTEX
  5
868
  8
0
 10
103.2932398476785
 20
316.7030534705921
 30
0.0
  0
SEQEND
  5
9E4
  8
0
  0
POLYLINE
  5
318
  8
0
 66
     1
 10
0.0
 20
0.0
 30
0.0
  0
VERTEX
  5
869
  8
0
 10
102.6948838854838
 20
319.8149754493492
 30
0.0
  0
VERTEX
  5
86A
  8
0
 10
102.7091657523033
 20
319.5486447206684
 30
0.0
  0
VERTEX
  5
86B
  8
0
 10
102.7514625077723
 20
319.2676481519568
 30
0.0
  0
VERTEX
  5
86C
  8
0
 10
102.8201487112915
 20
318.9827842838093
 30
0.0
  0
VERTEX
  5
86D
  8
0
 10
102.9125847905689
 20
318.7050002749698
 30
0.0
  0
VERTEX
  5
86E
  8
0
 10
103.0252184789019
 20
318.4449712091583
 30
0.0
  0
VERTEX
  5
86F
  8
0
 10
103.1537213267961
 20
318.2126898575886
 30
0.0
  0
VERTEX
  5
870
  8
0
 10
103.2931550418521
 20
318.017082662373
 30
0.0
  0
VERTEX
  5
871
  8
0
 10
103.4381612645737
 20
317.8656666983565
 30
0.0
  0
SEQEND
  5
9E5
  8
0
  0
POLYLINE
  5
319
  8
0
 66
     1
 10
0.0
 20
0.0
 30
0.0
  0
VERTEX
  5
31A
  8
0
 10
106.26110321
 20
318.66657369
 30
0.0
  0
VERTEX
  5
31B
  8
0
 10
106.17974311
 20
318.69585677
 30
0.0
  0
VERTEX
  5
31C
  8
0
 10
106.10213593
 20
318.731166
 30
0.0
  0
VERTEX
  5
31D
  8
0
 10
106.02799288
 20
318.77253689
 30
0.0
  0
VERTEX
  5
31E
  8
0
 10
105.9570665
 20
318.82008644
 30
0.0
  0
VERTEX
  5
31F
  8
0
 10
105.88915479
 20
318.87401034
 30
0.0
  0
VERTEX
  5
320
  8
0
 10
105.82410445
 20
318.93457884
 30
0.0
  0
VERTEX
  5
321
  8
0
 10
105.79762237
 20
318.96206533
 30
0.0
  0
VERTEX
  5
322
  8
0
 10
105.73642525
 20
319.03274824
 30
0.0
  0
VERTEX
  5
323
  8
0
 10
105.67869384
 20
319.11017419
 30
0.0
  0
VERTEX
  5
324
  8
0
 10
105.62485641
 20
319.19415925
 30
0.0
  0
VERTEX
  5
325
  8
0
 10
105.57534816
 20
319.28445564
 30
0.0
  0
VERTEX
  5
326
  8
0
 10
105.53059928
 20
319.38075326
 30
0.0
  0
VERTEX
  5
327
  8
0
 10
105.50635051
 20
319.44088685
 30
0.0
  0
VERTEX
  5
328
  8
0
 10
105.47059759
 20
319.54441394
 30
0.0
  0
VERTEX
  5
329
  8
0
 10
105.44150786
 20
319.649957
 30
0.0
  0
VERTEX
  5
32A
  8
0
 10
105.41930763
 20
319.7567078
 30
0.0
  0
VERTEX
  5
32B
  8
0
 10
105.40415132
 20
319.86381843
 30
0.0
  0
VERTEX
  5
32C
  8
0
 10
105.39611202
 20
319.97042948
 30
0.0
  0
VERTEX
  5
32D
  8
0
 10
105.39481069
 20
320.01847356
 30
0.0
  0
VERTEX
  5
32E
  8
0
 10
105.39710767
 20
320.12289981
 30
0.0
  0
VERTEX
  5
32F
  8
0
 10
105.40638459
 20
320.22425082
 30
0.0
  0
VERTEX
  5
330
  8
0
 10
105.42245917
 20
320.32250636
 30
0.0
  0
VERTEX
  5
331
  8
0
 10
105.44518161
 20
320.4176835
 30
0.0
  0
VERTEX
  5
332
  8
0
 10
105.47444221
 20
320.50982548
 30
0.0
  0
VERTEX
  5
333
  8
0
 10
105.51017685
 20
320.59899113
 30
0.0
  0
VERTEX
  5
334
  8
0
 10
105.51782583
 20
320.61588243
 30
0.0
  0
SEQEND
  5
335
  8
0
  0
POLYLINE
  5
336
  8
0
 66
     1
 10
0.0
 20
0.0
 30
0.0
  0
VERTEX
  5
872
  8
0
 10
106.18719898
 20
328.34260766
 30
0.0
  0
VERTEX
  5
873
  8
0
 10
106.3877934573912
 20
328.2091598404424
 30
0.0
  0
VERTEX
  5
874
  8
0
 10
106.6217149985949
 20
328.1279125872217
 30
0.0
  0
VERTEX
  5
875
  8
0
 10
106.8799741299878
 20
328.1019881867081
 30
0.0
  0
VERTEX
  5
876
  8
0
 10
107.1526460980065
 20
328.1323828990726
 30
0.0
  0
VERTEX
  5
877
  8
0
 10
107.4292522718601
 20
328.2179286725671
 30
0.0
  0
VERTEX
  5
878
  8
0
 10
107.6991628314342
 20
328.3553380310984
 30
0.0
  0
VERTEX
  5
879
  8
0
 10
107.9520052653154
 20
328.5393304100901
 30
0.0
  0
VERTEX
  5
87A
  8
0
 10
108.1780629805877
 20
328.762835085618
 30
0.0
  0
VERTEX
  5
87B
  8
0
 10
108.3686487060475
 20
329.0172628983638
 30
0.0
  0
VERTEX
  5
87C
  8
0
 10
108.5164383391637
 20
329.2928363301908
 30
0.0
  0
VERTEX
  5
87D
  8
0
 10
108.61575240723
 20
329.5789652486814
 30
0.0
  0
VERTEX
  5
87E
  8
0
 10
108.6627743263154
 20
329.8646538799858
 30
0.0
  0
VERTEX
  5
87F
  8
0
 10
108.6556970704436
 20
330.1389233702442
 30
0.0
  0
VERTEX
  5
880
  8
0
 10
108.5947926145882
 20
330.3912336967822
 30
0.0
  0
VERTEX
  5
881
  8
0
 10
108.4824014828268
 20
330.61188871527
 30
0.0
  0
VERTEX
  5
882
  8
0
 10
108.3228428033135
 20
330.7924087771113
 30
0.0
  0
SEQEND
  5
9E6
  8
0
  0
POLYLINE
  5
337
  8
0
 66
     1
 10
0.0
 20
0.0
 30
0.0
  0
VERTEX
  5
883
  8
0
 10
108.3228428033135
 20
330.7924087771113
 30
0.0
  0
VERTEX
  5
884
  8
0
 10
108.1222483259105
 20
330.9258565979262
 30
0.0
  0
VERTEX
  5
885
  8
0
 10
107.8883267843566
 20
331.0071038521356
 30
0.0
  0
VERTEX
  5
886
  8
0
 10
107.6300676523456
 20
331.0330282533114
 30
0.0
  0
VERTEX
  5
887
  8
0
 10
107.3573956835277
 20
331.0026335412512
 30
0.0
  0
VERTEX
  5
888
  8
0
 10
107.0807895087909
 20
330.9170877676984
 30
0.0
  0
VERTEX
  5
889
  8
0
 10
106.8108789483512
 20
330.7796784087696
 30
0.0
  0
VERTEX
  5
88A
  8
0
 10
106.5580365137208
 20
330.5956860290897
 30
0.0
  0
VERTEX
  5
88B
  8
0
 10
106.3319787979064
 20
330.3721813526546
 30
0.0
  0
VERTEX
  5
88C
  8
0
 10
106.1413930721875
 20
330.1177535388716
 30
0.0
  0
VERTEX
  5
88D
  8
0
 10
105.9936034391516
 20
329.8421801059795
 30
0.0
  0
VERTEX
  5
88E
  8
0
 10
105.8942893715378
 20
329.5560511865041
 30
0.0
  0
VERTEX
  5
88F
  8
0
 10
105.8472674532843
 20
329.2703625544025
 30
0.0
  0
VERTEX
  5
890
  8
0
 10
105.8543447103466
 20
328.996093063635
 30
0.0
  0
VERTEX
  5
891
  8
0
 10
105.9152491677036
 20
328.7437827369627
 30
0.0
  0
VERTEX
  5
892
  8
0
 10
106.0276403012054
 20
328.5231277187817
 30
0.0
  0
VERTEX
  5
893
  8
0
 10
106.1871989826033
 20
328.3426076577305
 30
0.0
  0
SEQEND
  5
9E7
  8
0
  0
POLYLINE
  5
338
  8
0
 66
     1
 10
0.0
 20
0.0
 30
0.0
  0
VERTEX
  5
894
  8
0
 10
105.905934803599
 20
328.7702569682176
 30
0.0
  0
VERTEX
  5
895
  8
0
 10
106.1613431555727
 20
328.7503954690463
 30
0.0
  0
VERTEX
  5
896
  8
0
 10
106.4297276196892
 20
328.7847889437305
 30
0.0
  0
VERTEX
  5
897
  8
0
 10
106.7011493164361
 20
328.872163724653
 30
0.0
  0
VERTEX
  5
898
  8
0
 10
106.9655568907548
 20
329.0092841274276
 30
0.0
  0
VERTEX
  5
899
  8
0
 10
107.2131587362946
 20
329.1910722755598
 30
0.0
  0
VERTEX
  5
89A
  8
0
 10
107.4347856005877
 20
329.410796145618
 30
0.0
  0
VERTEX
  5
89B
  8
0
 10
107.6222301430634
 20
329.6603188691822
 30
0.0
  0
VERTEX
  5
89C
  8
0
 10
107.7685508713031
 20
329.9304000593572
 30
0.0
  0
VERTEX
  5
89D
  8
0
 10
107.8683292000958
 20
330.2110380030535
 30
0.0
  0
VERTEX
  5
89E
  8
0
 10
107.9178701138186
 20
330.4918400468881
 30
0.0
  0
VERTEX
  5
89F
  8
0
 10
107.9153390011649
 20
330.762407460481
 30
0.0
  0
VERTEX
  5
8A0
  8
0
 10
107.8608295949211
 20
331.0127205247977
 30
0.0
  0
SEQEND
  5
9E8
  8
0
  0
LINE
  5
339
  8
0
 10
101.9516065
 20
320.46293651
 30
0.0
 11
101.9516065
 21
330.87371798
 31
0.0
  0
LINE
  5
33A
  8
0
 10
102.69488388
 20
330.22575692
 30
0.0
 11
102.69488388
 21
319.81497545
 31
0.0
  0
POLYLINE
  5
33B
  8
0
 66
     1
 10
0.0
 20
0.0
 30
0.0
  0
VERTEX
  5
8A1
  8
0
 10
108.9922159353829
 20
321.6016141174979
 30
0.0
  0
VERTEX
  5
8A2
  8
0
 10
108.68887693259
 20
321.9786986484276
 30
0.0
  0
VERTEX
  5
8A3
  8
0
 10
108.3248671987092
 20
322.2411008573956
 30
0.0
  0
VERTEX
  5
8A4
  8
0
 10
107.9155890726238
 20
322.3777177233283
 30
0.0
  0
VERTEX
  5
8A5
  8
0
 10
107.478360334076
 20
322.3827685786491
 30
0.0
  0
VERTEX
  5
8A6
  8
0
 10
107.0316814366906
 20
322.256039706586
 30
0.0
  0
VERTEX
  5
8A7
  8
0
 10
106.5944526985336
 20
322.0028933841665
 30
0.0
  0
VERTEX
  5
8A8
  8
0
 10
106.185174573213
 20
321.6340409882635
 30
0.0
  0
VERTEX
  5
8A9
  8
0
 10
105.8211648404389
 20
321.1650897652517
 30
0.0
  0
VERTEX
  5
8AA
  8
0
 10
105.5178258390475
 20
320.6158824418064
 30
0.0
  0
SEQEND
  5
9E9
  8
0
  0
POLYLINE
  5
33C
  8
0
 66
     1
 10
0.0
 20
0.0
 30
0.0
  0
VERTEX
  5
33D
  8
0
 10
111.81515789
 20
322.40252109
 30
0.0
  0
VERTEX
  5
33E
  8
0
 10
111.81515789
 20
332.81330257
 30
0.0
  0
SEQEND
  5
33F
  8
0
  0
POLYLINE
  5
340
  8
0
 66
     1
 10
0.0
 20
0.0
 30
0.0
  0
VERTEX
  5
8AB
  8
0
 10
111.8151578939612
 20
332.8133025693196
 30
0.0
  0
VERTEX
  5
8AC
  8
0
 10
111.8014029407673
 20
332.9631841000202
 30
0.0
  0
VERTEX
  5
8AD
  8
0
 10
111.7605737238231
 20
333.1005137032492
 30
0.0
  0
VERTEX
  5
8AE
  8
0
 10
111.6939633712742
 20
333.2209419256387
 30
0.0
  0
VERTEX
  5
8AF
  8
0
 10
111.6036815420391
 20
333.3206546082224
 30
0.0
  0
SEQEND
  5
9EA
  8
0
  0
POLYLINE
  5
341
  8
0
 66
     1
 10
0.0
 20
0.0
 30
0.0
  0
VERTEX
  5
8B0
  8
0
 10
111.6036815420391
 20
333.3206546082224
 30
0.0
  0
VERTEX
  5
8B1
  8
0
 10
111.4677141908561
 20
333.4087836837469
 30
0.0
  0
VERTEX
  5
8B2
  8
0
 10
111.3078606360526
 20
333.4583250539985
 30
0.0
  0
VERTEX
  5
8B3
  8
0
 10
111.1314474948511
 20
333.4670080740924
 30
0.0
  0
VERTEX
  5
8B4
  8
0
 10
110.9465603650992
 20
333.4344347724939
 30
0.0
  0
SEQEND
  5
9EB
  8
0
  0
POLYLINE
  5
342
  8
0
 66
     1
 10
0.0
 20
0.0
 30
0.0
  0
VERTEX
  5
343
  8
0
 10
110.94656037
 20
333.43443477
 30
0.0
  0
VERTEX
  5
344
  8
0
 10
103.5634814
 20
331.33975496
 30
0.0
  0
SEQEND
  5
345
  8
0
  0
POLYLINE
  5
346
  8
0
 66
     1
 10
0.0
 20
0.0
 30
0.0
  0
VERTEX
  5
8B5
  8
0
 10
103.5634813950992
 20
331.3397549624939
 30
0.0
  0
VERTEX
  5
8B6
  8
0
 10
103.3940264242
 20
331.2750082636408
 30
0.0
  0
VERTEX
  5
8B7
  8
0
 10
103.2310835130159
 20
331.1794097028673
 30
0.0
  0
VERTEX
  5
8B8
  8
0
 10
103.0809144662697
 20
331.0566330792668
 30
0.0
  0
VERTEX
  5
8B9
  8
0
 10
102.9492901962355
 20
330.9113966296494
 30
0.0
  0
VERTEX
  5
8BA
  8
0
 10
102.8412689498156
 20
330.7492817093471
 30
0.0
  0
VERTEX
  5
8BB
  8
0
 10
102.7610019229478
 20
330.5765183038575
 30
0.0
  0
VERTEX
  5
8BC
  8
0
 10
102.7115737324728
 20
330.3997456139936
 30
0.0
  0
VERTEX
  5
8BD
  8
0
 10
102.6948838760388
 20
330.2257569151191
 30
0.0
  0
SEQEND
  5
9EC
  8
0
  0
POLYLINE
  5
347
  8
0
 66
     1
 10
0.0
 20
0.0
 30
0.0
  0
VERTEX
  5
348
  8
0
 10
102.82020402
 20
331.98771603
 30
0.0
  0
VERTEX
  5
349
  8
0
 10
110.20328299
 20
334.08239584
 30
0.0
  0
SEQEND
  5
34A
  8
0
  0
POLYLINE
  5
34B
  8
0
 66
     1
 10
0.0
 20
0.0
 30
0.0
  0
VERTEX
  5
8BE
  8
0
 10
110.8604041620391
 20
333.9686156682224
 30
0.0
  0
VERTEX
  5
8BF
  8
0
 10
110.7244368108561
 20
334.0567447437469
 30
0.0
  0
VERTEX
  5
8C0
  8
0
 10
110.5645832560526
 20
334.1062861139985
 30
0.0
  0
VERTEX
  5
8C1
  8
0
 10
110.3881701148511
 20
334.1149691340924
 30
0.0
  0
VERTEX
  5
8C2
  8
0
 10
110.2032829850992
 20
334.0823958324939
 30
0.0
  0
SEQEND
  5
9ED
  8
0
  0
LINE
  5
34C
  8
0
 10
111.60368154
 20
333.32065461
 30
0.0
 11
110.86040416
 21
333.96861567
 31
0.0
  0
POLYLINE
  5
34D
  8
0
 66
     1
 10
0.0
 20
0.0
 30
0.0
  0
VERTEX
  5
8C3
  8
0
 10
102.8202040150992
 20
331.9877160224939
 30
0.0
  0
VERTEX
  5
8C4
  8
0
 10
102.6507490442
 20
331.9229693236408
 30
0.0
  0
VERTEX
  5
8C5
  8
0
 10
102.4878061330159
 20
331.8273707628673
 30
0.0
  0
VERTEX
  5
8C6
  8
0
 10
102.3376370862697
 20
331.7045941392668
 30
0.0
  0
VERTEX
  5
8C7
  8
0
 10
102.2060128162355
 20
331.5593576896494
 30
0.0
  0
VERTEX
  5
8C8
  8
0
 10
102.0979915698156
 20
331.3972427693471
 30
0.0
  0
VERTEX
  5
8C9
  8
0
 10
102.0177245429478
 20
331.2244793638575
 30
0.0
  0
VERTEX
  5
8CA
  8
0
 10
101.9682963524728
 20
331.0477066739936
 30
0.0
  0
VERTEX
  5
8CB
  8
0
 10
101.9516064960388
 20
330.8737179751191
 30
0.0
  0
SEQEND
  5
9EE
  8
0
  0
LINE
  5
34E
  8
0
  6
STRICHPUNKT2
 62
     1
 10
106.3319788
 20
330.37218135
 30
0.0
 11
107.65762947
 21
329.21652931
 31
0.0
  0
LINE
  5
34F
  8
0
  6
STRICHPUNKT2
 62
     1
 10
106.51174351
 20
330.21546928
 30
0.0
 11
106.51174351
 21
328.80567596
 31
0.0
  0
LINE
  5
350
  8
0
  6
STRICHPUNKT2
 62
     1
 10
106.51174351
 20
330.21546928
 30
0.0
 11
106.51174351
 21
330.55511623
 31
0.0
  0
LINE
  5
351
  8
0
  6
STRICHPUNKT2
 62
     1
 10
106.51174351
 20
330.21546928
 30
0.0
 11
106.13569545
 21
330.10877934
 31
0.0
  0
LINE
  5
352
  8
0
  6
STRICHPUNKT2
 62
     1
 10
106.51174351
 20
330.21546928
 30
0.0
 11
107.92321448
 21
330.61592278
 31
0.0
  0
LINE
  5
353
  8
0
  6
STRICHPUNKT2
 62
     1
 10
107.25502089
 20
329.56750822
 30
0.0
 11
107.25502089
 21
327.45281823
 31
0.0
  0
LINE
  5
354
  8
0
  6
STRICHPUNKT2
 62
     1
 10
107.25502089
 20
329.56750822
 30
0.0
 11
107.25502089
 21
331.6821982
 31
0.0
  0
LINE
  5
355
  8
0
  6
STRICHPUNKT2
 62
     1
 10
107.25502089
 20
329.56750822
 30
0.0
 11
105.13781442
 21
328.96682798
 31
0.0
  0
LINE
  5
356
  8
0
  6
STRICHPUNKT2
 62
     1
 10
107.25502089
 20
329.56750822
 30
0.0
 11
109.37222735
 21
330.16818846
 31
0.0
  0
POLYLINE
  5
357
  8
0
 66
     1
 10
0.0
 20
0.0
 30
0.0
  0
VERTEX
  5
358
  8
0
 10
69.90532731
 20
310.51213276
 30
0.0
  0
VERTEX
  5
359
  8
0
 10
69.95792276
 20
310.42171603
 30
0.0
  0
VERTEX
  5
35A
  8
0
 10
70.01317541
 20
310.31324375
 30
0.0
  0
VERTEX
  5
35B
  8
0
 10
70.07357437
 20
310.1800012
 30
0.0
  0
VERTEX
  5
35C
  8
0
 10
70.14117602
 20
310.01653844
 30
0.0
  0
VERTEX
  5
35D
  8
0
 10
70.24188053
 20
309.75722491
 30
0.0
  0
SEQEND
  5
35E
  8
0
  0
POLYLINE
  5
35F
  8
0
 66
     1
 10
0.0
 20
0.0
 30
0.0
  0
VERTEX
  5
360
  8
0
 10
70.45840184
 20
309.18937919
 30
0.0
  0
VERTEX
  5
361
  8
0
 10
70.5439877
 20
308.96013022
 30
0.0
  0
VERTEX
  5
362
  8
0
 10
70.56207385
 20
308.90908074
 30
0.0
  0
VERTEX
  5
363
  8
0
 10
70.58998845
 20
308.82598949
 30
0.0
  0
VERTEX
  5
364
  8
0
 10
70.6095236
 20
308.76204609
 30
0.0
  0
VERTEX
  5
365
  8
0
 10
70.62386789
 20
308.70893545
 30
0.0
  0
VERTEX
  5
366
  8
0
 10
70.63435167
 20
308.66329669
 30
0.0
  0
VERTEX
  5
367
  8
0
 10
70.64675086
 20
308.58525506
 30
0.0
  0
VERTEX
  5
368
  8
0
 10
70.64860469
 20
308.56282402
 30
0.0
  0
SEQEND
  5
369
  8
0
  0
POLYLINE
  5
36A
  8
0
 66
     1
 10
0.0
 20
0.0
 30
0.0
  0
VERTEX
  5
8CC
  8
0
 10
72.72826926548377
 20
311.3130397493492
 30
0.0
  0
VERTEX
  5
8CD
  8
0
 10
72.74255113230333
 20
311.0467090206685
 30
0.0
  0
VERTEX
  5
8CE
  8
0
 10
72.78484788777226
 20
310.7657124519569
 30
0.0
  0
VERTEX
  5
8CF
  8
0
 10
72.85353409129154
 20
310.4808485838093
 30
0.0
  0
VERTEX
  5
8D0
  8
0
 10
72.94597017056886
 20
310.2030645749698
 30
0.0
  0
VERTEX
  5
8D1
  8
0
 10
73.05860385890189
 20
309.9430355091583
 30
0.0
  0
VERTEX
  5
8D2
  8
0
 10
73.18710670679611
 20
309.7107541575886
 30
0.0
  0
VERTEX
  5
8D3
  8
0
 10
73.32654042185206
 20
309.515146962373
 30
0.0
  0
VERTEX
  5
8D4
  8
0
 10
73.47154664457368
 20
309.3637309983565
 30
0.0
  0
SEQEND
  5
9EF
  8
0
  0
POLYLINE
  5
36B
  8
0
 66
     1
 10
0.0
 20
0.0
 30
0.0
  0
VERTEX
  5
8D5
  8
0
 10
62.86471788096754
 20
309.3734551686984
 30
0.0
  0
VERTEX
  5
8D6
  8
0
 10
62.89328161460668
 20
308.8407937113369
 30
0.0
  0
VERTEX
  5
8D7
  8
0
 10
62.97787512554451
 20
308.2788005739137
 30
0.0
  0
VERTEX
  5
8D8
  8
0
 10
63.11524753258307
 20
307.7090728376187
 30
0.0
  0
VERTEX
  5
8D9
  8
0
 10
63.30011969113771
 20
307.1535048199395
 30
0.0
  0
VERTEX
  5
8DA
  8
0
 10
63.52538706780379
 20
306.6334466883165
 30
0.0
  0
VERTEX
  5
8DB
  8
0
 10
63.78239276359223
 20
306.1688839851772
 30
0.0
  0
VERTEX
  5
8DC
  8
0
 10
64.06126019370411
 20
305.777669594746
 30
0.0
  0
VERTEX
  5
8DD
  8
0
 10
64.35127263914735
 20
305.474837666713
 30
0.0
  0
SEQEND
  5
9F0
  8
0
  0
POLYLINE
  5
36C
  8
0
 66
     1
 10
0.0
 20
0.0
 30
0.0
  0
VERTEX
  5
8DE
  8
0
 10
63.60799525548376
 20
308.7254940993492
 30
0.0
  0
VERTEX
  5
8DF
  8
0
 10
63.62227712230333
 20
308.4591633706684
 30
0.0
  0
VERTEX
  5
8E0
  8
0
 10
63.66457387777226
 20
308.1781668019568
 30
0.0
  0
VERTEX
  5
8E1
  8
0
 10
63.73326008129153
 20
307.8933029338093
 30
0.0
  0
VERTEX
  5
8E2
  8
0
 10
63.82569616056885
 20
307.6155189249698
 30
0.0
  0
VERTEX
  5
8E3
  8
0
 10
63.93832984890189
 20
307.3554898591583
 30
0.0
  0
VERTEX
  5
8E4
  8
0
 10
64.06683269679611
 20
307.1232085075886
 30
0.0
  0
VERTEX
  5
8E5
  8
0
 10
64.20626641185206
 20
306.927601312373
 30
0.0
  0
VERTEX
  5
8E6
  8
0
 10
64.35127263457368
 20
306.7761853483565
 30
0.0
  0
SEQEND
  5
9F1
  8
0
  0
POLYLINE
  5
36D
  8
0
 66
     1
 10
0.0
 20
0.0
 30
0.0
  0
VERTEX
  5
36E
  8
0
 10
67.17421458
 20
307.57709234
 30
0.0
  0
VERTEX
  5
36F
  8
0
 10
67.09285447
 20
307.60637542
 30
0.0
  0
VERTEX
  5
370
  8
0
 10
67.01524729
 20
307.64168465
 30
0.0
  0
VERTEX
  5
371
  8
0
 10
66.94110425
 20
307.68305554
 30
0.0
  0
VERTEX
  5
372
  8
0
 10
66.87017787
 20
307.73060509
 30
0.0
  0
VERTEX
  5
373
  8
0
 10
66.80226616
 20
307.78452899
 30
0.0
  0
VERTEX
  5
374
  8
0
 10
66.73721582
 20
307.84509749
 30
0.0
  0
VERTEX
  5
375
  8
0
 10
66.71073373
 20
307.87258398
 30
0.0
  0
VERTEX
  5
376
  8
0
 10
66.64953661
 20
307.94326689
 30
0.0
  0
VERTEX
  5
377
  8
0
 10
66.5918052
 20
308.02069284
 30
0.0
  0
VERTEX
  5
378
  8
0
 10
66.53796778
 20
308.1046779
 30
0.0
  0
VERTEX
  5
379
  8
0
 10
66.48845953
 20
308.19497429
 30
0.0
  0
VERTEX
  5
37A
  8
0
 10
66.44371064
 20
308.29127191
 30
0.0
  0
VERTEX
  5
37B
  8
0
 10
66.41946188
 20
308.3514055
 30
0.0
  0
VERTEX
  5
37C
  8
0
 10
66.38370896
 20
308.45493259
 30
0.0
  0
VERTEX
  5
37D
  8
0
 10
66.35461923
 20
308.56047565
 30
0.0
  0
VERTEX
  5
37E
  8
0
 10
66.332419
 20
308.66722645
 30
0.0
  0
VERTEX
  5
37F
  8
0
 10
66.31726268
 20
308.77433708
 30
0.0
  0
VERTEX
  5
380
  8
0
 10
66.30922338
 20
308.88094813
 30
0.0
  0
VERTEX
  5
381
  8
0
 10
66.30792205
 20
308.92899221
 30
0.0
  0
VERTEX
  5
382
  8
0
 10
66.31021904
 20
309.03341846
 30
0.0
  0
VERTEX
  5
383
  8
0
 10
66.31949596
 20
309.13476947
 30
0.0
  0
VERTEX
  5
384
  8
0
 10
66.33557054
 20
309.23302501
 30
0.0
  0
VERTEX
  5
385
  8
0
 10
66.35829298
 20
309.32820215
 30
0.0
  0
VERTEX
  5
386
  8
0
 10
66.38755358
 20
309.42034413
 30
0.0
  0
VERTEX
  5
387
  8
0
 10
66.42328822
 20
309.50950978
 30
0.0
  0
VERTEX
  5
388
  8
0
 10
66.4309372
 20
309.52640108
 30
0.0
  0
SEQEND
  5
389
  8
0
  0
POLYLINE
  5
38A
  8
0
 66
     1
 10
0.0
 20
0.0
 30
0.0
  0
VERTEX
  5
8E7
  8
0
 10
67.10031034260335
 20
317.2531263077305
 30
0.0
  0
VERTEX
  5
8E8
  8
0
 10
67.30090482033579
 20
317.1196784889875
 30
0.0
  0
VERTEX
  5
8E9
  8
0
 10
67.5348263617079
 20
317.0384312365439
 30
0.0
  0
VERTEX
  5
8EA
  8
0
 10
67.79308549310603
 20
317.0125068367345
 30
0.0
  0
VERTEX
  5
8EB
  8
0
 10
68.06575746098433
 20
317.0429015497012
 30
0.0
  0
VERTEX
  5
8EC
  8
0
 10
68.34236363457605
 20
317.1284473236751
 30
0.0
  0
VERTEX
  5
8ED
  8
0
 10
68.61227419379584
 20
317.2658566825505
 30
0.0
  0
VERTEX
  5
8EE
  8
0
 10
68.86511662726265
 20
317.4498490617471
 30
0.0
  0
VERTEX
  5
8EF
  8
0
 10
69.09117434209358
 20
317.6733537373454
 30
0.0
  0
VERTEX
  5
8F0
  8
0
 10
69.28176006711759
 20
317.9277815500399
 30
0.0
  0
VERTEX
  5
8F1
  8
0
 10
69.42954969983353
 20
318.2033549817135
 30
0.0
  0
VERTEX
  5
8F2
  8
0
 10
69.52886376756061
 20
318.489483899973
 30
0.0
  0
VERTEX
  5
8F3
  8
0
 10
69.57588568638758
 20
318.7751725309977
 30
0.0
  0
VERTEX
  5
8F4
  8
0
 10
69.56880843035145
 20
319.049442020958
 30
0.0
  0
VERTEX
  5
8F5
  8
0
 10
69.50790397443164
 20
319.3017523472095
 30
0.0
  0
VERTEX
  5
8F6
  8
0
 10
69.39551284270398
 20
319.5224073654513
 30
0.0
  0
VERTEX
  5
8F7
  8
0
 10
69.23595416331354
 20
319.7029274271114
 30
0.0
  0
SEQEND
  5
9F2
  8
0
  0
POLYLINE
  5
38B
  8
0
 66
     1
 10
0.0
 20
0.0
 30
0.0
  0
VERTEX
  5
8F8
  8
0
 10
69.23595416331354
 20
319.7029274271114
 30
0.0
  0
VERTEX
  5
8F9
  8
0
 10
69.03535968610679
 20
319.8363752478293
 30
0.0
  0
VERTEX
  5
8FA
  8
0
 10
68.80143814480128
 20
319.9176225020387
 30
0.0
  0
VERTEX
  5
8FB
  8
0
 10
68.54317901306517
 20
319.9435469033176
 30
0.0
  0
VERTEX
  5
8FC
  8
0
 10
68.27050704452027
 20
319.9131521914607
 30
0.0
  0
VERTEX
  5
8FD
  8
0
 10
67.99390087002546
 20
319.8276064182021
 30
0.0
  0
VERTEX
  5
8FE
  8
0
 10
67.72399030976823
 20
319.6901970596408
 30
0.0
  0
VERTEX
  5
8FF
  8
0
 10
67.4711478752353
 20
319.5062046803785
 30
0.0
  0
VERTEX
  5
900
  8
0
 10
67.24509015941227
 20
319.282700004382
 30
0.0
  0
VERTEX
  5
901
  8
0
 10
67.05450443356337
 20
319.0282721910266
 30
0.0
  0
VERTEX
  5
902
  8
0
 10
66.90671480026792
 20
318.7526987585172
 30
0.0
  0
VERTEX
  5
903
  8
0
 10
66.80740073226507
 20
318.4665698393458
 30
0.0
  0
VERTEX
  5
904
  8
0
 10
66.76037881350086
 20
318.1808812074382
 30
0.0
  0
VERTEX
  5
905
  8
0
 10
66.76745606994731
 20
317.9066117167278
 30
0.0
  0
VERTEX
  5
906
  8
0
 10
66.82836052660757
 20
317.6543013899542
 30
0.0
  0
VERTEX
  5
907
  8
0
 10
66.94075165936243
 20
317.4336463715004
 30
0.0
  0
VERTEX
  5
908
  8
0
 10
67.10031034
 20
317.25312631
 30
0.0
  0
SEQEND
  5
9F3
  8
0
  0
POLYLINE
  5
38C
  8
0
 66
     1
 10
0.0
 20
0.0
 30
0.0
  0
VERTEX
  5
909
  8
0
 10
66.81904616359904
 20
317.6807756182176
 30
0.0
  0
VERTEX
  5
90A
  8
0
 10
67.07445451557274
 20
317.6609141190464
 30
0.0
  0
VERTEX
  5
90B
  8
0
 10
67.34283897968923
 20
317.6953075937305
 30
0.0
  0
VERTEX
  5
90C
  8
0
 10
67.6142606764361
 20
317.7826823746531
 30
0.0
  0
VERTEX
  5
90D
  8
0
 10
67.87866825075484
 20
317.9198027774277
 30
0.0
  0
VERTEX
  5
90E
  8
0
 10
68.12627009629459
 20
318.1015909255598
 30
0.0
  0
VERTEX
  5
90F
  8
0
 10
68.34789696058773
 20
318.321314795618
 30
0.0
  0
VERTEX
  5
910
  8
0
 10
68.53534150306344
 20
318.5708375191822
 30
0.0
  0
VERTEX
  5
911
  8
0
 10
68.68166223130314
 20
318.8409187093572
 30
0.0
  0
VERTEX
  5
912
  8
0
 10
68.7814405600958
 20
319.1215566530536
 30
0.0
  0
VERTEX
  5
913
  8
0
 10
68.83098147381862
 20
319.4023586968881
 30
0.0
  0
VERTEX
  5
914
  8
0
 10
68.82845036116485
 20
319.6729261104811
 30
0.0
  0
VERTEX
  5
915
  8
0
 10
68.77394095492112
 20
319.9232391747977
 30
0.0
  0
SEQEND
  5
9F4
  8
0
  0
LINE
  5
38D
  8
0
 10
62.86471787
 20
309.37345516
 30
0.0
 11
62.86471787
 21
319.78423663
 31
0.0
  0
LINE
  5
38E
  8
0
 10
63.60799525
 20
319.13627557
 30
0.0
 11
63.60799525
 21
308.7254941
 31
0.0
  0
POLYLINE
  5
38F
  8
0
 66
     1
 10
0.0
 20
0.0
 30
0.0
  0
VERTEX
  5
916
  8
0
 10
69.90532729538295
 20
310.512132767498
 30
0.0
  0
VERTEX
  5
917
  8
0
 10
69.60198829259
 20
310.8892172984276
 30
0.0
  0
VERTEX
  5
918
  8
0
 10
69.23797855870922
 20
311.1516195073956
 30
0.0
  0
VERTEX
  5
919
  8
0
 10
68.82870043262378
 20
311.2882363733283
 30
0.0
  0
VERTEX
  5
91A
  8
0
 10
68.39147169407603
 20
311.2932872286491
 30
0.0
  0
VERTEX
  5
91B
  8
0
 10
67.94479279669062
 20
311.1665583565861
 30
0.0
  0
VERTEX
  5
91C
  8
0
 10
67.50756405853359
 20
310.9134120341665
 30
0.0
  0
VERTEX
  5
91D
  8
0
 10
67.09828593321299
 20
310.5445596382635
 30
0.0
  0
VERTEX
  5
91E
  8
0
 10
66.73427620043886
 20
310.0756084152517
 30
0.0
  0
VERTEX
  5
91F
  8
0
 10
66.4309371990475
 20
309.5264010918065
 30
0.0
  0
SEQEND
  5
9F5
  8
0
  0
POLYLINE
  5
390
  8
0
 66
     1
 10
0.0
 20
0.0
 30
0.0
  0
VERTEX
  5
391
  8
0
 10
72.72826926
 20
311.31303974
 30
0.0
  0
VERTEX
  5
392
  8
0
 10
72.72826926
 20
321.72382122
 30
0.0
  0
SEQEND
  5
393
  8
0
  0
POLYLINE
  5
394
  8
0
 66
     1
 10
0.0
 20
0.0
 30
0.0
  0
VERTEX
  5
920
  8
0
 10
72.72826925396122
 20
321.7238212193196
 30
0.0
  0
VERTEX
  5
921
  8
0
 10
72.71451430076732
 20
321.8737027500202
 30
0.0
  0
VERTEX
  5
922
  8
0
 10
72.67368508382313
 20
322.0110323532492
 30
0.0
  0
VERTEX
  5
923
  8
0
 10
72.6070747312742
 20
322.1314605756387
 30
0.0
  0
VERTEX
  5
924
  8
0
 10
72.5167929020391
 20
322.2311732582224
 30
0.0
  0
SEQEND
  5
9F6
  8
0
  0
POLYLINE
  5
395
  8
0
 66
     1
 10
0.0
 20
0.0
 30
0.0
  0
VERTEX
  5
925
  8
0
 10
72.5167929020391
 20
322.2311732582224
 30
0.0
  0
VERTEX
  5
926
  8
0
 10
72.38082555085607
 20
322.3193023337469
 30
0.0
  0
VERTEX
  5
927
  8
0
 10
72.22097199605257
 20
322.3688437039984
 30
0.0
  0
VERTEX
  5
928
  8
0
 10
72.04455885485113
 20
322.3775267240924
 30
0.0
  0
VERTEX
  5
929
  8
0
 10
71.85967172509919
 20
322.3449534224939
 30
0.0
  0
SEQEND
  5
9F7
  8
0
  0
POLYLINE
  5
396
  8
0
 66
     1
 10
0.0
 20
0.0
 30
0.0
  0
VERTEX
  5
397
  8
0
 10
71.85967173
 20
322.34495342
 30
0.0
  0
VERTEX
  5
398
  8
0
 10
64.47659277
 20
320.25027361
 30
0.0
  0
SEQEND
  5
399
  8
0
  0
POLYLINE
  5
39A
  8
0
 66
     1
 10
0.0
 20
0.0
 30
0.0
  0
VERTEX
  5
92A
  8
0
 10
64.47659276509918
 20
320.250273612494
 30
0.0
  0
VERTEX
  5
92B
  8
0
 10
64.30713779420003
 20
320.1855269136408
 30
0.0
  0
VERTEX
  5
92C
  8
0
 10
64.14419488301591
 20
320.0899283528673
 30
0.0
  0
VERTEX
  5
92D
  8
0
 10
63.99402583626969
 20
319.9671517292668
 30
0.0
  0
VERTEX
  5
92E
  8
0
 10
63.8624015662355
 20
319.8219152796494
 30
0.0
  0
VERTEX
  5
92F
  8
0
 10
63.75438031981558
 20
319.6598003593472
 30
0.0
  0
VERTEX
  5
930
  8
0
 10
63.67411329294775
 20
319.4870369538575
 30
0.0
  0
VERTEX
  5
931
  8
0
 10
63.6246851024728
 20
319.3102642639936
 30
0.0
  0
VERTEX
  5
932
  8
0
 10
63.60799524603877
 20
319.1362755651191
 30
0.0
  0
SEQEND
  5
9F8
  8
0
  0
POLYLINE
  5
39B
  8
0
 66
     1
 10
0.0
 20
0.0
 30
0.0
  0
VERTEX
  5
39C
  8
0
 10
63.73331539
 20
320.89823468
 30
0.0
  0
VERTEX
  5
39D
  8
0
 10
71.11639435
 20
322.99291449
 30
0.0
  0
SEQEND
  5
39E
  8
0
  0
POLYLINE
  5
39F
  8
0
 66
     1
 10
0.0
 20
0.0
 30
0.0
  0
VERTEX
  5
933
  8
0
 10
71.77351552203909
 20
322.8791343182224
 30
0.0
  0
VERTEX
  5
934
  8
0
 10
71.63754817085606
 20
322.9672633937469
 30
0.0
  0
VERTEX
  5
935
  8
0
 10
71.47769461605256
 20
323.0168047639984
 30
0.0
  0
VERTEX
  5
936
  8
0
 10
71.30128147485112
 20
323.0254877840924
 30
0.0
  0
VERTEX
  5
937
  8
0
 10
71.11639434509918
 20
322.9929144824939
 30
0.0
  0
SEQEND
  5
9F9
  8
0
  0
LINE
  5
3A0
  8
0
 10
72.51679291
 20
322.23117326
 30
0.0
 11
71.77351553
 21
322.87913432
 31
0.0
  0
POLYLINE
  5
3A1
  8
0
 66
     1
 10
0.0
 20
0.0
 30
0.0
  0
VERTEX
  5
938
  8
0
 10
63.73331538509918
 20
320.898234672494
 30
0.0
  0
VERTEX
  5
939
  8
0
 10
63.56386041420003
 20
320.8334879736408
 30
0.0
  0
VERTEX
  5
93A
  8
0
 10
63.40091750301593
 20
320.7378894128673
 30
0.0
  0
VERTEX
  5
93B
  8
0
 10
63.2507484562697
 20
320.6151127892668
 30
0.0
  0
VERTEX
  5
93C
  8
0
 10
63.1191241862355
 20
320.4698763396494
 30
0.0
  0
VERTEX
  5
93D
  8
0
 10
63.01110293981559
 20
320.3077614193472
 30
0.0
  0
VERTEX
  5
93E
  8
0
 10
62.93083591294776
 20
320.1349980138575
 30
0.0
  0
VERTEX
  5
93F
  8
0
 10
62.88140772247281
 20
319.9582253239936
 30
0.0
  0
VERTEX
  5
940
  8
0
 10
62.86471786603877
 20
319.7842366251191
 30
0.0
  0
SEQEND
  5
9FA
  8
0
  0
LINE
  5
3A2
  8
0
  6
STRICHPUNKT2
 62
     1
 10
67.24509016
 20
319.2827
 30
0.0
 11
68.57074083
 21
318.12704796
 31
0.0
  0
LINE
  5
3A3
  8
0
  6
STRICHPUNKT2
 62
     1
 10
67.42485487
 20
319.12598793
 30
0.0
 11
67.42485487
 21
317.71619461
 31
0.0
  0
LINE
  5
3A4
  8
0
  6
STRICHPUNKT2
 62
     1
 10
67.42485487
 20
319.12598793
 30
0.0
 11
67.42485487
 21
319.46563488
 31
0.0
  0
LINE
  5
3A5
  8
0
  6
STRICHPUNKT2
 62
     1
 10
67.42485487
 20
319.12598793
 30
0.0
 11
67.04880682
 21
319.01929799
 31
0.0
  0
LINE
  5
3A6
  8
0
  6
STRICHPUNKT2
 62
     1
 10
67.42485487
 20
319.12598793
 30
0.0
 11
68.83632585
 21
319.52644143
 31
0.0
  0
LINE
  5
3A7
  8
0
  6
STRICHPUNKT2
 62
     1
 10
68.16813225
 20
318.47802687
 30
0.0
 11
68.16813225
 21
316.36333688
 31
0.0
  0
LINE
  5
3A8
  8
0
  6
STRICHPUNKT2
 62
     1
 10
68.16813225
 20
318.47802687
 30
0.0
 11
68.16813225
 21
320.59271685
 31
0.0
  0
LINE
  5
3A9
  8
0
  6
STRICHPUNKT2
 62
     1
 10
68.16813225
 20
318.47802687
 30
0.0
 11
66.05092579
 21
317.87734663
 31
0.0
  0
LINE
  5
3AA
  8
0
  6
STRICHPUNKT2
 62
     1
 10
68.16813225
 20
318.47802687
 30
0.0
 11
70.28533872
 21
319.07870711
 31
0.0
  0
POLYLINE
  5
3AB
  8
0
 66
     1
 10
0.0
 20
0.0
 30
0.0
  0
VERTEX
  5
3AC
  8
0
 10
124.66097156
 20
488.30690401
 30
0.0
  0
VERTEX
  5
3AD
  8
0
 10
124.41323615
 20
488.31004283
 30
0.0
  0
VERTEX
  5
3AE
  8
0
 10
124.10927759
 20
488.31987753
 30
0.0
  0
VERTEX
  5
3AF
  8
0
 10
123.86634891
 20
488.32974094
 30
0.0
  0
SEQEND
  5
3B0
  8
0
  0
POLYLINE
  5
3B1
  8
0
 66
     1
 10
0.0
 20
0.0
 30
0.0
  0
VERTEX
  5
3B2
  8
0
 10
125.36634891
 20
488.34581065
 30
0.0
  0
VERTEX
  5
3B3
  8
0
 10
125.1986786
 20
488.32802835
 30
0.0
  0
VERTEX
  5
3B4
  8
0
 10
125.01656902
 20
488.31552039
 30
0.0
  0
VERTEX
  5
3B5
  8
0
 10
124.81647421
 20
488.30849711
 30
0.0
  0
VERTEX
  5
3B6
  8
0
 10
124.66097156
 20
488.30690401
 30
0.0
  0
SEQEND
  5
3B7
  8
0
  0
POLYLINE
  5
3B8
  8
0
 66
     1
 10
0.0
 20
0.0
 30
0.0
  0
VERTEX
  5
3B9
  8
0
 10
125.36634891
 20
489.90858307
 30
0.0
  0
VERTEX
  5
3BA
  8
0
 10
125.26585373
 20
489.87765951
 30
0.0
  0
VERTEX
  5
3BB
  8
0
 10
125.15763263
 20
489.85199379
 30
0.0
  0
VERTEX
  5
3BC
  8
0
 10
125.1323341
 20
489.84700035
 30
0.0
  0
VERTEX
  5
3BD
  8
0
 10
125.01672617
 20
489.8284398
 30
0.0
  0
VERTEX
  5
3BE
  8
0
 10
124.89292158
 20
489.81546956
 30
0.0
  0
VERTEX
  5
3BF
  8
0
 10
124.75926037
 20
489.80828928
 30
0.0
  0
VERTEX
  5
3C0
  8
0
 10
124.66085708
 20
489.80690401
 30
0.0
  0
VERTEX
  5
3C1
  8
0
 10
124.50439722
 20
489.81017143
 30
0.0
  0
VERTEX
  5
3C2
  8
0
 10
124.32734162
 20
489.82047843
 30
0.0
  0
VERTEX
  5
3C3
  8
0
 10
124.11099029
 20
489.83961509
 30
0.0
  0
VERTEX
  5
3C4
  8
0
 10
123.86634891
 20
489.86544505
 30
0.0
  0
SEQEND
  5
3C5
  8
0
  0
POLYLINE
  5
3C6
  8
0
 66
     1
 10
0.0
 20
0.0
 30
0.0
  0
VERTEX
  5
3C7
  8
0
 10
124.66085708
 20
491.80690401
 30
0.0
  0
VERTEX
  5
3C8
  8
0
 10
124.81600063
 20
491.80326095
 30
0.0
  0
VERTEX
  5
3C9
  8
0
 10
124.95494056
 20
491.79266727
 30
0.0
  0
VERTEX
  5
3CA
  8
0
 10
125.081822
 20
491.77574662
 30
0.0
  0
VERTEX
  5
3CB
  8
0
 10
125.1323341
 20
491.76680767
 30
0.0
  0
VERTEX
  5
3CC
  8
0
 10
125.24150645
 20
491.74256643
 30
0.0
  0
VERTEX
  5
3CD
  8
0
 10
125.34241337
 20
491.7132755
 30
0.0
  0
VERTEX
  5
3CE
  8
0
 10
125.36634891
 20
491.70522495
 30
0.0
  0
SEQEND
  5
3CF
  8
0
  0
POLYLINE
  5
3D0
  8
0
 66
     1
 10
0.0
 20
0.0
 30
0.0
  0
VERTEX
  5
941
  8
0
 10
125.3663489171333
 20
489.9085830723309
 30
0.0
  0
VERTEX
  5
942
  8
0
 10
125.6096025548654
 20
490.0155406883271
 30
0.0
  0
VERTEX
  5
943
  8
0
 10
125.8173860956261
 20
490.1549648534569
 30
0.0
  0
VERTEX
  5
944
  8
0
 10
125.9811749915238
 20
490.3211355382679
 30
0.0
  0
VERTEX
  5
945
  8
0
 10
126.0942496232756
 20
490.5072354079717
 30
0.0
  0
VERTEX
  5
946
  8
0
 10
126.1519709799656
 20
490.7056295110892
 30
0.0
  0
VERTEX
  5
947
  8
0
 10
126.1519709795616
 20
490.9081785117168
 30
0.0
  0
VERTEX
  5
948
  8
0
 10
126.0942496220803
 20
491.106572614719
 30
0.0
  0
VERTEX
  5
949
  8
0
 10
125.9811749895863
 20
491.2926724841973
 30
0.0
  0
VERTEX
  5
94A
  8
0
 10
125.8173860930257
 20
491.4588431686817
 30
0.0
  0
VERTEX
  5
94B
  8
0
 10
125.6096025517089
 20
491.5982673333971
 30
0.0
  0
VERTEX
  5
94C
  8
0
 10
125.3663489135502
 20
491.7052249489082
 30
0.0
  0
SEQEND
  5
9FB
  8
0
  0
POLYLINE
  5
3D1
  8
0
 66
     1
 10
0.0
 20
0.0
 30
0.0
  0
VERTEX
  5
94D
  8
0
 10
125.3663488998832
 20
488.345810651777
 30
0.0
  0
VERTEX
  5
94E
  8
0
 10
126.0426834756425
 20
488.4813834512516
 30
0.0
  0
VERTEX
  5
94F
  8
0
 10
126.667715168653
 20
488.7088958781549
 30
0.0
  0
VERTEX
  5
950
  8
0
 10
127.2167333046655
 20
489.0193532118485
 30
0.0
  0
VERTEX
  5
951
  8
0
 10
127.6680324110338
 20
489.400481498664
 30
0.0
  0
VERTEX
  5
952
  8
0
 10
128.0037703441816
 20
489.8372128035708
 30
0.0
  0
VERTEX
  5
953
  8
0
 10
128.2106736800702
 20
490.3122809221018
 30
0.0
  0
VERTEX
  5
954
  8
0
 10
128.28056248
 20
490.8069040010255
 30
0.0
  0
VERTEX
  5
955
  8
0
 10
128.2106736850924
 20
491.301527080304
 30
0.0
  0
VERTEX
  5
956
  8
0
 10
128.0037703540274
 20
491.7765951998854
 30
0.0
  0
VERTEX
  5
957
  8
0
 10
127.6680324253138
 20
492.2133265064966
 30
0.0
  0
VERTEX
  5
958
  8
0
 10
127.2167333228154
 20
492.5944547956033
 30
0.0
  0
VERTEX
  5
959
  8
0
 10
126.6677151899551
 20
492.9049121320841
 30
0.0
  0
VERTEX
  5
95A
  8
0
 10
126.0426834992547
 20
493.1324245621605
 30
0.0
  0
VERTEX
  5
95B
  8
0
 10
125.3663489248718
 20
493.2679973650687
 30
0.0
  0
SEQEND
  5
9FC
  8
0
  0
POLYLINE
  5
3D2
  8
0
 66
     1
 10
0.0
 20
0.0
 30
0.0
  0
VERTEX
  5
3D3
  8
0
 10
124.66097156
 20
493.30690401
 30
0.0
  0
VERTEX
  5
3D4
  8
0
 10
124.78470996
 20
493.30587369
 30
0.0
  0
VERTEX
  5
3D5
  8
0
 10
125.01200398
 20
493.29852091
 30
0.0
  0
VERTEX
  5
3D6
  8
0
 10
125.21068259
 20
493.28471972
 30
0.0
  0
VERTEX
  5
3D7
  8
0
 10
125.36634891
 20
493.26799737
 30
0.0
  0
SEQEND
  5
3D8
  8
0
  0
POLYLINE
  5
3D9
  8
0
 66
     1
 10
0.0
 20
0.0
 30
0.0
  0
VERTEX
  5
3DA
  8
0
 10
123.86634891
 20
493.28406708
 30
0.0
  0
VERTEX
  5
3DB
  8
0
 10
123.96598256
 20
493.28815289
 30
0.0
  0
VERTEX
  5
3DC
  8
0
 10
124.05313208
 20
493.29170514
 30
0.0
  0
VERTEX
  5
3DD
  8
0
 10
124.12923855
 20
493.29470297
 30
0.0
  0
VERTEX
  5
3DE
  8
0
 10
124.26186367
 20
493.29946843
 30
0.0
  0
VERTEX
  5
3DF
  8
0
 10
124.36142455
 20
493.30246261
 30
0.0
  0
VERTEX
  5
3E0
  8
0
 10
124.66097156
 20
493.30690401
 30
0.0
  0
SEQEND
  5
3E1
  8
0
  0
POLYLINE
  5
3E2
  8
0
 66
     1
 10
0.0
 20
0.0
 30
0.0
  0
VERTEX
  5
3E3
  8
0
 10
123.86634891
 20
491.74836297
 30
0.0
  0
VERTEX
  5
3E4
  8
0
 10
124.11099029
 20
491.77419293
 30
0.0
  0
VERTEX
  5
3E5
  8
0
 10
124.2582395
 20
491.78784902
 30
0.0
  0
VERTEX
  5
3E6
  8
0
 10
124.37299579
 20
491.79654351
 30
0.0
  0
VERTEX
  5
3E7
  8
0
 10
124.47308509
 20
491.80226541
 30
0.0
  0
VERTEX
  5
3E8
  8
0
 10
124.56714664
 20
491.80571021
 30
0.0
  0
VERTEX
  5
3E9
  8
0
 10
124.66085708
 20
491.80690401
 30
0.0
  0
SEQEND
  5
3EA
  8
0
  0
POLYLINE
  5
3EB
  8
0
 66
     1
 10
0.0
 20
0.0
 30
0.0
  0
VERTEX
  5
3EC
  8
0
 10
124.66097156
 20
443.30690401
 30
0.0
  0
VERTEX
  5
3ED
  8
0
 10
124.41323615
 20
443.31004283
 30
0.0
  0
VERTEX
  5
3EE
  8
0
 10
124.10927759
 20
443.31987753
 30
0.0
  0
VERTEX
  5
3EF
  8
0
 10
123.86634891
 20
443.32974094
 30
0.0
  0
SEQEND
  5
3F0
  8
0
  0
POLYLINE
  5
3F1
  8
0
 66
     1
 10
0.0
 20
0.0
 30
0.0
  0
VERTEX
  5
3F2
  8
0
 10
125.36634891
 20
443.34581065
 30
0.0
  0
VERTEX
  5
3F3
  8
0
 10
125.1986786
 20
443.32802835
 30
0.0
  0
VERTEX
  5
3F4
  8
0
 10
125.01656902
 20
443.31552039
 30
0.0
  0
VERTEX
  5
3F5
  8
0
 10
124.81647421
 20
443.30849711
 30
0.0
  0
VERTEX
  5
3F6
  8
0
 10
124.66097156
 20
443.30690401
 30
0.0
  0
SEQEND
  5
3F7
  8
0
  0
POLYLINE
  5
3F8
  8
0
 66
     1
 10
0.0
 20
0.0
 30
0.0
  0
VERTEX
  5
3F9
  8
0
 10
125.36634891
 20
444.90858307
 30
0.0
  0
VERTEX
  5
3FA
  8
0
 10
125.26585373
 20
444.87765951
 30
0.0
  0
VERTEX
  5
3FB
  8
0
 10
125.15763263
 20
444.85199379
 30
0.0
  0
VERTEX
  5
3FC
  8
0
 10
125.1323341
 20
444.84700035
 30
0.0
  0
VERTEX
  5
3FD
  8
0
 10
125.01672617
 20
444.8284398
 30
0.0
  0
VERTEX
  5
3FE
  8
0
 10
124.89292158
 20
444.81546956
 30
0.0
  0
VERTEX
  5
3FF
  8
0
 10
124.75926037
 20
444.80828928
 30
0.0
  0
VERTEX
  5
400
  8
0
 10
124.66085708
 20
444.80690401
 30
0.0
  0
VERTEX
  5
401
  8
0
 10
124.50439722
 20
444.81017143
 30
0.0
  0
VERTEX
  5
402
  8
0
 10
124.32734162
 20
444.82047843
 30
0.0
  0
VERTEX
  5
403
  8
0
 10
124.11099029
 20
444.83961509
 30
0.0
  0
VERTEX
  5
404
  8
0
 10
123.86634891
 20
444.86544505
 30
0.0
  0
SEQEND
  5
405
  8
0
  0
POLYLINE
  5
406
  8
0
 66
     1
 10
0.0
 20
0.0
 30
0.0
  0
VERTEX
  5
407
  8
0
 10
124.66085708
 20
446.80690401
 30
0.0
  0
VERTEX
  5
408
  8
0
 10
124.81600063
 20
446.80326095
 30
0.0
  0
VERTEX
  5
409
  8
0
 10
124.95494056
 20
446.79266727
 30
0.0
  0
VERTEX
  5
40A
  8
0
 10
125.081822
 20
446.77574662
 30
0.0
  0
VERTEX
  5
40B
  8
0
 10
125.1323341
 20
446.76680767
 30
0.0
  0
VERTEX
  5
40C
  8
0
 10
125.24150645
 20
446.74256643
 30
0.0
  0
VERTEX
  5
40D
  8
0
 10
125.34241337
 20
446.7132755
 30
0.0
  0
VERTEX
  5
40E
  8
0
 10
125.36634891
 20
446.70522495
 30
0.0
  0
SEQEND
  5
40F
  8
0
  0
POLYLINE
  5
410
  8
0
 66
     1
 10
0.0
 20
0.0
 30
0.0
  0
VERTEX
  5
95C
  8
0
 10
125.3663489171333
 20
444.9085830723309
 30
0.0
  0
VERTEX
  5
95D
  8
0
 10
125.6096025548654
 20
445.0155406883271
 30
0.0
  0
VERTEX
  5
95E
  8
0
 10
125.8173860956261
 20
445.1549648534569
 30
0.0
  0
VERTEX
  5
95F
  8
0
 10
125.9811749915238
 20
445.3211355382679
 30
0.0
  0
VERTEX
  5
960
  8
0
 10
126.0942496232756
 20
445.5072354079717
 30
0.0
  0
VERTEX
  5
961
  8
0
 10
126.1519709799656
 20
445.7056295110892
 30
0.0
  0
VERTEX
  5
962
  8
0
 10
126.1519709795616
 20
445.9081785117168
 30
0.0
  0
VERTEX
  5
963
  8
0
 10
126.0942496220803
 20
446.106572614719
 30
0.0
  0
VERTEX
  5
964
  8
0
 10
125.9811749895863
 20
446.2926724841973
 30
0.0
  0
VERTEX
  5
965
  8
0
 10
125.8173860930257
 20
446.4588431686817
 30
0.0
  0
VERTEX
  5
966
  8
0
 10
125.6096025517089
 20
446.5982673333971
 30
0.0
  0
VERTEX
  5
967
  8
0
 10
125.3663489135502
 20
446.7052249489082
 30
0.0
  0
SEQEND
  5
9FD
  8
0
  0
POLYLINE
  5
411
  8
0
 66
     1
 10
0.0
 20
0.0
 30
0.0
  0
VERTEX
  5
968
  8
0
 10
125.3663488998832
 20
443.345810651777
 30
0.0
  0
VERTEX
  5
969
  8
0
 10
126.0426834756425
 20
443.4813834512516
 30
0.0
  0
VERTEX
  5
96A
  8
0
 10
126.667715168653
 20
443.7088958781549
 30
0.0
  0
VERTEX
  5
96B
  8
0
 10
127.2167333046655
 20
444.0193532118485
 30
0.0
  0
VERTEX
  5
96C
  8
0
 10
127.6680324110338
 20
444.400481498664
 30
0.0
  0
VERTEX
  5
96D
  8
0
 10
128.0037703441816
 20
444.8372128035708
 30
0.0
  0
VERTEX
  5
96E
  8
0
 10
128.2106736800702
 20
445.3122809221018
 30
0.0
  0
VERTEX
  5
96F
  8
0
 10
128.28056248
 20
445.8069040010255
 30
0.0
  0
VERTEX
  5
970
  8
0
 10
128.2106736850924
 20
446.301527080304
 30
0.0
  0
VERTEX
  5
971
  8
0
 10
128.0037703540274
 20
446.7765951998854
 30
0.0
  0
VERTEX
  5
972
  8
0
 10
127.6680324253138
 20
447.2133265064966
 30
0.0
  0
VERTEX
  5
973
  8
0
 10
127.2167333228154
 20
447.5944547956033
 30
0.0
  0
VERTEX
  5
974
  8
0
 10
126.6677151899551
 20
447.9049121320841
 30
0.0
  0
VERTEX
  5
975
  8
0
 10
126.0426834992547
 20
448.1324245621605
 30
0.0
  0
VERTEX
  5
976
  8
0
 10
125.3663489248718
 20
448.2679973650687
 30
0.0
  0
SEQEND
  5
9FE
  8
0
  0
POLYLINE
  5
412
  8
0
 66
     1
 10
0.0
 20
0.0
 30
0.0
  0
VERTEX
  5
413
  8
0
 10
124.66097156
 20
448.30690401
 30
0.0
  0
VERTEX
  5
414
  8
0
 10
124.78470996
 20
448.30587369
 30
0.0
  0
VERTEX
  5
415
  8
0
 10
125.01200398
 20
448.29852091
 30
0.0
  0
VERTEX
  5
416
  8
0
 10
125.21068259
 20
448.28471972
 30
0.0
  0
VERTEX
  5
417
  8
0
 10
125.36634891
 20
448.26799737
 30
0.0
  0
SEQEND
  5
418
  8
0
  0
POLYLINE
  5
419
  8
0
 66
     1
 10
0.0
 20
0.0
 30
0.0
  0
VERTEX
  5
41A
  8
0
 10
123.86634891
 20
448.28406708
 30
0.0
  0
VERTEX
  5
41B
  8
0
 10
123.96598256
 20
448.28815289
 30
0.0
  0
VERTEX
  5
41C
  8
0
 10
124.05313208
 20
448.29170514
 30
0.0
  0
VERTEX
  5
41D
  8
0
 10
124.12923855
 20
448.29470297
 30
0.0
  0
VERTEX
  5
41E
  8
0
 10
124.26186367
 20
448.29946843
 30
0.0
  0
VERTEX
  5
41F
  8
0
 10
124.36142455
 20
448.30246261
 30
0.0
  0
VERTEX
  5
420
  8
0
 10
124.66097156
 20
448.30690401
 30
0.0
  0
SEQEND
  5
421
  8
0
  0
POLYLINE
  5
422
  8
0
 66
     1
 10
0.0
 20
0.0
 30
0.0
  0
VERTEX
  5
423
  8
0
 10
123.86634891
 20
446.74836297
 30
0.0
  0
VERTEX
  5
424
  8
0
 10
124.11099029
 20
446.77419293
 30
0.0
  0
VERTEX
  5
425
  8
0
 10
124.2582395
 20
446.78784902
 30
0.0
  0
VERTEX
  5
426
  8
0
 10
124.37299579
 20
446.79654351
 30
0.0
  0
VERTEX
  5
427
  8
0
 10
124.47308509
 20
446.80226541
 30
0.0
  0
VERTEX
  5
428
  8
0
 10
124.56714664
 20
446.80571021
 30
0.0
  0
VERTEX
  5
429
  8
0
 10
124.66085708
 20
446.80690401
 30
0.0
  0
SEQEND
  5
42A
  8
0
  0
ARC
  5
42B
  8
0
 10
120.86634891
 20
482.30690401
 30
0.0
 40
3.0
 50
-90.0
 51
0.0
  0
ARC
  5
42C
  8
0
 10
120.86634891
 20
482.30690401
 30
0.0
 40
1.5
 50
-90.0
 51
0.0
  0
LINE
  5
42D
  8
0
 10
117.11634891
 20
458.80690401
 30
0.0
 11
117.11634891
 21
477.80690401
 31
0.0
  0
LINE
  5
42E
  8
0
 10
115.61634891
 20
458.80690401
 30
0.0
 11
115.61634891
 21
477.80690401
 31
0.0
  0
LINE
  5
42F
  8
0
  6
STRICHPUNKT2
 62
     1
 10
115.61634891
 20
464.9481468
 30
0.0
 11
114.11634891
 21
464.9481468
 31
0.0
  0
LINE
  5
430
  8
0
  6
STRICHPUNKT2
 62
     1
 10
118.61634891
 20
464.9481468
 30
0.0
 11
117.11634891
 21
464.9481468
 31
0.0
  0
LINE
  5
431
  8
0
  6
STRICHPUNKT2
 62
     1
 10
115.61634891
 20
471.66566122
 30
0.0
 11
114.11634891
 21
471.66566122
 31
0.0
  0
LINE
  5
432
  8
0
  6
STRICHPUNKT2
 62
     1
 10
118.61634891
 20
471.66566122
 30
0.0
 11
117.11634891
 21
471.66566122
 31
0.0
  0
ARC
  5
433
  8
0
 10
118.61634891
 20
477.80690401
 30
0.0
 40
1.5
 50
90.0
 51
180.0
  0
ARC
  5
434
  8
0
 10
118.61634891
 20
477.80690401
 30
0.0
 40
3.0
 50
90.0
 51
180.0
  0
ARC
  5
435
  8
0
 10
118.61634891
 20
458.80690401
 30
0.0
 40
1.5
 50
180.0
 51
-90.0
  0
ARC
  5
436
  8
0
 10
118.61634891
 20
458.80690401
 30
0.0
 40
3.0
 50
180.0
 51
-90.0
  0
LINE
  5
437
  8
0
 10
120.86634891
 20
457.30690401
 30
0.0
 11
118.61634891
 21
457.30690401
 31
0.0
  0
LINE
  5
438
  8
0
 10
120.86634891
 20
455.80690401
 30
0.0
 11
118.61634891
 21
455.80690401
 31
0.0
  0
ARC
  5
439
  8
0
 10
120.86634891
 20
454.30690401
 30
0.0
 40
3.0
 50
0.0
 51
90.0
  0
ARC
  5
43A
  8
0
 10
120.86634891
 20
454.30690401
 30
0.0
 40
1.5
 50
0.0
 51
90.0
  0
LINE
  5
43B
  8
0
 10
120.86634891
 20
479.30690401
 30
0.0
 11
118.61634891
 21
479.30690401
 31
0.0
  0
LINE
  5
43C
  8
0
 10
120.86634891
 20
480.80690401
 30
0.0
 11
118.61634891
 21
480.80690401
 31
0.0
  0
LINE
  5
43D
  8
0
 10
123.86634891
 20
440.55690401
 30
0.0
 11
123.86634891
 21
454.30690401
 31
0.0
  0
LINE
  5
43E
  8
0
 10
122.36634891
 20
440.55690401
 30
0.0
 11
122.36634891
 21
454.30690401
 31
0.0
  0
LINE
  5
43F
  8
0
 10
123.86634891
 20
440.55690401
 30
0.0
 11
122.36634891
 21
440.55690401
 31
0.0
  0
LINE
  5
440
  8
0
  6
STRICHPUNKT2
 62
     1
 10
122.36634891
 20
445.55690401
 30
0.0
 11
121.55384891
 21
445.55690401
 31
0.0
  0
LINE
  5
441
  8
0
  6
STRICHPUNKT2
 62
     1
 10
124.67884891
 20
445.55690401
 30
0.0
 11
123.86634891
 21
445.55690401
 31
0.0
  0
POLYLINE
  5
442
  8
0
 66
     1
 10
0.0
 20
0.0
 30
0.0
  0
VERTEX
  5
443
  8
0
 10
123.86634891
 20
482.30690401
 30
0.0
  0
VERTEX
  5
444
  8
0
 10
123.86634891
 20
496.05690401
 30
0.0
  0
VERTEX
  5
445
  8
0
 10
122.36634891
 20
496.05690401
 30
0.0
  0
SEQEND
  5
446
  8
0
  0
LINE
  5
447
  8
0
 10
122.36634891
 20
482.30690401
 30
0.0
 11
122.36634891
 21
496.05690401
 31
0.0
  0
LINE
  5
448
  8
0
  6
STRICHPUNKT2
 62
     1
 10
122.36634891
 20
491.05690401
 30
0.0
 11
121.55384891
 21
491.05690401
 31
0.0
  0
LINE
  5
449
  8
0
  6
STRICHPUNKT2
 62
     1
 10
124.67884891
 20
491.05690401
 30
0.0
 11
123.86634891
 21
491.05690401
 31
0.0
  0
POLYLINE
  5
44A
  8
0
 66
     1
 10
0.0
 20
0.0
 30
0.0
  0
VERTEX
  5
44B
  8
0
 10
124.66087677
 20
491.80690401
 30
0.0
  0
VERTEX
  5
44C
  8
0
 10
124.50753698
 20
491.80378667
 30
0.0
  0
VERTEX
  5
44D
  8
0
 10
124.4242446
 20
491.79973652
 30
0.0
  0
VERTEX
  5
44E
  8
0
 10
124.23588305
 20
491.78595288
 30
0.0
  0
VERTEX
  5
44F
  8
0
 10
124.00304259
 20
491.76302585
 30
0.0
  0
VERTEX
  5
450
  8
0
 10
123.86634891
 20
491.74838609
 30
0.0
  0
SEQEND
  5
451
  8
0
  0
POLYLINE
  5
452
  8
0
 66
     1
 10
0.0
 20
0.0
 30
0.0
  0
VERTEX
  5
453
  8
0
 10
125.36634891
 20
491.70522135
 30
0.0
  0
VERTEX
  5
454
  8
0
 10
125.26809165
 20
491.73548387
 30
0.0
  0
VERTEX
  5
455
  8
0
 10
125.16212939
 20
491.76082439
 30
0.0
  0
VERTEX
  5
456
  8
0
 10
125.04798498
 20
491.78094971
 30
0.0
  0
VERTEX
  5
457
  8
0
 10
124.92517662
 20
491.7955216
 30
0.0
  0
VERTEX
  5
458
  8
0
 10
124.91260839
 20
491.79664108
 30
0.0
  0
VERTEX
  5
459
  8
0
 10
124.7801027
 20
491.80478509
 30
0.0
  0
VERTEX
  5
45A
  8
0
 10
124.66087677
 20
491.80690401
 30
0.0
  0
SEQEND
  5
45B
  8
0
  0
POLYLINE
  5
45C
  8
0
 66
     1
 10
0.0
 20
0.0
 30
0.0
  0
VERTEX
  5
45D
  8
0
 10
124.66090526
 20
489.80690401
 30
0.0
  0
VERTEX
  5
45E
  8
0
 10
124.8192929
 20
489.81075208
 30
0.0
  0
VERTEX
  5
45F
  8
0
 10
124.95929063
 20
489.82161481
 30
0.0
  0
VERTEX
  5
460
  8
0
 10
125.08658477
 20
489.83884901
 30
0.0
  0
VERTEX
  5
461
  8
0
 10
125.1323341
 20
489.84700035
 30
0.0
  0
VERTEX
  5
462
  8
0
 10
125.24167587
 20
489.87133938
 30
0.0
  0
VERTEX
  5
463
  8
0
 10
125.34394662
 20
489.90114311
 30
0.0
  0
VERTEX
  5
464
  8
0
 10
125.36634891
 20
489.9086384
 30
0.0
  0
SEQEND
  5
465
  8
0
  0
POLYLINE
  5
466
  8
0
 66
     1
 10
0.0
 20
0.0
 30
0.0
  0
VERTEX
  5
467
  8
0
 10
123.86634891
 20
489.86541743
 30
0.0
  0
VERTEX
  5
468
  8
0
 10
124.16143449
 20
489.83467821
 30
0.0
  0
VERTEX
  5
469
  8
0
 10
124.23042596
 20
489.82833045
 30
0.0
  0
VERTEX
  5
46A
  8
0
 10
124.35113864
 20
489.81870625
 30
0.0
  0
VERTEX
  5
46B
  8
0
 10
124.45321999
 20
489.8124763
 30
0.0
  0
VERTEX
  5
46C
  8
0
 10
124.5453798
 20
489.80870509
 30
0.0
  0
VERTEX
  5
46D
  8
0
 10
124.66090526
 20
489.80690401
 30
0.0
  0
SEQEND
  5
46E
  8
0
  0
POLYLINE
  5
46F
  8
0
 66
     1
 10
0.0
 20
0.0
 30
0.0
  0
VERTEX
  5
470
  8
0
 10
123.86634891
 20
488.32974094
 30
0.0
  0
VERTEX
  5
471
  8
0
 10
123.96598222
 20
488.32565514
 30
0.0
  0
VERTEX
  5
472
  8
0
 10
124.05313185
 20
488.32210289
 30
0.0
  0
VERTEX
  5
473
  8
0
 10
124.12923877
 20
488.31910504
 30
0.0
  0
VERTEX
  5
474
  8
0
 10
124.26186485
 20
488.31433954
 30
0.0
  0
VERTEX
  5
475
  8
0
 10
124.36142561
 20
488.31134536
 30
0.0
  0
VERTEX
  5
476
  8
0
 10
124.66097162
 20
488.30690401
 30
0.0
  0
VERTEX
  5
477
  8
0
 10
124.78470985
 20
488.30793439
 30
0.0
  0
VERTEX
  5
478
  8
0
 10
125.012004
 20
488.31528721
 30
0.0
  0
VERTEX
  5
479
  8
0
 10
125.21068331
 20
488.32908845
 30
0.0
  0
VERTEX
  5
47A
  8
0
 10
125.36634891
 20
488.34581065
 30
0.0
  0
SEQEND
  5
47B
  8
0
  0
LINE
  5
47C
  8
0
 10
125.36634891
 20
485.55690401
 30
0.0
 11
123.86634891
 21
485.55690401
 31
0.0
  0
LINE
  5
47D
  8
0
 10
123.86634891
 20
496.05690401
 30
0.0
 11
125.36634891
 21
496.05690401
 31
0.0
  0
POLYLINE
  5
47E
  8
0
 66
     1
 10
0.0
 20
0.0
 30
0.0
  0
VERTEX
  5
47F
  8
0
 10
124.66097162
 20
493.30690401
 30
0.0
  0
VERTEX
  5
480
  8
0
 10
124.41323619
 20
493.3037652
 30
0.0
  0
VERTEX
  5
481
  8
0
 10
124.10927846
 20
493.29393052
 30
0.0
  0
VERTEX
  5
482
  8
0
 10
123.86634891
 20
493.28406708
 30
0.0
  0
SEQEND
  5
483
  8
0
  0
POLYLINE
  5
484
  8
0
 66
     1
 10
0.0
 20
0.0
 30
0.0
  0
VERTEX
  5
485
  8
0
 10
125.36634891
 20
493.26799737
 30
0.0
  0
VERTEX
  5
486
  8
0
 10
125.19867728
 20
493.2857797
 30
0.0
  0
VERTEX
  5
487
  8
0
 10
125.01656649
 20
493.29828766
 30
0.0
  0
VERTEX
  5
488
  8
0
 10
124.81647061
 20
493.30531091
 30
0.0
  0
VERTEX
  5
489
  8
0
 10
124.66097162
 20
493.30690401
 30
0.0
  0
SEQEND
  5
48A
  8
0
  0
POLYLINE
  5
48B
  8
0
 66
     1
 10
0.0
 20
0.0
 30
0.0
  0
VERTEX
  5
977
  8
0
 10
125.3663489171333
 20
489.9085830723309
 30
0.0
  0
VERTEX
  5
978
  8
0
 10
125.6096025548654
 20
490.0155406883271
 30
0.0
  0
VERTEX
  5
979
  8
0
 10
125.8173860956261
 20
490.1549648534569
 30
0.0
  0
VERTEX
  5
97A
  8
0
 10
125.9811749915238
 20
490.3211355382679
 30
0.0
  0
VERTEX
  5
97B
  8
0
 10
126.0942496232756
 20
490.5072354079717
 30
0.0
  0
VERTEX
  5
97C
  8
0
 10
126.1519709799656
 20
490.7056295110892
 30
0.0
  0
VERTEX
  5
97D
  8
0
 10
126.1519709795616
 20
490.9081785117168
 30
0.0
  0
VERTEX
  5
97E
  8
0
 10
126.0942496220803
 20
491.106572614719
 30
0.0
  0
VERTEX
  5
97F
  8
0
 10
125.9811749895863
 20
491.2926724841973
 30
0.0
  0
VERTEX
  5
980
  8
0
 10
125.8173860930257
 20
491.4588431686817
 30
0.0
  0
VERTEX
  5
981
  8
0
 10
125.6096025517089
 20
491.5982673333971
 30
0.0
  0
VERTEX
  5
982
  8
0
 10
125.3663489135502
 20
491.7052249489082
 30
0.0
  0
SEQEND
  5
9FF
  8
0
  0
CIRCLE
  5
48C
  8
0
 10
135.11634891
 20
490.80690401
 30
0.0
 40
1.625
  0
POLYLINE
  5
48D
  8
0
 66
     1
 10
0.0
 20
0.0
 30
0.0
  0
VERTEX
  5
48E
  8
0
 10
125.36634891
 20
485.55690401
 30
0.0
  0
VERTEX
  5
48F
  8
0
 10
137.36634891
 20
485.55690401
 30
0.0
 42
0.414213562
  0
VERTEX
  5
490
  8
0
 10
138.36634891
 20
486.55690401
 30
0.0
  0
VERTEX
  5
491
  8
0
 10
138.36634891
 20
495.05690401
 30
0.0
 42
0.414213562
  0
VERTEX
  5
492
  8
0
 10
137.36634891
 20
496.05690401
 30
0.0
  0
VERTEX
  5
493
  8
0
 10
125.36634891
 20
496.05690401
 30
0.0
  0
SEQEND
  5
494
  8
0
  0
POLYLINE
  5
495
  8
0
 66
     1
 10
0.0
 20
0.0
 30
0.0
  0
VERTEX
  5
983
  8
0
 10
125.3663488998832
 20
488.345810651777
 30
0.0
  0
VERTEX
  5
984
  8
0
 10
126.0426834756425
 20
488.4813834512516
 30
0.0
  0
VERTEX
  5
985
  8
0
 10
126.667715168653
 20
488.7088958781549
 30
0.0
  0
VERTEX
  5
986
  8
0
 10
127.2167333046655
 20
489.0193532118485
 30
0.0
  0
VERTEX
  5
987
  8
0
 10
127.6680324110338
 20
489.400481498664
 30
0.0
  0
VERTEX
  5
988
  8
0
 10
128.0037703441816
 20
489.8372128035708
 30
0.0
  0
VERTEX
  5
989
  8
0
 10
128.2106736800702
 20
490.3122809221018
 30
0.0
  0
VERTEX
  5
98A
  8
0
 10
128.28056248
 20
490.8069040010255
 30
0.0
  0
VERTEX
  5
98B
  8
0
 10
128.2106736850924
 20
491.301527080304
 30
0.0
  0
VERTEX
  5
98C
  8
0
 10
128.0037703540274
 20
491.7765951998854
 30
0.0
  0
VERTEX
  5
98D
  8
0
 10
127.6680324253138
 20
492.2133265064966
 30
0.0
  0
VERTEX
  5
98E
  8
0
 10
127.2167333228154
 20
492.5944547956033
 30
0.0
  0
VERTEX
  5
98F
  8
0
 10
126.6677151899551
 20
492.9049121320841
 30
0.0
  0
VERTEX
  5
990
  8
0
 10
126.0426834992547
 20
493.1324245621605
 30
0.0
  0
VERTEX
  5
991
  8
0
 10
125.3663489248718
 20
493.2679973650687
 30
0.0
  0
SEQEND
  5
A00
  8
0
  0
LINE
  5
496
  8
0
  6
STRICHPUNKT2
 62
     1
 10
135.11634891
 20
490.80690401
 30
0.0
 11
132.67884891
 21
490.80690401
 31
0.0
  0
LINE
  5
497
  8
0
  6
STRICHPUNKT2
 62
     1
 10
135.11634891
 20
490.80690401
 30
0.0
 11
137.55384891
 21
490.80690401
 31
0.0
  0
LINE
  5
498
  8
0
  6
STRICHPUNKT2
 62
     1
 10
135.11634891
 20
490.80690401
 30
0.0
 11
135.11634891
 21
488.36940401
 31
0.0
  0
LINE
  5
499
  8
0
  6
STRICHPUNKT2
 62
     1
 10
135.11634891
 20
490.80690401
 30
0.0
 11
135.11634891
 21
493.24440401
 31
0.0
  0
POLYLINE
  5
49A
  8
0
 66
     1
 10
0.0
 20
0.0
 30
0.0
  0
VERTEX
  5
49B
  8
0
 10
124.66087677
 20
446.80690401
 30
0.0
  0
VERTEX
  5
49C
  8
0
 10
124.50753698
 20
446.80378667
 30
0.0
  0
VERTEX
  5
49D
  8
0
 10
124.4242446
 20
446.79973652
 30
0.0
  0
VERTEX
  5
49E
  8
0
 10
124.23588305
 20
446.78595288
 30
0.0
  0
VERTEX
  5
49F
  8
0
 10
124.00304259
 20
446.76302585
 30
0.0
  0
VERTEX
  5
4A0
  8
0
 10
123.86634891
 20
446.74838609
 30
0.0
  0
SEQEND
  5
4A1
  8
0
  0
POLYLINE
  5
4A2
  8
0
 66
     1
 10
0.0
 20
0.0
 30
0.0
  0
VERTEX
  5
4A3
  8
0
 10
125.36634891
 20
446.70522135
 30
0.0
  0
VERTEX
  5
4A4
  8
0
 10
125.26809165
 20
446.73548387
 30
0.0
  0
VERTEX
  5
4A5
  8
0
 10
125.16212939
 20
446.76082439
 30
0.0
  0
VERTEX
  5
4A6
  8
0
 10
125.04798498
 20
446.78094971
 30
0.0
  0
VERTEX
  5
4A7
  8
0
 10
124.92517662
 20
446.7955216
 30
0.0
  0
VERTEX
  5
4A8
  8
0
 10
124.91260839
 20
446.79664108
 30
0.0
  0
VERTEX
  5
4A9
  8
0
 10
124.7801027
 20
446.80478509
 30
0.0
  0
VERTEX
  5
4AA
  8
0
 10
124.66087677
 20
446.80690401
 30
0.0
  0
SEQEND
  5
4AB
  8
0
  0
POLYLINE
  5
4AC
  8
0
 66
     1
 10
0.0
 20
0.0
 30
0.0
  0
VERTEX
  5
4AD
  8
0
 10
124.66090526
 20
444.80690401
 30
0.0
  0
VERTEX
  5
4AE
  8
0
 10
124.8192929
 20
444.81075208
 30
0.0
  0
VERTEX
  5
4AF
  8
0
 10
124.95929063
 20
444.82161481
 30
0.0
  0
VERTEX
  5
4B0
  8
0
 10
125.08658477
 20
444.83884901
 30
0.0
  0
VERTEX
  5
4B1
  8
0
 10
125.1323341
 20
444.84700035
 30
0.0
  0
VERTEX
  5
4B2
  8
0
 10
125.24167587
 20
444.87133938
 30
0.0
  0
VERTEX
  5
4B3
  8
0
 10
125.34394662
 20
444.90114311
 30
0.0
  0
VERTEX
  5
4B4
  8
0
 10
125.36634891
 20
444.9086384
 30
0.0
  0
SEQEND
  5
4B5
  8
0
  0
POLYLINE
  5
4B6
  8
0
 66
     1
 10
0.0
 20
0.0
 30
0.0
  0
VERTEX
  5
4B7
  8
0
 10
123.86634891
 20
444.86541743
 30
0.0
  0
VERTEX
  5
4B8
  8
0
 10
124.16143449
 20
444.83467821
 30
0.0
  0
VERTEX
  5
4B9
  8
0
 10
124.23042596
 20
444.82833045
 30
0.0
  0
VERTEX
  5
4BA
  8
0
 10
124.35113864
 20
444.81870625
 30
0.0
  0
VERTEX
  5
4BB
  8
0
 10
124.45321999
 20
444.8124763
 30
0.0
  0
VERTEX
  5
4BC
  8
0
 10
124.5453798
 20
444.80870509
 30
0.0
  0
VERTEX
  5
4BD
  8
0
 10
124.66090526
 20
444.80690401
 30
0.0
  0
SEQEND
  5
4BE
  8
0
  0
LINE
  5
4BF
  8
0
 10
123.86634891
 20
451.05690401
 30
0.0
 11
125.36634891
 21
451.05690401
 31
0.0
  0
POLYLINE
  5
4C0
  8
0
 66
     1
 10
0.0
 20
0.0
 30
0.0
  0
VERTEX
  5
4C1
  8
0
 10
124.66097162
 20
448.30690401
 30
0.0
  0
VERTEX
  5
4C2
  8
0
 10
124.41323619
 20
448.3037652
 30
0.0
  0
VERTEX
  5
4C3
  8
0
 10
124.10927846
 20
448.29393052
 30
0.0
  0
VERTEX
  5
4C4
  8
0
 10
123.86634891
 20
448.28406708
 30
0.0
  0
SEQEND
  5
4C5
  8
0
  0
POLYLINE
  5
4C6
  8
0
 66
     1
 10
0.0
 20
0.0
 30
0.0
  0
VERTEX
  5
4C7
  8
0
 10
125.36634891
 20
448.26799737
 30
0.0
  0
VERTEX
  5
4C8
  8
0
 10
125.19867728
 20
448.2857797
 30
0.0
  0
VERTEX
  5
4C9
  8
0
 10
125.01656649
 20
448.29828766
 30
0.0
  0
VERTEX
  5
4CA
  8
0
 10
124.81647061
 20
448.30531091
 30
0.0
  0
VERTEX
  5
4CB
  8
0
 10
124.66097162
 20
448.30690401
 30
0.0
  0
SEQEND
  5
4CC
  8
0
  0
POLYLINE
  5
4CD
  8
0
 66
     1
 10
0.0
 20
0.0
 30
0.0
  0
VERTEX
  5
4CE
  8
0
 10
123.86634891
 20
443.32974094
 30
0.0
  0
VERTEX
  5
4CF
  8
0
 10
123.96598222
 20
443.32565514
 30
0.0
  0
VERTEX
  5
4D0
  8
0
 10
124.05313185
 20
443.32210289
 30
0.0
  0
VERTEX
  5
4D1
  8
0
 10
124.12923877
 20
443.31910504
 30
0.0
  0
VERTEX
  5
4D2
  8
0
 10
124.26186485
 20
443.31433954
 30
0.0
  0
VERTEX
  5
4D3
  8
0
 10
124.36142561
 20
443.31134536
 30
0.0
  0
VERTEX
  5
4D4
  8
0
 10
124.66097162
 20
443.30690401
 30
0.0
  0
VERTEX
  5
4D5
  8
0
 10
124.78470985
 20
443.30793439
 30
0.0
  0
VERTEX
  5
4D6
  8
0
 10
125.012004
 20
443.31528721
 30
0.0
  0
VERTEX
  5
4D7
  8
0
 10
125.21068331
 20
443.32908845
 30
0.0
  0
VERTEX
  5
4D8
  8
0
 10
125.36634891
 20
443.34581065
 30
0.0
  0
SEQEND
  5
4D9
  8
0
  0
LINE
  5
4DA
  8
0
 10
125.36634891
 20
440.55690401
 30
0.0
 11
123.86634891
 21
440.55690401
 31
0.0
  0
POLYLINE
  5
4DB
  8
0
 66
     1
 10
0.0
 20
0.0
 30
0.0
  0
VERTEX
  5
992
  8
0
 10
125.3663489171333
 20
444.9085830723309
 30
0.0
  0
VERTEX
  5
993
  8
0
 10
125.6096025548654
 20
445.0155406883271
 30
0.0
  0
VERTEX
  5
994
  8
0
 10
125.8173860956261
 20
445.1549648534569
 30
0.0
  0
VERTEX
  5
995
  8
0
 10
125.9811749915238
 20
445.3211355382679
 30
0.0
  0
VERTEX
  5
996
  8
0
 10
126.0942496232756
 20
445.5072354079717
 30
0.0
  0
VERTEX
  5
997
  8
0
 10
126.1519709799656
 20
445.7056295110892
 30
0.0
  0
VERTEX
  5
998
  8
0
 10
126.1519709795616
 20
445.9081785117168
 30
0.0
  0
VERTEX
  5
999
  8
0
 10
126.0942496220803
 20
446.106572614719
 30
0.0
  0
VERTEX
  5
99A
  8
0
 10
125.9811749895863
 20
446.2926724841973
 30
0.0
  0
VERTEX
  5
99B
  8
0
 10
125.8173860930257
 20
446.4588431686817
 30
0.0
  0
VERTEX
  5
99C
  8
0
 10
125.6096025517089
 20
446.5982673333971
 30
0.0
  0
VERTEX
  5
99D
  8
0
 10
125.3663489135502
 20
446.7052249489082
 30
0.0
  0
SEQEND
  5
A01
  8
0
  0
CIRCLE
  5
4DC
  8
0
 10
135.11634891
 20
445.80690401
 30
0.0
 40
1.625
  0
POLYLINE
  5
4DD
  8
0
 66
     1
 10
0.0
 20
0.0
 30
0.0
  0
VERTEX
  5
4DE
  8
0
 10
125.36634891
 20
440.55690401
 30
0.0
  0
VERTEX
  5
4DF
  8
0
 10
137.36634891
 20
440.55690401
 30
0.0
 42
0.414213562
  0
VERTEX
  5
4E0
  8
0
 10
138.36634891
 20
441.55690401
 30
0.0
  0
VERTEX
  5
4E1
  8
0
 10
138.36634891
 20
450.05690401
 30
0.0
 42
0.414213562
  0
VERTEX
  5
4E2
  8
0
 10
137.36634891
 20
451.05690401
 30
0.0
  0
VERTEX
  5
4E3
  8
0
 10
125.36634891
 20
451.05690401
 30
0.0
  0
SEQEND
  5
4E4
  8
0
  0
POLYLINE
  5
4E5
  8
0
 66
     1
 10
0.0
 20
0.0
 30
0.0
  0
VERTEX
  5
99E
  8
0
 10
125.3663488998832
 20
443.345810651777
 30
0.0
  0
VERTEX
  5
99F
  8
0
 10
126.0426834756425
 20
443.4813834512516
 30
0.0
  0
VERTEX
  5
9A0
  8
0
 10
126.667715168653
 20
443.7088958781549
 30
0.0
  0
VERTEX
  5
9A1
  8
0
 10
127.2167333046655
 20
444.0193532118485
 30
0.0
  0
VERTEX
  5
9A2
  8
0
 10
127.6680324110338
 20
444.400481498664
 30
0.0
  0
VERTEX
  5
9A3
  8
0
 10
128.0037703441816
 20
444.8372128035708
 30
0.0
  0
VERTEX
  5
9A4
  8
0
 10
128.2106736800702
 20
445.3122809221018
 30
0.0
  0
VERTEX
  5
9A5
  8
0
 10
128.28056248
 20
445.8069040010255
 30
0.0
  0
VERTEX
  5
9A6
  8
0
 10
128.2106736850924
 20
446.301527080304
 30
0.0
  0
VERTEX
  5
9A7
  8
0
 10
128.0037703540274
 20
446.7765951998854
 30
0.0
  0
VERTEX
  5
9A8
  8
0
 10
127.6680324253138
 20
447.2133265064966
 30
0.0
  0
VERTEX
  5
9A9
  8
0
 10
127.2167333228154
 20
447.5944547956033
 30
0.0
  0
VERTEX
  5
9AA
  8
0
 10
126.6677151899551
 20
447.9049121320841
 30
0.0
  0
VERTEX
  5
9AB
  8
0
 10
126.0426834992547
 20
448.1324245621605
 30
0.0
  0
VERTEX
  5
9AC
  8
0
 10
125.3663489248718
 20
448.2679973650687
 30
0.0
  0
SEQEND
  5
A02
  8
0
  0
LINE
  5
4E6
  8
0
  6
STRICHPUNKT2
 62
     1
 10
135.11634891
 20
445.80690401
 30
0.0
 11
132.67884891
 21
445.80690401
 31
0.0
  0
LINE
  5
4E7
  8
0
  6
STRICHPUNKT2
 62
     1
 10
135.11634891
 20
445.80690401
 30
0.0
 11
137.55384891
 21
445.80690401
 31
0.0
  0
LINE
  5
4E8
  8
0
  6
STRICHPUNKT2
 62
     1
 10
135.11634891
 20
445.80690401
 30
0.0
 11
135.11634891
 21
443.36940401
 31
0.0
  0
LINE
  5
4E9
  8
0
  6
STRICHPUNKT2
 62
     1
 10
135.11634891
 20
445.80690401
 30
0.0
 11
135.11634891
 21
448.24440401
 31
0.0
  0
LINE
  5
4EA
  8
0
 10
316.29328986
 20
367.64512986
 30
0.0
 11
313.3790763
 21
370.55934342
 31
0.0
  0
LINE
  5
4EB
  8
0
  6
STRICHPUNKT2
 62
     1
 10
319.52031909
 20
359.39512986
 30
0.0
 11
319.52031909
 21
357.89512986
 31
0.0
  0
LINE
  5
4EC
  8
0
  6
STRICHPUNKT2
 62
     1
 10
341.23783351
 20
359.39512986
 30
0.0
 11
341.23783351
 21
357.89512986
 31
0.0
  0
LINE
  5
4ED
  8
0
  6
STRICHPUNKT2
 62
     1
 10
334.52031909
 20
359.39512986
 30
0.0
 11
334.52031909
 21
357.89512986
 31
0.0
  0
LINE
  5
4EE
  8
0
  6
STRICHPUNKT2
 62
     1
 10
326.23783351
 20
359.39512986
 30
0.0
 11
326.23783351
 21
357.89512986
 31
0.0
  0
LINE
  5
4EF
  8
0
 10
348.3790763
 20
359.39512986
 30
0.0
 11
178.3790763
 21
359.39512986
 31
0.0
  0
LINE
  5
4F0
  8
0
 10
178.3790763
 20
362.39512986
 30
0.0
 11
178.3790763
 21
359.39512986
 31
0.0
  0
LINE
  5
4F1
  8
0
 10
348.3790763
 20
359.39512986
 30
0.0
 11
348.3790763
 21
362.39512986
 31
0.0
  0
LINE
  5
4F2
  8
0
 10
178.3790763
 20
364.64512986
 30
0.0
 11
178.3790763
 21
362.39512986
 31
0.0
  0
LINE
  5
4F3
  8
0
 10
348.3790763
 20
362.39512986
 30
0.0
 11
348.3790763
 21
364.64512986
 31
0.0
  0
LINE
  5
4F4
  8
0
 10
178.3790763
 20
366.14512986
 30
0.0
 11
178.3790763
 21
364.64512986
 31
0.0
  0
POLYLINE
  5
4F5
  8
0
 66
     1
 10
0.0
 20
0.0
 30
0.0
  0
VERTEX
  5
4F6
  8
0
 10
348.3790763
 20
364.64512986
 30
0.0
  0
VERTEX
  5
4F7
  8
0
 10
348.3790763
 20
366.14512986
 30
0.0
  0
VERTEX
  5
4F8
  8
0
 10
292.8790763
 20
366.14512986
 30
0.0
  0
SEQEND
  5
4F9
  8
0
  0
LINE
  5
4FA
  8
0
 10
293.8790763
 20
366.14512986
 30
0.0
 11
314.8790763
 21
366.14512986
 31
0.0
  0
LINE
  5
4FB
  8
0
 10
312.28099024
 20
367.64512986
 30
0.0
 11
293.8790763
 21
367.64512986
 31
0.0
  0
LINE
  5
4FC
  8
0
 10
293.8790763
 20
366.14512986
 30
0.0
 11
292.8790763
 21
366.14512986
 31
0.0
  0
LINE
  5
4FD
  8
0
 10
292.8790763
 20
367.64512986
 30
0.0
 11
293.8790763
 21
367.64512986
 31
0.0
  0
LINE
  5
4FE
  8
0
 10
348.3790763
 20
366.14512986
 30
0.0
 11
314.8790763
 21
366.14512986
 31
0.0
  0
LINE
  5
4FF
  8
0
 10
348.3790763
 20
367.64512986
 30
0.0
 11
314.8790763
 21
367.64512986
 31
0.0
  0
LINE
  5
500
  8
0
 10
348.3790763
 20
367.64512986
 30
0.0
 11
348.3790763
 21
366.14512986
 31
0.0
  0
LINE
  5
501
  8
0
 10
292.8790763
 20
366.14512986
 30
0.0
 11
291.8790763
 21
366.14512986
 31
0.0
  0
LINE
  5
502
  8
0
 10
292.8790763
 20
367.64512986
 30
0.0
 11
292.8790763
 21
366.14512986
 31
0.0
  0
LINE
  5
503
  8
0
 10
291.8790763
 20
367.64512986
 30
0.0
 11
292.8790763
 21
367.64512986
 31
0.0
  0
POLYLINE
  5
504
  8
0
 66
     1
 10
0.0
 20
0.0
 30
0.0
  0
VERTEX
  5
505
  8
0
 10
291.8790763
 20
367.64512986
 30
0.0
  0
VERTEX
  5
506
  8
0
 10
178.3790763
 20
367.64512986
 30
0.0
  0
VERTEX
  5
507
  8
0
 10
178.3790763
 20
366.14512986
 30
0.0
  0
SEQEND
  5
508
  8
0
  0
LINE
  5
509
  8
0
 10
291.8790763
 20
366.14512986
 30
0.0
 11
178.3790763
 21
366.14512986
 31
0.0
  0
LINE
  5
50A
  8
0
  6
STRICHPUNKT2
 62
     1
 10
189.6290763
 20
366.14512986
 30
0.0
 11
189.6290763
 21
365.33262986
 31
0.0
  0
LINE
  5
50B
  8
0
  6
STRICHPUNKT2
 62
     1
 10
189.6290763
 20
368.45762986
 30
0.0
 11
189.6290763
 21
367.64512986
 31
0.0
  0
ARC
  5
50C
  8
0
 10
314.8790763
 20
369.14512986
 30
0.0
 40
3.0
 50
180.0
 51
-90.0
  0
ARC
  5
50D
  8
0
 10
314.8790763
 20
369.14512986
 30
0.0
 40
1.5
 50
180.0
 51
-90.0
  0
LINE
  5
50E
  8
0
 10
311.8790763
 20
369.14512986
 30
0.0
 11
311.8790763
 21
381.14512986
 31
0.0
  0
LINE
  5
50F
  8
0
 10
313.3790763
 20
381.14512986
 30
0.0
 11
313.3790763
 21
369.14512986
 31
0.0
  0
LINE
  5
510
  8
0
 10
313.3790763
 20
382.14512986
 30
0.0
 11
313.3790763
 21
381.14512986
 31
0.0
  0
LINE
  5
511
  8
0
 10
311.8790763
 20
382.14512986
 30
0.0
 11
313.3790763
 21
382.14512986
 31
0.0
  0
LINE
  5
512
  8
0
 10
311.8790763
 20
381.14512986
 30
0.0
 11
311.8790763
 21
382.14512986
 31
0.0
  0
LINE
  5
513
  8
0
  6
STRICHPUNKT2
 62
     1
 10
313.3790763
 20
378.89512986
 30
0.0
 11
314.1915763
 21
378.89512986
 31
0.0
  0
LINE
  5
514
  8
0
  6
STRICHPUNKT2
 62
     1
 10
311.0665763
 20
378.89512986
 30
0.0
 11
311.8790763
 21
378.89512986
 31
0.0
  0
TEXT
  5
515
  8
TXT_DIM49
 10
260.49932319
 20
427.70580319
 30
0.0
 40
2.5
  1
340
  7
ARIAL
  0
LINE
  5
516
  8
0
 62
     4
 10
347.3790763
 20
425.20580319
 30
0.0
 11
349.3790763
 21
427.20580319
 31
0.0
  0
LINE
  5
517
  8
0
 62
     4
 10
179.1290763
 20
426.95580319
 30
0.0
 11
177.6290763
 21
425.45580319
 31
0.0
  0
LINE
  5
518
  8
0
 62
     4
 10
348.3790763
 20
426.20580319
 30
0.0
 11
178.3790763
 21
426.20580319
 31
0.0
  0
LINE
  5
519
  8
0
 62
     4
 10
348.3790763
 20
428.20580319
 30
0.0
 11
348.3790763
 21
424.20580319
 31
0.0
  0
LINE
  5
51A
  8
0
 62
     4
 10
178.3790763
 20
428.20580319
 30
0.0
 11
178.3790763
 21
424.20580319
 31
0.0
  0
TEXT
  5
51B
  8
TXT_DIM49
 10
328.20924085
 20
514.8978082
 30
0.0
 40
2.5
  1
73
  7
ARIAL
  0
LINE
  5
51C
  8
0
 62
     4
 10
347.3790763
 20
512.3978082
 30
0.0
 11
349.3790763
 21
514.3978082
 31
0.0
  0
LINE
  5
51D
  8
0
 62
     4
 10
312.6290763
 20
514.1478082
 30
0.0
 11
311.1290763
 21
512.6478082
 31
0.0
  0
LINE
  5
51E
  8
0
 62
     4
 10
348.3790763
 20
513.3978082
 30
0.0
 11
311.8790763
 21
513.3978082
 31
0.0
  0
LINE
  5
51F
  8
0
 62
     4
 10
348.3790763
 20
511.3978082
 30
0.0
 11
348.3790763
 21
515.3978082
 31
0.0
  0
LINE
  5
520
  8
0
 62
     4
 10
311.8790763
 20
511.3978082
 30
0.0
 11
311.8790763
 21
515.3978082
 31
0.0
  0
TEXT
  5
521
  8
TXT_DIM49
 10
242.24932319
 20
514.8978082
 30
0.0
 40
2.5
  1
267
  7
ARIAL
  0
LINE
  5
522
  8
0
 62
     4
 10
310.8790763
 20
512.3978082
 30
0.0
 11
312.8790763
 21
514.3978082
 31
0.0
  0
LINE
  5
523
  8
0
 62
     4
 10
179.1290763
 20
514.1478082
 30
0.0
 11
177.6290763
 21
512.6478082
 31
0.0
  0
LINE
  5
524
  8
0
 62
     4
 10
311.8790763
 20
513.3978082
 30
0.0
 11
178.3790763
 21
513.3978082
 31
0.0
  0
LINE
  5
525
  8
0
 62
     4
 10
311.8790763
 20
511.3978082
 30
0.0
 11
311.8790763
 21
515.3978082
 31
0.0
  0
LINE
  5
526
  8
0
 62
     4
 10
178.3790763
 20
511.3978082
 30
0.0
 11
178.3790763
 21
515.3978082
 31
0.0
  0
TEXT
  5
527
  8
TXT_DIM49
 10
232.74932319
 20
503.24646643
 30
0.0
 40
2.5
  1
229
  7
ARIAL
  0
LINE
  5
528
  8
0
 62
     4
 10
179.3790763
 20
502.74646643
 30
0.0
 11
177.3790763
 21
500.74646643
 31
0.0
  0
LINE
  5
529
  8
0
 62
     4
 10
292.1290763
 20
500.99646643
 30
0.0
 11
293.6290763
 21
502.49646643
 31
0.0
  0
LINE
  5
52A
  8
0
 62
     4
 10
178.3790763
 20
501.74646643
 30
0.0
 11
292.8790763
 21
501.74646643
 31
0.0
  0
LINE
  5
52B
  8
0
 62
     4
 10
178.3790763
 20
499.74646643
 30
0.0
 11
178.3790763
 21
503.74646643
 31
0.0
  0
LINE
  5
52C
  8
0
 62
     4
 10
292.8790763
 20
499.74646643
 30
0.0
 11
292.8790763
 21
503.74646643
 31
0.0
  0
TEXT
  5
52D
  8
TXT_DIM49
 10
300.45924085
 20
503.24646643
 30
0.0
 40
2.5
  1
38
  7
ARIAL
  0
LINE
  5
52E
  8
0
 62
     4
 10
293.8790763
 20
502.74646643
 30
0.0
 11
291.8790763
 21
500.74646643
 31
0.0
  0
LINE
  5
52F
  8
0
 62
     4
 10
311.1290763
 20
500.99646643
 30
0.0
 11
312.6290763
 21
502.49646643
 31
0.0
  0
LINE
  5
530
  8
0
 62
     4
 10
292.8790763
 20
501.74646643
 30
0.0
 11
311.8790763
 21
501.74646643
 31
0.0
  0
LINE
  5
531
  8
0
 62
     4
 10
292.8790763
 20
499.74646643
 30
0.0
 11
292.8790763
 21
503.74646643
 31
0.0
  0
LINE
  5
532
  8
0
 62
     4
 10
311.8790763
 20
499.74646643
 30
0.0
 11
311.8790763
 21
503.74646643
 31
0.0
  0
TEXT
  5
533
  8
TXT_DIM49
 10
328.20924085
 20
503.24646643
 30
0.0
 40
2.5
  1
73
  7
ARIAL
  0
LINE
  5
534
  8
0
 62
     4
 10
312.8790763
 20
502.74646643
 30
0.0
 11
310.8790763
 21
500.74646643
 31
0.0
  0
LINE
  5
535
  8
0
 62
     4
 10
347.6290763
 20
500.99646643
 30
0.0
 11
349.1290763
 21
502.49646643
 31
0.0
  0
LINE
  5
536
  8
0
 62
     4
 10
311.8790763
 20
501.74646643
 30
0.0
 11
348.3790763
 21
501.74646643
 31
0.0
  0
LINE
  5
537
  8
0
 62
     4
 10
311.8790763
 20
499.74646643
 30
0.0
 11
311.8790763
 21
503.74646643
 31
0.0
  0
LINE
  5
538
  8
0
 62
     4
 10
348.3790763
 20
499.74646643
 30
0.0
 11
348.3790763
 21
503.74646643
 31
0.0
  0
TEXT
  5
539
  8
TXT_DIM49
 10
168.12863465
 20
441.13706856
 30
0.0
 40
2.5
  1
10
 50
90.00020741
  7
ARIAL
  0
LINE
  5
53A
  8
0
 62
     4
 10
168.62863465
 20
441.55690401
 30
0.0
 11
170.62863465
 21
439.55690401
 31
0.0
  0
LINE
  5
53B
  8
0
 62
     4
 10
170.37863465
 20
444.80690401
 30
0.0
 11
168.87863465
 21
446.30690401
 31
0.0
  0
LINE
  5
53C
  8
0
 62
     4
 10
169.62863465
 20
440.55690401
 30
0.0
 11
169.62863465
 21
445.55690401
 31
0.0
  0
LINE
  5
53D
  8
0
 62
     4
 10
171.62863465
 20
440.55690401
 30
0.0
 11
167.62863465
 21
440.55690401
 31
0.0
  0
LINE
  5
53E
  8
0
 62
     4
 10
171.62863465
 20
445.55690401
 30
0.0
 11
167.62863465
 21
445.55690401
 31
0.0
  0
TEXT
  5
53F
  8
TXT_DIM49
 10
168.12863465
 20
466.38706856
 30
0.0
 40
2.5
  1
91
 50
90.00020741
  7
ARIAL
  0
LINE
  5
540
  8
0
 62
     4
 10
168.62863465
 20
446.55690401
 30
0.0
 11
170.62863465
 21
444.55690401
 31
0.0
  0
LINE
  5
541
  8
0
 62
     4
 10
170.37863465
 20
490.30690401
 30
0.0
 11
168.87863465
 21
491.80690401
 31
0.0
  0
LINE
  5
542
  8
0
 62
     4
 10
169.62863465
 20
445.55690401
 30
0.0
 11
169.62863465
 21
491.05690401
 31
0.0
  0
LINE
  5
543
  8
0
 62
     4
 10
171.62863465
 20
445.55690401
 30
0.0
 11
167.62863465
 21
445.55690401
 31
0.0
  0
LINE
  5
544
  8
0
 62
     4
 10
171.62863465
 20
491.05690401
 30
0.0
 11
167.62863465
 21
491.05690401
 31
0.0
  0
TEXT
  5
545
  8
TXT_DIM49
 10
168.12863465
 20
491.63706856
 30
0.0
 40
2.5
  1
10
 50
90.00020741
  7
ARIAL
  0
LINE
  5
546
  8
0
 62
     4
 10
168.62863465
 20
492.05690401
 30
0.0
 11
170.62863465
 21
490.05690401
 31
0.0
  0
LINE
  5
547
  8
0
 62
     4
 10
170.37863465
 20
495.30690401
 30
0.0
 11
168.87863465
 21
496.80690401
 31
0.0
  0
LINE
  5
548
  8
0
 62
     4
 10
169.62863465
 20
491.05690401
 30
0.0
 11
169.62863465
 21
496.05690401
 31
0.0
  0
LINE
  5
549
  8
0
 62
     4
 10
171.62863465
 20
491.05690401
 30
0.0
 11
167.62863465
 21
491.05690401
 31
0.0
  0
LINE
  5
54A
  8
0
 62
     4
 10
171.62863465
 20
496.05690401
 30
0.0
 11
167.62863465
 21
496.05690401
 31
0.0
  0
TEXT
  5
54B
  8
TXT_DIM49
 10
297.51000485
 20
467.06745638
 30
0.0
 40
2.5
  1
45
 50
292.4998427350001
  7
ARIAL
  0
TEXT
  5
54C
  8
TXT_DIM49
 10
298.97938329
 20
463.52006302
 30
0.0
 40
2.5
  1
°
 50
292.4998427350001
  7
ARIAL
  0
LINE
  5
54D
  8
0
 62
     4
 10
305.76853025
 20
452.58908503
 30
0.0
 11
305.72587886
 21
449.7609795
 31
0.0
  0
LINE
  5
54E
  8
0
 62
     4
 10
293.35599668
 20
478.54567963
 30
0.0
 11
294.83320681
 21
480.06812839
 31
0.0
  0
POLYLINE
  5
54F
  8
0
 62
     4
 66
     1
 10
0.0
 20
0.0
 30
0.0
  0
VERTEX
  5
9AD
  8
0
 62
     4
 10
294.09460151
 20
479.306904152818
 30
0.0
  0
VERTEX
  5
9AE
  8
0
 62
     4
 10
294.8590490223437
 20
471.5453381652579
 30
0.0
  0
VERTEX
  5
9AF
  8
0
 62
     4
 10
297.1230143254151
 20
464.0820448053738
 30
0.0
  0
VERTEX
  5
9B0
  8
0
 62
     4
 10
300.7994945008054
 20
457.2038342563295
 30
0.0
  0
VERTEX
  5
9B1
  8
0
 62
     4
 10
305.7472044748003
 20
451.1750322966099
 30
0.0
  0
SEQEND
  5
A03
  8
0
 62
     4
  0
LINE
  5
550
  8
0
 62
     4
 10
316.16156215
 20
461.58938986
 30
0.0
 11
304.33299099
 21
449.7608187
 31
0.0
  0
LINE
  5
551
  8
0
 62
     5
 10
322.8790763
 20
468.30690401
 30
0.0
 11
328.03061283
 21
488.32889828
 31
0.0
  0
TEXT
  5
552
  8
TXT_DIM49
 10
328.03061283
 20
487.07889828
 30
0.0
 40
2.5
  1
Slobgat 13 x 32
  7
ARIAL
  0
LINE
  5
553
  8
0
 62
     5
 10
337.8790763
 20
468.30690401
 30
0.0
 11
341.70028778
 21
483.71705365
 31
0.0
  0
TEXT
  5
554
  8
TXT_DIM49
 10
341.70028778
 20
482.46705365
 30
0.0
 40
2.5
  1
Slobgat 13 x 32
  7
ARIAL
  0
LINE
  5
555
  8
0
 62
     4
 10
189.6290763
 20
491.05690401
 30
0.0
 11
192.06580256
 21
486.65734599
 31
0.0
  0
TEXT
  5
556
  8
TXT_DIM49
 10
192.06580256
 20
485.40734599
 30
0.0
 40
2.5
  1
Ø6.5
  7
ARIAL
  0
LINE
  5
557
  8
0
 62
     5
 10
189.6290763
 20
445.55690401
 30
0.0
 11
191.53657438
 21
448.86544666
 31
0.0
  0
TEXT
  5
558
  8
TXT_DIM49
 10
191.53657438
 20
447.61544666
 30
0.0
 40
2.5
  1
Ø6.5
  7
ARIAL
  0
TEXT
  5
559
  8
TXT_DIM49
 10
180.64478546
 20
436.0900603
 30
0.0
 40
2.5
  1
22,5
  7
ARIAL
  0
LINE
  5
55A
  8
0
 62
     4
 10
179.3790763
 20
435.5900603
 30
0.0
 11
177.3790763
 21
433.5900603
 31
0.0
  0
LINE
  5
55B
  8
0
 62
     4
 10
188.8790763
 20
433.8400603
 30
0.0
 11
190.3790763
 21
435.3400603
 31
0.0
  0
LINE
  5
55C
  8
0
 62
     4
 10
178.3790763
 20
434.5900603
 30
0.0
 11
189.6290763
 21
434.5900603
 31
0.0
  0
LINE
  5
55D
  8
0
 62
     4
 10
178.3790763
 20
436.5900603
 30
0.0
 11
178.3790763
 21
432.5900603
 31
0.0
  0
LINE
  5
55E
  8
0
 62
     4
 10
189.6290763
 20
436.5900603
 30
0.0
 11
189.6290763
 21
432.5900603
 31
0.0
  0
TEXT
  5
55F
  8
TXT_DIM49
 10
306.91989286
 20
487.88706856
 30
0.0
 40
2.5
  1
25
 50
90.00020741
  7
ARIAL
  0
LINE
  5
560
  8
0
 62
     4
 10
309.41989286
 20
495.05690401
 30
0.0
 11
307.41989286
 21
497.05690401
 31
0.0
  0
LINE
  5
561
  8
0
 62
     4
 10
307.66989286
 20
484.30690401
 30
0.0
 11
309.16989286
 21
482.80690401
 31
0.0
  0
LINE
  5
562
  8
0
 62
     4
 10
308.41989286
 20
496.05690401
 30
0.0
 11
308.41989286
 21
483.55690401
 31
0.0
  0
LINE
  5
563
  8
0
 62
     4
 10
306.41989286
 20
496.05690401
 30
0.0
 11
310.41989286
 21
496.05690401
 31
0.0
  0
LINE
  5
564
  8
0
 62
     4
 10
306.41989286
 20
483.55690401
 30
0.0
 11
310.41989286
 21
483.55690401
 31
0.0
  0
TEXT
  5
565
  8
TXT_DIM49
 10
306.91989286
 20
466.38706856
 30
0.0
 40
2.5
  1
61
 50
90.00020741
  7
ARIAL
  0
LINE
  5
566
  8
0
 62
     4
 10
309.41989286
 20
482.55690401
 30
0.0
 11
307.41989286
 21
484.55690401
 31
0.0
  0
LINE
  5
567
  8
0
 62
     4
 10
307.66989286
 20
453.80690401
 30
0.0
 11
309.16989286
 21
452.30690401
 31
0.0
  0
LINE
  5
568
  8
0
 62
     4
 10
308.41989286
 20
483.55690401
 30
0.0
 11
308.41989286
 21
453.05690401
 31
0.0
  0
LINE
  5
569
  8
0
 62
     4
 10
306.41989286
 20
483.55690401
 30
0.0
 11
310.41989286
 21
483.55690401
 31
0.0
  0
LINE
  5
56A
  8
0
 62
     4
 10
306.41989286
 20
453.05690401
 30
0.0
 11
310.41989286
 21
453.05690401
 31
0.0
  0
TEXT
  5
56B
  8
TXT_DIM49
 10
306.91989286
 20
444.88706856
 30
0.0
 40
2.5
  1
25
 50
90.00020741
  7
ARIAL
  0
LINE
  5
56C
  8
0
 62
     4
 10
309.41989286
 20
452.05690401
 30
0.0
 11
307.41989286
 21
454.05690401
 31
0.0
  0
LINE
  5
56D
  8
0
 62
     4
 10
307.66989286
 20
441.30690401
 30
0.0
 11
309.16989286
 21
439.80690401
 31
0.0
  0
LINE
  5
56E
  8
0
 62
     4
 10
308.41989286
 20
453.05690401
 30
0.0
 11
308.41989286
 21
440.55690401
 31
0.0
  0
LINE
  5
56F
  8
0
 62
     4
 10
306.41989286
 20
453.05690401
 30
0.0
 11
310.41989286
 21
453.05690401
 31
0.0
  0
LINE
  5
570
  8
0
 62
     4
 10
306.41989286
 20
440.55690401
 30
0.0
 11
310.41989286
 21
440.55690401
 31
0.0
  0
TEXT
  5
571
  8
TXT_DIM49
 10
341.20924085
 20
461.25986476
 30
0.0
 40
2.5
  1
21
  7
ARIAL
  0
LINE
  5
572
  8
0
 62
     4
 10
347.3790763
 20
458.75986476
 30
0.0
 11
349.3790763
 21
460.75986476
 31
0.0
  0
LINE
  5
573
  8
0
 62
     4
 10
338.6290763
 20
460.50986476
 30
0.0
 11
337.1290763
 21
459.00986476
 31
0.0
  0
LINE
  5
574
  8
0
 62
     4
 10
348.3790763
 20
459.75986476
 30
0.0
 11
337.8790763
 21
459.75986476
 31
0.0
  0
LINE
  5
575
  8
0
 62
     4
 10
348.3790763
 20
464.4631596
 30
0.0
 11
348.3790763
 21
457.75986476
 31
0.0
  0
LINE
  5
576
  8
0
 62
     4
 10
337.8790763
 20
468.30690401
 30
0.0
 11
337.8790763
 21
457.75986476
 31
0.0
  0
TEXT
  5
577
  8
TXT_DIM49
 10
328.45924085
 20
461.25986476
 30
0.0
 40
2.5
  1
30
  7
ARIAL
  0
LINE
  5
578
  8
0
 62
     4
 10
336.8790763
 20
458.75986476
 30
0.0
 11
338.8790763
 21
460.75986476
 31
0.0
  0
LINE
  5
579
  8
0
 62
     4
 10
323.6290763
 20
460.50986476
 30
0.0
 11
322.1290763
 21
459.00986476
 31
0.0
  0
LINE
  5
57A
  8
0
 62
     4
 10
337.8790763
 20
459.75986476
 30
0.0
 11
322.8790763
 21
459.75986476
 31
0.0
  0
LINE
  5
57B
  8
0
 62
     4
 10
337.8790763
 20
468.30690401
 30
0.0
 11
337.8790763
 21
457.75986476
 31
0.0
  0
LINE
  5
57C
  8
0
 62
     4
 10
322.8790763
 20
468.30690401
 30
0.0
 11
322.8790763
 21
457.75986476
 31
0.0
  0
TEXT
  5
57D
  8
TXT_DIM49
 10
247.74932319
 20
461.25986476
 30
0.0
 40
2.5
  1
289
  7
ARIAL
  0
LINE
  5
57E
  8
0
 62
     4
 10
321.8790763
 20
458.75986476
 30
0.0
 11
323.8790763
 21
460.75986476
 31
0.0
  0
LINE
  5
57F
  8
0
 62
     4
 10
179.1290763
 20
460.50986476
 30
0.0
 11
177.6290763
 21
459.00986476
 31
0.0
  0
LINE
  5
580
  8
0
 62
     4
 10
322.8790763
 20
459.75986476
 30
0.0
 11
178.3790763
 21
459.75986476
 31
0.0
  0
LINE
  5
581
  8
0
 62
     4
 10
322.8790763
 20
468.30690401
 30
0.0
 11
322.8790763
 21
457.75986476
 31
0.0
  0
LINE
  5
582
  8
0
 62
     4
 10
178.3790763
 20
468.30690401
 30
0.0
 11
178.3790763
 21
457.75986476
 31
0.0
  0
LINE
  5
583
  8
0
 62
     5
 10
135.11634891
 20
490.80690401
 30
0.0
 11
140.48222107
 21
479.7250396
 31
0.0
  0
TEXT
  5
584
  8
TXT_DIM49
 10
140.48222107
 20
478.4750396
 30
0.0
 40
2.5
  1
Ø6.5
  7
ARIAL
  0
TEXT
  5
585
  8
TXT_DIM49
 10
115.63205807
 20
502.54580075
 30
0.0
 40
2.5
  1
13,5
  7
ARIAL
  0
LINE
  5
586
  8
0
 62
     4
 10
116.61634891
 20
502.04580075
 30
0.0
 11
114.61634891
 21
500.04580075
 31
0.0
  0
LINE
  5
587
  8
0
 62
     4
 10
121.61634891
 20
500.29580075
 30
0.0
 11
123.11634891
 21
501.79580075
 31
0.0
  0
LINE
  5
588
  8
0
 62
     4
 10
115.61634891
 20
501.04580075
 30
0.0
 11
122.36634891
 21
501.04580075
 31
0.0
  0
LINE
  5
589
  8
0
 62
     4
 10
115.61634891
 20
499.04580075
 30
0.0
 11
115.61634891
 21
503.04580075
 31
0.0
  0
LINE
  5
58A
  8
0
 62
     4
 10
122.36634891
 20
499.04580075
 30
0.0
 11
122.36634891
 21
503.04580075
 31
0.0
  0
TEXT
  5
58B
  8
TXT_DIM49
 10
128.44651346
 20
502.54580075
 30
0.0
 40
2.5
  1
32
  7
ARIAL
  0
LINE
  5
58C
  8
0
 62
     4
 10
123.36634891
 20
502.04580075
 30
0.0
 11
121.36634891
 21
500.04580075
 31
0.0
  0
LINE
  5
58D
  8
0
 62
     4
 10
137.61634891
 20
500.29580075
 30
0.0
 11
139.11634891
 21
501.79580075
 31
0.0
  0
LINE
  5
58E
  8
0
 62
     4
 10
122.36634891
 20
501.04580075
 30
0.0
 11
138.36634891
 21
501.04580075
 31
0.0
  0
LINE
  5
58F
  8
0
 62
     4
 10
122.36634891
 20
499.04580075
 30
0.0
 11
122.36634891
 21
503.04580075
 31
0.0
  0
LINE
  5
590
  8
0
 62
     4
 10
138.36634891
 20
499.04580075
 30
0.0
 11
138.36634891
 21
503.04580075
 31
0.0
  0
TEXT
  5
591
  8
TXT_DIM49
 10
123.63205807
 20
513.68147143
 30
0.0
 40
2.5
  1
45,5
  7
ARIAL
  0
LINE
  5
592
  8
0
 62
     4
 10
116.61634891
 20
513.18147143
 30
0.0
 11
114.61634891
 21
511.18147143
 31
0.0
  0
LINE
  5
593
  8
0
 62
     4
 10
137.61634891
 20
511.43147143
 30
0.0
 11
139.11634891
 21
512.93147143
 31
0.0
  0
LINE
  5
594
  8
0
 62
     4
 10
115.61634891
 20
512.18147143
 30
0.0
 11
138.36634891
 21
512.18147143
 31
0.0
  0
LINE
  5
595
  8
0
 62
     4
 10
115.61634891
 20
510.18147143
 30
0.0
 11
115.61634891
 21
514.18147143
 31
0.0
  0
LINE
  5
596
  8
0
 62
     4
 10
138.36634891
 20
510.18147143
 30
0.0
 11
138.36634891
 21
514.18147143
 31
0.0
  0
TEXT
  5
597
  8
TXT_DIM49
 10
106.28978463
 20
485.07261317
 30
0.0
 40
2.5
  1
30,5
 50
90.00020741
  7
ARIAL
  0
LINE
  5
598
  8
0
 62
     4
 10
108.78978463
 20
495.05690401
 30
0.0
 11
106.78978463
 21
497.05690401
 31
0.0
  0
LINE
  5
599
  8
0
 62
     4
 10
107.03978463
 20
481.55690401
 30
0.0
 11
108.53978463
 21
480.05690401
 31
0.0
  0
LINE
  5
59A
  8
0
 62
     4
 10
107.78978463
 20
496.05690401
 30
0.0
 11
107.78978463
 21
480.80690401
 31
0.0
  0
LINE
  5
59B
  8
0
 62
     4
 10
109.78978463
 20
496.05690401
 30
0.0
 11
105.78978463
 21
496.05690401
 31
0.0
  0
LINE
  5
59C
  8
0
 62
     4
 10
109.78978463
 20
480.80690401
 30
0.0
 11
105.78978463
 21
480.80690401
 31
0.0
  0
TEXT
  5
59D
  8
TXT_DIM49
 10
106.28978463
 20
466.38706856
 30
0.0
 40
2.5
  1
50
 50
90.00020741
  7
ARIAL
  0
LINE
  5
59E
  8
0
 62
     4
 10
108.78978463
 20
479.80690401
 30
0.0
 11
106.78978463
 21
481.80690401
 31
0.0
  0
LINE
  5
59F
  8
0
 62
     4
 10
107.03978463
 20
456.55690401
 30
0.0
 11
108.53978463
 21
455.05690401
 31
0.0
  0
LINE
  5
5A0
  8
0
 62
     4
 10
107.78978463
 20
480.80690401
 30
0.0
 11
107.78978463
 21
455.80690401
 31
0.0
  0
LINE
  5
5A1
  8
0
 62
     4
 10
109.78978463
 20
480.80690401
 30
0.0
 11
105.78978463
 21
480.80690401
 31
0.0
  0
LINE
  5
5A2
  8
0
 62
     4
 10
109.78978463
 20
455.80690401
 30
0.0
 11
105.78978463
 21
455.80690401
 31
0.0
  0
TEXT
  5
5A3
  8
TXT_DIM49
 10
106.28978463
 20
444.82261317
 30
0.0
 40
2.5
  1
30,5
 50
90.00020741
  7
ARIAL
  0
LINE
  5
5A4
  8
0
 62
     4
 10
108.78978463
 20
454.80690401
 30
0.0
 11
106.78978463
 21
456.80690401
 31
0.0
  0
LINE
  5
5A5
  8
0
 62
     4
 10
107.03978463
 20
441.30690401
 30
0.0
 11
108.53978463
 21
439.80690401
 31
0.0
  0
LINE
  5
5A6
  8
0
 62
     4
 10
107.78978463
 20
455.80690401
 30
0.0
 11
107.78978463
 21
440.55690401
 31
0.0
  0
LINE
  5
5A7
  8
0
 62
     4
 10
109.78978463
 20
455.80690401
 30
0.0
 11
105.78978463
 21
455.80690401
 31
0.0
  0
LINE
  5
5A8
  8
0
 62
     4
 10
109.78978463
 20
440.55690401
 30
0.0
 11
105.78978463
 21
440.55690401
 31
0.0
  0
TEXT
  5
5A9
  8
TXT_DIM49
 10
95.91364135
 20
465.4271509
 30
0.0
 40
2.5
  1
111
 50
90.00020741
  7
ARIAL
  0
LINE
  5
5AA
  8
0
 62
     4
 10
96.41364135
 20
441.55690401
 30
0.0
 11
98.41364135
 21
439.55690401
 31
0.0
  0
LINE
  5
5AB
  8
0
 62
     4
 10
98.16364135
 20
495.30690401
 30
0.0
 11
96.66364135
 21
496.80690401
 31
0.0
  0
LINE
  5
5AC
  8
0
 62
     4
 10
97.41364135
 20
440.55690401
 30
0.0
 11
97.41364135
 21
496.05690401
 31
0.0
  0
LINE
  5
5AD
  8
0
 62
     4
 10
99.41364135
 20
440.55690401
 30
0.0
 11
95.41364135
 21
440.55690401
 31
0.0
  0
LINE
  5
5AE
  8
0
 62
     4
 10
99.41364135
 20
496.05690401
 30
0.0
 11
95.41364135
 21
496.05690401
 31
0.0
  0
TEXT
  5
5AF
  8
TXT_DIM49
 10
142.83398411
 20
488.88706856
 30
0.0
 40
2.5
  1
21
 50
90.00020741
  7
ARIAL
  0
LINE
  5
5B0
  8
0
 62
     4
 10
143.33398411
 20
486.55690401
 30
0.0
 11
145.33398411
 21
484.55690401
 31
0.0
  0
LINE
  5
5B1
  8
0
 62
     4
 10
145.08398411
 20
495.30690401
 30
0.0
 11
143.58398411
 21
496.80690401
 31
0.0
  0
LINE
  5
5B2
  8
0
 62
     4
 10
144.33398411
 20
485.55690401
 30
0.0
 11
144.33398411
 21
496.05690401
 31
0.0
  0
LINE
  5
5B3
  8
0
 62
     4
 10
142.33398411
 20
485.55690401
 30
0.0
 11
146.33398411
 21
485.55690401
 31
0.0
  0
LINE
  5
5B4
  8
0
 62
     4
 10
142.33398411
 20
496.05690401
 30
0.0
 11
146.33398411
 21
496.05690401
 31
0.0
  0
TEXT
  5
5B5
  8
TXT_DIM49
 10
143.29031439
 20
438.08832224
 30
0.0
 40
2.5
  1
10,5
 50
90.00020741
  7
ARIAL
  0
LINE
  5
5B6
  8
0
 62
     4
 10
143.79031439
 20
441.55690401
 30
0.0
 11
145.79031439
 21
439.55690401
 31
0.0
  0
LINE
  5
5B7
  8
0
 62
     4
 10
145.54031439
 20
445.05690401
 30
0.0
 11
144.04031439
 21
446.55690401
 31
0.0
  0
LINE
  5
5B8
  8
0
 62
     4
 10
144.79031439
 20
440.55690401
 30
0.0
 11
144.79031439
 21
445.80690401
 31
0.0
  0
LINE
  5
5B9
  8
0
 62
     4
 10
144.79031439
 20
443.18190401
 30
0.0
 11
144.29031439
 21
441.44761317
 31
0.0
  0
LINE
  5
5BA
  8
0
 62
     4
 10
142.79031439
 20
440.55690401
 30
0.0
 11
146.79031439
 21
440.55690401
 31
0.0
  0
LINE
  5
5BB
  8
0
 62
     4
 10
142.79031439
 20
445.80690401
 30
0.0
 11
146.79031439
 21
445.80690401
 31
0.0
  0
TEXT
  5
5BC
  8
TXT_DIM49
 10
143.29031439
 20
448.156904
 30
0.0
 40
2.5
  1
10,5
 50
90.00020741
  7
ARIAL
  0
LINE
  5
5BD
  8
0
 62
     4
 10
143.79031439
 20
446.80690401
 30
0.0
 11
145.79031439
 21
444.80690401
 31
0.0
  0
LINE
  5
5BE
  8
0
 62
     4
 10
145.54031439
 20
450.30690401
 30
0.0
 11
144.04031439
 21
451.80690401
 31
0.0
  0
LINE
  5
5BF
  8
0
 62
     4
 10
144.79031439
 20
445.80690401
 30
0.0
 11
144.79031439
 21
455.87548559
 31
0.0
  0
LINE
  5
5C0
  8
0
 62
     4
 10
144.79031439
 20
448.43190401
 30
0.0
 11
144.29031439
 21
451.51619475
 31
0.0
  0
LINE
  5
5C1
  8
0
 62
     4
 10
142.79031439
 20
445.80690401
 30
0.0
 11
146.79031439
 21
445.80690401
 31
0.0
  0
LINE
  5
5C2
  8
0
 62
     4
 10
142.79031439
 20
451.05690401
 30
0.0
 11
146.79031439
 21
451.05690401
 31
0.0
  0
LINE
  5
5C3
  8
0
 62
     5
 10
135.11634891
 20
445.80690401
 30
0.0
 11
143.65870832
 21
460.46820686
 31
0.0
  0
TEXT
  5
5C4
  8
TXT_DIM49
 10
143.65870832
 20
459.21820686
 30
0.0
 40
2.5
  1
Ø6.5
  7
ARIAL
  0
TEXT
  5
5C5
  8
TXT_DIM49
 10
134.34197586
 20
457.30690401
 30
0.0
 40
2.5
  1
6,5
  7
ARIAL
  0
LINE
  5
5C6
  8
0
 62
     4
 10
137.36634891
 20
454.80690401
 30
0.0
 11
139.36634891
 21
456.80690401
 31
0.0
  0
LINE
  5
5C7
  8
0
 62
     4
 10
135.86634891
 20
456.55690401
 30
0.0
 11
134.36634891
 21
455.05690401
 31
0.0
  0
LINE
  5
5C8
  8
0
 62
     4
 10
138.36634891
 20
455.80690401
 30
0.0
 11
135.11634891
 21
455.80690401
 31
0.0
  0
LINE
  5
5C9
  8
0
 62
     4
 10
138.36634891
 20
453.80690401
 30
0.0
 11
138.36634891
 21
457.80690401
 31
0.0
  0
LINE
  5
5CA
  8
0
 62
     4
 10
135.11634891
 20
453.80690401
 30
0.0
 11
135.11634891
 21
457.80690401
 31
0.0
  0
TEXT
  5
5CB
  8
TXT_DIM49
 10
311.66915858
 20
374.98087036
 30
0.0
 40
2.5
  1
3
  7
ARIAL
  0
LINE
  5
5CC
  8
0
 62
     4
 10
312.8790763
 20
374.48087036
 30
0.0
 11
310.8790763
 21
372.48087036
 31
0.0
  0
LINE
  5
5CD
  8
0
 62
     4
 10
312.6290763
 20
372.73087036
 30
0.0
 11
314.1290763
 21
374.23087036
 31
0.0
  0
LINE
  5
5CE
  8
0
 62
     4
 10
311.8790763
 20
373.48087036
 30
0.0
 11
313.3790763
 21
373.48087036
 31
0.0
  0
LINE
  5
5CF
  8
0
 62
     4
 10
311.8790763
 20
375.14512986
 30
0.0
 11
311.8790763
 21
371.48087036
 31
0.0
  0
LINE
  5
5D0
  8
0
 62
     4
 10
313.3790763
 20
375.14512986
 30
0.0
 11
313.3790763
 21
371.48087036
 31
0.0
  0
TEXT
  5
5D1
  8
TXT_DIM49
 10
242.24932319
 20
390.11320064
 30
0.0
 40
2.5
  1
267
  7
ARIAL
  0
LINE
  5
5D2
  8
0
 62
     4
 10
179.3790763
 20
389.61320064
 30
0.0
 11
177.3790763
 21
387.61320064
 31
0.0
  0
LINE
  5
5D3
  8
0
 62
     4
 10
311.1290763
 20
387.86320064
 30
0.0
 11
312.6290763
 21
389.36320064
 31
0.0
  0
LINE
  5
5D4
  8
0
 62
     4
 10
178.3790763
 20
388.61320064
 30
0.0
 11
311.8790763
 21
388.61320064
 31
0.0
  0
LINE
  5
5D5
  8
0
 62
     4
 10
178.3790763
 20
386.61320064
 30
0.0
 11
178.3790763
 21
390.61320064
 31
0.0
  0
LINE
  5
5D6
  8
0
 62
     4
 10
311.8790763
 20
386.61320064
 30
0.0
 11
311.8790763
 21
390.61320064
 31
0.0
  0
TEXT
  5
5D7
  8
TXT_DIM49
 10
328.20924085
 20
390.11320064
 30
0.0
 40
2.5
  1
73
  7
ARIAL
  0
LINE
  5
5D8
  8
0
 62
     4
 10
312.8790763
 20
389.61320064
 30
0.0
 11
310.8790763
 21
387.61320064
 31
0.0
  0
LINE
  5
5D9
  8
0
 62
     4
 10
347.6290763
 20
387.86320064
 30
0.0
 11
349.1290763
 21
389.36320064
 31
0.0
  0
LINE
  5
5DA
  8
0
 62
     4
 10
311.8790763
 20
388.61320064
 30
0.0
 11
348.3790763
 21
388.61320064
 31
0.0
  0
LINE
  5
5DB
  8
0
 62
     4
 10
311.8790763
 20
386.61320064
 30
0.0
 11
311.8790763
 21
390.61320064
 31
0.0
  0
LINE
  5
5DC
  8
0
 62
     4
 10
348.3790763
 20
386.61320064
 30
0.0
 11
348.3790763
 21
390.61320064
 31
0.0
  0
TEXT
  5
5DD
  8
TXT_DIM49
 10
353.91903875
 20
360.16083902
 30
0.0
 40
2.5
  1
16,5
 50
90.00020741
  7
ARIAL
  0
LINE
  5
5DE
  8
0
 62
     4
 10
354.41903875
 20
360.39512986
 30
0.0
 11
356.41903875
 21
358.39512986
 31
0.0
  0
LINE
  5
5DF
  8
0
 62
     4
 10
356.16903875
 20
366.89512986
 30
0.0
 11
354.66903875
 21
368.39512986
 31
0.0
  0
LINE
  5
5E0
  8
0
 62
     4
 10
355.41903875
 20
359.39512986
 30
0.0
 11
355.41903875
 21
367.64512986
 31
0.0
  0
LINE
  5
5E1
  8
0
 62
     4
 10
353.41903875
 20
359.39512986
 30
0.0
 11
357.41903875
 21
359.39512986
 31
0.0
  0
LINE
  5
5E2
  8
0
 62
     4
 10
353.41903875
 20
367.64512986
 30
0.0
 11
357.41903875
 21
367.64512986
 31
0.0
  0
TEXT
  5
5E3
  8
TXT_DIM49
 10
353.91903875
 20
372.97529441
 30
0.0
 40
2.5
  1
29
 50
90.00020741
  7
ARIAL
  0
LINE
  5
5E4
  8
0
 62
     4
 10
354.41903875
 20
368.64512986
 30
0.0
 11
356.41903875
 21
366.64512986
 31
0.0
  0
LINE
  5
5E5
  8
0
 62
     4
 10
356.16903875
 20
381.39512986
 30
0.0
 11
354.66903875
 21
382.89512986
 31
0.0
  0
LINE
  5
5E6
  8
0
 62
     4
 10
355.41903875
 20
367.64512986
 30
0.0
 11
355.41903875
 21
382.14512986
 31
0.0
  0
LINE
  5
5E7
  8
0
 62
     4
 10
353.41903875
 20
367.64512986
 30
0.0
 11
357.41903875
 21
367.64512986
 31
0.0
  0
LINE
  5
5E8
  8
0
 62
     4
 10
353.41903875
 20
382.14512986
 30
0.0
 11
357.41903875
 21
382.14512986
 31
0.0
  0
ENDSEC
  0
EOF
