  0
SECTION
  2
HEADER
  9
$ACADVER
  1
AC1006
  9
$DWGCODEPAGE
  3
ansi_1252
  9
$INSBASE
 10
0.0
 20
0.0
 30
0.0
  9
$EXTMIN
 10
-274.70097172
 20
139.47185873
  9
$EXTMAX
 10
953.84589263
 20
731.15154623
  9
$LIMMIN
 10
-274.70097172
 20
139.47185873
  9
$LIMMAX
 10
953.84589263
 20
731.15154623
  9
$ORTHOMODE
 70
     0
  9
$REGENMODE
 70
     1
  9
$FILLMODE
 70
     1
  9
$QTEXTMODE
 70
     0
  9
$MIRRTEXT
 70
     1
  9
$DRAGMODE
 70
     2
  9
$LTSCALE
 40
1.0
  9
$OSMODE
 70
    37
  9
$ATTMODE
 70
     1
  9
$TEXTSIZE
 40
1.0
  9
$TRACEWID
 40
0.05
  9
$TEXTSTYLE
  7
STANDARD
  9
$CLAYER
  8
0
  9
$CELTYPE
  6
BYBLOCK
  9
$CECOLOR
 62
   256
  9
$DIMSCALE
 40
1.0
  9
$DIMASZ
 40
0.18
  9
$DIMEXO
 40
0.0625
  9
$DIMDLI
 40
0.38
  9
$DIMRND
 40
0.0
  9
$DIMDLE
 40
0.0
  9
$DIMEXE
 40
0.18
  9
$DIMTP
 40
0.0
  9
$DIMTM
 40
0.0
  9
$DIMTXT
 40
0.18
  9
$DIMCEN
 40
0.09
  9
$DIMTSZ
 40
0.0
  9
$DIMTOL
 70
     0
  9
$DIMLIM
 70
     0
  9
$DIMTIH
 70
     1
  9
$DIMTOH
 70
     1
  9
$DIMSE1
 70
     0
  9
$DIMSE2
 70
     0
  9
$DIMTAD
 70
     0
  9
$DIMZIN
 70
     0
  9
$DIMBLK
  1

  9
$DIMASO
 70
     1
  9
$DIMSHO
 70
     1
  9
$DIMPOST
  1

  9
$DIMAPOST
  1

  9
$DIMALT
 70
     0
  9
$DIMALTD
 70
     2
  9
$DIMALTF
 40
25.4
  9
$DIMLFAC
 40
1.0
  9
$DIMTOFL
 70
     0
  9
$DIMTVP
 40
0.0
  9
$DIMTIX
 70
     0
  9
$DIMSOXD
 70
     0
  9
$DIMSAH
 70
     0
  9
$DIMBLK1
  1

  9
$DIMBLK2
  1

  9
$LUNITS
 70
     2
  9
$LUPREC
 70
     4
  9
$SKETCHINC
 40
0.1
  9
$FILLETRAD
 40
0.5
  9
$AUNITS
 70
     0
  9
$AUPREC
 70
     0
  9
$MENU
  1
.
  9
$ELEVATION
 40
0.0
  9
$THICKNESS
 40
0.0
  9
$LIMCHECK
 70
     0
  9
$CHAMFERA
 40
0.0
  9
$CHAMFERB
 40
0.0
  9
$SKPOLY
 70
     0
  9
$TDCREATE
 40
2447893.125
  9
$TDUPDATE
 40
2460791.511532755
  9
$TDINDWG
 40
0.0
  9
$TDUSRTIMER
 40
0.0
  9
$USRTIMER
 70
     1
  9
$ANGBASE
 50
0.0
  9
$ANGDIR
 70
     0
  9
$PDMODE
 70
     0
  9
$PDSIZE
 40
0.0
  9
$PLINEWID
 40
0.0
  9
$COORDS
 70
     1
  9
$SPLFRAME
 70
     0
  9
$SPLINETYPE
 70
     6
  9
$SPLINESEGS
 70
     8
  9
$ATTDIA
 70
     0
  9
$ATTREQ
 70
     1
  9
$HANDLING
 70
     1
  9
$HANDSEED
  5
9D3
  9
$SURFTAB1
 70
     6
  9
$SURFTAB2
 70
     6
  9
$SURFTYPE
 70
     6
  9
$SURFU
 70
     6
  9
$SURFV
 70
     6
  9
$UCSNAME
  2

  9
$UCSORG
 10
0.0
 20
0.0
 30
0.0
  9
$UCSXDIR
 10
1.0
 20
0.0
 30
0.0
  9
$UCSYDIR
 10
0.0
 20
1.0
 30
0.0
  9
$USERI1
 70
     0
  9
$USERI2
 70
     0
  9
$USERI3
 70
     0
  9
$USERI4
 70
     0
  9
$USERI5
 70
     0
  9
$USERR1
 40
0.0
  9
$USERR2
 40
0.0
  9
$USERR3
 40
0.0
  9
$USERR4
 40
0.0
  9
$USERR5
 40
0.0
  9
$WORLDVIEW
 70
     1
  0
ENDSEC
  0
SECTION
  2
TABLES
  0
TABLE
  2
VPORT
 70
     1
  0
VPORT
  2
*ACTIVE
 70
     0
 10
0.0
 20
0.0
 11
1.0
 21
1.0
 12
339.57246046
 22
435.31170248
 13
0.0
 23
0.0
 14
1.0
 24
1.0
 15
0.0
 25
0.0
 16
0.0
 26
0.0
 36
1.0
 17
0.0
 27
0.0
 37
0.0
 40
591.6796875
 41
2.076371541
 42
50.0
 43
0.0
 44
0.0
 50
0.0
 51
0.0
 71
     0
 72
   100
 73
     1
 74
     1
 75
     0
 76
     0
 77
     0
 78
     0
  0
ENDTAB
  0
TABLE
  2
LTYPE
 70
    19
  0
LTYPE
  2
CONTINUOUS
 70
     0
  3
Solid line
 72
    65
 73
     0
 40
0.0
  0
LTYPE
  2
DOT
 70
     0
  3
..............
 72
    65
 73
     2
 40
2.0
 49
0.5
 49
-1.5
  0
LTYPE
  2
HIDDEN
 70
     0
  3
-- -- -- -- --
 72
    65
 73
     2
 40
7.0
 49
4.0
 49
-3.0
  0
LTYPE
  2
DASHDOT
 70
     0
  3
--.--.--.--.--
 72
    65
 73
     4
 40
8.5
 49
4.0
 49
-2.0
 49
0.5
 49
-2.0
  0
LTYPE
  2
STRICHPUNKT2
 70
     0
  3
--.--.--.--.--
 72
    65
 73
     4
 40
18.5
 49
10.0
 49
-4.0
 49
0.5
 49
-4.0
  0
LTYPE
  2
STRICHPUNKT3
 70
     0
  3
--.--.--.--.--
 72
    65
 73
     4
 40
35.5
 49
25.0
 49
-5.0
 49
0.5
 49
-5.0
  0
LTYPE
  2
PHANTOM
 70
     0
  3
--..--..--..--
 72
    65
 73
     6
 40
23.0
 49
10.0
 49
-4.0
 49
0.5
 49
-4.0
 49
0.5
 49
-4.0
  0
LTYPE
  2
PHANTOM2
 70
     0
  3
--..--..--..--
 72
    65
 73
     6
 40
33.0
 49
20.0
 49
-4.0
 49
0.5
 49
-4.0
 49
0.5
 49
-4.0
  0
LTYPE
  2
PHANTOM3
 70
     0
  3
--..--..--..--
 72
    65
 73
     6
 40
50.0
 49
37.0
 49
-4.0
 49
0.5
 49
-4.0
 49
0.5
 49
-4.0
  0
LTYPE
  2
STR3PKT
 70
     0
  3
--...--...--...
 72
    65
 73
     8
 40
31.5
 49
20.0
 49
-2.5
 49
0.5
 49
-2.5
 49
0.5
 49
-2.5
 49
0.5
 49
-2.5
  0
LTYPE
  2
2STRPKT
 70
     0
  3
--.--.--.--.--
 72
    65
 73
     6
 40
28.0
 49
10.0
 49
-2.5
 49
10.0
 49
-2.5
 49
0.5
 49
-2.5
  0
LTYPE
  2
GESTRICHELT2
 70
     0
  3
-- -- -- -- --
 72
    65
 73
     2
 40
25.0
 49
10.0
 49
-15.0
  0
LTYPE
  2
2STR2PKT
 70
     0
  3
--..--..--..--
 72
    65
 73
     8
 40
31.0
 49
10.0
 49
-2.5
 49
10.0
 49
-2.5
 49
0.5
 49
-2.5
 49
0.5
 49
-2.5
  0
LTYPE
  2
STR3PKT2
 70
     0
  3
--...--...--...
 72
    65
 73
     8
 40
21.0
 49
10.0
 49
-2.5
 49
0.5
 49
-2.5
 49
0.5
 49
-2.5
 49
0.5
 49
-2.0
  0
LTYPE
  2
2STR3PKT
 70
     0
  3
--...--...--...
 72
    65
 73
    10
 40
34.0
 49
10.0
 49
-2.5
 49
10.0
 49
-2.5
 49
0.5
 49
-2.5
 49
0.5
 49
-2.5
 49
0.5
 49
-2.5
  0
LTYPE
  2
STRKSTR
 70
     0
  3
-- - -- - -- -
 72
    65
 73
     4
 40
30.0
 49
20.0
 49
-2.5
 49
5.0
 49
-2.5
  0
LTYPE
  2
STRKSTR2
 70
     0
  3
-- - -- - -- -
 72
    65
 73
     6
 40
37.5
 49
20.0
 49
-2.5
 49
5.0
 49
-2.5
 49
5.0
 49
-2.5
  0
LTYPE
  2
STRKSTR3
 70
     0
  3
-- - -- - -- -
 72
    65
 73
     8
 40
45.0
 49
20.0
 49
-2.5
 49
5.0
 49
-2.5
 49
5.0
 49
-2.5
 49
5.0
 49
-2.5
  0
LTYPE
  2
PUNKT2
 70
     0
  3
..............
 72
    65
 73
     2
 40
3.5
 49
0.5
 49
-3.0
  0
ENDTAB
  0
TABLE
  2
LAYER
 70
    17
  0
LAYER
  2
0
 70
     0
 62
     7
  6
CONTINUOUS
  0
LAYER
  2
LE_GREEN
 70
     0
 62
     3
  6
CONTINUOUS
  0
LAYER
  2
LE_RED
 70
     0
 62
     1
  6
CONTINUOUS
  0
LAYER
  2
LE_ALL
 70
     0
 62
     7
  6
CONTINUOUS
  0
LAYER
  2
LE_HIDDEN1
 70
     0
 62
     3
  6
HIDDEN
  0
LAYER
  2
LE_HIDDEN
 70
     0
 62
     7
  6
CONTINUOUS
  0
LAYER
  2
LE_MIDDLE
 70
     0
 62
     7
  6
CONTINUOUS
  0
LAYER
  2
TXT_YELLOW
 70
     0
 62
     2
  6
CONTINUOUS
  0
LAYER
  2
TXT_DIM49
 70
     0
 62
     2
  6
CONTINUOUS
  0
LAYER
  2
TXT_ALL
 70
     0
 62
     7
  6
CONTINUOUS
  0
LAYER
  2
DIM49
 70
     0
 62
     4
  6
CONTINUOUS
  0
LAYER
  2
HATCH
 70
     0
 62
     3
  6
CONTINUOUS
  0
LAYER
  2
APPLE
 70
     0
 62
     7
  6
CONTINUOUS
  0
LAYER
  2
10
 70
     0
 62
     7
  6
CONTINUOUS
  0
LAYER
  2
20
 70
     0
 62
     7
  6
CONTINUOUS
  0
LAYER
  2
47
 70
     0
 62
     7
  6
CONTINUOUS
  0
LAYER
  2
49
 70
     0
 62
     7
  6
CONTINUOUS
  0
ENDTAB
  0
TABLE
  2
STYLE
 70
     5
  0
STYLE
  2
MONOTXT
 70
     0
 40
0.0
 41
1.0
 50
0.0
 71
     0
 42
1.0
  3
monotxt.shx
  4

  0
STYLE
  2
STANDARD
 70
     0
 40
0.0
 41
1.0
 50
0.0
 71
     0
 42
1.0
  3
txt
  4

  0
STYLE
  2
ARIAL
 70
     0
 40
0.0
 41
1.0
 50
0.0
 71
     0
 42
1.0
  3
arial.ttf
  4

  0
STYLE
  2
ARIAL_NARROW
 70
     0
 40
0.0
 41
1.0
 50
0.0
 71
     0
 42
1.0
  3
ArialN.ttf
  4

  0
STYLE
  2
ISOCPEUR
 70
     0
 40
0.0
 41
1.0
 50
0.0
 71
     0
 42
1.0
  3
ISOCPEUR.ttf
  4

  0
ENDTAB
  0
TABLE
  2
VIEW
 70
     0
  0
ENDTAB
  0
TABLE
  2
UCS
 70
     0
  0
ENDTAB
  0
ENDSEC
  0
SECTION
  2
BLOCKS
  0
ENDSEC
  0
SECTION
  2
ENTITIES
  0
POLYLINE
  5
16E
  8
0
 66
     1
 10
0.0
 20
0.0
 30
0.0
 70
     1
  0
VERTEX
  5
16F
  8
0
 10
-37.85910516
 20
254.96994443
 30
0.0
  0
VERTEX
  5
170
  8
0
 10
382.14089484
 20
254.96994443
 30
0.0
  0
VERTEX
  5
171
  8
0
 10
382.14089484
 20
551.96994443
 30
0.0
  0
VERTEX
  5
172
  8
0
 10
-37.85910516
 20
551.96994443
 30
0.0
  0
SEQEND
  5
173
  8
0
  0
POLYLINE
  5
174
  8
0
 66
     1
 10
0.0
 20
0.0
 30
0.0
 70
     1
  0
VERTEX
  5
175
  8
0
 10
-32.85910516
 20
259.96994443
 30
0.0
  0
VERTEX
  5
176
  8
0
 10
377.14089484
 20
259.96994443
 30
0.0
  0
VERTEX
  5
177
  8
0
 10
377.14089484
 20
546.96994443
 30
0.0
  0
VERTEX
  5
178
  8
0
 10
-32.85910516
 20
546.96994443
 30
0.0
  0
SEQEND
  5
179
  8
0
  0
LINE
  5
17A
  8
0
 10
192.14089484
 20
259.96994443
 30
0.0
 11
192.14089484
 21
254.96994443
 31
0.0
  0
LINE
  5
17B
  8
0
 10
192.14089484
 20
546.96994443
 30
0.0
 11
192.14089484
 21
551.96994443
 31
0.0
  0
LINE
  5
17C
  8
0
 10
-17.85910516
 20
259.96994443
 30
0.0
 11
-17.85910516
 21
254.96994443
 31
0.0
  0
LINE
  5
17D
  8
0
 10
-17.85910516
 20
546.96994443
 30
0.0
 11
-17.85910516
 21
551.96994443
 31
0.0
  0
TEXT
  5
17E
  8
TXT_ALL
 62
     4
 10
381.14089484
 20
255.96994443
 30
0.0
 40
2.5
  1

 50
90.00020741
  0
POLYLINE
  5
17F
  8
0
 66
     1
 10
0.0
 20
0.0
 30
0.0
  0
VERTEX
  5
180
  8
0
 10
377.14089484
 20
536.96994443
 30
0.0
  0
VERTEX
  5
181
  8
0
 10
308.14759484
 20
536.96994443
 30
0.0
  0
VERTEX
  5
182
  8
0
 10
308.14759484
 20
546.96994443
 30
0.0
  0
SEQEND
  5
183
  8
0
  0
LINE
  5
184
  8
0
 10
310.05089484
 20
279.46994443
 30
0.0
 11
170.16089484
 21
279.46994443
 31
0.0
  0
LINE
  5
185
  8
0
 10
170.16089484
 20
269.71994443
 30
0.0
 11
310.05089484
 21
269.71994443
 31
0.0
  0
POLYLINE
  5
186
  8
0
 66
     1
 10
0.0
 20
0.0
 30
0.0
  0
VERTEX
  5
187
  8
0
 10
170.16089484
 20
279.46994443
 30
0.0
  0
VERTEX
  5
188
  8
0
 10
170.16089484
 20
269.71994443
 30
0.0
  0
VERTEX
  5
189
  8
0
 10
170.16089484
 20
259.96994443
 30
0.0
  0
SEQEND
  5
18A
  8
0
  0
POLYLINE
  5
18B
  8
0
 66
     1
 10
0.0
 20
0.0
 30
0.0
  0
VERTEX
  5
18C
  8
0
 10
240.10589484
 20
279.46994443
 30
0.0
  0
VERTEX
  5
18D
  8
0
 10
240.10589484
 20
269.71994443
 30
0.0
  0
VERTEX
  5
18E
  8
0
 10
240.10589484
 20
259.96994443
 30
0.0
  0
SEQEND
  5
18F
  8
0
  0
TEXT
  5
190
  8
TXT_ALL
 10
172.16089484
 20
273.29494448
 30
0.0
 40
2.5999999
  1
E-mail: verkoop@jonkers-bouwmetaal.nl
  7
ARIAL
  0
TEXT
  5
191
  8
TXT_ALL
 10
172.16089484
 20
263.54494448
 30
0.0
 40
2.5999999
  1
Telefoon: 0527-685156
  7
ARIAL
  0
TEXT
  5
192
  8
TXT_ALL
 10
242.10589484
 20
263.54494448
 30
0.0
 40
2.5999999
  1
Website: www.jonkers-bouwmetaal.nl
  7
ARIAL
  0
TEXT
  5
193
  8
TXT_ALL
 10
242.10589484
 20
273.29494448
 30
0.0
 40
2.5999999
  1
Adres: Hoornse Hop 10, 8321 WX Urk
  7
ARIAL
  0
TEXT
  5
194
  8
TXT_ALL
 10
-29.41714491
 20
540.71994443
 30
0.0
 40
2.5
  1
Art. nr. 91016692
  7
ARIAL
  0
TEXT
  5
195
  8
TXT_ALL
 10
13.32089191
 20
540.71994443
 30
0.0
 40
2.5
  1
Omschrijving: T08-anker 295x45.5 111x3
  7
ARIAL
  0
LINE
  5
196
  8
0
 10
377.14089484
 20
536.96994443
 30
0.0
 11
-32.85910516
 21
536.96994443
 31
0.0
  0
LINE
  5
197
  8
0
 10
10.16089484
 20
536.96994443
 30
0.0
 11
10.16089484
 21
546.96994443
 31
0.0
  0
LINE
  5
198
  8
0
 10
170.16089484
 20
536.96994443
 30
0.0
 11
170.16089484
 21
546.96994443
 31
0.0
  0
TEXT
  5
199
  8
TXT_ALL
 10
241.15459484
 20
540.71994443
 30
0.0
 40
2.5
  1
Behandeling: N.V.T.
  7
ARIAL
  0
LINE
  5
19A
  8
0
 10
310.05089484
 20
279.46994443
 30
0.0
 11
377.14089484
 21
279.46994443
 31
0.0
  0
LINE
  5
19B
  8
0
 10
310.05089484
 20
259.96994443
 30
0.0
 11
310.05089484
 21
279.46994443
 31
0.0
  0
LINE
  5
19C
  8
0
 10
310.05089484
 20
259.96994443
 30
0.0
 11
310.05089484
 21
279.46994443
 31
0.0
  0
TEXT
  5
19D
  8
TXT_ALL
 10
104.50609293
 20
261.12447784
 30
0.0
 40
2.5
  1

  0
TEXT
  5
19E
  8
TXT_ALL
 10
225.6412759
 20
271.21994443
 30
0.0
 40
2.5
  1

  0
POLYLINE
  5
19F
  8
0
 66
     1
 10
0.0
 20
0.0
 30
0.0
  0
VERTEX
  5
1A0
  8
0
 10
308.14759484
 20
536.96994443
 30
0.0
  0
VERTEX
  5
1A1
  8
0
 10
239.15459484
 20
536.96994443
 30
0.0
  0
VERTEX
  5
1A2
  8
0
 10
239.15459484
 20
546.96994443
 30
0.0
  0
SEQEND
  5
1A3
  8
0
  0
TEXT
  5
1A4
  8
TXT_ALL
 10
310.14759484
 20
540.71994443
 30
0.0
 40
2.5
  1
Verpakkingshoeveelheid: 15 st.
  7
ARIAL
  0
TEXT
  5
1A5
  8
TXT_ALL
 10
172.16089484
 20
540.71994443
 30
0.0
 40
2.5
  1
Materiaal: Sendzimir Verzinkt
  7
ARIAL
  0
TEXT
  5
1A6
  8
TXT_ALL
 10
344.92254207
 20
256.72043458
 30
0.0
 40
1.5
  1
Onderdeel van
  7
ARIAL
  0
LINE
  5
1A7
  8
0
 10
200.31699045
 20
479.30690401
 30
0.0
 11
200.31699045
 21
482.30690401
 31
0.0
  0
POLYLINE
  5
1A8
  8
0
 66
     1
 10
0.0
 20
0.0
 30
0.0
  0
VERTEX
  5
1A9
  8
0
 10
347.81699045
 20
482.30690401
 30
0.0
  0
VERTEX
  5
1AA
  8
0
 10
347.81699045
 20
479.30690401
 30
0.0
  0
VERTEX
  5
1AB
  8
0
 10
200.31699045
 20
479.30690401
 30
0.0
  0
SEQEND
  5
1AC
  8
0
  0
POLYLINE
  5
1AD
  8
0
 66
     1
 10
0.0
 20
0.0
 30
0.0
 70
     1
  0
VERTEX
  5
1AE
  8
0
 10
336.75633028
 20
462.65004976
 30
0.0
 42
-1.0
  0
VERTEX
  5
1AF
  8
0
 10
332.1601362
 20
467.24624384
 30
0.0
  0
VERTEX
  5
1B0
  8
0
 10
338.87765062
 20
473.96375826
 30
0.0
 42
-1.0
  0
VERTEX
  5
1B1
  8
0
 10
343.4738447
 20
469.36756418
 30
0.0
  0
SEQEND
  5
1B2
  8
0
  0
POLYLINE
  5
1B3
  8
0
 66
     1
 10
0.0
 20
0.0
 30
0.0
 70
     1
  0
VERTEX
  5
1B4
  8
0
 10
321.75633028
 20
462.65004976
 30
0.0
 42
-1.0
  0
VERTEX
  5
1B5
  8
0
 10
317.1601362
 20
467.24624384
 30
0.0
  0
VERTEX
  5
1B6
  8
0
 10
323.87765062
 20
473.96375826
 30
0.0
 42
-1.0
  0
VERTEX
  5
1B7
  8
0
 10
328.4738447
 20
469.36756418
 30
0.0
  0
SEQEND
  5
1B8
  8
0
  0
CIRCLE
  5
1B9
  8
0
 10
210.31699045
 20
468.30690401
 30
0.0
 40
2.75
  0
CIRCLE
  5
1BA
  8
0
 10
305.31699045
 20
468.30690401
 30
0.0
 40
2.75
  0
LINE
  5
1BB
  8
0
 10
200.31699045
 20
458.80690401
 30
0.0
 11
200.31699045
 21
477.80690401
 31
0.0
  0
LINE
  5
1BC
  8
0
 10
347.81699045
 20
477.80690401
 30
0.0
 11
347.81699045
 21
458.80690401
 31
0.0
  0
LINE
  5
1BD
  8
0
  6
STRICHPUNKT2
 62
     1
 10
305.31699045
 20
468.30690401
 30
0.0
 11
301.19199045
 21
468.30690401
 31
0.0
  0
LINE
  5
1BE
  8
0
  6
STRICHPUNKT2
 62
     1
 10
305.31699045
 20
468.30690401
 30
0.0
 11
309.44199045
 21
468.30690401
 31
0.0
  0
LINE
  5
1BF
  8
0
  6
STRICHPUNKT2
 62
     1
 10
305.31699045
 20
468.30690401
 30
0.0
 11
305.31699045
 21
464.18190401
 31
0.0
  0
LINE
  5
1C0
  8
0
  6
STRICHPUNKT2
 62
     1
 10
305.31699045
 20
468.30690401
 30
0.0
 11
305.31699045
 21
472.43190401
 31
0.0
  0
LINE
  5
1C1
  8
0
  6
STRICHPUNKT2
 62
     1
 10
210.31699045
 20
468.30690401
 30
0.0
 11
206.19199045
 21
468.30690401
 31
0.0
  0
LINE
  5
1C2
  8
0
  6
STRICHPUNKT2
 62
     1
 10
210.31699045
 20
468.30690401
 30
0.0
 11
214.44199045
 21
468.30690401
 31
0.0
  0
LINE
  5
1C3
  8
0
  6
STRICHPUNKT2
 62
     1
 10
210.31699045
 20
468.30690401
 30
0.0
 11
210.31699045
 21
464.18190401
 31
0.0
  0
LINE
  5
1C4
  8
0
  6
STRICHPUNKT2
 62
     1
 10
210.31699045
 20
468.30690401
 30
0.0
 11
210.31699045
 21
472.43190401
 31
0.0
  0
LINE
  5
1C5
  8
0
  6
STRICHPUNKT2
 62
     1
 10
316.09947603
 20
461.58938959
 30
0.0
 11
329.53450487
 21
475.02441843
 31
0.0
  0
LINE
  5
1C6
  8
0
  6
STRICHPUNKT2
 62
     1
 10
322.81699045
 20
461.58938959
 30
0.0
 11
316.09947603
 21
468.30690401
 31
0.0
  0
LINE
  5
1C7
  8
0
  6
STRICHPUNKT2
 62
     1
 10
329.53450487
 20
468.30690401
 30
0.0
 11
322.81699045
 21
475.02441843
 31
0.0
  0
LINE
  5
1C8
  8
0
  6
STRICHPUNKT2
 62
     1
 10
331.09947603
 20
461.58938959
 30
0.0
 11
344.53450487
 21
475.02441843
 31
0.0
  0
LINE
  5
1C9
  8
0
  6
STRICHPUNKT2
 62
     1
 10
337.81699045
 20
461.58938959
 30
0.0
 11
331.09947603
 21
468.30690401
 31
0.0
  0
LINE
  5
1CA
  8
0
  6
STRICHPUNKT2
 62
     1
 10
344.53450487
 20
468.30690401
 30
0.0
 11
337.81699045
 21
475.02441843
 31
0.0
  0
LINE
  5
1CB
  8
0
 10
347.81699045
 20
479.30690401
 30
0.0
 11
347.81699045
 21
477.80690401
 31
0.0
  0
LINE
  5
1CC
  8
0
 10
200.31699045
 20
477.80690401
 30
0.0
 11
200.31699045
 21
479.30690401
 31
0.0
  0
LINE
  5
1CD
  8
0
 10
200.31699045
 20
457.30690401
 30
0.0
 11
200.31699045
 21
458.80690401
 31
0.0
  0
LINE
  5
1CE
  8
0
 10
347.81699045
 20
458.80690401
 30
0.0
 11
347.81699045
 21
457.30690401
 31
0.0
  0
LINE
  5
1CF
  8
0
 10
200.31699045
 20
454.30690401
 30
0.0
 11
200.31699045
 21
457.30690401
 31
0.0
  0
LINE
  5
1D0
  8
0
 10
347.81699045
 20
457.30690401
 30
0.0
 11
200.31699045
 21
457.30690401
 31
0.0
  0
LINE
  5
1D1
  8
0
 10
347.81699045
 20
457.30690401
 30
0.0
 11
347.81699045
 21
454.30690401
 31
0.0
  0
CIRCLE
  5
1D2
  8
0
 10
211.31699045
 20
445.55690401
 30
0.0
 40
1.625
  0
POLYLINE
  5
1D3
  8
0
 66
     1
 10
0.0
 20
0.0
 30
0.0
  0
VERTEX
  5
65D
  8
0
 10
313.316990458325
 20
443.8069040122883
 30
0.0
  0
VERTEX
  5
65E
  8
0
 10
313.8508361819711
 20
444.1561325023827
 30
0.0
  0
VERTEX
  5
65F
  8
0
 10
314.27233389912
 20
444.5752100652039
 30
0.0
  0
VERTEX
  5
660
  8
0
 10
314.5636487825025
 20
445.0464042774405
 30
0.0
  0
VERTEX
  5
661
  8
0
 10
314.7124544293536
 20
445.5497775046911
 30
0.0
  0
VERTEX
  5
662
  8
0
 10
314.712454428328
 20
446.0640305223225
 30
0.0
  0
VERTEX
  5
663
  8
0
 10
314.5636487794691
 20
446.5674037492764
 30
0.0
  0
VERTEX
  5
664
  8
0
 10
314.2723338942072
 20
447.038597960932
 30
0.0
  0
VERTEX
  5
665
  8
0
 10
313.8508361753867
 20
447.4576755229126
 30
0.0
  0
VERTEX
  5
666
  8
0
 10
313.3169904503477
 20
447.8069040119423
 30
0.0
  0
SEQEND
  5
97D
  8
0
  0
POLYLINE
  5
1D4
  8
0
 66
     1
 10
0.0
 20
0.0
 30
0.0
  0
VERTEX
  5
1D5
  8
0
 10
313.31699045
 20
451.05690401
 30
0.0
  0
VERTEX
  5
1D6
  8
0
 10
314.31699045
 20
451.05690401
 30
0.0
 42
1.0
  0
VERTEX
  5
1D7
  8
0
 10
314.31699045
 20
453.05690401
 30
0.0
  0
VERTEX
  5
1D8
  8
0
 10
292.31699045
 20
453.05690401
 30
0.0
  0
SEQEND
  5
1D9
  8
0
  0
ARC
  5
1DA
  8
0
 10
292.31699045
 20
452.05690401
 30
0.0
 40
1.0
 50
90.0
 51
180.0
  0
LINE
  5
1DB
  8
0
 10
291.31699045
 20
452.05690401
 30
0.0
 11
291.31699045
 21
441.55690401
 31
0.0
  0
ARC
  5
1DC
  8
0
 10
290.31699045
 20
441.55690401
 30
0.0
 40
1.0
 50
-90.0
 51
0.0
  0
POLYLINE
  5
1DD
  8
0
 66
     1
 10
0.0
 20
0.0
 30
0.0
  0
VERTEX
  5
1DE
  8
0
 10
290.31699045
 20
440.55690401
 30
0.0
  0
VERTEX
  5
1DF
  8
0
 10
200.31699045
 20
440.55690401
 30
0.0
  0
VERTEX
  5
1E0
  8
0
 10
200.31699045
 20
454.30690401
 30
0.0
  0
SEQEND
  5
1E1
  8
0
  0
POLYLINE
  5
1E2
  8
0
 66
     1
 10
0.0
 20
0.0
 30
0.0
  0
VERTEX
  5
1E3
  8
0
 10
347.81699045
 20
454.30690401
 30
0.0
  0
VERTEX
  5
1E4
  8
0
 10
347.81699045
 20
440.55690401
 30
0.0
  0
VERTEX
  5
1E5
  8
0
 10
313.31699045
 20
440.55690401
 30
0.0
  0
SEQEND
  5
1E6
  8
0
  0
LINE
  5
1E7
  8
0
  6
STRICHPUNKT2
 62
     1
 10
211.31699045
 20
445.55690401
 30
0.0
 11
208.87949045
 21
445.55690401
 31
0.0
  0
LINE
  5
1E8
  8
0
  6
STRICHPUNKT2
 62
     1
 10
211.31699045
 20
445.55690401
 30
0.0
 11
213.75449045
 21
445.55690401
 31
0.0
  0
LINE
  5
1E9
  8
0
  6
STRICHPUNKT2
 62
     1
 10
211.31699045
 20
445.55690401
 30
0.0
 11
211.31699045
 21
443.11940401
 31
0.0
  0
LINE
  5
1EA
  8
0
  6
STRICHPUNKT2
 62
     1
 10
211.31699045
 20
445.55690401
 30
0.0
 11
211.31699045
 21
447.99440401
 31
0.0
  0
CIRCLE
  5
1EB
  8
0
 10
211.31699045
 20
491.05690401
 30
0.0
 40
1.625
  0
POLYLINE
  5
1EC
  8
0
 66
     1
 10
0.0
 20
0.0
 30
0.0
  0
VERTEX
  5
667
  8
0
 10
313.316990458325
 20
488.8069040122883
 30
0.0
  0
VERTEX
  5
668
  8
0
 10
313.8508361819711
 20
489.1561325023827
 30
0.0
  0
VERTEX
  5
669
  8
0
 10
314.27233389912
 20
489.5752100652039
 30
0.0
  0
VERTEX
  5
66A
  8
0
 10
314.5636487825025
 20
490.0464042774405
 30
0.0
  0
VERTEX
  5
66B
  8
0
 10
314.7124544293536
 20
490.5497775046911
 30
0.0
  0
VERTEX
  5
66C
  8
0
 10
314.712454428328
 20
491.0640305223225
 30
0.0
  0
VERTEX
  5
66D
  8
0
 10
314.5636487794691
 20
491.5674037492764
 30
0.0
  0
VERTEX
  5
66E
  8
0
 10
314.2723338942072
 20
492.038597960932
 30
0.0
  0
VERTEX
  5
66F
  8
0
 10
313.8508361753867
 20
492.4576755229126
 30
0.0
  0
VERTEX
  5
670
  8
0
 10
313.3169904503477
 20
492.8069040119423
 30
0.0
  0
SEQEND
  5
97E
  8
0
  0
LINE
  5
1ED
  8
0
 10
347.81699045
 20
496.05690401
 30
0.0
 11
313.31699045
 21
496.05690401
 31
0.0
  0
LINE
  5
1EE
  8
0
 10
347.81699045
 20
496.05690401
 30
0.0
 11
347.81699045
 21
482.30690401
 31
0.0
  0
LINE
  5
1EF
  8
0
 10
200.31699045
 20
482.30690401
 30
0.0
 11
200.31699045
 21
496.05690401
 31
0.0
  0
LINE
  5
1F0
  8
0
 10
290.31699045
 20
496.05690401
 30
0.0
 11
200.31699045
 21
496.05690401
 31
0.0
  0
ARC
  5
1F1
  8
0
 10
290.31699045
 20
495.05690401
 30
0.0
 40
1.0
 50
0.0
 51
90.0
  0
LINE
  5
1F2
  8
0
 10
291.31699045
 20
495.05690401
 30
0.0
 11
291.31699045
 21
484.55690401
 31
0.0
  0
ARC
  5
1F3
  8
0
 10
292.31699045
 20
484.55690401
 30
0.0
 40
1.0
 50
180.0
 51
-90.0
  0
POLYLINE
  5
1F4
  8
0
 66
     1
 10
0.0
 20
0.0
 30
0.0
  0
VERTEX
  5
1F5
  8
0
 10
292.31699045
 20
483.55690401
 30
0.0
  0
VERTEX
  5
1F6
  8
0
 10
314.31699045
 20
483.55690401
 30
0.0
 42
0.414213562
  0
VERTEX
  5
1F7
  8
0
 10
315.31699045
 20
484.55690401
 30
0.0
 42
0.414213562
  0
VERTEX
  5
1F8
  8
0
 10
314.31699045
 20
485.55690401
 30
0.0
  0
VERTEX
  5
1F9
  8
0
 10
313.31699045
 20
485.55690401
 30
0.0
  0
SEQEND
  5
1FA
  8
0
  0
LINE
  5
1FB
  8
0
  6
STRICHPUNKT2
 62
     1
 10
211.31699045
 20
491.05690401
 30
0.0
 11
208.87949045
 21
491.05690401
 31
0.0
  0
LINE
  5
1FC
  8
0
  6
STRICHPUNKT2
 62
     1
 10
211.31699045
 20
491.05690401
 30
0.0
 11
213.75449045
 21
491.05690401
 31
0.0
  0
LINE
  5
1FD
  8
0
  6
STRICHPUNKT2
 62
     1
 10
211.31699045
 20
491.05690401
 30
0.0
 11
211.31699045
 21
488.61940401
 31
0.0
  0
LINE
  5
1FE
  8
0
  6
STRICHPUNKT2
 62
     1
 10
211.31699045
 20
491.05690401
 30
0.0
 11
211.31699045
 21
493.49440401
 31
0.0
  0
POLYLINE
  5
1FF
  8
0
 66
     1
 10
0.0
 20
0.0
 30
0.0
  0
VERTEX
  5
200
  8
0
 10
313.31699045
 20
488.806904
 30
0.0
  0
VERTEX
  5
201
  8
0
 10
313.21242081
 20
488.75528024
 30
0.0
  0
VERTEX
  5
202
  8
0
 10
313.10259302
 20
488.7086293
 30
0.0
  0
VERTEX
  5
203
  8
0
 10
312.98741052
 20
488.66705336
 30
0.0
  0
VERTEX
  5
204
  8
0
 10
312.86681457
 20
488.63068426
 30
0.0
  0
VERTEX
  5
205
  8
0
 10
312.74375442
 20
488.6003274
 30
0.0
  0
VERTEX
  5
206
  8
0
 10
312.61194711
 20
488.57471768
 30
0.0
  0
VERTEX
  5
207
  8
0
 10
312.48267665
 20
488.55652635
 30
0.0
  0
VERTEX
  5
208
  8
0
 10
312.3592213
 20
488.54601454
 30
0.0
  0
VERTEX
  5
209
  8
0
 10
312.25633028
 20
488.54305773
 30
0.0
  0
VERTEX
  5
20A
  8
0
 10
312.15462442
 20
488.54658031
 30
0.0
  0
VERTEX
  5
20B
  8
0
 10
312.07220167
 20
488.55624126
 30
0.0
  0
VERTEX
  5
20C
  8
0
 10
312.00603611
 20
488.57084049
 30
0.0
  0
VERTEX
  5
20D
  8
0
 10
311.95349517
 20
488.58939806
 30
0.0
  0
VERTEX
  5
20E
  8
0
 10
311.93084455
 20
488.6003274
 30
0.0
  0
VERTEX
  5
20F
  8
0
 10
311.89471911
 20
488.62363476
 30
0.0
  0
VERTEX
  5
210
  8
0
 10
311.86709786
 20
488.64971311
 30
0.0
  0
VERTEX
  5
211
  8
0
 10
311.84622103
 20
488.6790497
 30
0.0
  0
VERTEX
  5
212
  8
0
 10
311.83107252
 20
488.71252572
 30
0.0
  0
VERTEX
  5
213
  8
0
 10
311.82128978
 20
488.75143139
 30
0.0
  0
VERTEX
  5
214
  8
0
 10
311.81709971
 20
488.79749125
 30
0.0
  0
VERTEX
  5
215
  8
0
 10
311.81699046
 20
488.806904
 30
0.0
  0
SEQEND
  5
216
  8
0
  0
LINE
  5
217
  8
0
 10
311.81699045
 20
485.55690401
 30
0.0
 11
313.31699045
 21
485.55690401
 31
0.0
  0
POLYLINE
  5
218
  8
0
 66
     1
 10
0.0
 20
0.0
 30
0.0
  0
VERTEX
  5
219
  8
0
 10
311.81699046
 20
492.80690402
 30
0.0
  0
VERTEX
  5
21A
  8
0
 10
311.8205209
 20
492.8575307
 30
0.0
  0
VERTEX
  5
21B
  8
0
 10
311.83027507
 20
492.8989376
 30
0.0
  0
VERTEX
  5
21C
  8
0
 10
311.84549573
 20
492.93348143
 30
0.0
  0
VERTEX
  5
21D
  8
0
 10
311.86605509
 20
492.96288667
 30
0.0
  0
VERTEX
  5
21E
  8
0
 10
311.89244466
 20
492.98836986
 30
0.0
  0
VERTEX
  5
21F
  8
0
 10
311.92577104
 20
493.01070473
 30
0.0
  0
VERTEX
  5
220
  8
0
 10
311.93084455
 20
493.01348062
 30
0.0
  0
VERTEX
  5
221
  8
0
 10
311.9742452
 20
493.03270211
 30
0.0
  0
VERTEX
  5
222
  8
0
 10
312.02816179
 20
493.04872678
 30
0.0
  0
VERTEX
  5
223
  8
0
 10
312.094565
 20
493.06096176
 30
0.0
  0
VERTEX
  5
224
  8
0
 10
312.1757139
 20
493.0686026
 30
0.0
  0
VERTEX
  5
225
  8
0
 10
312.25633028
 20
493.07075029
 30
0.0
  0
VERTEX
  5
226
  8
0
 10
312.36893542
 20
493.06722771
 30
0.0
  0
VERTEX
  5
227
  8
0
 10
312.49183191
 20
493.05622689
 30
0.0
  0
VERTEX
  5
228
  8
0
 10
312.62194258
 20
493.03739458
 30
0.0
  0
VERTEX
  5
229
  8
0
 10
312.74375442
 20
493.01348062
 30
0.0
  0
VERTEX
  5
22A
  8
0
 10
312.87793411
 20
492.98005551
 30
0.0
  0
VERTEX
  5
22B
  8
0
 10
313.00493644
 20
492.94087919
 30
0.0
  0
VERTEX
  5
22C
  8
0
 10
313.12511372
 20
492.89619836
 30
0.0
  0
VERTEX
  5
22D
  8
0
 10
313.23877799
 20
492.84621507
 30
0.0
  0
VERTEX
  5
22E
  8
0
 10
313.31699045
 20
492.80690402
 30
0.0
  0
SEQEND
  5
22F
  8
0
  0
LINE
  5
230
  8
0
 10
313.31699045
 20
496.05690401
 30
0.0
 11
311.81699045
 21
496.05690401
 31
0.0
  0
LINE
  5
231
  8
0
 10
311.81699045
 20
496.05690401
 30
0.0
 11
310.31699045
 21
496.05690401
 31
0.0
  0
LINE
  5
232
  8
0
 10
310.31699045
 20
495.05690401
 30
0.0
 11
310.31699045
 21
496.05690401
 31
0.0
  0
POLYLINE
  5
233
  8
0
 66
     1
 10
0.0
 20
0.0
 30
0.0
  0
VERTEX
  5
234
  8
0
 10
311.81699045
 20
496.05690401
 30
0.0
  0
VERTEX
  5
235
  8
0
 10
311.81699045
 20
495.05690401
 30
0.0
  0
VERTEX
  5
236
  8
0
 10
311.81699045
 20
486.55690401
 30
0.0
  0
SEQEND
  5
237
  8
0
  0
LINE
  5
238
  8
0
 10
310.31699045
 20
486.55690401
 30
0.0
 11
310.31699045
 21
495.05690401
 31
0.0
  0
LINE
  5
239
  8
0
 10
310.31699045
 20
485.55690401
 30
0.0
 11
310.31699045
 21
486.55690401
 31
0.0
  0
LINE
  5
23A
  8
0
 10
311.81699045
 20
485.55690401
 30
0.0
 11
310.31699045
 21
485.55690401
 31
0.0
  0
LINE
  5
23B
  8
0
 10
311.81699045
 20
486.55690401
 30
0.0
 11
311.81699045
 21
485.55690401
 31
0.0
  0
LINE
  5
23C
  8
0
  6
STRICHPUNKT2
 62
     1
 10
311.81699045
 20
490.80690401
 30
0.0
 11
312.62949045
 21
490.80690401
 31
0.0
  0
LINE
  5
23D
  8
0
  6
STRICHPUNKT2
 62
     1
 10
309.50449045
 20
490.80690401
 30
0.0
 11
310.31699045
 21
490.80690401
 31
0.0
  0
POLYLINE
  5
23E
  8
0
 66
     1
 10
0.0
 20
0.0
 30
0.0
  0
VERTEX
  5
23F
  8
0
 10
311.81699046
 20
447.80690402
 30
0.0
  0
VERTEX
  5
240
  8
0
 10
311.8205209
 20
447.8575307
 30
0.0
  0
VERTEX
  5
241
  8
0
 10
311.83027507
 20
447.8989376
 30
0.0
  0
VERTEX
  5
242
  8
0
 10
311.84549573
 20
447.93348143
 30
0.0
  0
VERTEX
  5
243
  8
0
 10
311.86605509
 20
447.96288667
 30
0.0
  0
VERTEX
  5
244
  8
0
 10
311.89244466
 20
447.98836986
 30
0.0
  0
VERTEX
  5
245
  8
0
 10
311.92577104
 20
448.01070473
 30
0.0
  0
VERTEX
  5
246
  8
0
 10
311.93084455
 20
448.01348062
 30
0.0
  0
VERTEX
  5
247
  8
0
 10
311.9742452
 20
448.03270211
 30
0.0
  0
VERTEX
  5
248
  8
0
 10
312.02816179
 20
448.04872678
 30
0.0
  0
VERTEX
  5
249
  8
0
 10
312.094565
 20
448.06096176
 30
0.0
  0
VERTEX
  5
24A
  8
0
 10
312.1757139
 20
448.0686026
 30
0.0
  0
VERTEX
  5
24B
  8
0
 10
312.25633028
 20
448.07075029
 30
0.0
  0
VERTEX
  5
24C
  8
0
 10
312.36893542
 20
448.06722771
 30
0.0
  0
VERTEX
  5
24D
  8
0
 10
312.49183191
 20
448.05622689
 30
0.0
  0
VERTEX
  5
24E
  8
0
 10
312.62194258
 20
448.03739458
 30
0.0
  0
VERTEX
  5
24F
  8
0
 10
312.74375442
 20
448.01348062
 30
0.0
  0
VERTEX
  5
250
  8
0
 10
312.87793411
 20
447.98005551
 30
0.0
  0
VERTEX
  5
251
  8
0
 10
313.00493644
 20
447.94087919
 30
0.0
  0
VERTEX
  5
252
  8
0
 10
313.12511372
 20
447.89619836
 30
0.0
  0
VERTEX
  5
253
  8
0
 10
313.23877799
 20
447.84621507
 30
0.0
  0
VERTEX
  5
254
  8
0
 10
313.31699045
 20
447.80690402
 30
0.0
  0
SEQEND
  5
255
  8
0
  0
LINE
  5
256
  8
0
 10
313.31699045
 20
451.05690401
 30
0.0
 11
311.81699045
 21
451.05690401
 31
0.0
  0
POLYLINE
  5
257
  8
0
 66
     1
 10
0.0
 20
0.0
 30
0.0
  0
VERTEX
  5
258
  8
0
 10
313.31699045
 20
443.806904
 30
0.0
  0
VERTEX
  5
259
  8
0
 10
313.21242081
 20
443.75528024
 30
0.0
  0
VERTEX
  5
25A
  8
0
 10
313.10259302
 20
443.7086293
 30
0.0
  0
VERTEX
  5
25B
  8
0
 10
312.98741052
 20
443.66705336
 30
0.0
  0
VERTEX
  5
25C
  8
0
 10
312.86681457
 20
443.63068426
 30
0.0
  0
VERTEX
  5
25D
  8
0
 10
312.74375442
 20
443.6003274
 30
0.0
  0
VERTEX
  5
25E
  8
0
 10
312.61194711
 20
443.57471768
 30
0.0
  0
VERTEX
  5
25F
  8
0
 10
312.48267665
 20
443.55652635
 30
0.0
  0
VERTEX
  5
260
  8
0
 10
312.3592213
 20
443.54601454
 30
0.0
  0
VERTEX
  5
261
  8
0
 10
312.25633028
 20
443.54305773
 30
0.0
  0
VERTEX
  5
262
  8
0
 10
312.15462442
 20
443.54658031
 30
0.0
  0
VERTEX
  5
263
  8
0
 10
312.07220167
 20
443.55624126
 30
0.0
  0
VERTEX
  5
264
  8
0
 10
312.00603611
 20
443.57084049
 30
0.0
  0
VERTEX
  5
265
  8
0
 10
311.95349517
 20
443.58939806
 30
0.0
  0
VERTEX
  5
266
  8
0
 10
311.93084455
 20
443.6003274
 30
0.0
  0
VERTEX
  5
267
  8
0
 10
311.89471911
 20
443.62363476
 30
0.0
  0
VERTEX
  5
268
  8
0
 10
311.86709786
 20
443.64971311
 30
0.0
  0
VERTEX
  5
269
  8
0
 10
311.84622103
 20
443.6790497
 30
0.0
  0
VERTEX
  5
26A
  8
0
 10
311.83107252
 20
443.71252572
 30
0.0
  0
VERTEX
  5
26B
  8
0
 10
311.82128978
 20
443.75143139
 30
0.0
  0
VERTEX
  5
26C
  8
0
 10
311.81709971
 20
443.79749125
 30
0.0
  0
VERTEX
  5
26D
  8
0
 10
311.81699046
 20
443.806904
 30
0.0
  0
SEQEND
  5
26E
  8
0
  0
LINE
  5
26F
  8
0
 10
311.81699045
 20
440.55690401
 30
0.0
 11
313.31699045
 21
440.55690401
 31
0.0
  0
LINE
  5
270
  8
0
 10
311.81699045
 20
451.05690401
 30
0.0
 11
310.31699045
 21
451.05690401
 31
0.0
  0
LINE
  5
271
  8
0
 10
310.31699045
 20
450.05690401
 30
0.0
 11
310.31699045
 21
451.05690401
 31
0.0
  0
POLYLINE
  5
272
  8
0
 66
     1
 10
0.0
 20
0.0
 30
0.0
  0
VERTEX
  5
273
  8
0
 10
311.81699045
 20
451.05690401
 30
0.0
  0
VERTEX
  5
274
  8
0
 10
311.81699045
 20
450.05690401
 30
0.0
  0
VERTEX
  5
275
  8
0
 10
311.81699045
 20
441.55690401
 30
0.0
  0
SEQEND
  5
276
  8
0
  0
LINE
  5
277
  8
0
 10
310.31699045
 20
441.55690401
 30
0.0
 11
310.31699045
 21
450.05690401
 31
0.0
  0
LINE
  5
278
  8
0
 10
310.31699045
 20
440.55690401
 30
0.0
 11
310.31699045
 21
441.55690401
 31
0.0
  0
LINE
  5
279
  8
0
 10
310.31699045
 20
440.55690401
 30
0.0
 11
311.81699045
 21
440.55690401
 31
0.0
  0
LINE
  5
27A
  8
0
 10
311.81699045
 20
441.55690401
 30
0.0
 11
311.81699045
 21
440.55690401
 31
0.0
  0
LINE
  5
27B
  8
0
  6
STRICHPUNKT2
 62
     1
 10
311.81699045
 20
445.80690401
 30
0.0
 11
312.62949045
 21
445.80690401
 31
0.0
  0
LINE
  5
27C
  8
0
  6
STRICHPUNKT2
 62
     1
 10
309.50449045
 20
445.80690401
 30
0.0
 11
310.31699045
 21
445.80690401
 31
0.0
  0
LINE
  5
27D
  8
0
 10
107.41658293
 20
343.67246194
 30
0.0
 11
106.68581892
 21
345.28067991
 31
0.0
  0
LINE
  5
27E
  8
0
 10
70.6336619
 20
333.60695378
 30
0.0
 11
69.9028979
 21
335.21517176
 31
0.0
  0
POLYLINE
  5
27F
  8
0
 66
     1
 10
0.0
 20
0.0
 30
0.0
  0
VERTEX
  5
671
  8
0
 10
33.78446378456507
 20
378.6905826690194
 30
0.0
  0
VERTEX
  5
672
  8
0
 10
33.30555237139961
 20
378.50683735431
 30
0.0
  0
VERTEX
  5
673
  8
0
 10
32.84402135002165
 20
378.2244870669898
 30
0.0
  0
VERTEX
  5
674
  8
0
 10
32.4176070988253
 20
377.8543823703007
 30
0.0
  0
VERTEX
  5
675
  8
0
 10
32.04269647841485
 20
377.4107461802373
 30
0.0
  0
VERTEX
  5
676
  8
0
 10
31.73369709373898
 20
376.9106271868588
 30
0.0
  0
VERTEX
  5
677
  8
0
 10
31.50248361791021
 20
376.3732446826892
 30
0.0
  0
VERTEX
  5
678
  8
0
 10
31.35794145517479
 20
375.8192499760802
 30
0.0
  0
VERTEX
  5
679
  8
0
 10
31.30562527980905
 20
375.2699327730094
 30
0.0
  0
SEQEND
  5
97F
  8
0
  0
POLYLINE
  5
280
  8
0
 66
     1
 10
0.0
 20
0.0
 30
0.0
  0
VERTEX
  5
67A
  8
0
 10
118.7451337445651
 20
329.7870403390194
 30
0.0
  0
VERTEX
  5
67B
  8
0
 10
118.2662223313996
 20
329.60329502431
 30
0.0
  0
VERTEX
  5
67C
  8
0
 10
117.8046913100216
 20
329.3209447369898
 30
0.0
  0
VERTEX
  5
67D
  8
0
 10
117.3782770588253
 20
328.9508400403007
 30
0.0
  0
VERTEX
  5
67E
  8
0
 10
117.0033664384148
 20
328.5072038502373
 30
0.0
  0
VERTEX
  5
67F
  8
0
 10
116.694367053739
 20
328.0070848568589
 30
0.0
  0
VERTEX
  5
680
  8
0
 10
116.4631535779102
 20
327.4697023526892
 30
0.0
  0
VERTEX
  5
681
  8
0
 10
116.3186114151748
 20
326.9157076460802
 30
0.0
  0
VERTEX
  5
682
  8
0
 10
116.266295239809
 20
326.3663904430094
 30
0.0
  0
SEQEND
  5
980
  8
0
  0
POLYLINE
  5
281
  8
0
 66
     1
 10
0.0
 20
0.0
 30
0.0
  0
VERTEX
  5
683
  8
0
 10
118.7318118572825
 20
328.4122323295097
 30
0.0
  0
VERTEX
  5
684
  8
0
 10
118.4923561506998
 20
328.320359672155
 30
0.0
  0
VERTEX
  5
685
  8
0
 10
118.2615906400108
 20
328.1791845284949
 30
0.0
  0
VERTEX
  5
686
  8
0
 10
118.0483835144126
 20
327.9941321801504
 30
0.0
  0
VERTEX
  5
687
  8
0
 10
117.8609282042074
 20
327.7723140851186
 30
0.0
  0
VERTEX
  5
688
  8
0
 10
117.7064285118695
 20
327.5222545884294
 30
0.0
  0
VERTEX
  5
689
  8
0
 10
117.5908217739551
 20
327.2535633363447
 30
0.0
  0
VERTEX
  5
68A
  8
0
 10
117.5185506925874
 20
326.9765659830401
 30
0.0
  0
VERTEX
  5
68B
  8
0
 10
117.4923926049045
 20
326.7019073815047
 30
0.0
  0
SEQEND
  5
981
  8
0
  0
POLYLINE
  5
282
  8
0
 66
     1
 10
0.0
 20
0.0
 30
0.0
  0
VERTEX
  5
68C
  8
0
 10
97.3562089127951
 20
325.4226878192912
 30
0.0
  0
VERTEX
  5
68D
  8
0
 10
96.71228976367381
 20
325.4465134661102
 30
0.0
  0
VERTEX
  5
68E
  8
0
 10
96.07188961967317
 20
325.4190458381119
 30
0.0
  0
VERTEX
  5
68F
  8
0
 10
95.46028038460786
 20
325.3413688814186
 30
0.0
  0
VERTEX
  5
690
  8
0
 10
94.90159779596249
 20
325.2165479366562
 30
0.0
  0
VERTEX
  5
691
  8
0
 10
94.41788896408737
 20
325.0495087724081
 30
0.0
  0
SEQEND
  5
982
  8
0
  0
POLYLINE
  5
283
  8
0
 66
     1
 10
0.0
 20
0.0
 30
0.0
  0
VERTEX
  5
284
  8
0
 10
97.35620891
 20
325.42268782
 30
0.0
  0
VERTEX
  5
285
  8
0
 10
106.71641223
 20
324.69805959
 30
0.0
  0
SEQEND
  5
286
  8
0
  0
POLYLINE
  5
287
  8
0
 66
     1
 10
0.0
 20
0.0
 30
0.0
  0
VERTEX
  5
692
  8
0
 10
109.4115135
 20
323.39060215
 30
0.0
  0
VERTEX
  5
693
  8
0
 10
109.3489507195026
 20
323.6499621546065
 30
0.0
  0
VERTEX
  5
694
  8
0
 10
109.158753522904
 20
323.9001971733555
 30
0.0
  0
VERTEX
  5
695
  8
0
 10
108.8485383332103
 20
324.1312865761439
 30
0.0
  0
VERTEX
  5
696
  8
0
 10
108.4307276789863
 20
324.3339764166706
 30
0.0
  0
VERTEX
  5
697
  8
0
 10
107.9220527357488
 20
324.5001500055624
 30
0.0
  0
VERTEX
  5
698
  8
0
 10
107.3428833281307
 20
324.6231529421858
 30
0.0
  0
VERTEX
  5
699
  8
0
 10
106.7164122227951
 20
324.6980595892913
 30
0.0
  0
SEQEND
  5
983
  8
0
  0
POLYLINE
  5
288
  8
0
 66
     1
 10
0.0
 20
0.0
 30
0.0
  0
VERTEX
  5
69A
  8
0
 10
105.6069199057098
 20
322.1461267115986
 30
0.0
  0
VERTEX
  5
69B
  8
0
 10
106.231936827462
 20
322.1222694653648
 30
0.0
  0
VERTEX
  5
69C
  8
0
 10
106.8543399748047
 20
322.1467601522777
 30
0.0
  0
VERTEX
  5
69D
  8
0
 10
107.4509785880509
 20
322.218687822562
 30
0.0
  0
VERTEX
  5
69E
  8
0
 10
107.9996602390069
 20
322.3353770716723
 30
0.0
  0
VERTEX
  5
69F
  8
0
 10
108.4799762952612
 20
322.4924875540048
 30
0.0
  0
VERTEX
  5
6A0
  8
0
 10
108.8740610348304
 20
322.6841754253628
 30
0.0
  0
VERTEX
  5
6A1
  8
0
 10
109.167256175312
 20
322.9033107091971
 30
0.0
  0
VERTEX
  5
6A2
  8
0
 10
109.3486560998762
 20
323.141742501521
 30
0.0
  0
VERTEX
  5
6A3
  8
0
 10
109.4115135
 20
323.39060215
 30
0.0
  0
SEQEND
  5
984
  8
0
  0
LINE
  5
289
  8
0
 10
105.60691992
 20
322.14612671
 30
0.0
 11
97.96393076
 21
322.73781532
 31
0.0
  0
POLYLINE
  5
28A
  8
0
 66
     1
 10
0.0
 20
0.0
 30
0.0
  0
VERTEX
  5
6A4
  8
0
 10
108.9128988642474
 20
322.7079651686049
 30
0.0
  0
VERTEX
  5
6A5
  8
0
 10
108.4928027777811
 20
322.9281656362223
 30
0.0
  0
VERTEX
  5
6A6
  8
0
 10
107.9682948669606
 20
323.1091355793509
 30
0.0
  0
VERTEX
  5
6A7
  8
0
 10
107.3627343962131
 20
323.2428153964715
 30
0.0
  0
VERTEX
  5
6A8
  8
0
 10
106.7030903527951
 20
323.3232515792913
 30
0.0
  0
SEQEND
  5
985
  8
0
  0
POLYLINE
  5
28B
  8
0
 66
     1
 10
0.0
 20
0.0
 30
0.0
  0
VERTEX
  5
28C
  8
0
 10
106.70309035
 20
323.32325158
 30
0.0
  0
VERTEX
  5
28D
  8
0
 10
97.34288703
 20
324.04787981
 30
0.0
  0
SEQEND
  5
28E
  8
0
  0
POLYLINE
  5
28F
  8
0
 66
     1
 10
0.0
 20
0.0
 30
0.0
  0
VERTEX
  5
6A9
  8
0
 10
97.34288703279509
 20
324.0478798092913
 30
0.0
  0
VERTEX
  5
6AA
  8
0
 10
96.74661897119428
 20
324.0717007784477
 30
0.0
  0
VERTEX
  5
6AB
  8
0
 10
96.15175749926814
 20
324.0514903530807
 30
0.0
  0
SEQEND
  5
986
  8
0
  0
POLYLINE
  5
290
  8
0
 66
     1
 10
0.0
 20
0.0
 30
0.0
  0
VERTEX
  5
6AC
  8
0
 10
88.7161407827951
 20
330.3959294092913
 30
0.0
  0
VERTEX
  5
6AD
  8
0
 10
88.0722216336738
 20
330.4197550561102
 30
0.0
  0
VERTEX
  5
6AE
  8
0
 10
87.43182148967317
 20
330.3922874281119
 30
0.0
  0
VERTEX
  5
6AF
  8
0
 10
86.82021225460785
 20
330.3146104714187
 30
0.0
  0
VERTEX
  5
6B0
  8
0
 10
86.26152966596248
 20
330.1897895266563
 30
0.0
  0
VERTEX
  5
6B1
  8
0
 10
85.77782083408736
 20
330.0227503624081
 30
0.0
  0
SEQEND
  5
987
  8
0
  0
POLYLINE
  5
291
  8
0
 66
     1
 10
0.0
 20
0.0
 30
0.0
  0
VERTEX
  5
292
  8
0
 10
88.71614078
 20
330.39592941
 30
0.0
  0
VERTEX
  5
293
  8
0
 10
98.0763441
 20
329.67130118
 30
0.0
  0
SEQEND
  5
294
  8
0
  0
POLYLINE
  5
295
  8
0
 66
     1
 10
0.0
 20
0.0
 30
0.0
  0
VERTEX
  5
6B2
  8
0
 10
100.77144537
 20
328.36384374
 30
0.0
  0
VERTEX
  5
6B3
  8
0
 10
100.7088825895026
 20
328.6232037446065
 30
0.0
  0
VERTEX
  5
6B4
  8
0
 10
100.518685392904
 20
328.8734387633555
 30
0.0
  0
VERTEX
  5
6B5
  8
0
 10
100.2084702032103
 20
329.1045281661438
 30
0.0
  0
VERTEX
  5
6B6
  8
0
 10
99.79065954898633
 20
329.3072180066706
 30
0.0
  0
VERTEX
  5
6B7
  8
0
 10
99.28198460574882
 20
329.4733915955624
 30
0.0
  0
VERTEX
  5
6B8
  8
0
 10
98.70281519813068
 20
329.5963945321857
 30
0.0
  0
VERTEX
  5
6B9
  8
0
 10
98.0763440927951
 20
329.6713011792913
 30
0.0
  0
SEQEND
  5
988
  8
0
  0
POLYLINE
  5
296
  8
0
 66
     1
 10
0.0
 20
0.0
 30
0.0
  0
VERTEX
  5
6BA
  8
0
 10
96.96685177570977
 20
327.1193683015986
 30
0.0
  0
VERTEX
  5
6BB
  8
0
 10
97.59186869746205
 20
327.0955110553647
 30
0.0
  0
VERTEX
  5
6BC
  8
0
 10
98.21427184480468
 20
327.1200017422777
 30
0.0
  0
VERTEX
  5
6BD
  8
0
 10
98.81091045805094
 20
327.191929412562
 30
0.0
  0
VERTEX
  5
6BE
  8
0
 10
99.3595921090069
 20
327.3086186616723
 30
0.0
  0
VERTEX
  5
6BF
  8
0
 10
99.83990816526118
 20
327.4657291440047
 30
0.0
  0
VERTEX
  5
6C0
  8
0
 10
100.2339929048304
 20
327.6574170153627
 30
0.0
  0
VERTEX
  5
6C1
  8
0
 10
100.527188045312
 20
327.876552299197
 30
0.0
  0
VERTEX
  5
6C2
  8
0
 10
100.7085879698762
 20
328.114984091521
 30
0.0
  0
VERTEX
  5
6C3
  8
0
 10
100.77144537
 20
328.36384374
 30
0.0
  0
SEQEND
  5
989
  8
0
  0
LINE
  5
297
  8
0
 10
96.96685179
 20
327.1193683
 30
0.0
 11
89.86700133
 21
327.66900936
 31
0.0
  0
POLYLINE
  5
298
  8
0
 66
     1
 10
0.0
 20
0.0
 30
0.0
  0
VERTEX
  5
6C4
  8
0
 10
100.2728307242474
 20
327.6812067586048
 30
0.0
  0
VERTEX
  5
6C5
  8
0
 10
99.8527346377811
 20
327.9014072262223
 30
0.0
  0
VERTEX
  5
6C6
  8
0
 10
99.3282267269606
 20
328.0823771693509
 30
0.0
  0
VERTEX
  5
6C7
  8
0
 10
98.7226662562131
 20
328.2160569864715
 30
0.0
  0
VERTEX
  5
6C8
  8
0
 10
98.06302221279509
 20
328.2964931692912
 30
0.0
  0
SEQEND
  5
98A
  8
0
  0
POLYLINE
  5
299
  8
0
 66
     1
 10
0.0
 20
0.0
 30
0.0
  0
VERTEX
  5
29A
  8
0
 10
98.06302222
 20
328.29649317
 30
0.0
  0
VERTEX
  5
29B
  8
0
 10
88.7028189
 20
329.0211214
 30
0.0
  0
SEQEND
  5
29C
  8
0
  0
POLYLINE
  5
29D
  8
0
 66
     1
 10
0.0
 20
0.0
 30
0.0
  0
VERTEX
  5
6C9
  8
0
 10
88.70281890279509
 20
329.0211213992912
 30
0.0
  0
VERTEX
  5
6CA
  8
0
 10
88.10655084119428
 20
329.0449423684477
 30
0.0
  0
VERTEX
  5
6CB
  8
0
 10
87.51168936926814
 20
329.0247319430807
 30
0.0
  0
SEQEND
  5
98B
  8
0
  0
POLYLINE
  5
29E
  8
0
 66
     1
 10
0.0
 20
0.0
 30
0.0
  0
VERTEX
  5
6CC
  8
0
 10
25.29111440003825
 20
366.0836070339471
 30
0.0
  0
VERTEX
  5
6CD
  8
0
 10
25.34187382097597
 20
365.868587592851
 30
0.0
  0
VERTEX
  5
6CE
  8
0
 10
25.49635858279536
 20
365.6608072284943
 30
0.0
  0
VERTEX
  5
6CF
  8
0
 10
25.7486319227116
 20
365.468250823787
 30
0.0
  0
VERTEX
  5
6D0
  8
0
 10
26.08899911770879
 20
365.2983182134052
 30
0.0
  0
VERTEX
  5
6D1
  8
0
 10
26.50438004731011
 20
365.1575398122931
 30
0.0
  0
VERTEX
  5
6D2
  8
0
 10
26.97881185527435
 20
365.0513256554782
 30
0.0
  0
VERTEX
  5
6D3
  8
0
 10
27.49406239321171
 20
364.9837574934577
 30
0.0
  0
VERTEX
  5
6D4
  8
0
 10
28.03033087182454
 20
364.9574319328161
 30
0.0
  0
VERTEX
  5
6D5
  8
0
 10
28.56700879413874
 20
364.9733606500893
 30
0.0
  0
VERTEX
  5
6D6
  8
0
 10
29.08347192848834
 20
365.030931513603
 30
0.0
  0
VERTEX
  5
6D7
  8
0
 10
29.5598728861754
 20
365.1279321073495
 30
0.0
  0
VERTEX
  5
6D8
  8
0
 10
29.97790384549028
 20
365.2606347528945
 30
0.0
  0
VERTEX
  5
6D9
  8
0
 10
30.32150011103562
 20
365.4239397619694
 30
0.0
  0
VERTEX
  5
6DA
  8
0
 10
30.57745747096381
 20
365.6115714146326
 30
0.0
  0
VERTEX
  5
6DB
  8
0
 10
30.73593962743534
 20
365.8163191316677
 30
0.0
  0
VERTEX
  5
6DC
  8
0
 10
30.79085620003005
 20
366.0303145731012
 30
0.0
  0
SEQEND
  5
98C
  8
0
  0
POLYLINE
  5
29F
  8
0
 66
     1
 10
0.0
 20
0.0
 30
0.0
  0
VERTEX
  5
6DD
  8
0
 10
30.7908562
 20
366.03031457
 30
0.0
  0
VERTEX
  5
6DE
  8
0
 10
30.74009677746448
 20
366.2453340103616
 30
0.0
  0
VERTEX
  5
6DF
  8
0
 10
30.58561201476543
 20
366.4531143739064
 30
0.0
  0
VERTEX
  5
6E0
  8
0
 10
30.33333867468382
 20
366.6456707778062
 30
0.0
  0
VERTEX
  5
6E1
  8
0
 10
29.99297148018036
 20
366.8156033874627
 30
0.0
  0
VERTEX
  5
6E2
  8
0
 10
29.57759055162992
 20
366.9563817880011
 30
0.0
  0
VERTEX
  5
6E3
  8
0
 10
29.103158745132
 20
367.0625959444505
 30
0.0
  0
VERTEX
  5
6E4
  8
0
 10
28.58790820890438
 20
367.1301641063534
 30
0.0
  0
VERTEX
  5
6E5
  8
0
 10
28.05163973205335
 20
367.1564896671464
 30
0.0
  0
VERTEX
  5
6E6
  8
0
 10
27.51496181135451
 20
367.1405609502941
 30
0.0
  0
VERTEX
  5
6E7
  8
0
 10
26.9984986782809
 20
367.0829900874509
 30
0.0
  0
VERTEX
  5
6E8
  8
0
 10
26.52209772135545
 20
366.9859894945845
 30
0.0
  0
VERTEX
  5
6E9
  8
0
 10
26.10406676214239
 20
366.853286850072
 30
0.0
  0
VERTEX
  5
6EA
  8
0
 10
25.7604704959332
 20
366.6899818421097
 30
0.0
  0
VERTEX
  5
6EB
  8
0
 10
25.50451313451722
 20
366.5023501905567
 30
0.0
  0
VERTEX
  5
6EC
  8
0
 10
25.34603097572872
 20
366.297602474541
 30
0.0
  0
VERTEX
  5
6ED
  8
0
 10
25.29111440003825
 20
366.0836070339471
 30
0.0
  0
SEQEND
  5
98D
  8
0
  0
POLYLINE
  5
2A0
  8
0
 66
     1
 10
0.0
 20
0.0
 30
0.0
  0
VERTEX
  5
6EE
  8
0
 10
30.18054415874926
 20
365.3487599425648
 30
0.0
  0
VERTEX
  5
6EF
  8
0
 10
29.79987105712017
 20
365.5085358509428
 30
0.0
  0
VERTEX
  5
6F0
  8
0
 10
29.34925840604398
 20
365.6356988430525
 30
0.0
  0
VERTEX
  5
6F1
  8
0
 10
28.84648947499154
 20
365.725230476225
 30
0.0
  0
VERTEX
  5
6F2
  8
0
 10
28.31140586264224
 20
365.7735974161096
 30
0.0
  0
VERTEX
  5
6F3
  8
0
 10
27.76512445518454
 20
365.778890878469
 30
0.0
  0
VERTEX
  5
6F4
  8
0
 10
27.22920405584457
 20
365.7409019586769
 30
0.0
  0
VERTEX
  5
6F5
  8
0
 10
26.7247945743145
 20
365.6611298760648
 30
0.0
  0
VERTEX
  5
6F6
  8
0
 10
26.27180235302014
 20
365.5427228077598
 30
0.0
  0
VERTEX
  5
6F7
  8
0
 10
25.88810457033241
 20
365.390353646984
 30
0.0
  0
SEQEND
  5
98E
  8
0
  0
POLYLINE
  5
2A1
  8
0
 66
     1
 10
0.0
 20
0.0
 30
0.0
  0
VERTEX
  5
6F8
  8
0
 10
80.01154590003824
 20
334.5864102839471
 30
0.0
  0
VERTEX
  5
6F9
  8
0
 10
80.06230532088325
 20
334.371390843042
 30
0.0
  0
VERTEX
  5
6FA
  8
0
 10
80.21679008242785
 20
334.1636104788561
 30
0.0
  0
VERTEX
  5
6FB
  8
0
 10
80.46906342190839
 20
333.9710540742783
 30
0.0
  0
VERTEX
  5
6FC
  8
0
 10
80.80943061634306
 20
333.8011214639666
 30
0.0
  0
VERTEX
  5
6FD
  8
0
 10
81.22481154530013
 20
333.6603430628511
 30
0.0
  0
VERTEX
  5
6FE
  8
0
 10
81.69924335259165
 20
333.5541289059493
 30
0.0
  0
VERTEX
  5
6FF
  8
0
 10
82.21449388988633
 20
333.4865607437546
 30
0.0
  0
VERTEX
  5
700
  8
0
 10
82.75076236794666
 20
333.4602351828536
 30
0.0
  0
VERTEX
  5
701
  8
0
 10
83.28744028985665
 20
333.4761638997904
 30
0.0
  0
VERTEX
  5
702
  8
0
 10
83.80390342400278
 20
333.5337347629047
 30
0.0
  0
VERTEX
  5
703
  8
0
 10
84.28030438173046
 20
333.6307353562079
 30
0.0
  0
VERTEX
  5
704
  8
0
 10
84.69833534136123
 20
333.7634380012897
 30
0.0
  0
VERTEX
  5
705
  8
0
 10
85.04193160751436
 20
333.9267430099083
 30
0.0
  0
VERTEX
  5
706
  8
0
 10
85.29788896834252
 20
334.1143746621508
 30
0.0
  0
VERTEX
  5
707
  8
0
 10
85.45637112598921
 20
334.3191223788301
 30
0.0
  0
VERTEX
  5
708
  8
0
 10
85.51128770000001
 20
334.53311782
 30
0.0
  0
SEQEND
  5
98F
  8
0
  0
POLYLINE
  5
2A2
  8
0
 66
     1
 10
0.0
 20
0.0
 30
0.0
  0
VERTEX
  5
709
  8
0
 10
85.51128770000001
 20
334.53311782
 30
0.0
  0
VERTEX
  5
70A
  8
0
 10
85.46052827746449
 20
334.7481372603616
 30
0.0
  0
VERTEX
  5
70B
  8
0
 10
85.30604351476543
 20
334.9559176239064
 30
0.0
  0
VERTEX
  5
70C
  8
0
 10
85.05377017468383
 20
335.1484740278062
 30
0.0
  0
VERTEX
  5
70D
  8
0
 10
84.71340298018036
 20
335.3184066374627
 30
0.0
  0
VERTEX
  5
70E
  8
0
 10
84.29802205162993
 20
335.4591850380011
 30
0.0
  0
VERTEX
  5
70F
  8
0
 10
83.82359024513201
 20
335.5653991944505
 30
0.0
  0
VERTEX
  5
710
  8
0
 10
83.30833970890438
 20
335.6329673563534
 30
0.0
  0
VERTEX
  5
711
  8
0
 10
82.77207123205335
 20
335.6592929171464
 30
0.0
  0
VERTEX
  5
712
  8
0
 10
82.23539331135451
 20
335.6433642002941
 30
0.0
  0
VERTEX
  5
713
  8
0
 10
81.7189301782809
 20
335.5857933374509
 30
0.0
  0
VERTEX
  5
714
  8
0
 10
81.24252922135545
 20
335.4887927445845
 30
0.0
  0
VERTEX
  5
715
  8
0
 10
80.82449826214238
 20
335.356090100072
 30
0.0
  0
VERTEX
  5
716
  8
0
 10
80.4809019959332
 20
335.1927850921097
 30
0.0
  0
VERTEX
  5
717
  8
0
 10
80.22494463451723
 20
335.0051534405567
 30
0.0
  0
VERTEX
  5
718
  8
0
 10
80.06646247572871
 20
334.800405724541
 30
0.0
  0
VERTEX
  5
719
  8
0
 10
80.01154590003824
 20
334.5864102839471
 30
0.0
  0
SEQEND
  5
990
  8
0
  0
POLYLINE
  5
2A3
  8
0
 66
     1
 10
0.0
 20
0.0
 30
0.0
  0
VERTEX
  5
71A
  8
0
 10
84.90097564874925
 20
333.8515631925648
 30
0.0
  0
VERTEX
  5
71B
  8
0
 10
84.52030254712018
 20
334.0113391009428
 30
0.0
  0
VERTEX
  5
71C
  8
0
 10
84.06968989604397
 20
334.1385020930525
 30
0.0
  0
VERTEX
  5
71D
  8
0
 10
83.56692096499155
 20
334.228033726225
 30
0.0
  0
VERTEX
  5
71E
  8
0
 10
83.03183735264224
 20
334.2764006661096
 30
0.0
  0
VERTEX
  5
71F
  8
0
 10
82.48555594518454
 20
334.281694128469
 30
0.0
  0
VERTEX
  5
720
  8
0
 10
81.94963554584457
 20
334.2437052086769
 30
0.0
  0
VERTEX
  5
721
  8
0
 10
81.44522606431451
 20
334.1639331260648
 30
0.0
  0
VERTEX
  5
722
  8
0
 10
80.99223384302014
 20
334.0455260577598
 30
0.0
  0
VERTEX
  5
723
  8
0
 10
80.60853606033241
 20
333.893156896984
 30
0.0
  0
SEQEND
  5
991
  8
0
  0
LINE
  5
2A4
  8
0
 10
18.98300583
 20
368.46998793
 30
0.0
 11
30.04622321
 21
371.49739581
 31
0.0
  0
LINE
  5
2A5
  8
0
 10
115.00689316
 20
322.59385348
 30
0.0
 11
99.47632651
 21
318.34397226
 31
0.0
  0
LINE
  5
2A6
  8
0
 10
114.99357128
 20
321.21904547
 30
0.0
 11
99.46300463
 21
316.96916425
 31
0.0
  0
LINE
  5
2A7
  8
0
  6
STRICHPUNKT2
 62
     1
 10
82.77362852
 20
335.82000472
 30
0.0
 11
82.75076237
 21
333.46023518
 31
0.0
  0
LINE
  5
2A8
  8
0
  6
STRICHPUNKT2
 62
     1
 10
82.7614168
 20
334.55976405
 30
0.0
 11
80.38539806
 21
335.92740549
 31
0.0
  0
LINE
  5
2A9
  8
0
  6
STRICHPUNKT2
 62
     1
 10
82.7614168
 20
334.55976405
 30
0.0
 11
85.13743554
 21
333.19212261
 31
0.0
  0
LINE
  5
2AA
  8
0
  6
STRICHPUNKT2
 62
     1
 10
82.7614168
 20
334.55976405
 30
0.0
 11
79.46348274
 21
333.65729678
 31
0.0
  0
LINE
  5
2AB
  8
0
  6
STRICHPUNKT2
 62
     1
 10
82.7614168
 20
334.55976405
 30
0.0
 11
86.13318456
 21
335.48243563
 31
0.0
  0
LINE
  5
2AC
  8
0
  6
STRICHPUNKT2
 62
     1
 10
82.22585954
 20
333.48555583
 30
0.0
 11
81.16408243
 21
334.096717
 31
0.0
  0
LINE
  5
2AD
  8
0
  6
STRICHPUNKT2
 62
     1
 10
28.05319703
 20
367.31720148
 30
0.0
 11
28.03033088
 21
364.95743193
 31
0.0
  0
LINE
  5
2AE
  8
0
  6
STRICHPUNKT2
 62
     1
 10
28.0409853
 20
366.0569608
 30
0.0
 11
25.66496657
 21
367.42460224
 31
0.0
  0
LINE
  5
2AF
  8
0
  6
STRICHPUNKT2
 62
     1
 10
28.0409853
 20
366.0569608
 30
0.0
 11
30.41700404
 21
364.68931936
 31
0.0
  0
LINE
  5
2B0
  8
0
  6
STRICHPUNKT2
 62
     1
 10
28.0409853
 20
366.0569608
 30
0.0
 11
24.74305125
 21
365.15449354
 31
0.0
  0
LINE
  5
2B1
  8
0
  6
STRICHPUNKT2
 62
     1
 10
28.0409853
 20
366.0569608
 30
0.0
 11
31.41275307
 21
366.97963238
 31
0.0
  0
LINE
  5
2B2
  8
0
  6
STRICHPUNKT2
 62
     1
 10
27.50542805
 20
364.98275258
 30
0.0
 11
26.44365093
 21
365.59391375
 31
0.0
  0
LINE
  5
2B3
  8
0
  6
STRICHPUNKT2
 62
     1
 10
88.17471651
 20
330.49477098
 30
0.0
 11
88.15687327
 21
328.6533627
 31
0.0
  0
LINE
  5
2B4
  8
0
  6
STRICHPUNKT2
 62
     1
 10
87.21957266
 20
329.19287493
 30
0.0
 11
102.2016996
 21
328.03302063
 31
0.0
  0
LINE
  5
2B5
  8
0
  6
STRICHPUNKT2
 62
     1
 10
88.46565652
 20
328.47562641
 30
0.0
 11
88.7028189
 21
329.0211214
 31
0.0
  0
LINE
  5
2B6
  8
0
  6
STRICHPUNKT2
 62
     1
 10
87.99823298
 20
328.74467639
 30
0.0
 11
88.97217747
 21
330.984837
 31
0.0
  0
LINE
  5
2B7
  8
0
  6
STRICHPUNKT2
 62
     1
 10
97.53491982
 20
329.77014275
 30
0.0
 11
97.50900635
 21
327.09589154
 31
0.0
  0
LINE
  5
2B8
  8
0
  6
STRICHPUNKT2
 62
     1
 10
96.7108151
 20
326.53046072
 30
0.0
 11
98.33238078
 21
330.26020877
 31
0.0
  0
LINE
  5
2B9
  8
0
  6
STRICHPUNKT2
 62
     1
 10
97.54093483
 20
327.09564487
 30
0.0
 11
98.06302222
 21
328.29649317
 31
0.0
  0
LINE
  5
2BA
  8
0
  6
STRICHPUNKT2
 62
     1
 10
96.81478464
 20
325.52152939
 30
0.0
 11
96.79694141
 21
323.68012111
 31
0.0
  0
LINE
  5
2BB
  8
0
  6
STRICHPUNKT2
 62
     1
 10
95.85964079
 20
324.21963334
 30
0.0
 11
110.84176773
 21
323.05977904
 31
0.0
  0
LINE
  5
2BC
  8
0
  6
STRICHPUNKT2
 62
     1
 10
97.10572465
 20
323.50238482
 30
0.0
 11
97.34288703
 21
324.04787981
 31
0.0
  0
LINE
  5
2BD
  8
0
  6
STRICHPUNKT2
 62
     1
 10
96.63830111
 20
323.7714348
 30
0.0
 11
97.6122456
 21
326.01159541
 31
0.0
  0
LINE
  5
2BE
  8
0
  6
STRICHPUNKT2
 62
     1
 10
106.17498795
 20
324.79690116
 30
0.0
 11
106.14907448
 21
322.12264994
 31
0.0
  0
LINE
  5
2BF
  8
0
  6
STRICHPUNKT2
 62
     1
 10
105.35088323
 20
321.55721912
 30
0.0
 11
106.97244892
 21
325.28696718
 31
0.0
  0
LINE
  5
2C0
  8
0
  6
STRICHPUNKT2
 62
     1
 10
106.18100297
 20
322.12240327
 30
0.0
 11
106.70309035
 21
323.32325158
 31
0.0
  0
POLYLINE
  5
2C1
  8
0
 66
     1
 10
0.0
 20
0.0
 30
0.0
  0
VERTEX
  5
724
  8
0
 10
115.0068931571189
 20
322.5938534816947
 30
0.0
  0
VERTEX
  5
725
  8
0
 10
115.2463488636264
 20
322.6857261399891
 30
0.0
  0
VERTEX
  5
726
  8
0
 10
115.4771143740739
 20
322.8269012845065
 30
0.0
  0
VERTEX
  5
727
  8
0
 10
115.6903214992736
 20
323.011953633593
 30
0.0
  0
VERTEX
  5
728
  8
0
 10
115.8777768089387
 20
323.2337717292228
 30
0.0
  0
VERTEX
  5
729
  8
0
 10
116.0322765006156
 20
323.4838312263432
 30
0.0
  0
VERTEX
  5
72A
  8
0
 10
116.1478832377734
 20
323.7525224786759
 30
0.0
  0
VERTEX
  5
72B
  8
0
 10
116.2201543183182
 20
324.0295198320353
 30
0.0
  0
VERTEX
  5
72C
  8
0
 10
116.2463124051433
 20
324.3041784334306
 30
0.0
  0
SEQEND
  5
992
  8
0
  0
POLYLINE
  5
2C2
  8
0
 66
     1
 10
0.0
 20
0.0
 30
0.0
  0
VERTEX
  5
72D
  8
0
 10
30.0462232071189
 20
371.4973958116947
 30
0.0
  0
VERTEX
  5
72E
  8
0
 10
30.28567891362639
 20
371.5892684699891
 30
0.0
  0
VERTEX
  5
72F
  8
0
 10
30.51644442407388
 20
371.7304436145065
 30
0.0
  0
VERTEX
  5
730
  8
0
 10
30.72965154927358
 20
371.915495963593
 30
0.0
  0
VERTEX
  5
731
  8
0
 10
30.91710685893867
 20
372.1373140592228
 30
0.0
  0
VERTEX
  5
732
  8
0
 10
31.07160655061558
 20
372.3873735563432
 30
0.0
  0
VERTEX
  5
733
  8
0
 10
31.18721328777344
 20
372.6560648086759
 30
0.0
  0
VERTEX
  5
734
  8
0
 10
31.25948436831819
 20
372.9330621620353
 30
0.0
  0
VERTEX
  5
735
  8
0
 10
31.2856424551433
 20
373.2077207634306
 30
0.0
  0
SEQEND
  5
993
  8
0
  0
POLYLINE
  5
2C3
  8
0
 66
     1
 10
0.0
 20
0.0
 30
0.0
  0
VERTEX
  5
736
  8
0
 10
114.9935712742378
 20
321.2190454733895
 30
0.0
  0
VERTEX
  5
737
  8
0
 10
115.4724826872528
 20
321.4027907899782
 30
0.0
  0
VERTEX
  5
738
  8
0
 10
115.9340137081477
 20
321.685141079013
 30
0.0
  0
VERTEX
  5
739
  8
0
 10
116.3604279585472
 20
322.055245777186
 30
0.0
  0
VERTEX
  5
73A
  8
0
 10
116.7353385778773
 20
322.4988819684456
 30
0.0
  0
VERTEX
  5
73B
  8
0
 10
117.0443379612312
 20
322.9990009626865
 30
0.0
  0
VERTEX
  5
73C
  8
0
 10
117.2755514355469
 20
323.5363834673518
 30
0.0
  0
VERTEX
  5
73D
  8
0
 10
117.4200935966364
 20
324.0903781740706
 30
0.0
  0
VERTEX
  5
73E
  8
0
 10
117.4724097702866
 20
324.6396953768611
 30
0.0
  0
SEQEND
  5
994
  8
0
  0
POLYLINE
  5
2C4
  8
0
 66
     1
 10
0.0
 20
0.0
 30
0.0
  0
VERTEX
  5
73F
  8
0
 10
98.7413535
 20
318.41875921
 30
0.0
  0
VERTEX
  5
740
  8
0
 10
98.96601823301278
 20
318.3293557147968
 30
0.0
  0
VERTEX
  5
741
  8
0
 10
99.21483467165439
 20
318.3040374759582
 30
0.0
  0
VERTEX
  5
742
  8
0
 10
99.47632650711891
 20
318.3439722616948
 30
0.0
  0
SEQEND
  5
995
  8
0
  0
POLYLINE
  5
2C5
  8
0
 66
     1
 10
0.0
 20
0.0
 30
0.0
  0
VERTEX
  5
743
  8
0
 10
98.26355102490453
 20
319.3832633315047
 30
0.0
  0
VERTEX
  5
744
  8
0
 10
98.28203335644353
 20
319.1360304080951
 30
0.0
  0
VERTEX
  5
745
  8
0
 10
98.34175163013252
 20
318.9086964085361
 30
0.0
  0
VERTEX
  5
746
  8
0
 10
98.44066667023198
 20
318.7090240149687
 30
0.0
  0
VERTEX
  5
747
  8
0
 10
98.57540086487221
 20
318.5438313598619
 30
0.0
  0
VERTEX
  5
748
  8
0
 10
98.7413535
 20
318.41875921
 30
0.0
  0
SEQEND
  5
996
  8
0
  0
POLYLINE
  5
2C6
  8
0
 66
     1
 10
0.0
 20
0.0
 30
0.0
  0
VERTEX
  5
749
  8
0
 10
97.03745365980905
 20
319.0477463930094
 30
0.0
  0
VERTEX
  5
74A
  8
0
 10
97.07441832288706
 20
318.5532805461903
 30
0.0
  0
VERTEX
  5
74B
  8
0
 10
97.19385487026506
 20
318.098612547072
 30
0.0
  0
VERTEX
  5
74C
  8
0
 10
97.39168495046394
 20
317.6992677599373
 30
0.0
  0
VERTEX
  5
74D
  8
0
 10
97.66115333974443
 20
317.3688824497237
 30
0.0
  0
VERTEX
  5
74E
  8
0
 10
97.99305861
 20
317.11873815
 30
0.0
  0
SEQEND
  5
997
  8
0
  0
POLYLINE
  5
2C7
  8
0
 66
     1
 10
0.0
 20
0.0
 30
0.0
  0
VERTEX
  5
74F
  8
0
 10
97.99305861
 20
317.11873815
 30
0.0
  0
VERTEX
  5
750
  8
0
 10
98.44238807602555
 20
316.9399311595936
 30
0.0
  0
VERTEX
  5
751
  8
0
 10
98.94002095330877
 20
316.8892946819163
 30
0.0
  0
VERTEX
  5
752
  8
0
 10
99.4630046242378
 20
316.9691642533895
 30
0.0
  0
SEQEND
  5
998
  8
0
  0
LINE
  5
2C8
  8
0
 10
97.99305861
 20
317.11873814
 30
0.0
 11
91.37731171
 21
320.92677613
 31
0.0
  0
LINE
  5
2C9
  8
0
 10
63.06068289
 20
337.22588791
 30
0.0
 11
58.83305509
 21
339.65931946
 31
0.0
  0
LINE
  5
2CA
  8
0
 10
97.03745365
 20
319.04774639
 30
0.0
 11
97.05743647
 21
321.10995841
 31
0.0
  0
LINE
  5
2CB
  8
0
 10
98.26355102
 20
319.38326333
 30
0.0
 11
98.28353384
 21
321.44547534
 31
0.0
  0
POLYLINE
  5
2CC
  8
0
 66
     1
 10
0.0
 20
0.0
 30
0.0
  0
VERTEX
  5
753
  8
0
 10
12.36725893697399
 20
372.2780259059858
 30
0.0
  0
VERTEX
  5
754
  8
0
 10
11.91792947193474
 20
372.4568328984777
 30
0.0
  0
VERTEX
  5
755
  8
0
 10
11.42029659527066
 20
372.5074693783295
 30
0.0
  0
VERTEX
  5
756
  8
0
 10
10.89731292456506
 20
372.4275998090194
 30
0.0
  0
SEQEND
  5
999
  8
0
  0
LINE
  5
2CD
  8
0
 10
63.11727555
 20
343.06620841
 30
0.0
 11
12.36725893
 21
372.27802592
 31
0.0
  0
LINE
  5
2CE
  8
0
 10
97.32792888
 20
323.37448359
 30
0.0
 11
72.493727
 21
337.66910302
 31
0.0
  0
POLYLINE
  5
2CF
  8
0
 66
     1
 10
0.0
 20
0.0
 30
0.0
  0
VERTEX
  5
757
  8
0
 10
97.32792889697399
 20
323.3744835859858
 30
0.0
  0
VERTEX
  5
758
  8
0
 10
96.87859943193475
 20
323.5532905784777
 30
0.0
  0
VERTEX
  5
759
  8
0
 10
96.38096655527066
 20
323.6039270583295
 30
0.0
  0
VERTEX
  5
75A
  8
0
 10
95.85798288456506
 20
323.5240574890194
 30
0.0
  0
SEQEND
  5
99A
  8
0
  0
POLYLINE
  5
2D0
  8
0
 66
     1
 10
0.0
 20
0.0
 30
0.0
  0
VERTEX
  5
75B
  8
0
 10
96.57963400348699
 20
322.0744625279929
 30
0.0
  0
VERTEX
  5
75C
  8
0
 10
96.35496927096737
 20
322.1638660242389
 30
0.0
  0
VERTEX
  5
75D
  8
0
 10
96.10615283263533
 20
322.1891842641647
 30
0.0
  0
VERTEX
  5
75E
  8
0
 10
95.84466099728253
 20
322.1492494795097
 30
0.0
  0
SEQEND
  5
99B
  8
0
  0
POLYLINE
  5
2D1
  8
0
 66
     1
 10
0.0
 20
0.0
 30
0.0
  0
VERTEX
  5
75F
  8
0
 10
97.0574364751433
 20
321.1099584134306
 30
0.0
  0
VERTEX
  5
760
  8
0
 10
97.03895414309876
 20
321.3571913346826
 30
0.0
  0
VERTEX
  5
761
  8
0
 10
96.97923586955798
 20
321.5845253322971
 30
0.0
  0
VERTEX
  5
762
  8
0
 10
96.88032083022388
 20
321.7841977243195
 30
0.0
  0
VERTEX
  5
763
  8
0
 10
96.74558663688771
 20
321.9493903784392
 30
0.0
  0
VERTEX
  5
764
  8
0
 10
96.57963400348699
 20
322.0744625279929
 30
0.0
  0
SEQEND
  5
99C
  8
0
  0
POLYLINE
  5
2D2
  8
0
 66
     1
 10
0.0
 20
0.0
 30
0.0
  0
VERTEX
  5
765
  8
0
 10
98.2835338402866
 20
321.4454753568612
 30
0.0
  0
VERTEX
  5
766
  8
0
 10
98.24656917619753
 20
321.939941199365
 30
0.0
  0
VERTEX
  5
767
  8
0
 10
98.12713262911596
 20
322.3946091945942
 30
0.0
  0
VERTEX
  5
768
  8
0
 10
97.92930255044776
 20
322.793953978639
 30
0.0
  0
VERTEX
  5
769
  8
0
 10
97.65983416377541
 20
323.1243392868784
 30
0.0
  0
VERTEX
  5
76A
  8
0
 10
97.32792889697399
 20
323.3744835859858
 30
0.0
  0
SEQEND
  5
99D
  8
0
  0
LINE
  5
2D3
  8
0
 10
116.24631241
 20
324.30417843
 30
0.0
 11
116.26629523
 21
326.36639044
 31
0.0
  0
LINE
  5
2D4
  8
0
 10
31.30562528
 20
375.26993277
 30
0.0
 11
31.28564246
 21
373.20772076
 31
0.0
  0
LINE
  5
2D5
  8
0
 10
117.47240978
 20
324.63969537
 30
0.0
 11
117.4923926
 21
326.70190738
 31
0.0
  0
POLYLINE
  5
2D6
  8
0
 66
     1
 10
0.0
 20
0.0
 30
0.0
  0
VERTEX
  5
76B
  8
0
 10
8.4562045200226
 20
366.8391193423323
 30
0.0
  0
VERTEX
  5
76C
  8
0
 10
8.486198723143863
 20
366.7120624002544
 30
0.0
  0
VERTEX
  5
76D
  8
0
 10
8.577485172906457
 20
366.5892830943913
 30
0.0
  0
VERTEX
  5
76E
  8
0
 10
8.726555782232046
 20
366.4754997646228
 30
0.0
  0
VERTEX
  5
76F
  8
0
 10
8.927681851190957
 20
366.3750850405117
 30
0.0
  0
VERTEX
  5
770
  8
0
 10
9.173134217728295
 20
366.2918978036008
 30
0.0
  0
VERTEX
  5
771
  8
0
 10
9.453480285027814
 20
366.2291348927599
 30
0.0
  0
VERTEX
  5
772
  8
0
 10
9.757946510918535
 20
366.1892082514606
 30
0.0
  0
VERTEX
  5
773
  8
0
 10
10.07483242905945
 20
366.1736522381402
 30
0.0
  0
VERTEX
  5
774
  8
0
 10
10.39196029130034
 20
366.183064661668
 30
0.0
  0
VERTEX
  5
775
  8
0
 10
10.69714305171488
 20
366.2170838078857
 30
0.0
  0
VERTEX
  5
776
  8
0
 10
10.97865270794207
 20
366.2744023400793
 30
0.0
  0
VERTEX
  5
777
  8
0
 10
11.22567100174091
 20
366.3528175391961
 30
0.0
  0
VERTEX
  5
778
  8
0
 10
11.42870515858853
 20
366.4493159531029
 30
0.0
  0
VERTEX
  5
779
  8
0
 10
11.57995268968237
 20
366.5601892018619
 30
0.0
  0
VERTEX
  5
77A
  8
0
 10
11.67360123720985
 20
366.681176488692
 30
0.0
  0
VERTEX
  5
77B
  8
0
 10
11.70605194
 20
366.80762834
 30
0.0
  0
SEQEND
  5
99E
  8
0
  0
POLYLINE
  5
2D7
  8
0
 66
     1
 10
0.0
 20
0.0
 30
0.0
  0
VERTEX
  5
77C
  8
0
 10
11.70605194
 20
366.80762834
 30
0.0
  0
VERTEX
  5
77D
  8
0
 10
11.67605773587979
 20
366.9346852817569
 30
0.0
  0
VERTEX
  5
77E
  8
0
 10
11.58477128543502
 20
367.057464587241
 30
0.0
  0
VERTEX
  5
77F
  8
0
 10
11.43570067575425
 20
367.1712479166088
 30
0.0
  0
VERTEX
  5
780
  8
0
 10
11.2345746067547
 20
367.2716626403329
 30
0.0
  0
VERTEX
  5
781
  8
0
 10
10.98912224045763
 20
367.3548498769028
 30
0.0
  0
VERTEX
  5
782
  8
0
 10
10.70877617362707
 20
367.4176127874762
 30
0.0
  0
VERTEX
  5
783
  8
0
 10
10.40430994836688
 20
367.4575394286031
 30
0.0
  0
VERTEX
  5
784
  8
0
 10
10.08742403094054
 20
367.4730954418598
 30
0.0
  0
VERTEX
  5
785
  8
0
 10
9.770296169415339
 20
367.4636830183819
 30
0.0
  0
VERTEX
  5
786
  8
0
 10
9.465113409634563
 20
367.4296638723243
 30
0.0
  0
VERTEX
  5
787
  8
0
 10
9.183603753881414
 20
367.372345340389
 30
0.0
  0
VERTEX
  5
788
  8
0
 10
8.936585460329406
 20
367.2939301416085
 30
0.0
  0
VERTEX
  5
789
  8
0
 10
8.733551303448662
 20
367.1974317280895
 30
0.0
  0
VERTEX
  5
78A
  8
0
 10
8.58230377200747
 20
367.086558479738
 30
0.0
  0
VERTEX
  5
78B
  8
0
 10
8.488655223805283
 20
366.9655711933
 30
0.0
  0
VERTEX
  5
78C
  8
0
 10
8.4562045200226
 20
366.8391193423323
 30
0.0
  0
SEQEND
  5
99F
  8
0
  0
POLYLINE
  5
2D8
  8
0
 66
     1
 10
0.0
 20
0.0
 30
0.0
  0
VERTEX
  5
78D
  8
0
 10
67.40314460163133
 20
332.6138945788098
 30
0.0
  0
VERTEX
  5
78E
  8
0
 10
67.9961009188213
 20
332.5150130454363
 30
0.0
  0
VERTEX
  5
78F
  8
0
 10
68.58143878324198
 20
332.4690041286726
 30
0.0
  0
VERTEX
  5
790
  8
0
 10
69.13439080166359
 20
332.4778146031982
 30
0.0
  0
VERTEX
  5
791
  8
0
 10
69.63155992272495
 20
332.5410716715225
 30
0.0
  0
VERTEX
  5
792
  8
0
 10
70.051909436055
 20
332.6560987381593
 30
0.0
  0
VERTEX
  5
793
  8
0
 10
70.3776530983173
 20
332.8180286643763
 30
0.0
  0
VERTEX
  5
794
  8
0
 10
70.59500772228657
 20
333.0200097113707
 30
0.0
  0
VERTEX
  5
795
  8
0
 10
70.69477638466535
 20
333.2534954578022
 30
0.0
  0
VERTEX
  5
796
  8
0
 10
70.67273757537654
 20
333.5086064244043
 30
0.0
  0
SEQEND
  5
9A0
  8
0
  0
POLYLINE
  5
2D9
  8
0
 66
     1
 10
0.0
 20
0.0
 30
0.0
  0
VERTEX
  5
2DA
  8
0
 10
73.32928187
 20
334.23555978
 30
0.0
  0
VERTEX
  5
2DB
  8
0
 10
73.90528641
 20
333.90401034
 30
0.0
  0
SEQEND
  5
2DC
  8
0
  0
POLYLINE
  5
2DD
  8
0
 66
     1
 10
0.0
 20
0.0
 30
0.0
  0
VERTEX
  5
797
  8
0
 10
73.90528641095246
 20
333.9040103417075
 30
0.0
  0
VERTEX
  5
798
  8
0
 10
74.0317685921463
 20
333.8442481117914
 30
0.0
  0
VERTEX
  5
799
  8
0
 10
74.18421072305495
 20
333.7951356458271
 30
0.0
  0
VERTEX
  5
79A
  8
0
 10
74.35688506012607
 20
333.7585182578925
 30
0.0
  0
VERTEX
  5
79B
  8
0
 10
74.54330367043131
 20
333.7357717816
 30
0.0
  0
VERTEX
  5
79C
  8
0
 10
74.73646220427524
 20
333.7277508755807
 30
0.0
  0
VERTEX
  5
79D
  8
0
 10
74.92910307125165
 20
333.7347569111973
 30
0.0
  0
VERTEX
  5
79E
  8
0
 10
75.11398813137157
 20
333.7565266490482
 30
0.0
  0
VERTEX
  5
79F
  8
0
 10
75.28417065537656
 20
333.7922421297224
 30
0.0
  0
VERTEX
  5
7A0
  8
0
 10
75.43325633580861
 20
333.8405614071783
 30
0.0
  0
VERTEX
  5
7A1
  8
0
 10
75.55564354180798
 20
333.8996689699936
 30
0.0
  0
VERTEX
  5
7A2
  8
0
 10
75.64673379048895
 20
333.9673439559972
 30
0.0
  0
VERTEX
  5
7A3
  8
0
 10
75.7031045268043
 20
334.0410435972391
 30
0.0
  0
VERTEX
  5
7A4
  8
0
 10
75.72263772
 20
334.11799876
 30
0.0
  0
SEQEND
  5
9A1
  8
0
  0
POLYLINE
  5
2DE
  8
0
 66
     1
 10
0.0
 20
0.0
 30
0.0
  0
VERTEX
  5
7A5
  8
0
 10
75.72263772
 20
334.11799876
 30
0.0
  0
VERTEX
  5
7A6
  8
0
 10
75.70230586371102
 20
334.1999522572612
 30
0.0
  0
VERTEX
  5
7A7
  8
0
 10
75.64058502449002
 20
334.2788526032816
 30
0.0
  0
VERTEX
  5
7A8
  8
0
 10
75.5400829069798
 20
334.3513662594827
 30
0.0
  0
SEQEND
  5
9A2
  8
0
  0
LINE
  5
2DF
  8
0
 10
63.10220208
 20
341.51063692
 30
0.0
 11
62.86798298
 21
341.64545393
 31
0.0
  0
LINE
  5
2E0
  8
0
 10
75.5400829
 20
334.35136626
 30
0.0
 11
72.47865352
 21
336.11353152
 31
0.0
  0
POLYLINE
  5
2E1
  8
0
 66
     1
 10
0.0
 20
0.0
 30
0.0
  0
VERTEX
  5
7A9
  8
0
 10
62.8679829769798
 20
341.6454539294827
 30
0.0
  0
VERTEX
  5
7AA
  8
0
 10
62.73990398686136
 20
341.7058381072041
 30
0.0
  0
VERTEX
  5
7AB
  8
0
 10
62.58533484450487
 20
341.7553059363908
 30
0.0
  0
VERTEX
  5
7AC
  8
0
 10
62.4102155553165
 20
341.7919563961254
 30
0.0
  0
VERTEX
  5
7AD
  8
0
 10
62.22127585531369
 20
341.8143810298063
 30
0.0
  0
VERTEX
  5
7AE
  8
0
 10
62.02577659114633
 20
341.8217180713444
 30
0.0
  0
VERTEX
  5
7AF
  8
0
 10
61.83123068983431
 20
341.8136855623504
 30
0.0
  0
VERTEX
  5
7B0
  8
0
 10
61.64511444119802
 20
341.7905921876378
 30
0.0
  0
VERTEX
  5
7B1
  8
0
 10
61.47458018823566
 20
341.753325412638
 30
0.0
  0
SEQEND
  5
9A3
  8
0
  0
LINE
  5
2E2
  8
0
 10
61.47458019
 20
341.75332541
 30
0.0
 11
52.89189862
 21
339.40470684
 31
0.0
  0
POLYLINE
  5
2E3
  8
0
 66
     1
 10
0.0
 20
0.0
 30
0.0
  0
VERTEX
  5
7B2
  8
0
 10
51.49849582095246
 20
339.5125783217075
 30
0.0
  0
VERTEX
  5
7B3
  8
0
 10
51.62657481144369
 20
339.4521941434547
 30
0.0
  0
VERTEX
  5
7B4
  8
0
 10
51.78114395457429
 20
339.4027263138497
 30
0.0
  0
VERTEX
  5
7B5
  8
0
 10
51.95626324483298
 20
339.3660758538503
 30
0.0
  0
VERTEX
  5
7B6
  8
0
 10
52.14520294607577
 20
339.3436512200861
 30
0.0
  0
VERTEX
  5
7B7
  8
0
 10
52.34070221151296
 20
339.3363141786604
 30
0.0
  0
VERTEX
  5
7B8
  8
0
 10
52.5352481139805
 20
339.3443466879615
 30
0.0
  0
VERTEX
  5
7B9
  8
0
 10
52.72136436351874
 20
339.3674400631605
 30
0.0
  0
VERTEX
  5
7BA
  8
0
 10
52.89189861700403
 20
339.4047068387958
 30
0.0
  0
SEQEND
  5
9A4
  8
0
  0
POLYLINE
  5
2E4
  8
0
 66
     1
 10
0.0
 20
0.0
 30
0.0
  0
VERTEX
  5
2E5
  8
0
 10
51.49849583
 20
339.51257832
 30
0.0
  0
VERTEX
  5
2E6
  8
0
 10
-0.34191296
 20
369.35202788
 30
0.0
  0
VERTEX
  5
2E7
  8
0
 10
10.89731291
 20
372.42759981
 30
0.0
  0
SEQEND
  5
2E8
  8
0
  0
POLYLINE
  5
2E9
  8
0
 66
     1
 10
0.0
 20
0.0
 30
0.0
  0
VERTEX
  5
2EA
  8
0
 10
95.85798287
 20
323.52405749
 30
0.0
  0
VERTEX
  5
2EB
  8
0
 10
84.618757
 20
320.44848555
 30
0.0
  0
VERTEX
  5
2EC
  8
0
 10
64.7466003
 20
331.88694121
 30
0.0
  0
SEQEND
  5
2ED
  8
0
  0
LINE
  5
2EE
  8
0
 10
84.60543512
 20
319.07367754
 30
0.0
 11
64.73327842
 21
330.5121332
 31
0.0
  0
LINE
  5
2EF
  8
0
 10
84.618757
 20
320.44848555
 30
0.0
 11
84.60543512
 21
319.07367754
 31
0.0
  0
LINE
  5
2F0
  8
0
 10
95.84466099
 20
322.14924948
 30
0.0
 11
84.60543512
 21
319.07367754
 31
0.0
  0
LINE
  5
2F1
  8
0
 10
-0.34191296
 20
369.35202788
 30
0.0
 11
-0.35523484
 21
367.97721987
 31
0.0
  0
LINE
  5
2F2
  8
0
 10
51.48517395
 20
338.13777031
 30
0.0
 11
-0.35523484
 21
367.97721987
 31
0.0
  0
POLYLINE
  5
2F3
  8
0
 66
     1
 10
0.0
 20
0.0
 30
0.0
  0
VERTEX
  5
7BB
  8
0
 10
51.48517394095246
 20
338.1377703117075
 30
0.0
  0
VERTEX
  5
7BC
  8
0
 10
51.61325293144369
 20
338.0773861334546
 30
0.0
  0
VERTEX
  5
7BD
  8
0
 10
51.76782207457429
 20
338.0279183038497
 30
0.0
  0
VERTEX
  5
7BE
  8
0
 10
51.94294136483298
 20
337.9912678438503
 30
0.0
  0
VERTEX
  5
7BF
  8
0
 10
52.13188106607577
 20
337.9688432100861
 30
0.0
  0
VERTEX
  5
7C0
  8
0
 10
52.32738033151296
 20
337.9615061686604
 30
0.0
  0
VERTEX
  5
7C1
  8
0
 10
52.5219262339805
 20
337.9695386779615
 30
0.0
  0
VERTEX
  5
7C2
  8
0
 10
52.70804248351874
 20
337.9926320531604
 30
0.0
  0
VERTEX
  5
7C3
  8
0
 10
52.87857673700403
 20
338.0298988287958
 30
0.0
  0
SEQEND
  5
9A5
  8
0
  0
LINE
  5
2F4
  8
0
 10
52.87857674
 20
338.02989883
 30
0.0
 11
61.46125831
 21
340.3785174
 31
0.0
  0
POLYLINE
  5
2F5
  8
0
 66
     1
 10
0.0
 20
0.0
 30
0.0
  0
VERTEX
  5
7C4
  8
0
 10
62.8546610969798
 20
340.2706459194827
 30
0.0
  0
VERTEX
  5
7C5
  8
0
 10
62.72658210686136
 20
340.3310300972041
 30
0.0
  0
VERTEX
  5
7C6
  8
0
 10
62.57201296450487
 20
340.3804979263908
 30
0.0
  0
VERTEX
  5
7C7
  8
0
 10
62.3968936753165
 20
340.4171483861255
 30
0.0
  0
VERTEX
  5
7C8
  8
0
 10
62.20795397531369
 20
340.4395730198063
 30
0.0
  0
VERTEX
  5
7C9
  8
0
 10
62.01245471114633
 20
340.4469100613444
 30
0.0
  0
VERTEX
  5
7CA
  8
0
 10
61.81790880983431
 20
340.4388775523504
 30
0.0
  0
VERTEX
  5
7CB
  8
0
 10
61.63179256119802
 20
340.4157841776378
 30
0.0
  0
VERTEX
  5
7CC
  8
0
 10
61.46125830823566
 20
340.3785174026381
 30
0.0
  0
SEQEND
  5
9A6
  8
0
  0
LINE
  5
2F6
  8
0
 10
62.8546611
 20
340.27064592
 30
0.0
 11
63.0888802
 21
340.13582891
 31
0.0
  0
LINE
  5
2F7
  8
0
 10
73.24978849
 20
334.28718848
 30
0.0
 11
73.98696356
 21
333.86286894
 31
0.0
  0
LINE
  5
2F8
  8
0
  6
STRICHPUNKT2
 62
     1
 10
10.08834425
 20
367.56806151
 30
0.0
 11
10.07483243
 21
366.17365223
 31
0.0
  0
LINE
  5
2F9
  8
0
  6
STRICHPUNKT2
 62
     1
 10
10.08112823
 20
366.82337384
 30
0.0
 11
8.67711716
 21
367.6315256
 31
0.0
  0
LINE
  5
2FA
  8
0
  6
STRICHPUNKT2
 62
     1
 10
10.08112823
 20
366.82337384
 30
0.0
 11
11.4851393
 21
366.01522208
 31
0.0
  0
LINE
  5
2FB
  8
0
  6
STRICHPUNKT2
 62
     1
 10
10.08112823
 20
366.82337384
 30
0.0
 11
8.08872001
 21
366.27815881
 31
0.0
  0
LINE
  5
2FC
  8
0
  6
STRICHPUNKT2
 62
     1
 10
10.08112823
 20
366.82337384
 30
0.0
 11
12.07353645
 21
367.36858886
 31
0.0
  0
POLYLINE
  5
2FD
  8
0
 66
     1
 10
0.0
 20
0.0
 30
0.0
  0
VERTEX
  5
7CD
  8
0
 10
45.64782467002261
 20
377.0164664823323
 30
0.0
  0
VERTEX
  5
7CE
  8
0
 10
45.67781887314387
 20
376.8894095402543
 30
0.0
  0
VERTEX
  5
7CF
  8
0
 10
45.76910532290646
 20
376.7666302343913
 30
0.0
  0
VERTEX
  5
7D0
  8
0
 10
45.91817593223205
 20
376.6528469046228
 30
0.0
  0
VERTEX
  5
7D1
  8
0
 10
46.11930200119097
 20
376.5524321805117
 30
0.0
  0
VERTEX
  5
7D2
  8
0
 10
46.3647543677283
 20
376.4692449436008
 30
0.0
  0
VERTEX
  5
7D3
  8
0
 10
46.64510043502781
 20
376.4064820327599
 30
0.0
  0
VERTEX
  5
7D4
  8
0
 10
46.94956666091854
 20
376.3665553914606
 30
0.0
  0
VERTEX
  5
7D5
  8
0
 10
47.26645257905945
 20
376.3509993781402
 30
0.0
  0
VERTEX
  5
7D6
  8
0
 10
47.58358044130035
 20
376.360411801668
 30
0.0
  0
VERTEX
  5
7D7
  8
0
 10
47.88876320171488
 20
376.3944309478857
 30
0.0
  0
VERTEX
  5
7D8
  8
0
 10
48.17027285794207
 20
376.4517494800793
 30
0.0
  0
VERTEX
  5
7D9
  8
0
 10
48.41729115174091
 20
376.5301646791961
 30
0.0
  0
VERTEX
  5
7DA
  8
0
 10
48.62032530858853
 20
376.6266630931029
 30
0.0
  0
VERTEX
  5
7DB
  8
0
 10
48.77157283968237
 20
376.7375363418619
 30
0.0
  0
VERTEX
  5
7DC
  8
0
 10
48.86522138720986
 20
376.858523628692
 30
0.0
  0
VERTEX
  5
7DD
  8
0
 10
48.89767209
 20
376.98497548
 30
0.0
  0
SEQEND
  5
9A7
  8
0
  0
POLYLINE
  5
2FE
  8
0
 66
     1
 10
0.0
 20
0.0
 30
0.0
  0
VERTEX
  5
7DE
  8
0
 10
48.89767209
 20
376.98497548
 30
0.0
  0
VERTEX
  5
7DF
  8
0
 10
48.86767788587979
 20
377.1120324217569
 30
0.0
  0
VERTEX
  5
7E0
  8
0
 10
48.77639143543502
 20
377.234811727241
 30
0.0
  0
VERTEX
  5
7E1
  8
0
 10
48.62732082575425
 20
377.3485950566088
 30
0.0
  0
VERTEX
  5
7E2
  8
0
 10
48.4261947567547
 20
377.4490097803329
 30
0.0
  0
VERTEX
  5
7E3
  8
0
 10
48.18074239045763
 20
377.5321970169028
 30
0.0
  0
VERTEX
  5
7E4
  8
0
 10
47.90039632362707
 20
377.5949599274762
 30
0.0
  0
VERTEX
  5
7E5
  8
0
 10
47.59593009836689
 20
377.6348865686031
 30
0.0
  0
VERTEX
  5
7E6
  8
0
 10
47.27904418094055
 20
377.6504425818597
 30
0.0
  0
VERTEX
  5
7E7
  8
0
 10
46.96191631941534
 20
377.6410301583819
 30
0.0
  0
VERTEX
  5
7E8
  8
0
 10
46.65673355963457
 20
377.6070110123243
 30
0.0
  0
VERTEX
  5
7E9
  8
0
 10
46.37522390388141
 20
377.549692480389
 30
0.0
  0
VERTEX
  5
7EA
  8
0
 10
46.12820561032941
 20
377.4712772816085
 30
0.0
  0
VERTEX
  5
7EB
  8
0
 10
45.92517145344867
 20
377.3747788680895
 30
0.0
  0
VERTEX
  5
7EC
  8
0
 10
45.77392392200748
 20
377.263905619738
 30
0.0
  0
VERTEX
  5
7ED
  8
0
 10
45.68027537380529
 20
377.1429183333
 30
0.0
  0
VERTEX
  5
7EE
  8
0
 10
45.64782467002261
 20
377.0164664823323
 30
0.0
  0
SEQEND
  5
9A8
  8
0
  0
POLYLINE
  5
2FF
  8
0
 66
     1
 10
0.0
 20
0.0
 30
0.0
  0
VERTEX
  5
7EF
  8
0
 10
104.1860656216313
 20
342.6794027388098
 30
0.0
  0
VERTEX
  5
7F0
  8
0
 10
104.7790219388213
 20
342.5805212054364
 30
0.0
  0
VERTEX
  5
7F1
  8
0
 10
105.364359803242
 20
342.5345122886726
 30
0.0
  0
VERTEX
  5
7F2
  8
0
 10
105.9173118216636
 20
342.5433227631983
 30
0.0
  0
VERTEX
  5
7F3
  8
0
 10
106.4144809427249
 20
342.6065798315225
 30
0.0
  0
VERTEX
  5
7F4
  8
0
 10
106.834830456055
 20
342.7216068981593
 30
0.0
  0
VERTEX
  5
7F5
  8
0
 10
107.1605741183173
 20
342.8835368243763
 30
0.0
  0
VERTEX
  5
7F6
  8
0
 10
107.3779287422866
 20
343.0855178713708
 30
0.0
  0
VERTEX
  5
7F7
  8
0
 10
107.4776974046653
 20
343.3190036178023
 30
0.0
  0
VERTEX
  5
7F8
  8
0
 10
107.4556585953765
 20
343.5741145844043
 30
0.0
  0
SEQEND
  5
9A9
  8
0
  0
LINE
  5
300
  8
0
 10
129.98435959
 20
332.86261228
 30
0.0
 11
110.11220289
 21
344.30106794
 31
0.0
  0
LINE
  5
301
  8
0
 10
129.98435959
 20
332.86261228
 30
0.0
 11
118.74513372
 21
329.78704034
 31
0.0
  0
LINE
  5
302
  8
0
 10
33.78446377
 20
378.69058267
 30
0.0
 11
45.02368964
 21
381.76615461
 31
0.0
  0
LINE
  5
303
  8
0
 10
96.86409842
 20
351.92670505
 30
0.0
 11
45.02368964
 21
381.76615461
 31
0.0
  0
POLYLINE
  5
304
  8
0
 66
     1
 10
0.0
 20
0.0
 30
0.0
  0
VERTEX
  5
7F9
  8
0
 10
97.04665324
 20
351.69333755
 30
0.0
  0
VERTEX
  5
7FA
  8
0
 10
97.02632138371102
 20
351.7752910472612
 30
0.0
  0
VERTEX
  5
7FB
  8
0
 10
96.96460054449003
 20
351.8541913932816
 30
0.0
  0
VERTEX
  5
7FC
  8
0
 10
96.86409842697981
 20
351.9267050494827
 30
0.0
  0
SEQEND
  5
9AA
  8
0
  0
POLYLINE
  5
305
  8
0
 66
     1
 10
0.0
 20
0.0
 30
0.0
  0
VERTEX
  5
7FD
  8
0
 10
96.62270472700403
 20
351.3714776487957
 30
0.0
  0
VERTEX
  5
7FE
  8
0
 10
96.76713676249263
 20
351.4198605951885
 30
0.0
  0
VERTEX
  5
7FF
  8
0
 10
96.88547229589432
 20
351.4785007317385
 30
0.0
  0
VERTEX
  5
800
  8
0
 10
96.97342483819759
 20
351.5452739263803
 30
0.0
  0
VERTEX
  5
801
  8
0
 10
97.02780846886543
 20
351.6177614418432
 30
0.0
  0
VERTEX
  5
802
  8
0
 10
97.04665324
 20
351.69333755
 30
0.0
  0
SEQEND
  5
9AB
  8
0
  0
LINE
  5
306
  8
0
 10
96.62270472
 20
351.37147765
 30
0.0
 11
88.04002315
 21
349.02285908
 31
0.0
  0
POLYLINE
  5
307
  8
0
 66
     1
 10
0.0
 20
0.0
 30
0.0
  0
VERTEX
  5
803
  8
0
 10
88.04002314823565
 20
349.022859082638
 30
0.0
  0
VERTEX
  5
804
  8
0
 10
87.89559111156146
 20
348.9744761364626
 30
0.0
  0
VERTEX
  5
805
  8
0
 10
87.77725557698128
 20
348.9158360000097
 30
0.0
  0
VERTEX
  5
806
  8
0
 10
87.68930303357465
 20
348.8490628053536
 30
0.0
  0
VERTEX
  5
807
  8
0
 10
87.63491940193732
 20
348.7765752897799
 30
0.0
  0
VERTEX
  5
808
  8
0
 10
87.61607463001391
 20
348.7009991814353
 30
0.0
  0
SEQEND
  5
9AC
  8
0
  0
POLYLINE
  5
308
  8
0
 66
     1
 10
0.0
 20
0.0
 30
0.0
  0
VERTEX
  5
809
  8
0
 10
87.61607463001391
 20
348.7009991814353
 30
0.0
  0
VERTEX
  5
80A
  8
0
 10
87.63640648556866
 20
348.6190456841509
 30
0.0
  0
VERTEX
  5
80B
  8
0
 10
87.69812732408586
 20
348.5401453380476
 30
0.0
  0
VERTEX
  5
80C
  8
0
 10
87.79862944095245
 20
348.4676316817075
 30
0.0
  0
SEQEND
  5
9AD
  8
0
  0
POLYLINE
  5
309
  8
0
 66
     1
 10
0.0
 20
0.0
 30
0.0
  0
VERTEX
  5
30A
  8
0
 10
87.79862945
 20
348.46763168
 30
0.0
  0
VERTEX
  5
30B
  8
0
 10
100.47072937
 20
341.17354401
 30
0.0
  0
SEQEND
  5
30C
  8
0
  0
POLYLINE
  5
30D
  8
0
 66
     1
 10
0.0
 20
0.0
 30
0.0
  0
VERTEX
  5
80D
  8
0
 10
100.4707293709525
 20
341.1735440117075
 30
0.0
  0
VERTEX
  5
80E
  8
0
 10
100.5988083614437
 20
341.1131598334546
 30
0.0
  0
VERTEX
  5
80F
  8
0
 10
100.7533775045743
 20
341.0636920038497
 30
0.0
  0
VERTEX
  5
810
  8
0
 10
100.928496794833
 20
341.0270415438503
 30
0.0
  0
VERTEX
  5
811
  8
0
 10
101.1174364960758
 20
341.0046169100861
 30
0.0
  0
VERTEX
  5
812
  8
0
 10
101.312935761513
 20
340.9972798686604
 30
0.0
  0
VERTEX
  5
813
  8
0
 10
101.5074816639805
 20
341.0053123779614
 30
0.0
  0
VERTEX
  5
814
  8
0
 10
101.6935979135187
 20
341.0284057531604
 30
0.0
  0
VERTEX
  5
815
  8
0
 10
101.864132167004
 20
341.0656725287957
 30
0.0
  0
SEQEND
  5
9AE
  8
0
  0
POLYLINE
  5
30E
  8
0
 66
     1
 10
0.0
 20
0.0
 30
0.0
  0
VERTEX
  5
816
  8
0
 10
101.864132167004
 20
341.0656725287957
 30
0.0
  0
VERTEX
  5
817
  8
0
 10
102.0085642024926
 20
341.1140554751885
 30
0.0
  0
VERTEX
  5
818
  8
0
 10
102.1268997358943
 20
341.1726956117385
 30
0.0
  0
VERTEX
  5
819
  8
0
 10
102.2148522781976
 20
341.2394688063803
 30
0.0
  0
VERTEX
  5
81A
  8
0
 10
102.2692359088654
 20
341.3119563218432
 30
0.0
  0
VERTEX
  5
81B
  8
0
 10
102.28808068
 20
341.38753243
 30
0.0
  0
SEQEND
  5
9AF
  8
0
  0
POLYLINE
  5
30F
  8
0
 66
     1
 10
0.0
 20
0.0
 30
0.0
  0
VERTEX
  5
81C
  8
0
 10
102.28808068
 20
341.38753243
 30
0.0
  0
VERTEX
  5
81D
  8
0
 10
102.267748823711
 20
341.4694859272612
 30
0.0
  0
VERTEX
  5
81E
  8
0
 10
102.20602798449
 20
341.5483862732816
 30
0.0
  0
VERTEX
  5
81F
  8
0
 10
102.1055258669798
 20
341.6208999294827
 30
0.0
  0
SEQEND
  5
9B0
  8
0
  0
LINE
  5
310
  8
0
 10
102.10552586
 20
341.62089993
 30
0.0
 11
101.52952132
 21
341.95244937
 31
0.0
  0
LINE
  5
311
  8
0
 10
88.837185
 20
347.8698369
 30
0.0
 11
96.60938284
 21
349.99666964
 31
0.0
  0
POLYLINE
  5
312
  8
0
 66
     1
 10
0.0
 20
0.0
 30
0.0
  0
VERTEX
  5
820
  8
0
 10
96.60938284700403
 20
349.9966696387958
 30
0.0
  0
VERTEX
  5
821
  8
0
 10
96.75381488249262
 20
350.0450525851886
 30
0.0
  0
VERTEX
  5
822
  8
0
 10
96.87215041589431
 20
350.1036927217385
 30
0.0
  0
VERTEX
  5
823
  8
0
 10
96.96010295819758
 20
350.1704659163804
 30
0.0
  0
VERTEX
  5
824
  8
0
 10
97.01448658886542
 20
350.2429534318432
 30
0.0
  0
VERTEX
  5
825
  8
0
 10
97.03333135999999
 20
350.31852954
 30
0.0
  0
SEQEND
  5
9B1
  8
0
  0
LINE
  5
313
  8
0
 10
97.04665324
 20
351.69333755
 30
0.0
 11
97.03333136
 21
350.31852954
 31
0.0
  0
LINE
  5
314
  8
0
 10
129.97103771
 20
331.48780427
 30
0.0
 11
118.73181185
 21
328.41223233
 31
0.0
  0
LINE
  5
315
  8
0
 10
129.98435959
 20
332.86261228
 30
0.0
 11
129.97103771
 21
331.48780427
 31
0.0
  0
LINE
  5
316
  8
0
  6
STRICHPUNKT2
 62
     1
 10
47.2799644
 20
377.74540865
 30
0.0
 11
47.26645258
 21
376.35099937
 31
0.0
  0
LINE
  5
317
  8
0
  6
STRICHPUNKT2
 62
     1
 10
47.27274838
 20
377.00072098
 30
0.0
 11
45.86873731
 21
377.80887273
 31
0.0
  0
LINE
  5
318
  8
0
  6
STRICHPUNKT2
 62
     1
 10
47.27274838
 20
377.00072098
 30
0.0
 11
48.67675945
 21
376.19256922
 31
0.0
  0
LINE
  5
319
  8
0
  6
STRICHPUNKT2
 62
     1
 10
47.27274838
 20
377.00072098
 30
0.0
 11
45.28034016
 21
376.45550595
 31
0.0
  0
LINE
  5
31A
  8
0
  6
STRICHPUNKT2
 62
     1
 10
47.27274838
 20
377.00072098
 30
0.0
 11
49.2651566
 21
377.545936
 31
0.0
  0
POLYLINE
  5
31B
  8
0
 66
     1
 10
0.0
 20
0.0
 30
0.0
  0
VERTEX
  5
31C
  8
0
 10
106.60497367
 20
345.44624674
 30
0.0
  0
VERTEX
  5
31D
  8
0
 10
106.66226801
 20
345.3317134
 30
0.0
  0
VERTEX
  5
31E
  8
0
 10
106.68581892
 20
345.28067991
 30
0.0
  0
SEQEND
  5
31F
  8
0
  0
POLYLINE
  5
320
  8
0
 66
     1
 10
0.0
 20
0.0
 30
0.0
  0
VERTEX
  5
321
  8
0
 10
107.41658293
 20
343.67246194
 30
0.0
  0
VERTEX
  5
322
  8
0
 10
107.43673726
 20
343.62598154
 30
0.0
  0
VERTEX
  5
323
  8
0
 10
107.4556586
 20
343.57411458
 30
0.0
  0
SEQEND
  5
324
  8
0
  0
POLYLINE
  5
325
  8
0
 66
     1
 10
0.0
 20
0.0
 30
0.0
  0
VERTEX
  5
826
  8
0
 10
109.2615179593714
 20
346.1732001104839
 30
0.0
  0
VERTEX
  5
827
  8
0
 10
109.2755206386379
 20
345.8954324274385
 30
0.0
  0
VERTEX
  5
828
  8
0
 10
109.3221885001177
 20
345.6092273120597
 30
0.0
  0
VERTEX
  5
829
  8
0
 10
109.3997281240585
 20
345.3255834664702
 30
0.0
  0
VERTEX
  5
82A
  8
0
 10
109.5051597061848
 20
345.0554011646313
 30
0.0
  0
VERTEX
  5
82B
  8
0
 10
109.6344315699057
 20
344.8090633609248
 30
0.0
  0
VERTEX
  5
82C
  8
0
 10
109.7825758699748
 20
344.5960366790379
 30
0.0
  0
VERTEX
  5
82D
  8
0
 10
109.9438995039976
 20
344.4245076149219
 30
0.0
  0
VERTEX
  5
82E
  8
0
 10
110.1122028951646
 20
344.3010679343433
 30
0.0
  0
SEQEND
  5
9B2
  8
0
  0
POLYLINE
  5
326
  8
0
 66
     1
 10
0.0
 20
0.0
 30
0.0
  0
VERTEX
  5
82F
  8
0
 10
100.6788363893714
 20
343.8245815404839
 30
0.0
  0
VERTEX
  5
830
  8
0
 10
100.6928390686379
 20
343.5468138574386
 30
0.0
  0
VERTEX
  5
831
  8
0
 10
100.7395069301177
 20
343.2606087420597
 30
0.0
  0
VERTEX
  5
832
  8
0
 10
100.8170465540585
 20
342.9769648964702
 30
0.0
  0
VERTEX
  5
833
  8
0
 10
100.9224781361848
 20
342.7067825946313
 30
0.0
  0
VERTEX
  5
834
  8
0
 10
101.0517499999057
 20
342.4604447909248
 30
0.0
  0
VERTEX
  5
835
  8
0
 10
101.1998942999748
 20
342.2474181090379
 30
0.0
  0
VERTEX
  5
836
  8
0
 10
101.3612179339976
 20
342.075889044922
 30
0.0
  0
VERTEX
  5
837
  8
0
 10
101.5295213251646
 20
341.9524493643433
 30
0.0
  0
SEQEND
  5
9B3
  8
0
  0
POLYLINE
  5
327
  8
0
 66
     1
 10
0.0
 20
0.0
 30
0.0
  0
VERTEX
  5
328
  8
0
 10
104.18606561
 20
342.67940274
 30
0.0
  0
VERTEX
  5
329
  8
0
 10
104.09844304
 20
342.70144835
 30
0.0
  0
VERTEX
  5
32A
  8
0
 10
104.01494053
 20
342.72961972
 30
0.0
  0
VERTEX
  5
32B
  8
0
 10
103.93526496
 20
342.76384202
 30
0.0
  0
VERTEX
  5
32C
  8
0
 10
103.85915456
 20
342.80411659
 30
0.0
  0
VERTEX
  5
32D
  8
0
 10
103.78638425
 20
342.8505199
 30
0.0
  0
VERTEX
  5
32E
  8
0
 10
103.7167704
 20
342.90320099
 30
0.0
  0
VERTEX
  5
32F
  8
0
 10
103.68803487
 20
342.92760387
 30
0.0
  0
VERTEX
  5
330
  8
0
 10
103.62266445
 20
342.98967629
 30
0.0
  0
VERTEX
  5
331
  8
0
 10
103.56077901
 20
343.05814085
 30
0.0
  0
VERTEX
  5
332
  8
0
 10
103.50274324
 20
343.13285234
 30
0.0
  0
VERTEX
  5
333
  8
0
 10
103.44892583
 20
343.21363241
 30
0.0
  0
VERTEX
  5
334
  8
0
 10
103.39969263
 20
343.30027042
 30
0.0
  0
VERTEX
  5
335
  8
0
 10
103.36335494
 20
343.37471937
 30
0.0
  0
VERTEX
  5
336
  8
0
 10
103.32389603
 20
343.46995532
 30
0.0
  0
VERTEX
  5
337
  8
0
 10
103.29075668
 20
343.56810642
 30
0.0
  0
VERTEX
  5
338
  8
0
 10
103.26420294
 20
343.66851269
 30
0.0
  0
VERTEX
  5
339
  8
0
 10
103.24445177
 20
343.77045119
 30
0.0
  0
VERTEX
  5
33A
  8
0
 10
103.23165796
 20
343.87315463
 30
0.0
  0
VERTEX
  5
33B
  8
0
 10
103.22701475
 20
343.94218702
 30
0.0
  0
VERTEX
  5
33C
  8
0
 10
103.22602252
 20
344.04445597
 30
0.0
  0
VERTEX
  5
33D
  8
0
 10
103.23208727
 20
344.14496244
 30
0.0
  0
VERTEX
  5
33E
  8
0
 10
103.24509346
 20
344.24351396
 30
0.0
  0
VERTEX
  5
33F
  8
0
 10
103.26493704
 20
344.33996213
 30
0.0
  0
VERTEX
  5
340
  8
0
 10
103.29153383
 20
344.43419484
 30
0.0
  0
VERTEX
  5
341
  8
0
 10
103.32482622
 20
344.52612796
 30
0.0
  0
VERTEX
  5
342
  8
0
 10
103.33538068
 20
344.5515349
 30
0.0
  0
SEQEND
  5
343
  8
0
  0
POLYLINE
  5
344
  8
0
 66
     1
 10
0.0
 20
0.0
 30
0.0
  0
VERTEX
  5
838
  8
0
 10
99.81482958342353
 20
344.3219056962496
 30
0.0
  0
VERTEX
  5
839
  8
0
 10
99.84707733268586
 20
343.728266512189
 30
0.0
  0
VERTEX
  5
83A
  8
0
 10
99.95349332057857
 20
343.1170882671163
 30
0.0
  0
VERTEX
  5
83B
  8
0
 10
100.1294231979747
 20
342.5151022538354
 30
0.0
  0
VERTEX
  5
83C
  8
0
 10
100.3671722651633
 20
341.9486377216525
 30
0.0
  0
VERTEX
  5
83D
  8
0
 10
100.6563420173218
 20
341.4424703058178
 30
0.0
  0
VERTEX
  5
83E
  8
0
 10
100.984284947152
 20
341.0187384078691
 30
0.0
  0
SEQEND
  5
9B4
  8
0
  0
POLYLINE
  5
345
  8
0
 66
     1
 10
0.0
 20
0.0
 30
0.0
  0
VERTEX
  5
83F
  8
0
 10
104.24611659
 20
352.52678674
 30
0.0
  0
VERTEX
  5
840
  8
0
 10
104.4669886347517
 20
352.435679336125
 30
0.0
  0
VERTEX
  5
841
  8
0
 10
104.710525623123
 20
352.4021954755851
 30
0.0
  0
VERTEX
  5
842
  8
0
 10
104.9673685652494
 20
352.4276219243603
 30
0.0
  0
VERTEX
  5
843
  8
0
 10
105.2276471309266
 20
352.5109815582856
 30
0.0
  0
VERTEX
  5
844
  8
0
 10
105.4813589608642
 20
352.6490709133851
 30
0.0
  0
VERTEX
  5
845
  8
0
 10
105.7187540517433
 20
352.8365832931958
 30
0.0
  0
VERTEX
  5
846
  8
0
 10
105.9307094433749
 20
353.0663127021362
 30
0.0
  0
VERTEX
  5
847
  8
0
 10
106.1090798089429
 20
353.3294307678746
 30
0.0
  0
VERTEX
  5
848
  8
0
 10
106.2470104753456
 20
353.6158260107259
 30
0.0
  0
VERTEX
  5
849
  8
0
 10
106.3392008444375
 20
353.9144924221449
 30
0.0
  0
VERTEX
  5
84A
  8
0
 10
106.3821080920436
 20
354.2139524194608
 30
0.0
  0
VERTEX
  5
84B
  8
0
 10
106.3740833167046
 20
354.5026979229422
 30
0.0
  0
VERTEX
  5
84C
  8
0
 10
106.3154349060358
 20
354.7696326048457
 30
0.0
  0
VERTEX
  5
84D
  8
0
 10
106.2084166855637
 20
355.004498315068
 30
0.0
  0
VERTEX
  5
84E
  8
0
 10
106.0571413054752
 20
355.1982692961
 30
0.0
  0
VERTEX
  5
84F
  8
0
 10
105.8674221937776
 20
355.3434990378256
 30
0.0
  0
SEQEND
  5
9B5
  8
0
  0
POLYLINE
  5
346
  8
0
 66
     1
 10
0.0
 20
0.0
 30
0.0
  0
VERTEX
  5
850
  8
0
 10
105.8674221937776
 20
355.3434990378256
 30
0.0
  0
VERTEX
  5
851
  8
0
 10
105.646550148987
 20
355.4346064428721
 30
0.0
  0
VERTEX
  5
852
  8
0
 10
105.4030131603297
 20
355.4680903043593
 30
0.0
  0
VERTEX
  5
853
  8
0
 10
105.1461702177241
 20
355.4426638562652
 30
0.0
  0
VERTEX
  5
854
  8
0
 10
104.8858916514379
 20
355.3593042227332
 30
0.0
  0
VERTEX
  5
855
  8
0
 10
104.6321798208302
 20
355.2212148677384
 30
0.0
  0
VERTEX
  5
856
  8
0
 10
104.3947847292902
 20
355.0337024877639
 30
0.0
  0
VERTEX
  5
857
  8
0
 10
104.1828293370741
 20
354.8039730784306
 30
0.0
  0
VERTEX
  5
858
  8
0
 10
104.0044589710571
 20
354.5408550121254
 30
0.0
  0
VERTEX
  5
859
  8
0
 10
103.8665283043898
 20
354.2544597686012
 30
0.0
  0
VERTEX
  5
85A
  8
0
 10
103.7743379352517
 20
353.9557933564794
 30
0.0
  0
VERTEX
  5
85B
  8
0
 10
103.7314306878361
 20
353.6563333585098
 30
0.0
  0
VERTEX
  5
85C
  8
0
 10
103.7394554636021
 20
353.3675878545017
 30
0.0
  0
VERTEX
  5
85D
  8
0
 10
103.7981038749168
 20
353.1006531722689
 30
0.0
  0
VERTEX
  5
85E
  8
0
 10
103.9051220962186
 20
352.8657874619743
 30
0.0
  0
VERTEX
  5
85F
  8
0
 10
104.0563974772699
 20
352.6720164811709
 30
0.0
  0
VERTEX
  5
860
  8
0
 10
104.24611659
 20
352.52678674
 30
0.0
  0
SEQEND
  5
9B6
  8
0
  0
POLYLINE
  5
347
  8
0
 66
     1
 10
0.0
 20
0.0
 30
0.0
  0
VERTEX
  5
861
  8
0
 10
103.8855740410988
 20
352.8995985509696
 30
0.0
  0
VERTEX
  5
862
  8
0
 10
104.1368896443231
 20
352.9324749262723
 30
0.0
  0
VERTEX
  5
863
  8
0
 10
104.3902435962855
 20
353.0200738074822
 30
0.0
  0
VERTEX
  5
864
  8
0
 10
104.6363930730314
 20
353.1591994242891
 30
0.0
  0
VERTEX
  5
865
  8
0
 10
104.8663580832782
 20
353.3447762151168
 30
0.0
  0
VERTEX
  5
866
  8
0
 10
105.0717490752191
 20
353.5700339930615
 30
0.0
  0
VERTEX
  5
867
  8
0
 10
105.2450730029962
 20
353.8267549349164
 30
0.0
  0
VERTEX
  5
868
  8
0
 10
105.3800066869661
 20
354.1055733826656
 30
0.0
  0
VERTEX
  5
869
  8
0
 10
105.471627495069
 20
354.3963175201294
 30
0.0
  0
VERTEX
  5
86A
  8
0
 10
105.5165929296121
 20
354.6883804597592
 30
0.0
  0
VERTEX
  5
86B
  8
0
 10
105.5132625678101
 20
354.971107201648
 30
0.0
  0
VERTEX
  5
86C
  8
0
 10
105.4617579074634
 20
355.2341833477674
 30
0.0
  0
VERTEX
  5
86D
  8
0
 10
105.3639579344915
 20
355.4680113904159
 30
0.0
  0
SEQEND
  5
9B7
  8
0
  0
LINE
  5
348
  8
0
 10
99.81482957
 20
344.3219057
 30
0.0
 11
99.92140461
 21
355.32036978
 31
0.0
  0
LINE
  5
349
  8
0
 10
100.78541142
 20
354.82304562
 30
0.0
 11
100.67883639
 21
343.82458154
 31
0.0
  0
POLYLINE
  5
34A
  8
0
 66
     1
 10
0.0
 20
0.0
 30
0.0
  0
VERTEX
  5
86E
  8
0
 10
106.6049736609354
 20
345.4462467310281
 30
0.0
  0
VERTEX
  5
86F
  8
0
 10
106.3242561285818
 20
345.8574222686371
 30
0.0
  0
VERTEX
  5
870
  8
0
 10
105.9854462953633
 20
346.1500028155443
 30
0.0
  0
VERTEX
  5
871
  8
0
 10
105.6028802172655
 20
346.3116084149433
 30
0.0
  0
VERTEX
  5
872
  8
0
 10
105.1927454076842
 20
346.3354010512471
 30
0.0
  0
VERTEX
  5
873
  8
0
 10
104.7723958953853
 20
346.220373986951
 30
0.0
  0
VERTEX
  5
874
  8
0
 10
104.3596179237155
 20
345.9713943607029
 30
0.0
  0
VERTEX
  5
875
  8
0
 10
103.9718773615231
 20
345.5989972441309
 30
0.0
  0
VERTEX
  5
876
  8
0
 10
103.6255806700809
 20
345.1189398714963
 30
0.0
  0
VERTEX
  5
877
  8
0
 10
103.3353806967073
 20
344.5515349040493
 30
0.0
  0
SEQEND
  5
9B8
  8
0
  0
POLYLINE
  5
34B
  8
0
 66
     1
 10
0.0
 20
0.0
 30
0.0
  0
VERTEX
  5
34C
  8
0
 10
109.26151796
 20
346.17320011
 30
0.0
  0
VERTEX
  5
34D
  8
0
 10
109.368093
 20
357.17166419
 30
0.0
  0
SEQEND
  5
34E
  8
0
  0
POLYLINE
  5
34F
  8
0
 66
     1
 10
0.0
 20
0.0
 30
0.0
  0
VERTEX
  5
878
  8
0
 10
109.3680929954183
 20
357.1716641942925
 30
0.0
  0
VERTEX
  5
879
  8
0
 10
109.3557714404123
 20
357.3364861422494
 30
0.0
  0
VERTEX
  5
87A
  8
0
 10
109.3159592576847
 20
357.4880421410308
 30
0.0
  0
VERTEX
  5
87B
  8
0
 10
109.2500158977168
 20
357.6211570693206
 30
0.0
  0
VERTEX
  5
87C
  8
0
 10
109.1601931017168
 20
357.7312855055692
 30
0.0
  0
VERTEX
  5
87D
  8
0
 10
109.0495580123247
 20
357.814666938662
 30
0.0
  0
SEQEND
  5
9B9
  8
0
  0
POLYLINE
  5
350
  8
0
 66
     1
 10
0.0
 20
0.0
 30
0.0
  0
VERTEX
  5
87E
  8
0
 10
109.0495580123247
 20
357.814666938662
 30
0.0
  0
VERTEX
  5
87F
  8
0
 10
108.8997815234464
 20
357.8742692694157
 30
0.0
  0
VERTEX
  5
880
  8
0
 10
108.7339038973845
 20
357.8911480958059
 30
0.0
  0
VERTEX
  5
881
  8
0
 10
108.5595760066899
 20
357.8645249056691
 30
0.0
  0
SEQEND
  5
9BA
  8
0
  0
POLYLINE
  5
351
  8
0
 66
     1
 10
0.0
 20
0.0
 30
0.0
  0
VERTEX
  5
352
  8
0
 10
108.559576
 20
357.86452491
 30
0.0
  0
VERTEX
  5
353
  8
0
 10
101.61169092
 20
355.96326225
 30
0.0
  0
SEQEND
  5
354
  8
0
  0
POLYLINE
  5
355
  8
0
 66
     1
 10
0.0
 20
0.0
 30
0.0
  0
VERTEX
  5
882
  8
0
 10
101.6116909266899
 20
355.9632622556691
 30
0.0
  0
VERTEX
  5
883
  8
0
 10
101.4520537886088
 20
355.9020138169902
 30
0.0
  0
VERTEX
  5
884
  8
0
 10
101.2982101145282
 20
355.8078970540224
 30
0.0
  0
VERTEX
  5
885
  8
0
 10
101.1560720305906
 20
355.6845288211999
 30
0.0
  0
VERTEX
  5
886
  8
0
 10
101.031101823672
 20
355.5366500905438
 30
0.0
  0
VERTEX
  5
887
  8
0
 10
100.9281020287597
 20
355.3699437587647
 30
0.0
  0
VERTEX
  5
888
  8
0
 10
100.8510308702253
 20
355.1908162567292
 30
0.0
  0
VERTEX
  5
889
  8
0
 10
100.8028501494814
 20
355.0061513539126
 30
0.0
  0
VERTEX
  5
88A
  8
0
 10
100.7854114246136
 20
354.8230456189977
 30
0.0
  0
SEQEND
  5
9BB
  8
0
  0
POLYLINE
  5
356
  8
0
 66
     1
 10
0.0
 20
0.0
 30
0.0
  0
VERTEX
  5
357
  8
0
 10
100.74768411
 20
356.46058641
 30
0.0
  0
VERTEX
  5
358
  8
0
 10
107.69556919
 20
358.36184907
 30
0.0
  0
SEQEND
  5
359
  8
0
  0
POLYLINE
  5
35A
  8
0
 66
     1
 10
0.0
 20
0.0
 30
0.0
  0
VERTEX
  5
88B
  8
0
 10
108.1855512023247
 20
358.3119910986619
 30
0.0
  0
VERTEX
  5
88C
  8
0
 10
108.0357747134464
 20
358.3715934294157
 30
0.0
  0
VERTEX
  5
88D
  8
0
 10
107.8698970873845
 20
358.3884722558058
 30
0.0
  0
VERTEX
  5
88E
  8
0
 10
107.6955691966899
 20
358.361849065669
 30
0.0
  0
SEQEND
  5
9BC
  8
0
  0
LINE
  5
35B
  8
0
 10
109.04955801
 20
357.81466694
 30
0.0
 11
108.1855512
 21
358.3119911
 31
0.0
  0
POLYLINE
  5
35C
  8
0
 66
     1
 10
0.0
 20
0.0
 30
0.0
  0
VERTEX
  5
88F
  8
0
 10
100.7476841066899
 20
356.4605864156691
 30
0.0
  0
VERTEX
  5
890
  8
0
 10
100.5880469686088
 20
356.3993379769902
 30
0.0
  0
VERTEX
  5
891
  8
0
 10
100.4342032945282
 20
356.3052212140224
 30
0.0
  0
VERTEX
  5
892
  8
0
 10
100.2920652105906
 20
356.1818529811999
 30
0.0
  0
VERTEX
  5
893
  8
0
 10
100.167095003672
 20
356.0339742505438
 30
0.0
  0
VERTEX
  5
894
  8
0
 10
100.0640952087597
 20
355.8672679187648
 30
0.0
  0
VERTEX
  5
895
  8
0
 10
99.98702405022529
 20
355.6881404167293
 30
0.0
  0
VERTEX
  5
896
  8
0
 10
99.93884332948136
 20
355.5034755139126
 30
0.0
  0
VERTEX
  5
897
  8
0
 10
99.92140460461356
 20
355.3203697789977
 30
0.0
  0
SEQEND
  5
9BD
  8
0
  0
LINE
  5
35D
  8
0
  6
STRICHPUNKT2
 62
     1
 10
104.00445897
 20
354.54085501
 30
0.0
 11
105.52477308
 21
353.66575897
 31
0.0
  0
LINE
  5
35E
  8
0
  6
STRICHPUNKT2
 62
     1
 10
104.19276258
 20
354.43246705
 30
0.0
 11
104.17833054
 21
352.94309171
 31
0.0
  0
LINE
  5
35F
  8
0
  6
STRICHPUNKT2
 62
     1
 10
104.19276258
 20
354.43246705
 30
0.0
 11
104.19652831
 21
354.82108742
 31
0.0
  0
LINE
  5
360
  8
0
  6
STRICHPUNKT2
 62
     1
 10
104.19276258
 20
354.43246705
 30
0.0
 11
103.90899395
 21
354.35481483
 31
0.0
  0
LINE
  5
361
  8
0
  6
STRICHPUNKT2
 62
     1
 10
104.19276258
 20
354.43246705
 30
0.0
 11
105.52103472
 21
354.79594373
 31
0.0
  0
LINE
  5
362
  8
0
  6
STRICHPUNKT2
 62
     1
 10
105.05676939
 20
353.93514289
 30
0.0
 11
105.03512134
 21
351.70107987
 31
0.0
  0
LINE
  5
363
  8
0
  6
STRICHPUNKT2
 62
     1
 10
105.05676939
 20
353.93514289
 30
0.0
 11
105.07841744
 21
356.16920591
 31
0.0
  0
LINE
  5
364
  8
0
  6
STRICHPUNKT2
 62
     1
 10
105.05676939
 20
353.93514289
 30
0.0
 11
103.06436117
 21
353.38992787
 31
0.0
  0
LINE
  5
365
  8
0
  6
STRICHPUNKT2
 62
     1
 10
105.05676939
 20
353.93514289
 30
0.0
 11
107.04917761
 21
354.48035792
 31
0.0
  0
POLYLINE
  5
366
  8
0
 66
     1
 10
0.0
 20
0.0
 30
0.0
  0
VERTEX
  5
367
  8
0
 10
69.82205265
 20
335.38073859
 30
0.0
  0
VERTEX
  5
368
  8
0
 10
69.87934698
 20
335.26620524
 30
0.0
  0
VERTEX
  5
369
  8
0
 10
69.9028979
 20
335.21517176
 30
0.0
  0
SEQEND
  5
36A
  8
0
  0
POLYLINE
  5
36B
  8
0
 66
     1
 10
0.0
 20
0.0
 30
0.0
  0
VERTEX
  5
36C
  8
0
 10
70.6336619
 20
333.60695378
 30
0.0
  0
VERTEX
  5
36D
  8
0
 10
70.65381624
 20
333.56047338
 30
0.0
  0
VERTEX
  5
36E
  8
0
 10
70.67273758
 20
333.50860642
 30
0.0
  0
SEQEND
  5
36F
  8
0
  0
POLYLINE
  5
370
  8
0
 66
     1
 10
0.0
 20
0.0
 30
0.0
  0
VERTEX
  5
898
  8
0
 10
72.47859693937141
 20
336.1076919504839
 30
0.0
  0
VERTEX
  5
899
  8
0
 10
72.4925996186379
 20
335.8299242674386
 30
0.0
  0
VERTEX
  5
89A
  8
0
 10
72.53926748011767
 20
335.5437191520597
 30
0.0
  0
VERTEX
  5
89B
  8
0
 10
72.61680710405845
 20
335.2600753064702
 30
0.0
  0
VERTEX
  5
89C
  8
0
 10
72.72223868618475
 20
334.9898930046313
 30
0.0
  0
VERTEX
  5
89D
  8
0
 10
72.85151054990574
 20
334.7435552009248
 30
0.0
  0
VERTEX
  5
89E
  8
0
 10
72.99965484997485
 20
334.5305285190379
 30
0.0
  0
VERTEX
  5
89F
  8
0
 10
73.1609784839976
 20
334.358999454922
 30
0.0
  0
VERTEX
  5
8A0
  8
0
 10
73.32928187516458
 20
334.2355597743433
 30
0.0
  0
SEQEND
  5
9BE
  8
0
  0
POLYLINE
  5
371
  8
0
 66
     1
 10
0.0
 20
0.0
 30
0.0
  0
VERTEX
  5
8A1
  8
0
 10
63.89591536937143
 20
333.7590733804839
 30
0.0
  0
VERTEX
  5
8A2
  8
0
 10
63.90991804863791
 20
333.4813056974386
 30
0.0
  0
VERTEX
  5
8A3
  8
0
 10
63.95658591011769
 20
333.1951005820597
 30
0.0
  0
VERTEX
  5
8A4
  8
0
 10
64.03412553405846
 20
332.9114567364702
 30
0.0
  0
VERTEX
  5
8A5
  8
0
 10
64.13955711618476
 20
332.6412744346313
 30
0.0
  0
VERTEX
  5
8A6
  8
0
 10
64.26882897990575
 20
332.3949366309248
 30
0.0
  0
VERTEX
  5
8A7
  8
0
 10
64.41697327997485
 20
332.1819099490379
 30
0.0
  0
VERTEX
  5
8A8
  8
0
 10
64.5782969139976
 20
332.010380884922
 30
0.0
  0
VERTEX
  5
8A9
  8
0
 10
64.74660030516459
 20
331.8869412043433
 30
0.0
  0
SEQEND
  5
9BF
  8
0
  0
POLYLINE
  5
372
  8
0
 66
     1
 10
0.0
 20
0.0
 30
0.0
  0
VERTEX
  5
373
  8
0
 10
67.40314459
 20
332.61389458
 30
0.0
  0
VERTEX
  5
374
  8
0
 10
67.31552202
 20
332.63594019
 30
0.0
  0
VERTEX
  5
375
  8
0
 10
67.23201951
 20
332.66411156
 30
0.0
  0
VERTEX
  5
376
  8
0
 10
67.15234394
 20
332.69833387
 30
0.0
  0
VERTEX
  5
377
  8
0
 10
67.07623354
 20
332.73860843
 30
0.0
  0
VERTEX
  5
378
  8
0
 10
67.00346322
 20
332.78501174
 30
0.0
  0
VERTEX
  5
379
  8
0
 10
66.93384938
 20
332.83769283
 30
0.0
  0
VERTEX
  5
37A
  8
0
 10
66.90511384
 20
332.86209571
 30
0.0
  0
VERTEX
  5
37B
  8
0
 10
66.83974343
 20
332.92416813
 30
0.0
  0
VERTEX
  5
37C
  8
0
 10
66.77785798
 20
332.99263269
 30
0.0
  0
VERTEX
  5
37D
  8
0
 10
66.71982222
 20
333.06734418
 30
0.0
  0
VERTEX
  5
37E
  8
0
 10
66.66600481
 20
333.14812425
 30
0.0
  0
VERTEX
  5
37F
  8
0
 10
66.61677161
 20
333.23476226
 30
0.0
  0
VERTEX
  5
380
  8
0
 10
66.58043391
 20
333.30921121
 30
0.0
  0
VERTEX
  5
381
  8
0
 10
66.54097501
 20
333.40444716
 30
0.0
  0
VERTEX
  5
382
  8
0
 10
66.50783565
 20
333.50259827
 30
0.0
  0
VERTEX
  5
383
  8
0
 10
66.48128191
 20
333.60300453
 30
0.0
  0
VERTEX
  5
384
  8
0
 10
66.46153075
 20
333.70494303
 30
0.0
  0
VERTEX
  5
385
  8
0
 10
66.44873694
 20
333.80764647
 30
0.0
  0
VERTEX
  5
386
  8
0
 10
66.44409372
 20
333.87667887
 30
0.0
  0
VERTEX
  5
387
  8
0
 10
66.4431015
 20
333.97894781
 30
0.0
  0
VERTEX
  5
388
  8
0
 10
66.44916624
 20
334.07945429
 30
0.0
  0
VERTEX
  5
389
  8
0
 10
66.46217244
 20
334.1780058
 30
0.0
  0
VERTEX
  5
38A
  8
0
 10
66.48201602
 20
334.27445397
 30
0.0
  0
VERTEX
  5
38B
  8
0
 10
66.50861281
 20
334.36868668
 30
0.0
  0
VERTEX
  5
38C
  8
0
 10
66.5419052
 20
334.4606198
 30
0.0
  0
VERTEX
  5
38D
  8
0
 10
66.55245966
 20
334.48602675
 30
0.0
  0
SEQEND
  5
38E
  8
0
  0
POLYLINE
  5
38F
  8
0
 66
     1
 10
0.0
 20
0.0
 30
0.0
  0
VERTEX
  5
8AA
  8
0
 10
63.03190856342354
 20
334.2563975362496
 30
0.0
  0
VERTEX
  5
8AB
  8
0
 10
63.05991392235521
 20
333.7008621719697
 30
0.0
  0
VERTEX
  5
8AC
  8
0
 10
63.1532496455183
 20
333.1284519431343
 30
0.0
  0
VERTEX
  5
8AD
  8
0
 10
63.30832889340034
 20
332.5611642539158
 30
0.0
  0
VERTEX
  5
8AE
  8
0
 10
63.51919205745044
 20
332.0207996521607
 30
0.0
  0
VERTEX
  5
8AF
  8
0
 10
63.7777357844946
 20
331.5281240465593
 30
0.0
  0
VERTEX
  5
8B0
  8
0
 10
64.07402438405508
 20
331.1020706844159
 30
0.0
  0
VERTEX
  5
8B1
  8
0
 10
64.39667165136504
 20
330.759012557571
 30
0.0
  0
VERTEX
  5
8B2
  8
0
 10
64.73327843283397
 20
330.5121331975035
 30
0.0
  0
SEQEND
  5
9C0
  8
0
  0
POLYLINE
  5
390
  8
0
 66
     1
 10
0.0
 20
0.0
 30
0.0
  0
VERTEX
  5
8B3
  8
0
 10
67.46319557
 20
342.46127858
 30
0.0
  0
VERTEX
  5
8B4
  8
0
 10
67.68406761475165
 20
342.3701711761249
 30
0.0
  0
VERTEX
  5
8B5
  8
0
 10
67.927604603123
 20
342.3366873155851
 30
0.0
  0
VERTEX
  5
8B6
  8
0
 10
68.1844475452494
 20
342.3621137643603
 30
0.0
  0
VERTEX
  5
8B7
  8
0
 10
68.44472611092657
 20
342.4454733982855
 30
0.0
  0
VERTEX
  5
8B8
  8
0
 10
68.69843794086424
 20
342.583562753385
 30
0.0
  0
VERTEX
  5
8B9
  8
0
 10
68.93583303174331
 20
342.7710751331957
 30
0.0
  0
VERTEX
  5
8BA
  8
0
 10
69.14778842337485
 20
343.0008045421362
 30
0.0
  0
VERTEX
  5
8BB
  8
0
 10
69.3261587889429
 20
343.2639226078746
 30
0.0
  0
VERTEX
  5
8BC
  8
0
 10
69.46408945534559
 20
343.5503178507259
 30
0.0
  0
VERTEX
  5
8BD
  8
0
 10
69.55627982443752
 20
343.8489842621449
 30
0.0
  0
VERTEX
  5
8BE
  8
0
 10
69.59918707204355
 20
344.1484442594608
 30
0.0
  0
VERTEX
  5
8BF
  8
0
 10
69.59116229670457
 20
344.4371897629421
 30
0.0
  0
VERTEX
  5
8C0
  8
0
 10
69.53251388603582
 20
344.7041244448457
 30
0.0
  0
VERTEX
  5
8C1
  8
0
 10
69.42549566556373
 20
344.938990155068
 30
0.0
  0
VERTEX
  5
8C2
  8
0
 10
69.27422028547521
 20
345.1327611361
 30
0.0
  0
VERTEX
  5
8C3
  8
0
 10
69.08450117377757
 20
345.2779908778256
 30
0.0
  0
SEQEND
  5
9C1
  8
0
  0
POLYLINE
  5
391
  8
0
 66
     1
 10
0.0
 20
0.0
 30
0.0
  0
VERTEX
  5
8C4
  8
0
 10
69.08450117377757
 20
345.2779908778256
 30
0.0
  0
VERTEX
  5
8C5
  8
0
 10
68.86362912877716
 20
345.3690982829283
 30
0.0
  0
VERTEX
  5
8C6
  8
0
 10
68.62009213987761
 20
345.4025821443665
 30
0.0
  0
VERTEX
  5
8C7
  8
0
 10
68.36324919702328
 20
345.3771556961178
 30
0.0
  0
VERTEX
  5
8C8
  8
0
 10
68.10297063050903
 20
345.2937960623329
 30
0.0
  0
VERTEX
  5
8C9
  8
0
 10
67.84925879972079
 20
345.1557067070028
 30
0.0
  0
VERTEX
  5
8CA
  8
0
 10
67.61186370807218
 20
344.9681943266329
 30
0.0
  0
VERTEX
  5
8CB
  8
0
 10
67.39990831583965
 20
344.738464916872
 30
0.0
  0
VERTEX
  5
8CC
  8
0
 10
67.2215379499139
 20
344.4753468501393
 30
0.0
  0
VERTEX
  5
8CD
  8
0
 10
67.08360728345407
 20
344.1889516062223
 30
0.0
  0
VERTEX
  5
8CE
  8
0
 10
66.99141691464138
 20
343.8902851937771
 30
0.0
  0
VERTEX
  5
8CF
  8
0
 10
66.94850966766273
 20
343.5908251955866
 30
0.0
  0
VERTEX
  5
8D0
  8
0
 10
66.95653444396359
 20
343.3020796914891
 30
0.0
  0
VERTEX
  5
8D1
  8
0
 10
67.01518285588978
 20
343.0351450093216
 30
0.0
  0
VERTEX
  5
8D2
  8
0
 10
67.12220107785224
 20
342.8002792992632
 30
0.0
  0
VERTEX
  5
8D3
  8
0
 10
67.27347645958072
 20
342.6065083188736
 30
0.0
  0
VERTEX
  5
8D4
  8
0
 10
67.46319557296795
 20
342.4612785782916
 30
0.0
  0
SEQEND
  5
9C2
  8
0
  0
POLYLINE
  5
392
  8
0
 66
     1
 10
0.0
 20
0.0
 30
0.0
  0
VERTEX
  5
8D5
  8
0
 10
67.10265301109885
 20
342.8340903909695
 30
0.0
  0
VERTEX
  5
8D6
  8
0
 10
67.3539686143231
 20
342.8669667662722
 30
0.0
  0
VERTEX
  5
8D7
  8
0
 10
67.60732256628548
 20
342.9545656474822
 30
0.0
  0
VERTEX
  5
8D8
  8
0
 10
67.85347204303145
 20
343.093691264289
 30
0.0
  0
VERTEX
  5
8D9
  8
0
 10
68.08343705327823
 20
343.2792680551168
 30
0.0
  0
VERTEX
  5
8DA
  8
0
 10
68.28882804521915
 20
343.5045258330615
 30
0.0
  0
VERTEX
  5
8DB
  8
0
 10
68.46215197299617
 20
343.7612467749163
 30
0.0
  0
VERTEX
  5
8DC
  8
0
 10
68.59708565696614
 20
344.0400652226656
 30
0.0
  0
VERTEX
  5
8DD
  8
0
 10
68.68870646506902
 20
344.3308093601294
 30
0.0
  0
VERTEX
  5
8DE
  8
0
 10
68.73367189961208
 20
344.6228722997592
 30
0.0
  0
VERTEX
  5
8DF
  8
0
 10
68.73034153781012
 20
344.9055990416479
 30
0.0
  0
VERTEX
  5
8E0
  8
0
 10
68.67883687746335
 20
345.1686751877674
 30
0.0
  0
VERTEX
  5
8E1
  8
0
 10
68.58103690449144
 20
345.4025032304159
 30
0.0
  0
SEQEND
  5
9C3
  8
0
  0
LINE
  5
393
  8
0
 10
63.03190855
 20
334.25639754
 30
0.0
 11
63.13848359
 21
345.25486162
 31
0.0
  0
LINE
  5
394
  8
0
 10
64.0024904
 20
344.75753746
 30
0.0
 11
63.89591536
 21
333.75907338
 31
0.0
  0
POLYLINE
  5
395
  8
0
 66
     1
 10
0.0
 20
0.0
 30
0.0
  0
VERTEX
  5
8E2
  8
0
 10
69.82205264093544
 20
335.3807385710281
 30
0.0
  0
VERTEX
  5
8E3
  8
0
 10
69.54133510858183
 20
335.7919141086371
 30
0.0
  0
VERTEX
  5
8E4
  8
0
 10
69.2025252753633
 20
336.0844946555443
 30
0.0
  0
VERTEX
  5
8E5
  8
0
 10
68.81995919726549
 20
336.2461002549433
 30
0.0
  0
VERTEX
  5
8E6
  8
0
 10
68.4098243876842
 20
336.2698928912471
 30
0.0
  0
VERTEX
  5
8E7
  8
0
 10
67.9894748753853
 20
336.154865826951
 30
0.0
  0
VERTEX
  5
8E8
  8
0
 10
67.57669690371549
 20
335.9058862007029
 30
0.0
  0
VERTEX
  5
8E9
  8
0
 10
67.18895634152311
 20
335.5334890841309
 30
0.0
  0
VERTEX
  5
8EA
  8
0
 10
66.84265965008088
 20
335.0534317114963
 30
0.0
  0
VERTEX
  5
8EB
  8
0
 10
66.55245967670734
 20
334.4860267440494
 30
0.0
  0
SEQEND
  5
9C4
  8
0
  0
POLYLINE
  5
396
  8
0
 66
     1
 10
0.0
 20
0.0
 30
0.0
  0
VERTEX
  5
397
  8
0
 10
72.47859694
 20
336.10769195
 30
0.0
  0
VERTEX
  5
398
  8
0
 10
72.58517197
 20
347.10615603
 30
0.0
  0
SEQEND
  5
399
  8
0
  0
POLYLINE
  5
39A
  8
0
 66
     1
 10
0.0
 20
0.0
 30
0.0
  0
VERTEX
  5
8EC
  8
0
 10
72.58517197541833
 20
347.1061560342925
 30
0.0
  0
VERTEX
  5
8ED
  8
0
 10
72.5728504204123
 20
347.2709779822494
 30
0.0
  0
VERTEX
  5
8EE
  8
0
 10
72.53303823768474
 20
347.4225339810308
 30
0.0
  0
VERTEX
  5
8EF
  8
0
 10
72.46709487771682
 20
347.5556489093206
 30
0.0
  0
VERTEX
  5
8F0
  8
0
 10
72.37727208171675
 20
347.6657773455692
 30
0.0
  0
VERTEX
  5
8F1
  8
0
 10
72.26663699232466
 20
347.7491587786619
 30
0.0
  0
SEQEND
  5
9C5
  8
0
  0
POLYLINE
  5
39B
  8
0
 66
     1
 10
0.0
 20
0.0
 30
0.0
  0
VERTEX
  5
8F2
  8
0
 10
72.26663699232466
 20
347.7491587786619
 30
0.0
  0
VERTEX
  5
8F3
  8
0
 10
72.11686050344645
 20
347.8087611094157
 30
0.0
  0
VERTEX
  5
8F4
  8
0
 10
71.95098287738446
 20
347.8256399358058
 30
0.0
  0
VERTEX
  5
8F5
  8
0
 10
71.77665498668992
 20
347.7990167456691
 30
0.0
  0
SEQEND
  5
9C6
  8
0
  0
POLYLINE
  5
39C
  8
0
 66
     1
 10
0.0
 20
0.0
 30
0.0
  0
VERTEX
  5
39D
  8
0
 10
71.77665498
 20
347.79901675
 30
0.0
  0
VERTEX
  5
39E
  8
0
 10
64.8287699
 20
345.8977541
 30
0.0
  0
SEQEND
  5
39F
  8
0
  0
POLYLINE
  5
3A0
  8
0
 66
     1
 10
0.0
 20
0.0
 30
0.0
  0
VERTEX
  5
8F6
  8
0
 10
64.82876989668992
 20
345.8977540956691
 30
0.0
  0
VERTEX
  5
8F7
  8
0
 10
64.66913275860877
 20
345.8365056569902
 30
0.0
  0
VERTEX
  5
8F8
  8
0
 10
64.51528908452818
 20
345.7423888940224
 30
0.0
  0
VERTEX
  5
8F9
  8
0
 10
64.37315100059058
 20
345.6190206612
 30
0.0
  0
VERTEX
  5
8FA
  8
0
 10
64.24818079367198
 20
345.4711419305438
 30
0.0
  0
VERTEX
  5
8FB
  8
0
 10
64.14518099875966
 20
345.3044355987648
 30
0.0
  0
VERTEX
  5
8FC
  8
0
 10
64.06810984022529
 20
345.1253080967293
 30
0.0
  0
VERTEX
  5
8FD
  8
0
 10
64.01992911948136
 20
344.9406431939126
 30
0.0
  0
VERTEX
  5
8FE
  8
0
 10
64.00249039461356
 20
344.7575374589977
 30
0.0
  0
SEQEND
  5
9C7
  8
0
  0
POLYLINE
  5
3A1
  8
0
 66
     1
 10
0.0
 20
0.0
 30
0.0
  0
VERTEX
  5
3A2
  8
0
 10
63.96476308
 20
346.39507825
 30
0.0
  0
VERTEX
  5
3A3
  8
0
 10
70.91264817
 20
348.29634091
 30
0.0
  0
SEQEND
  5
3A4
  8
0
  0
POLYLINE
  5
3A5
  8
0
 66
     1
 10
0.0
 20
0.0
 30
0.0
  0
VERTEX
  5
8FF
  8
0
 10
71.40263017232466
 20
348.2464829386619
 30
0.0
  0
VERTEX
  5
900
  8
0
 10
71.25285368344645
 20
348.3060852694157
 30
0.0
  0
VERTEX
  5
901
  8
0
 10
71.08697605738446
 20
348.3229640958058
 30
0.0
  0
VERTEX
  5
902
  8
0
 10
70.91264816668992
 20
348.2963409056691
 30
0.0
  0
SEQEND
  5
9C8
  8
0
  0
LINE
  5
3A6
  8
0
 10
72.26663699
 20
347.74915878
 30
0.0
 11
71.40263017
 21
348.24648294
 31
0.0
  0
POLYLINE
  5
3A7
  8
0
 66
     1
 10
0.0
 20
0.0
 30
0.0
  0
VERTEX
  5
903
  8
0
 10
63.96476308668992
 20
346.3950782556691
 30
0.0
  0
VERTEX
  5
904
  8
0
 10
63.80512594860878
 20
346.3338298169902
 30
0.0
  0
VERTEX
  5
905
  8
0
 10
63.65128227452817
 20
346.2397130540224
 30
0.0
  0
VERTEX
  5
906
  8
0
 10
63.50914419059058
 20
346.1163448212
 30
0.0
  0
VERTEX
  5
907
  8
0
 10
63.38417398367196
 20
345.9684660905438
 30
0.0
  0
VERTEX
  5
908
  8
0
 10
63.28117418875966
 20
345.8017597587648
 30
0.0
  0
VERTEX
  5
909
  8
0
 10
63.20410303022529
 20
345.6226322567293
 30
0.0
  0
VERTEX
  5
90A
  8
0
 10
63.15592230948137
 20
345.4379673539127
 30
0.0
  0
VERTEX
  5
90B
  8
0
 10
63.13848358461356
 20
345.2548616189977
 30
0.0
  0
SEQEND
  5
9C9
  8
0
  0
LINE
  5
3A8
  8
0
  6
STRICHPUNKT2
 62
     1
 10
67.22153794
 20
344.47534685
 30
0.0
 11
68.74185206
 21
343.60025081
 31
0.0
  0
LINE
  5
3A9
  8
0
  6
STRICHPUNKT2
 62
     1
 10
67.40984155
 20
344.36695889
 30
0.0
 11
67.39540952
 21
342.87758355
 31
0.0
  0
LINE
  5
3AA
  8
0
  6
STRICHPUNKT2
 62
     1
 10
67.40984155
 20
344.36695889
 30
0.0
 11
67.41360728
 21
344.75557927
 31
0.0
  0
LINE
  5
3AB
  8
0
  6
STRICHPUNKT2
 62
     1
 10
67.40984155
 20
344.36695889
 30
0.0
 11
67.12607293
 21
344.28930667
 31
0.0
  0
LINE
  5
3AC
  8
0
  6
STRICHPUNKT2
 62
     1
 10
67.40984155
 20
344.36695889
 30
0.0
 11
68.7381137
 21
344.73043558
 31
0.0
  0
LINE
  5
3AD
  8
0
  6
STRICHPUNKT2
 62
     1
 10
68.27384837
 20
343.86963473
 30
0.0
 11
68.25220031
 21
341.63557172
 31
0.0
  0
LINE
  5
3AE
  8
0
  6
STRICHPUNKT2
 62
     1
 10
68.27384837
 20
343.86963473
 30
0.0
 11
68.29549642
 21
346.10369775
 31
0.0
  0
LINE
  5
3AF
  8
0
  6
STRICHPUNKT2
 62
     1
 10
68.27384837
 20
343.86963473
 30
0.0
 11
66.28144014
 21
343.32441971
 31
0.0
  0
LINE
  5
3B0
  8
0
  6
STRICHPUNKT2
 62
     1
 10
68.27384837
 20
343.86963473
 30
0.0
 11
70.26625659
 21
344.41484976
 31
0.0
  0
POLYLINE
  5
3B1
  8
0
 66
     1
 10
0.0
 20
0.0
 30
0.0
  0
VERTEX
  5
3B2
  8
0
 10
140.59888571
 20
488.30690401
 30
0.0
  0
VERTEX
  5
3B3
  8
0
 10
140.3511503
 20
488.31004283
 30
0.0
  0
VERTEX
  5
3B4
  8
0
 10
140.04719173
 20
488.31987753
 30
0.0
  0
VERTEX
  5
3B5
  8
0
 10
139.80426306
 20
488.32974094
 30
0.0
  0
SEQEND
  5
3B6
  8
0
  0
POLYLINE
  5
3B7
  8
0
 66
     1
 10
0.0
 20
0.0
 30
0.0
  0
VERTEX
  5
3B8
  8
0
 10
141.30426306
 20
488.34581065
 30
0.0
  0
VERTEX
  5
3B9
  8
0
 10
141.13659275
 20
488.32802835
 30
0.0
  0
VERTEX
  5
3BA
  8
0
 10
140.95448316
 20
488.31552039
 30
0.0
  0
VERTEX
  5
3BB
  8
0
 10
140.75438836
 20
488.30849711
 30
0.0
  0
VERTEX
  5
3BC
  8
0
 10
140.59888571
 20
488.30690401
 30
0.0
  0
SEQEND
  5
3BD
  8
0
  0
POLYLINE
  5
3BE
  8
0
 66
     1
 10
0.0
 20
0.0
 30
0.0
  0
VERTEX
  5
3BF
  8
0
 10
141.30426306
 20
489.90858307
 30
0.0
  0
VERTEX
  5
3C0
  8
0
 10
141.20376788
 20
489.87765951
 30
0.0
  0
VERTEX
  5
3C1
  8
0
 10
141.09554678
 20
489.85199379
 30
0.0
  0
VERTEX
  5
3C2
  8
0
 10
141.07024824
 20
489.84700035
 30
0.0
  0
VERTEX
  5
3C3
  8
0
 10
140.95464032
 20
489.8284398
 30
0.0
  0
VERTEX
  5
3C4
  8
0
 10
140.83083573
 20
489.81546956
 30
0.0
  0
VERTEX
  5
3C5
  8
0
 10
140.69717452
 20
489.80828928
 30
0.0
  0
VERTEX
  5
3C6
  8
0
 10
140.59877123
 20
489.80690401
 30
0.0
  0
VERTEX
  5
3C7
  8
0
 10
140.44231137
 20
489.81017143
 30
0.0
  0
VERTEX
  5
3C8
  8
0
 10
140.26525577
 20
489.82047843
 30
0.0
  0
VERTEX
  5
3C9
  8
0
 10
140.04890444
 20
489.83961509
 30
0.0
  0
VERTEX
  5
3CA
  8
0
 10
139.80426306
 20
489.86544505
 30
0.0
  0
SEQEND
  5
3CB
  8
0
  0
POLYLINE
  5
3CC
  8
0
 66
     1
 10
0.0
 20
0.0
 30
0.0
  0
VERTEX
  5
3CD
  8
0
 10
140.59877123
 20
491.80690401
 30
0.0
  0
VERTEX
  5
3CE
  8
0
 10
140.75391478
 20
491.80326095
 30
0.0
  0
VERTEX
  5
3CF
  8
0
 10
140.89285471
 20
491.79266727
 30
0.0
  0
VERTEX
  5
3D0
  8
0
 10
141.01973615
 20
491.77574662
 30
0.0
  0
VERTEX
  5
3D1
  8
0
 10
141.07024824
 20
491.76680767
 30
0.0
  0
VERTEX
  5
3D2
  8
0
 10
141.17942059
 20
491.74256643
 30
0.0
  0
VERTEX
  5
3D3
  8
0
 10
141.28032752
 20
491.7132755
 30
0.0
  0
VERTEX
  5
3D4
  8
0
 10
141.30426306
 20
491.70522495
 30
0.0
  0
SEQEND
  5
3D5
  8
0
  0
POLYLINE
  5
3D6
  8
0
 66
     1
 10
0.0
 20
0.0
 30
0.0
  0
VERTEX
  5
90C
  8
0
 10
141.3042630671333
 20
489.9085830723309
 30
0.0
  0
VERTEX
  5
90D
  8
0
 10
141.5475167048654
 20
490.0155406883271
 30
0.0
  0
VERTEX
  5
90E
  8
0
 10
141.7553002456261
 20
490.1549648534569
 30
0.0
  0
VERTEX
  5
90F
  8
0
 10
141.9190891415238
 20
490.3211355382679
 30
0.0
  0
VERTEX
  5
910
  8
0
 10
142.0321637732756
 20
490.5072354079717
 30
0.0
  0
VERTEX
  5
911
  8
0
 10
142.0898851299656
 20
490.7056295110892
 30
0.0
  0
VERTEX
  5
912
  8
0
 10
142.0898851295616
 20
490.9081785117168
 30
0.0
  0
VERTEX
  5
913
  8
0
 10
142.0321637720803
 20
491.106572614719
 30
0.0
  0
VERTEX
  5
914
  8
0
 10
141.9190891395862
 20
491.2926724841973
 30
0.0
  0
VERTEX
  5
915
  8
0
 10
141.7553002430257
 20
491.4588431686817
 30
0.0
  0
VERTEX
  5
916
  8
0
 10
141.5475167017089
 20
491.5982673333971
 30
0.0
  0
VERTEX
  5
917
  8
0
 10
141.3042630635502
 20
491.7052249489082
 30
0.0
  0
SEQEND
  5
9CA
  8
0
  0
POLYLINE
  5
3D7
  8
0
 66
     1
 10
0.0
 20
0.0
 30
0.0
  0
VERTEX
  5
918
  8
0
 10
141.3042630498832
 20
488.345810651777
 30
0.0
  0
VERTEX
  5
919
  8
0
 10
141.9805976256426
 20
488.4813834512516
 30
0.0
  0
VERTEX
  5
91A
  8
0
 10
142.605629318653
 20
488.7088958781549
 30
0.0
  0
VERTEX
  5
91B
  8
0
 10
143.1546474546655
 20
489.0193532118485
 30
0.0
  0
VERTEX
  5
91C
  8
0
 10
143.6059465610338
 20
489.400481498664
 30
0.0
  0
VERTEX
  5
91D
  8
0
 10
143.9416844941816
 20
489.8372128035708
 30
0.0
  0
VERTEX
  5
91E
  8
0
 10
144.1485878300703
 20
490.3122809221018
 30
0.0
  0
VERTEX
  5
91F
  8
0
 10
144.21847663
 20
490.8069040010255
 30
0.0
  0
VERTEX
  5
920
  8
0
 10
144.1485878350924
 20
491.301527080304
 30
0.0
  0
VERTEX
  5
921
  8
0
 10
143.9416845040273
 20
491.7765951998854
 30
0.0
  0
VERTEX
  5
922
  8
0
 10
143.6059465753139
 20
492.2133265064966
 30
0.0
  0
VERTEX
  5
923
  8
0
 10
143.1546474728154
 20
492.5944547956033
 30
0.0
  0
VERTEX
  5
924
  8
0
 10
142.605629339955
 20
492.9049121320841
 30
0.0
  0
VERTEX
  5
925
  8
0
 10
141.9805976492547
 20
493.1324245621605
 30
0.0
  0
VERTEX
  5
926
  8
0
 10
141.3042630748718
 20
493.2679973650687
 30
0.0
  0
SEQEND
  5
9CB
  8
0
  0
POLYLINE
  5
3D8
  8
0
 66
     1
 10
0.0
 20
0.0
 30
0.0
  0
VERTEX
  5
3D9
  8
0
 10
140.59888571
 20
493.30690401
 30
0.0
  0
VERTEX
  5
3DA
  8
0
 10
140.72262411
 20
493.30587369
 30
0.0
  0
VERTEX
  5
3DB
  8
0
 10
140.94991813
 20
493.29852091
 30
0.0
  0
VERTEX
  5
3DC
  8
0
 10
141.14859674
 20
493.28471972
 30
0.0
  0
VERTEX
  5
3DD
  8
0
 10
141.30426306
 20
493.26799737
 30
0.0
  0
SEQEND
  5
3DE
  8
0
  0
POLYLINE
  5
3DF
  8
0
 66
     1
 10
0.0
 20
0.0
 30
0.0
  0
VERTEX
  5
3E0
  8
0
 10
139.80426306
 20
493.28406708
 30
0.0
  0
VERTEX
  5
3E1
  8
0
 10
139.90389671
 20
493.28815289
 30
0.0
  0
VERTEX
  5
3E2
  8
0
 10
139.99104623
 20
493.29170514
 30
0.0
  0
VERTEX
  5
3E3
  8
0
 10
140.06715269
 20
493.29470297
 30
0.0
  0
VERTEX
  5
3E4
  8
0
 10
140.19977782
 20
493.29946843
 30
0.0
  0
VERTEX
  5
3E5
  8
0
 10
140.2993387
 20
493.30246261
 30
0.0
  0
VERTEX
  5
3E6
  8
0
 10
140.59888571
 20
493.30690401
 30
0.0
  0
SEQEND
  5
3E7
  8
0
  0
POLYLINE
  5
3E8
  8
0
 66
     1
 10
0.0
 20
0.0
 30
0.0
  0
VERTEX
  5
3E9
  8
0
 10
139.80426306
 20
491.74836297
 30
0.0
  0
VERTEX
  5
3EA
  8
0
 10
140.04890444
 20
491.77419293
 30
0.0
  0
VERTEX
  5
3EB
  8
0
 10
140.19615365
 20
491.78784902
 30
0.0
  0
VERTEX
  5
3EC
  8
0
 10
140.31090994
 20
491.79654351
 30
0.0
  0
VERTEX
  5
3ED
  8
0
 10
140.41099924
 20
491.80226541
 30
0.0
  0
VERTEX
  5
3EE
  8
0
 10
140.50506079
 20
491.80571021
 30
0.0
  0
VERTEX
  5
3EF
  8
0
 10
140.59877123
 20
491.80690401
 30
0.0
  0
SEQEND
  5
3F0
  8
0
  0
POLYLINE
  5
3F1
  8
0
 66
     1
 10
0.0
 20
0.0
 30
0.0
  0
VERTEX
  5
3F2
  8
0
 10
140.59888571
 20
443.30690401
 30
0.0
  0
VERTEX
  5
3F3
  8
0
 10
140.3511503
 20
443.31004283
 30
0.0
  0
VERTEX
  5
3F4
  8
0
 10
140.04719173
 20
443.31987753
 30
0.0
  0
VERTEX
  5
3F5
  8
0
 10
139.80426306
 20
443.32974094
 30
0.0
  0
SEQEND
  5
3F6
  8
0
  0
POLYLINE
  5
3F7
  8
0
 66
     1
 10
0.0
 20
0.0
 30
0.0
  0
VERTEX
  5
3F8
  8
0
 10
141.30426306
 20
443.34581065
 30
0.0
  0
VERTEX
  5
3F9
  8
0
 10
141.13659275
 20
443.32802835
 30
0.0
  0
VERTEX
  5
3FA
  8
0
 10
140.95448316
 20
443.31552039
 30
0.0
  0
VERTEX
  5
3FB
  8
0
 10
140.75438836
 20
443.30849711
 30
0.0
  0
VERTEX
  5
3FC
  8
0
 10
140.59888571
 20
443.30690401
 30
0.0
  0
SEQEND
  5
3FD
  8
0
  0
POLYLINE
  5
3FE
  8
0
 66
     1
 10
0.0
 20
0.0
 30
0.0
  0
VERTEX
  5
3FF
  8
0
 10
141.30426306
 20
444.90858307
 30
0.0
  0
VERTEX
  5
400
  8
0
 10
141.20376788
 20
444.87765951
 30
0.0
  0
VERTEX
  5
401
  8
0
 10
141.09554678
 20
444.85199379
 30
0.0
  0
VERTEX
  5
402
  8
0
 10
141.07024824
 20
444.84700035
 30
0.0
  0
VERTEX
  5
403
  8
0
 10
140.95464032
 20
444.8284398
 30
0.0
  0
VERTEX
  5
404
  8
0
 10
140.83083573
 20
444.81546956
 30
0.0
  0
VERTEX
  5
405
  8
0
 10
140.69717452
 20
444.80828928
 30
0.0
  0
VERTEX
  5
406
  8
0
 10
140.59877123
 20
444.80690401
 30
0.0
  0
VERTEX
  5
407
  8
0
 10
140.44231137
 20
444.81017143
 30
0.0
  0
VERTEX
  5
408
  8
0
 10
140.26525577
 20
444.82047843
 30
0.0
  0
VERTEX
  5
409
  8
0
 10
140.04890444
 20
444.83961509
 30
0.0
  0
VERTEX
  5
40A
  8
0
 10
139.80426306
 20
444.86544505
 30
0.0
  0
SEQEND
  5
40B
  8
0
  0
POLYLINE
  5
40C
  8
0
 66
     1
 10
0.0
 20
0.0
 30
0.0
  0
VERTEX
  5
40D
  8
0
 10
140.59877123
 20
446.80690401
 30
0.0
  0
VERTEX
  5
40E
  8
0
 10
140.75391478
 20
446.80326095
 30
0.0
  0
VERTEX
  5
40F
  8
0
 10
140.89285471
 20
446.79266727
 30
0.0
  0
VERTEX
  5
410
  8
0
 10
141.01973615
 20
446.77574662
 30
0.0
  0
VERTEX
  5
411
  8
0
 10
141.07024824
 20
446.76680767
 30
0.0
  0
VERTEX
  5
412
  8
0
 10
141.17942059
 20
446.74256643
 30
0.0
  0
VERTEX
  5
413
  8
0
 10
141.28032752
 20
446.7132755
 30
0.0
  0
VERTEX
  5
414
  8
0
 10
141.30426306
 20
446.70522495
 30
0.0
  0
SEQEND
  5
415
  8
0
  0
POLYLINE
  5
416
  8
0
 66
     1
 10
0.0
 20
0.0
 30
0.0
  0
VERTEX
  5
927
  8
0
 10
141.3042630671333
 20
444.9085830723309
 30
0.0
  0
VERTEX
  5
928
  8
0
 10
141.5475167048654
 20
445.0155406883271
 30
0.0
  0
VERTEX
  5
929
  8
0
 10
141.7553002456261
 20
445.1549648534569
 30
0.0
  0
VERTEX
  5
92A
  8
0
 10
141.9190891415238
 20
445.3211355382679
 30
0.0
  0
VERTEX
  5
92B
  8
0
 10
142.0321637732756
 20
445.5072354079717
 30
0.0
  0
VERTEX
  5
92C
  8
0
 10
142.0898851299656
 20
445.7056295110892
 30
0.0
  0
VERTEX
  5
92D
  8
0
 10
142.0898851295616
 20
445.9081785117168
 30
0.0
  0
VERTEX
  5
92E
  8
0
 10
142.0321637720803
 20
446.106572614719
 30
0.0
  0
VERTEX
  5
92F
  8
0
 10
141.9190891395862
 20
446.2926724841973
 30
0.0
  0
VERTEX
  5
930
  8
0
 10
141.7553002430257
 20
446.4588431686817
 30
0.0
  0
VERTEX
  5
931
  8
0
 10
141.5475167017089
 20
446.5982673333971
 30
0.0
  0
VERTEX
  5
932
  8
0
 10
141.3042630635502
 20
446.7052249489082
 30
0.0
  0
SEQEND
  5
9CC
  8
0
  0
POLYLINE
  5
417
  8
0
 66
     1
 10
0.0
 20
0.0
 30
0.0
  0
VERTEX
  5
933
  8
0
 10
141.3042630498832
 20
443.345810651777
 30
0.0
  0
VERTEX
  5
934
  8
0
 10
141.9805976256426
 20
443.4813834512516
 30
0.0
  0
VERTEX
  5
935
  8
0
 10
142.605629318653
 20
443.7088958781549
 30
0.0
  0
VERTEX
  5
936
  8
0
 10
143.1546474546655
 20
444.0193532118485
 30
0.0
  0
VERTEX
  5
937
  8
0
 10
143.6059465610338
 20
444.400481498664
 30
0.0
  0
VERTEX
  5
938
  8
0
 10
143.9416844941816
 20
444.8372128035708
 30
0.0
  0
VERTEX
  5
939
  8
0
 10
144.1485878300703
 20
445.3122809221018
 30
0.0
  0
VERTEX
  5
93A
  8
0
 10
144.21847663
 20
445.8069040010255
 30
0.0
  0
VERTEX
  5
93B
  8
0
 10
144.1485878350924
 20
446.301527080304
 30
0.0
  0
VERTEX
  5
93C
  8
0
 10
143.9416845040273
 20
446.7765951998854
 30
0.0
  0
VERTEX
  5
93D
  8
0
 10
143.6059465753139
 20
447.2133265064966
 30
0.0
  0
VERTEX
  5
93E
  8
0
 10
143.1546474728154
 20
447.5944547956033
 30
0.0
  0
VERTEX
  5
93F
  8
0
 10
142.605629339955
 20
447.9049121320841
 30
0.0
  0
VERTEX
  5
940
  8
0
 10
141.9805976492547
 20
448.1324245621605
 30
0.0
  0
VERTEX
  5
941
  8
0
 10
141.3042630748718
 20
448.2679973650687
 30
0.0
  0
SEQEND
  5
9CD
  8
0
  0
POLYLINE
  5
418
  8
0
 66
     1
 10
0.0
 20
0.0
 30
0.0
  0
VERTEX
  5
419
  8
0
 10
140.59888571
 20
448.30690401
 30
0.0
  0
VERTEX
  5
41A
  8
0
 10
140.72262411
 20
448.30587369
 30
0.0
  0
VERTEX
  5
41B
  8
0
 10
140.94991813
 20
448.29852091
 30
0.0
  0
VERTEX
  5
41C
  8
0
 10
141.14859674
 20
448.28471972
 30
0.0
  0
VERTEX
  5
41D
  8
0
 10
141.30426306
 20
448.26799737
 30
0.0
  0
SEQEND
  5
41E
  8
0
  0
POLYLINE
  5
41F
  8
0
 66
     1
 10
0.0
 20
0.0
 30
0.0
  0
VERTEX
  5
420
  8
0
 10
139.80426306
 20
448.28406708
 30
0.0
  0
VERTEX
  5
421
  8
0
 10
139.90389671
 20
448.28815289
 30
0.0
  0
VERTEX
  5
422
  8
0
 10
139.99104623
 20
448.29170514
 30
0.0
  0
VERTEX
  5
423
  8
0
 10
140.06715269
 20
448.29470297
 30
0.0
  0
VERTEX
  5
424
  8
0
 10
140.19977782
 20
448.29946843
 30
0.0
  0
VERTEX
  5
425
  8
0
 10
140.2993387
 20
448.30246261
 30
0.0
  0
VERTEX
  5
426
  8
0
 10
140.59888571
 20
448.30690401
 30
0.0
  0
SEQEND
  5
427
  8
0
  0
POLYLINE
  5
428
  8
0
 66
     1
 10
0.0
 20
0.0
 30
0.0
  0
VERTEX
  5
429
  8
0
 10
139.80426306
 20
446.74836297
 30
0.0
  0
VERTEX
  5
42A
  8
0
 10
140.04890444
 20
446.77419293
 30
0.0
  0
VERTEX
  5
42B
  8
0
 10
140.19615365
 20
446.78784902
 30
0.0
  0
VERTEX
  5
42C
  8
0
 10
140.31090994
 20
446.79654351
 30
0.0
  0
VERTEX
  5
42D
  8
0
 10
140.41099924
 20
446.80226541
 30
0.0
  0
VERTEX
  5
42E
  8
0
 10
140.50506079
 20
446.80571021
 30
0.0
  0
VERTEX
  5
42F
  8
0
 10
140.59877123
 20
446.80690401
 30
0.0
  0
SEQEND
  5
430
  8
0
  0
ARC
  5
431
  8
0
 10
136.80426306
 20
482.30690401
 30
0.0
 40
3.0
 50
-90.0
 51
0.0
  0
ARC
  5
432
  8
0
 10
136.80426306
 20
482.30690401
 30
0.0
 40
1.5
 50
-90.0
 51
0.0
  0
LINE
  5
433
  8
0
 10
133.05426306
 20
458.80690401
 30
0.0
 11
133.05426306
 21
477.80690401
 31
0.0
  0
LINE
  5
434
  8
0
 10
131.55426306
 20
458.80690401
 30
0.0
 11
131.55426306
 21
477.80690401
 31
0.0
  0
LINE
  5
435
  8
0
  6
STRICHPUNKT2
 62
     1
 10
131.55426306
 20
471.66566122
 30
0.0
 11
130.05426306
 21
471.66566122
 31
0.0
  0
LINE
  5
436
  8
0
  6
STRICHPUNKT2
 62
     1
 10
134.55426306
 20
471.66566122
 30
0.0
 11
133.05426306
 21
471.66566122
 31
0.0
  0
LINE
  5
437
  8
0
  6
STRICHPUNKT2
 62
     1
 10
131.55426306
 20
464.9481468
 30
0.0
 11
130.05426306
 21
464.9481468
 31
0.0
  0
LINE
  5
438
  8
0
  6
STRICHPUNKT2
 62
     1
 10
134.55426306
 20
464.9481468
 30
0.0
 11
133.05426306
 21
464.9481468
 31
0.0
  0
LINE
  5
439
  8
0
  6
STRICHPUNKT2
 62
     1
 10
131.55426306
 20
468.30690401
 30
0.0
 11
130.17926306
 21
468.30690401
 31
0.0
  0
LINE
  5
43A
  8
0
  6
STRICHPUNKT2
 62
     1
 10
134.42926306
 20
468.30690401
 30
0.0
 11
133.05426306
 21
468.30690401
 31
0.0
  0
ARC
  5
43B
  8
0
 10
134.55426306
 20
477.80690401
 30
0.0
 40
1.5
 50
90.0
 51
180.0
  0
ARC
  5
43C
  8
0
 10
134.55426306
 20
477.80690401
 30
0.0
 40
3.0
 50
90.0
 51
180.0
  0
ARC
  5
43D
  8
0
 10
134.55426306
 20
458.80690401
 30
0.0
 40
1.5
 50
180.0
 51
-90.0
  0
ARC
  5
43E
  8
0
 10
134.55426306
 20
458.80690401
 30
0.0
 40
3.0
 50
180.0
 51
-90.0
  0
LINE
  5
43F
  8
0
 10
136.80426306
 20
457.30690401
 30
0.0
 11
134.55426306
 21
457.30690401
 31
0.0
  0
LINE
  5
440
  8
0
 10
136.80426306
 20
455.80690401
 30
0.0
 11
134.55426306
 21
455.80690401
 31
0.0
  0
ARC
  5
441
  8
0
 10
136.80426306
 20
454.30690401
 30
0.0
 40
3.0
 50
0.0
 51
90.0
  0
ARC
  5
442
  8
0
 10
136.80426306
 20
454.30690401
 30
0.0
 40
1.5
 50
0.0
 51
90.0
  0
LINE
  5
443
  8
0
 10
136.80426306
 20
479.30690401
 30
0.0
 11
134.55426306
 21
479.30690401
 31
0.0
  0
LINE
  5
444
  8
0
 10
136.80426306
 20
480.80690401
 30
0.0
 11
134.55426306
 21
480.80690401
 31
0.0
  0
LINE
  5
445
  8
0
 10
139.80426306
 20
440.55690401
 30
0.0
 11
139.80426306
 21
454.30690401
 31
0.0
  0
LINE
  5
446
  8
0
 10
138.30426306
 20
440.55690401
 30
0.0
 11
138.30426306
 21
454.30690401
 31
0.0
  0
LINE
  5
447
  8
0
 10
139.80426306
 20
440.55690401
 30
0.0
 11
138.30426306
 21
440.55690401
 31
0.0
  0
LINE
  5
448
  8
0
  6
STRICHPUNKT2
 62
     1
 10
138.30426306
 20
445.55690401
 30
0.0
 11
137.49176306
 21
445.55690401
 31
0.0
  0
LINE
  5
449
  8
0
  6
STRICHPUNKT2
 62
     1
 10
140.61676306
 20
445.55690401
 30
0.0
 11
139.80426306
 21
445.55690401
 31
0.0
  0
POLYLINE
  5
44A
  8
0
 66
     1
 10
0.0
 20
0.0
 30
0.0
  0
VERTEX
  5
44B
  8
0
 10
139.80426306
 20
482.30690401
 30
0.0
  0
VERTEX
  5
44C
  8
0
 10
139.80426306
 20
496.05690401
 30
0.0
  0
VERTEX
  5
44D
  8
0
 10
138.30426306
 20
496.05690401
 30
0.0
  0
SEQEND
  5
44E
  8
0
  0
LINE
  5
44F
  8
0
 10
138.30426306
 20
482.30690401
 30
0.0
 11
138.30426306
 21
496.05690401
 31
0.0
  0
LINE
  5
450
  8
0
  6
STRICHPUNKT2
 62
     1
 10
138.30426306
 20
491.05690401
 30
0.0
 11
137.49176306
 21
491.05690401
 31
0.0
  0
LINE
  5
451
  8
0
  6
STRICHPUNKT2
 62
     1
 10
140.61676306
 20
491.05690401
 30
0.0
 11
139.80426306
 21
491.05690401
 31
0.0
  0
POLYLINE
  5
452
  8
0
 66
     1
 10
0.0
 20
0.0
 30
0.0
  0
VERTEX
  5
453
  8
0
 10
139.80426306
 20
491.74836297
 30
0.0
  0
VERTEX
  5
454
  8
0
 10
140.04890444
 20
491.77419293
 30
0.0
  0
VERTEX
  5
455
  8
0
 10
140.19615365
 20
491.78784902
 30
0.0
  0
VERTEX
  5
456
  8
0
 10
140.31090994
 20
491.79654351
 30
0.0
  0
VERTEX
  5
457
  8
0
 10
140.41099924
 20
491.80226541
 30
0.0
  0
VERTEX
  5
458
  8
0
 10
140.50506079
 20
491.80571021
 30
0.0
  0
VERTEX
  5
459
  8
0
 10
140.59877123
 20
491.80690401
 30
0.0
  0
VERTEX
  5
45A
  8
0
 10
140.75391478
 20
491.80326095
 30
0.0
  0
VERTEX
  5
45B
  8
0
 10
140.89285471
 20
491.79266727
 30
0.0
  0
VERTEX
  5
45C
  8
0
 10
141.01973615
 20
491.77574662
 30
0.0
  0
VERTEX
  5
45D
  8
0
 10
141.07024824
 20
491.76680767
 30
0.0
  0
VERTEX
  5
45E
  8
0
 10
141.17942059
 20
491.74256643
 30
0.0
  0
VERTEX
  5
45F
  8
0
 10
141.28032752
 20
491.7132755
 30
0.0
  0
VERTEX
  5
460
  8
0
 10
141.30426306
 20
491.70522495
 30
0.0
  0
SEQEND
  5
461
  8
0
  0
POLYLINE
  5
462
  8
0
 66
     1
 10
0.0
 20
0.0
 30
0.0
  0
VERTEX
  5
463
  8
0
 10
141.30426306
 20
489.90858307
 30
0.0
  0
VERTEX
  5
464
  8
0
 10
141.20376788
 20
489.87765951
 30
0.0
  0
VERTEX
  5
465
  8
0
 10
141.09554678
 20
489.85199379
 30
0.0
  0
VERTEX
  5
466
  8
0
 10
141.07024824
 20
489.84700035
 30
0.0
  0
VERTEX
  5
467
  8
0
 10
140.95464032
 20
489.8284398
 30
0.0
  0
VERTEX
  5
468
  8
0
 10
140.83083573
 20
489.81546956
 30
0.0
  0
VERTEX
  5
469
  8
0
 10
140.69717452
 20
489.80828928
 30
0.0
  0
VERTEX
  5
46A
  8
0
 10
140.59877123
 20
489.80690401
 30
0.0
  0
VERTEX
  5
46B
  8
0
 10
140.44231137
 20
489.81017143
 30
0.0
  0
VERTEX
  5
46C
  8
0
 10
140.26525577
 20
489.82047843
 30
0.0
  0
VERTEX
  5
46D
  8
0
 10
140.04890444
 20
489.83961509
 30
0.0
  0
VERTEX
  5
46E
  8
0
 10
139.80426306
 20
489.86544505
 30
0.0
  0
SEQEND
  5
46F
  8
0
  0
POLYLINE
  5
470
  8
0
 66
     1
 10
0.0
 20
0.0
 30
0.0
  0
VERTEX
  5
471
  8
0
 10
140.59888571
 20
488.30690401
 30
0.0
  0
VERTEX
  5
472
  8
0
 10
140.3511503
 20
488.31004283
 30
0.0
  0
VERTEX
  5
473
  8
0
 10
140.04719173
 20
488.31987753
 30
0.0
  0
VERTEX
  5
474
  8
0
 10
139.80426306
 20
488.32974094
 30
0.0
  0
SEQEND
  5
475
  8
0
  0
POLYLINE
  5
476
  8
0
 66
     1
 10
0.0
 20
0.0
 30
0.0
  0
VERTEX
  5
477
  8
0
 10
141.30426306
 20
488.34581065
 30
0.0
  0
VERTEX
  5
478
  8
0
 10
141.13659275
 20
488.32802835
 30
0.0
  0
VERTEX
  5
479
  8
0
 10
140.95448316
 20
488.31552039
 30
0.0
  0
VERTEX
  5
47A
  8
0
 10
140.75438836
 20
488.30849711
 30
0.0
  0
VERTEX
  5
47B
  8
0
 10
140.59888571
 20
488.30690401
 30
0.0
  0
SEQEND
  5
47C
  8
0
  0
LINE
  5
47D
  8
0
 10
141.30426306
 20
485.55690401
 30
0.0
 11
139.80426306
 21
485.55690401
 31
0.0
  0
LINE
  5
47E
  8
0
 10
139.80426306
 20
496.05690401
 30
0.0
 11
141.30426306
 21
496.05690401
 31
0.0
  0
POLYLINE
  5
47F
  8
0
 66
     1
 10
0.0
 20
0.0
 30
0.0
  0
VERTEX
  5
480
  8
0
 10
139.80426306
 20
493.28406708
 30
0.0
  0
VERTEX
  5
481
  8
0
 10
139.90389671
 20
493.28815289
 30
0.0
  0
VERTEX
  5
482
  8
0
 10
139.99104623
 20
493.29170514
 30
0.0
  0
VERTEX
  5
483
  8
0
 10
140.06715269
 20
493.29470297
 30
0.0
  0
VERTEX
  5
484
  8
0
 10
140.19977782
 20
493.29946843
 30
0.0
  0
VERTEX
  5
485
  8
0
 10
140.2993387
 20
493.30246261
 30
0.0
  0
VERTEX
  5
486
  8
0
 10
140.59888571
 20
493.30690401
 30
0.0
  0
VERTEX
  5
487
  8
0
 10
140.72262411
 20
493.30587369
 30
0.0
  0
VERTEX
  5
488
  8
0
 10
140.94991813
 20
493.29852091
 30
0.0
  0
VERTEX
  5
489
  8
0
 10
141.14859674
 20
493.28471972
 30
0.0
  0
VERTEX
  5
48A
  8
0
 10
141.30426306
 20
493.26799737
 30
0.0
  0
SEQEND
  5
48B
  8
0
  0
POLYLINE
  5
48C
  8
0
 66
     1
 10
0.0
 20
0.0
 30
0.0
  0
VERTEX
  5
942
  8
0
 10
141.3042630671333
 20
489.9085830723309
 30
0.0
  0
VERTEX
  5
943
  8
0
 10
141.5475167048654
 20
490.0155406883271
 30
0.0
  0
VERTEX
  5
944
  8
0
 10
141.7553002456261
 20
490.1549648534569
 30
0.0
  0
VERTEX
  5
945
  8
0
 10
141.9190891415238
 20
490.3211355382679
 30
0.0
  0
VERTEX
  5
946
  8
0
 10
142.0321637732756
 20
490.5072354079717
 30
0.0
  0
VERTEX
  5
947
  8
0
 10
142.0898851299656
 20
490.7056295110892
 30
0.0
  0
VERTEX
  5
948
  8
0
 10
142.0898851295616
 20
490.9081785117168
 30
0.0
  0
VERTEX
  5
949
  8
0
 10
142.0321637720803
 20
491.106572614719
 30
0.0
  0
VERTEX
  5
94A
  8
0
 10
141.9190891395862
 20
491.2926724841973
 30
0.0
  0
VERTEX
  5
94B
  8
0
 10
141.7553002430257
 20
491.4588431686817
 30
0.0
  0
VERTEX
  5
94C
  8
0
 10
141.5475167017089
 20
491.5982673333971
 30
0.0
  0
VERTEX
  5
94D
  8
0
 10
141.3042630635502
 20
491.7052249489082
 30
0.0
  0
SEQEND
  5
9CE
  8
0
  0
CIRCLE
  5
48D
  8
0
 10
151.05426306
 20
490.80690401
 30
0.0
 40
1.625
  0
POLYLINE
  5
48E
  8
0
 66
     1
 10
0.0
 20
0.0
 30
0.0
  0
VERTEX
  5
48F
  8
0
 10
141.30426306
 20
485.55690401
 30
0.0
  0
VERTEX
  5
490
  8
0
 10
153.30426306
 20
485.55690401
 30
0.0
 42
0.414213562
  0
VERTEX
  5
491
  8
0
 10
154.30426306
 20
486.55690401
 30
0.0
  0
VERTEX
  5
492
  8
0
 10
154.30426306
 20
495.05690401
 30
0.0
 42
0.414213562
  0
VERTEX
  5
493
  8
0
 10
153.30426306
 20
496.05690401
 30
0.0
  0
VERTEX
  5
494
  8
0
 10
141.30426306
 20
496.05690401
 30
0.0
  0
SEQEND
  5
495
  8
0
  0
POLYLINE
  5
496
  8
0
 66
     1
 10
0.0
 20
0.0
 30
0.0
  0
VERTEX
  5
94E
  8
0
 10
141.3042630498832
 20
488.345810651777
 30
0.0
  0
VERTEX
  5
94F
  8
0
 10
141.9805976256426
 20
488.4813834512516
 30
0.0
  0
VERTEX
  5
950
  8
0
 10
142.605629318653
 20
488.7088958781549
 30
0.0
  0
VERTEX
  5
951
  8
0
 10
143.1546474546655
 20
489.0193532118485
 30
0.0
  0
VERTEX
  5
952
  8
0
 10
143.6059465610338
 20
489.400481498664
 30
0.0
  0
VERTEX
  5
953
  8
0
 10
143.9416844941816
 20
489.8372128035708
 30
0.0
  0
VERTEX
  5
954
  8
0
 10
144.1485878300703
 20
490.3122809221018
 30
0.0
  0
VERTEX
  5
955
  8
0
 10
144.21847663
 20
490.8069040010255
 30
0.0
  0
VERTEX
  5
956
  8
0
 10
144.1485878350924
 20
491.301527080304
 30
0.0
  0
VERTEX
  5
957
  8
0
 10
143.9416845040273
 20
491.7765951998854
 30
0.0
  0
VERTEX
  5
958
  8
0
 10
143.6059465753139
 20
492.2133265064966
 30
0.0
  0
VERTEX
  5
959
  8
0
 10
143.1546474728154
 20
492.5944547956033
 30
0.0
  0
VERTEX
  5
95A
  8
0
 10
142.605629339955
 20
492.9049121320841
 30
0.0
  0
VERTEX
  5
95B
  8
0
 10
141.9805976492547
 20
493.1324245621605
 30
0.0
  0
VERTEX
  5
95C
  8
0
 10
141.3042630748718
 20
493.2679973650687
 30
0.0
  0
SEQEND
  5
9CF
  8
0
  0
LINE
  5
497
  8
0
  6
STRICHPUNKT2
 62
     1
 10
151.05426306
 20
490.80690401
 30
0.0
 11
148.61676306
 21
490.80690401
 31
0.0
  0
LINE
  5
498
  8
0
  6
STRICHPUNKT2
 62
     1
 10
151.05426306
 20
490.80690401
 30
0.0
 11
153.49176306
 21
490.80690401
 31
0.0
  0
LINE
  5
499
  8
0
  6
STRICHPUNKT2
 62
     1
 10
151.05426306
 20
490.80690401
 30
0.0
 11
151.05426306
 21
488.36940401
 31
0.0
  0
LINE
  5
49A
  8
0
  6
STRICHPUNKT2
 62
     1
 10
151.05426306
 20
490.80690401
 30
0.0
 11
151.05426306
 21
493.24440401
 31
0.0
  0
POLYLINE
  5
49B
  8
0
 66
     1
 10
0.0
 20
0.0
 30
0.0
  0
VERTEX
  5
49C
  8
0
 10
139.80426306
 20
446.74836297
 30
0.0
  0
VERTEX
  5
49D
  8
0
 10
140.04890444
 20
446.77419293
 30
0.0
  0
VERTEX
  5
49E
  8
0
 10
140.19615365
 20
446.78784902
 30
0.0
  0
VERTEX
  5
49F
  8
0
 10
140.31090994
 20
446.79654351
 30
0.0
  0
VERTEX
  5
4A0
  8
0
 10
140.41099924
 20
446.80226541
 30
0.0
  0
VERTEX
  5
4A1
  8
0
 10
140.50506079
 20
446.80571021
 30
0.0
  0
VERTEX
  5
4A2
  8
0
 10
140.59877123
 20
446.80690401
 30
0.0
  0
VERTEX
  5
4A3
  8
0
 10
140.75391478
 20
446.80326095
 30
0.0
  0
VERTEX
  5
4A4
  8
0
 10
140.89285471
 20
446.79266727
 30
0.0
  0
VERTEX
  5
4A5
  8
0
 10
141.01973615
 20
446.77574662
 30
0.0
  0
VERTEX
  5
4A6
  8
0
 10
141.07024824
 20
446.76680767
 30
0.0
  0
VERTEX
  5
4A7
  8
0
 10
141.17942059
 20
446.74256643
 30
0.0
  0
VERTEX
  5
4A8
  8
0
 10
141.28032752
 20
446.7132755
 30
0.0
  0
VERTEX
  5
4A9
  8
0
 10
141.30426306
 20
446.70522495
 30
0.0
  0
SEQEND
  5
4AA
  8
0
  0
POLYLINE
  5
4AB
  8
0
 66
     1
 10
0.0
 20
0.0
 30
0.0
  0
VERTEX
  5
4AC
  8
0
 10
141.30426306
 20
444.90858307
 30
0.0
  0
VERTEX
  5
4AD
  8
0
 10
141.20376788
 20
444.87765951
 30
0.0
  0
VERTEX
  5
4AE
  8
0
 10
141.09554678
 20
444.85199379
 30
0.0
  0
VERTEX
  5
4AF
  8
0
 10
141.07024824
 20
444.84700035
 30
0.0
  0
VERTEX
  5
4B0
  8
0
 10
140.95464032
 20
444.8284398
 30
0.0
  0
VERTEX
  5
4B1
  8
0
 10
140.83083573
 20
444.81546956
 30
0.0
  0
VERTEX
  5
4B2
  8
0
 10
140.69717452
 20
444.80828928
 30
0.0
  0
VERTEX
  5
4B3
  8
0
 10
140.59877123
 20
444.80690401
 30
0.0
  0
VERTEX
  5
4B4
  8
0
 10
140.44231137
 20
444.81017143
 30
0.0
  0
VERTEX
  5
4B5
  8
0
 10
140.26525577
 20
444.82047843
 30
0.0
  0
VERTEX
  5
4B6
  8
0
 10
140.04890444
 20
444.83961509
 30
0.0
  0
VERTEX
  5
4B7
  8
0
 10
139.80426306
 20
444.86544505
 30
0.0
  0
SEQEND
  5
4B8
  8
0
  0
POLYLINE
  5
4B9
  8
0
 66
     1
 10
0.0
 20
0.0
 30
0.0
  0
VERTEX
  5
4BA
  8
0
 10
140.59888571
 20
443.30690401
 30
0.0
  0
VERTEX
  5
4BB
  8
0
 10
140.3511503
 20
443.31004283
 30
0.0
  0
VERTEX
  5
4BC
  8
0
 10
140.04719173
 20
443.31987753
 30
0.0
  0
VERTEX
  5
4BD
  8
0
 10
139.80426306
 20
443.32974094
 30
0.0
  0
SEQEND
  5
4BE
  8
0
  0
POLYLINE
  5
4BF
  8
0
 66
     1
 10
0.0
 20
0.0
 30
0.0
  0
VERTEX
  5
4C0
  8
0
 10
141.30426306
 20
443.34581065
 30
0.0
  0
VERTEX
  5
4C1
  8
0
 10
141.13659275
 20
443.32802835
 30
0.0
  0
VERTEX
  5
4C2
  8
0
 10
140.95448316
 20
443.31552039
 30
0.0
  0
VERTEX
  5
4C3
  8
0
 10
140.75438836
 20
443.30849711
 30
0.0
  0
VERTEX
  5
4C4
  8
0
 10
140.59888571
 20
443.30690401
 30
0.0
  0
SEQEND
  5
4C5
  8
0
  0
LINE
  5
4C6
  8
0
 10
141.30426306
 20
440.55690401
 30
0.0
 11
139.80426306
 21
440.55690401
 31
0.0
  0
LINE
  5
4C7
  8
0
 10
139.80426306
 20
451.05690401
 30
0.0
 11
141.30426306
 21
451.05690401
 31
0.0
  0
POLYLINE
  5
4C8
  8
0
 66
     1
 10
0.0
 20
0.0
 30
0.0
  0
VERTEX
  5
4C9
  8
0
 10
139.80426306
 20
448.28406708
 30
0.0
  0
VERTEX
  5
4CA
  8
0
 10
139.90389671
 20
448.28815289
 30
0.0
  0
VERTEX
  5
4CB
  8
0
 10
139.99104623
 20
448.29170514
 30
0.0
  0
VERTEX
  5
4CC
  8
0
 10
140.06715269
 20
448.29470297
 30
0.0
  0
VERTEX
  5
4CD
  8
0
 10
140.19977782
 20
448.29946843
 30
0.0
  0
VERTEX
  5
4CE
  8
0
 10
140.2993387
 20
448.30246261
 30
0.0
  0
VERTEX
  5
4CF
  8
0
 10
140.59888571
 20
448.30690401
 30
0.0
  0
VERTEX
  5
4D0
  8
0
 10
140.72262411
 20
448.30587369
 30
0.0
  0
VERTEX
  5
4D1
  8
0
 10
140.94991813
 20
448.29852091
 30
0.0
  0
VERTEX
  5
4D2
  8
0
 10
141.14859674
 20
448.28471972
 30
0.0
  0
VERTEX
  5
4D3
  8
0
 10
141.30426306
 20
448.26799737
 30
0.0
  0
SEQEND
  5
4D4
  8
0
  0
POLYLINE
  5
4D5
  8
0
 66
     1
 10
0.0
 20
0.0
 30
0.0
  0
VERTEX
  5
95D
  8
0
 10
141.3042630671333
 20
444.9085830723309
 30
0.0
  0
VERTEX
  5
95E
  8
0
 10
141.5475167048654
 20
445.0155406883271
 30
0.0
  0
VERTEX
  5
95F
  8
0
 10
141.7553002456261
 20
445.1549648534569
 30
0.0
  0
VERTEX
  5
960
  8
0
 10
141.9190891415238
 20
445.3211355382679
 30
0.0
  0
VERTEX
  5
961
  8
0
 10
142.0321637732756
 20
445.5072354079717
 30
0.0
  0
VERTEX
  5
962
  8
0
 10
142.0898851299656
 20
445.7056295110892
 30
0.0
  0
VERTEX
  5
963
  8
0
 10
142.0898851295616
 20
445.9081785117168
 30
0.0
  0
VERTEX
  5
964
  8
0
 10
142.0321637720803
 20
446.106572614719
 30
0.0
  0
VERTEX
  5
965
  8
0
 10
141.9190891395862
 20
446.2926724841973
 30
0.0
  0
VERTEX
  5
966
  8
0
 10
141.7553002430257
 20
446.4588431686817
 30
0.0
  0
VERTEX
  5
967
  8
0
 10
141.5475167017089
 20
446.5982673333971
 30
0.0
  0
VERTEX
  5
968
  8
0
 10
141.3042630635502
 20
446.7052249489082
 30
0.0
  0
SEQEND
  5
9D0
  8
0
  0
CIRCLE
  5
4D6
  8
0
 10
151.05426306
 20
445.80690401
 30
0.0
 40
1.625
  0
POLYLINE
  5
4D7
  8
0
 66
     1
 10
0.0
 20
0.0
 30
0.0
  0
VERTEX
  5
4D8
  8
0
 10
141.30426306
 20
440.55690401
 30
0.0
  0
VERTEX
  5
4D9
  8
0
 10
153.30426306
 20
440.55690401
 30
0.0
 42
0.414213562
  0
VERTEX
  5
4DA
  8
0
 10
154.30426306
 20
441.55690401
 30
0.0
  0
VERTEX
  5
4DB
  8
0
 10
154.30426306
 20
450.05690401
 30
0.0
 42
0.414213562
  0
VERTEX
  5
4DC
  8
0
 10
153.30426306
 20
451.05690401
 30
0.0
  0
VERTEX
  5
4DD
  8
0
 10
141.30426306
 20
451.05690401
 30
0.0
  0
SEQEND
  5
4DE
  8
0
  0
POLYLINE
  5
4DF
  8
0
 66
     1
 10
0.0
 20
0.0
 30
0.0
  0
VERTEX
  5
969
  8
0
 10
141.3042630498832
 20
443.345810651777
 30
0.0
  0
VERTEX
  5
96A
  8
0
 10
141.9805976256426
 20
443.4813834512516
 30
0.0
  0
VERTEX
  5
96B
  8
0
 10
142.605629318653
 20
443.7088958781549
 30
0.0
  0
VERTEX
  5
96C
  8
0
 10
143.1546474546655
 20
444.0193532118485
 30
0.0
  0
VERTEX
  5
96D
  8
0
 10
143.6059465610338
 20
444.400481498664
 30
0.0
  0
VERTEX
  5
96E
  8
0
 10
143.9416844941816
 20
444.8372128035708
 30
0.0
  0
VERTEX
  5
96F
  8
0
 10
144.1485878300703
 20
445.3122809221018
 30
0.0
  0
VERTEX
  5
970
  8
0
 10
144.21847663
 20
445.8069040010255
 30
0.0
  0
VERTEX
  5
971
  8
0
 10
144.1485878350924
 20
446.301527080304
 30
0.0
  0
VERTEX
  5
972
  8
0
 10
143.9416845040273
 20
446.7765951998854
 30
0.0
  0
VERTEX
  5
973
  8
0
 10
143.6059465753139
 20
447.2133265064966
 30
0.0
  0
VERTEX
  5
974
  8
0
 10
143.1546474728154
 20
447.5944547956033
 30
0.0
  0
VERTEX
  5
975
  8
0
 10
142.605629339955
 20
447.9049121320841
 30
0.0
  0
VERTEX
  5
976
  8
0
 10
141.9805976492547
 20
448.1324245621605
 30
0.0
  0
VERTEX
  5
977
  8
0
 10
141.3042630748718
 20
448.2679973650687
 30
0.0
  0
SEQEND
  5
9D1
  8
0
  0
LINE
  5
4E0
  8
0
  6
STRICHPUNKT2
 62
     1
 10
151.05426306
 20
445.80690401
 30
0.0
 11
148.61676306
 21
445.80690401
 31
0.0
  0
LINE
  5
4E1
  8
0
  6
STRICHPUNKT2
 62
     1
 10
151.05426306
 20
445.80690401
 30
0.0
 11
153.49176306
 21
445.80690401
 31
0.0
  0
LINE
  5
4E2
  8
0
  6
STRICHPUNKT2
 62
     1
 10
151.05426306
 20
445.80690401
 30
0.0
 11
151.05426306
 21
443.36940401
 31
0.0
  0
LINE
  5
4E3
  8
0
  6
STRICHPUNKT2
 62
     1
 10
151.05426306
 20
445.80690401
 30
0.0
 11
151.05426306
 21
448.24440401
 31
0.0
  0
LINE
  5
4E4
  8
0
 10
314.73120401
 20
369.14512986
 30
0.0
 11
311.81699045
 21
372.05934342
 31
0.0
  0
LINE
  5
4E5
  8
0
  6
STRICHPUNKT2
 62
     1
 10
305.31699045
 20
360.89512986
 30
0.0
 11
305.31699045
 21
359.52012986
 31
0.0
  0
LINE
  5
4E6
  8
0
  6
STRICHPUNKT2
 62
     1
 10
319.45823324
 20
360.89512986
 30
0.0
 11
319.45823324
 21
359.39512986
 31
0.0
  0
LINE
  5
4E7
  8
0
  6
STRICHPUNKT2
 62
     1
 10
326.17574766
 20
360.89512986
 30
0.0
 11
326.17574766
 21
359.39512986
 31
0.0
  0
LINE
  5
4E8
  8
0
  6
STRICHPUNKT2
 62
     1
 10
341.17574766
 20
360.89512986
 30
0.0
 11
341.17574766
 21
359.39512986
 31
0.0
  0
LINE
  5
4E9
  8
0
  6
STRICHPUNKT2
 62
     1
 10
210.31699045
 20
360.89512986
 30
0.0
 11
210.31699045
 21
359.52012986
 31
0.0
  0
LINE
  5
4EA
  8
0
  6
STRICHPUNKT2
 62
     1
 10
334.45823324
 20
360.89512986
 30
0.0
 11
334.45823324
 21
359.39512986
 31
0.0
  0
LINE
  5
4EB
  8
0
 10
347.81699045
 20
360.89512986
 30
0.0
 11
200.31699045
 21
360.89512986
 31
0.0
  0
LINE
  5
4EC
  8
0
 10
200.31699045
 20
363.89512986
 30
0.0
 11
200.31699045
 21
360.89512986
 31
0.0
  0
LINE
  5
4ED
  8
0
 10
347.81699045
 20
360.89512986
 30
0.0
 11
347.81699045
 21
363.89512986
 31
0.0
  0
LINE
  5
4EE
  8
0
 10
200.31699045
 20
366.14512986
 30
0.0
 11
200.31699045
 21
363.89512986
 31
0.0
  0
LINE
  5
4EF
  8
0
 10
347.81699045
 20
363.89512986
 30
0.0
 11
347.81699045
 21
366.14512986
 31
0.0
  0
LINE
  5
4F0
  8
0
 10
200.31699045
 20
367.64512986
 30
0.0
 11
200.31699045
 21
366.14512986
 31
0.0
  0
POLYLINE
  5
4F1
  8
0
 66
     1
 10
0.0
 20
0.0
 30
0.0
  0
VERTEX
  5
4F2
  8
0
 10
347.81699045
 20
366.14512986
 30
0.0
  0
VERTEX
  5
4F3
  8
0
 10
347.81699045
 20
367.64512986
 30
0.0
  0
VERTEX
  5
4F4
  8
0
 10
291.31699045
 20
367.64512986
 30
0.0
  0
SEQEND
  5
4F5
  8
0
  0
LINE
  5
4F6
  8
0
 10
292.31699045
 20
367.64512986
 30
0.0
 11
313.31699045
 21
367.64512986
 31
0.0
  0
LINE
  5
4F7
  8
0
 10
310.71890439
 20
369.14512986
 30
0.0
 11
292.31699045
 21
369.14512986
 31
0.0
  0
LINE
  5
4F8
  8
0
 10
292.31699045
 20
367.64512986
 30
0.0
 11
291.31699045
 21
367.64512986
 31
0.0
  0
LINE
  5
4F9
  8
0
 10
291.31699045
 20
369.14512986
 30
0.0
 11
292.31699045
 21
369.14512986
 31
0.0
  0
LINE
  5
4FA
  8
0
 10
347.81699045
 20
367.64512986
 30
0.0
 11
313.31699045
 21
367.64512986
 31
0.0
  0
LINE
  5
4FB
  8
0
 10
347.81699045
 20
369.14512986
 30
0.0
 11
313.31699045
 21
369.14512986
 31
0.0
  0
LINE
  5
4FC
  8
0
 10
347.81699045
 20
369.14512986
 30
0.0
 11
347.81699045
 21
367.64512986
 31
0.0
  0
LINE
  5
4FD
  8
0
 10
291.31699045
 20
367.64512986
 30
0.0
 11
290.31699045
 21
367.64512986
 31
0.0
  0
LINE
  5
4FE
  8
0
 10
291.31699045
 20
369.14512986
 30
0.0
 11
291.31699045
 21
367.64512986
 31
0.0
  0
LINE
  5
4FF
  8
0
 10
290.31699045
 20
369.14512986
 30
0.0
 11
291.31699045
 21
369.14512986
 31
0.0
  0
POLYLINE
  5
500
  8
0
 66
     1
 10
0.0
 20
0.0
 30
0.0
  0
VERTEX
  5
501
  8
0
 10
290.31699045
 20
369.14512986
 30
0.0
  0
VERTEX
  5
502
  8
0
 10
200.31699045
 20
369.14512986
 30
0.0
  0
VERTEX
  5
503
  8
0
 10
200.31699045
 20
367.64512986
 30
0.0
  0
SEQEND
  5
504
  8
0
  0
LINE
  5
505
  8
0
 10
290.31699045
 20
367.64512986
 30
0.0
 11
200.31699045
 21
367.64512986
 31
0.0
  0
LINE
  5
506
  8
0
  6
STRICHPUNKT2
 62
     1
 10
211.31699045
 20
367.64512986
 30
0.0
 11
211.31699045
 21
366.83262986
 31
0.0
  0
LINE
  5
507
  8
0
  6
STRICHPUNKT2
 62
     1
 10
211.31699045
 20
369.95762986
 30
0.0
 11
211.31699045
 21
369.14512986
 31
0.0
  0
ARC
  5
508
  8
0
 10
313.31699045
 20
370.64512986
 30
0.0
 40
3.0
 50
180.0
 51
-90.0
  0
ARC
  5
509
  8
0
 10
313.31699045
 20
370.64512986
 30
0.0
 40
1.5
 50
180.0
 51
-90.0
  0
LINE
  5
50A
  8
0
 10
310.31699045
 20
370.64512986
 30
0.0
 11
310.31699045
 21
382.64512986
 31
0.0
  0
LINE
  5
50B
  8
0
 10
311.81699045
 20
382.64512986
 30
0.0
 11
311.81699045
 21
370.64512986
 31
0.0
  0
LINE
  5
50C
  8
0
 10
311.81699045
 20
383.64512986
 30
0.0
 11
311.81699045
 21
382.64512986
 31
0.0
  0
LINE
  5
50D
  8
0
 10
310.31699045
 20
383.64512986
 30
0.0
 11
311.81699045
 21
383.64512986
 31
0.0
  0
LINE
  5
50E
  8
0
 10
310.31699045
 20
382.64512986
 30
0.0
 11
310.31699045
 21
383.64512986
 31
0.0
  0
LINE
  5
50F
  8
0
  6
STRICHPUNKT2
 62
     1
 10
311.81699045
 20
380.39512986
 30
0.0
 11
312.62949045
 21
380.39512986
 31
0.0
  0
LINE
  5
510
  8
0
  6
STRICHPUNKT2
 62
     1
 10
309.50449045
 20
380.39512986
 30
0.0
 11
310.31699045
 21
380.39512986
 31
0.0
  0
TEXT
  5
511
  8
TXT_DIM49
 10
271.18723734
 20
427.70580319
 30
0.0
 40
2.5
  1
295
  7
ARIAL
  0
LINE
  5
512
  8
0
 62
     4
 10
346.81699045
 20
425.20580319
 30
0.0
 11
348.81699045
 21
427.20580319
 31
0.0
  0
LINE
  5
513
  8
0
 62
     4
 10
201.06699045
 20
426.95580319
 30
0.0
 11
199.56699045
 21
425.45580319
 31
0.0
  0
LINE
  5
514
  8
0
 62
     4
 10
347.81699045
 20
426.20580319
 30
0.0
 11
200.31699045
 21
426.20580319
 31
0.0
  0
LINE
  5
515
  8
0
 62
     4
 10
347.81699045
 20
428.20580319
 30
0.0
 11
347.81699045
 21
424.20580319
 31
0.0
  0
LINE
  5
516
  8
0
 62
     4
 10
200.31699045
 20
428.20580319
 30
0.0
 11
200.31699045
 21
424.20580319
 31
0.0
  0
TEXT
  5
517
  8
TXT_DIM49
 10
327.147155
 20
514.8978082
 30
0.0
 40
2.5
  1
75
  7
ARIAL
  0
LINE
  5
518
  8
0
 62
     4
 10
346.81699045
 20
512.3978082
 30
0.0
 11
348.81699045
 21
514.3978082
 31
0.0
  0
LINE
  5
519
  8
0
 62
     4
 10
311.06699045
 20
514.1478082
 30
0.0
 11
309.56699045
 21
512.6478082
 31
0.0
  0
LINE
  5
51A
  8
0
 62
     4
 10
347.81699045
 20
513.3978082
 30
0.0
 11
310.31699045
 21
513.3978082
 31
0.0
  0
LINE
  5
51B
  8
0
 62
     4
 10
347.81699045
 20
511.3978082
 30
0.0
 11
347.81699045
 21
515.3978082
 31
0.0
  0
LINE
  5
51C
  8
0
 62
     4
 10
310.31699045
 20
511.3978082
 30
0.0
 11
310.31699045
 21
515.3978082
 31
0.0
  0
TEXT
  5
51D
  8
TXT_DIM49
 10
252.43723734
 20
514.8978082
 30
0.0
 40
2.5
  1
220
  7
ARIAL
  0
LINE
  5
51E
  8
0
 62
     4
 10
309.31699045
 20
512.3978082
 30
0.0
 11
311.31699045
 21
514.3978082
 31
0.0
  0
LINE
  5
51F
  8
0
 62
     4
 10
201.06699045
 20
514.1478082
 30
0.0
 11
199.56699045
 21
512.6478082
 31
0.0
  0
LINE
  5
520
  8
0
 62
     4
 10
310.31699045
 20
513.3978082
 30
0.0
 11
200.31699045
 21
513.3978082
 31
0.0
  0
LINE
  5
521
  8
0
 62
     4
 10
310.31699045
 20
511.3978082
 30
0.0
 11
310.31699045
 21
515.3978082
 31
0.0
  0
LINE
  5
522
  8
0
 62
     4
 10
200.31699045
 20
511.3978082
 30
0.0
 11
200.31699045
 21
515.3978082
 31
0.0
  0
TEXT
  5
523
  8
TXT_DIM49
 10
242.93723734
 20
503.24646643
 30
0.0
 40
2.5
  1
182
  7
ARIAL
  0
LINE
  5
524
  8
0
 62
     4
 10
201.31699045
 20
502.74646643
 30
0.0
 11
199.31699045
 21
500.74646643
 31
0.0
  0
LINE
  5
525
  8
0
 62
     4
 10
290.56699045
 20
500.99646643
 30
0.0
 11
292.06699045
 21
502.49646643
 31
0.0
  0
LINE
  5
526
  8
0
 62
     4
 10
200.31699045
 20
501.74646643
 30
0.0
 11
291.31699045
 21
501.74646643
 31
0.0
  0
LINE
  5
527
  8
0
 62
     4
 10
200.31699045
 20
499.74646643
 30
0.0
 11
200.31699045
 21
503.74646643
 31
0.0
  0
LINE
  5
528
  8
0
 62
     4
 10
291.31699045
 20
499.74646643
 30
0.0
 11
291.31699045
 21
503.74646643
 31
0.0
  0
TEXT
  5
529
  8
TXT_DIM49
 10
298.897155
 20
503.24646643
 30
0.0
 40
2.5
  1
38
  7
ARIAL
  0
LINE
  5
52A
  8
0
 62
     4
 10
292.31699045
 20
502.74646643
 30
0.0
 11
290.31699045
 21
500.74646643
 31
0.0
  0
LINE
  5
52B
  8
0
 62
     4
 10
309.56699045
 20
500.99646643
 30
0.0
 11
311.06699045
 21
502.49646643
 31
0.0
  0
LINE
  5
52C
  8
0
 62
     4
 10
291.31699045
 20
501.74646643
 30
0.0
 11
310.31699045
 21
501.74646643
 31
0.0
  0
LINE
  5
52D
  8
0
 62
     4
 10
291.31699045
 20
499.74646643
 30
0.0
 11
291.31699045
 21
503.74646643
 31
0.0
  0
LINE
  5
52E
  8
0
 62
     4
 10
310.31699045
 20
499.74646643
 30
0.0
 11
310.31699045
 21
503.74646643
 31
0.0
  0
TEXT
  5
52F
  8
TXT_DIM49
 10
327.147155
 20
503.24646643
 30
0.0
 40
2.5
  1
75
  7
ARIAL
  0
LINE
  5
530
  8
0
 62
     4
 10
311.31699045
 20
502.74646643
 30
0.0
 11
309.31699045
 21
500.74646643
 31
0.0
  0
LINE
  5
531
  8
0
 62
     4
 10
347.06699045
 20
500.99646643
 30
0.0
 11
348.56699045
 21
502.49646643
 31
0.0
  0
LINE
  5
532
  8
0
 62
     4
 10
310.31699045
 20
501.74646643
 30
0.0
 11
347.81699045
 21
501.74646643
 31
0.0
  0
LINE
  5
533
  8
0
 62
     4
 10
310.31699045
 20
499.74646643
 30
0.0
 11
310.31699045
 21
503.74646643
 31
0.0
  0
LINE
  5
534
  8
0
 62
     4
 10
347.81699045
 20
499.74646643
 30
0.0
 11
347.81699045
 21
503.74646643
 31
0.0
  0
TEXT
  5
535
  8
TXT_DIM49
 10
340.897155
 20
460.4771636
 30
0.0
 40
2.5
  1
20
  7
ARIAL
  0
LINE
  5
536
  8
0
 62
     4
 10
346.81699045
 20
457.9771636
 30
0.0
 11
348.81699045
 21
459.9771636
 31
0.0
  0
LINE
  5
537
  8
0
 62
     4
 10
338.56699045
 20
459.7271636
 30
0.0
 11
337.06699045
 21
458.2271636
 31
0.0
  0
LINE
  5
538
  8
0
 62
     4
 10
347.81699045
 20
458.9771636
 30
0.0
 11
337.81699045
 21
458.9771636
 31
0.0
  0
LINE
  5
539
  8
0
 62
     4
 10
347.81699045
 20
464.4631596
 30
0.0
 11
347.81699045
 21
456.9771636
 31
0.0
  0
LINE
  5
53A
  8
0
 62
     4
 10
337.81699045
 20
468.30690401
 30
0.0
 11
337.81699045
 21
456.9771636
 31
0.0
  0
TEXT
  5
53B
  8
TXT_DIM49
 10
328.397155
 20
460.4771636
 30
0.0
 40
2.5
  1
30
  7
ARIAL
  0
LINE
  5
53C
  8
0
 62
     4
 10
336.81699045
 20
457.9771636
 30
0.0
 11
338.81699045
 21
459.9771636
 31
0.0
  0
LINE
  5
53D
  8
0
 62
     4
 10
323.56699045
 20
459.7271636
 30
0.0
 11
322.06699045
 21
458.2271636
 31
0.0
  0
LINE
  5
53E
  8
0
 62
     4
 10
337.81699045
 20
458.9771636
 30
0.0
 11
322.81699045
 21
458.9771636
 31
0.0
  0
LINE
  5
53F
  8
0
 62
     4
 10
337.81699045
 20
468.30690401
 30
0.0
 11
337.81699045
 21
456.9771636
 31
0.0
  0
LINE
  5
540
  8
0
 62
     4
 10
322.81699045
 20
468.30690401
 30
0.0
 11
322.81699045
 21
456.9771636
 31
0.0
  0
TEXT
  5
541
  8
TXT_DIM49
 10
312.147155
 20
460.4771636
 30
0.0
 40
2.5
  1
35
  7
ARIAL
  0
LINE
  5
542
  8
0
 62
     4
 10
321.81699045
 20
457.9771636
 30
0.0
 11
323.81699045
 21
459.9771636
 31
0.0
  0
LINE
  5
543
  8
0
 62
     4
 10
306.06699045
 20
459.7271636
 30
0.0
 11
304.56699045
 21
458.2271636
 31
0.0
  0
LINE
  5
544
  8
0
 62
     4
 10
322.81699045
 20
458.9771636
 30
0.0
 11
305.31699045
 21
458.9771636
 31
0.0
  0
LINE
  5
545
  8
0
 62
     4
 10
322.81699045
 20
468.30690401
 30
0.0
 11
322.81699045
 21
456.9771636
 31
0.0
  0
LINE
  5
546
  8
0
 62
     4
 10
305.31699045
 20
472.43190401
 30
0.0
 11
305.31699045
 21
456.9771636
 31
0.0
  0
TEXT
  5
547
  8
TXT_DIM49
 10
255.49907891
 20
460.4771636
 30
0.0
 40
2.5
  1
190
  7
ARIAL
  0
LINE
  5
548
  8
0
 62
     4
 10
304.31699045
 20
457.9771636
 30
0.0
 11
306.31699045
 21
459.9771636
 31
0.0
  0
LINE
  5
549
  8
0
 62
     4
 10
211.06699045
 20
459.7271636
 30
0.0
 11
209.56699045
 21
458.2271636
 31
0.0
  0
LINE
  5
54A
  8
0
 62
     4
 10
305.31699045
 20
458.9771636
 30
0.0
 11
210.31699045
 21
458.9771636
 31
0.0
  0
LINE
  5
54B
  8
0
 62
     4
 10
305.31699045
 20
472.43190401
 30
0.0
 11
305.31699045
 21
456.9771636
 31
0.0
  0
LINE
  5
54C
  8
0
 62
     4
 10
210.31699045
 20
472.43190401
 30
0.0
 11
210.31699045
 21
456.9771636
 31
0.0
  0
TEXT
  5
54D
  8
TXT_DIM49
 10
203.397155
 20
460.4771636
 30
0.0
 40
2.5
  1
20
  7
ARIAL
  0
LINE
  5
54E
  8
0
 62
     4
 10
209.31699045
 20
457.9771636
 30
0.0
 11
211.31699045
 21
459.9771636
 31
0.0
  0
LINE
  5
54F
  8
0
 62
     4
 10
201.06699045
 20
459.7271636
 30
0.0
 11
199.56699045
 21
458.2271636
 31
0.0
  0
LINE
  5
550
  8
0
 62
     4
 10
210.31699045
 20
458.9771636
 30
0.0
 11
200.31699045
 21
458.9771636
 31
0.0
  0
LINE
  5
551
  8
0
 62
     4
 10
210.31699045
 20
472.43190401
 30
0.0
 11
210.31699045
 21
456.9771636
 31
0.0
  0
LINE
  5
552
  8
0
 62
     4
 10
200.31699045
 20
470.44336893
 30
0.0
 11
200.31699045
 21
456.9771636
 31
0.0
  0
TEXT
  5
553
  8
TXT_DIM49
 10
203.897155
 20
437.97084489
 30
0.0
 40
2.5
  1
22
  7
ARIAL
  0
LINE
  5
554
  8
0
 62
     4
 10
201.31699045
 20
437.47084489
 30
0.0
 11
199.31699045
 21
435.47084489
 31
0.0
  0
LINE
  5
555
  8
0
 62
     4
 10
210.56699045
 20
435.72084489
 30
0.0
 11
212.06699045
 21
437.22084489
 31
0.0
  0
LINE
  5
556
  8
0
 62
     4
 10
200.31699045
 20
436.47084489
 30
0.0
 11
211.31699045
 21
436.47084489
 31
0.0
  0
LINE
  5
557
  8
0
 62
     4
 10
200.31699045
 20
438.47084489
 30
0.0
 11
200.31699045
 21
434.47084489
 31
0.0
  0
LINE
  5
558
  8
0
 62
     4
 10
211.31699045
 20
438.47084489
 30
0.0
 11
211.31699045
 21
434.47084489
 31
0.0
  0
TEXT
  5
559
  8
TXT_DIM49
 10
190.0665488
 20
441.13706856
 30
0.0
 40
2.5
  1
10
 50
90.00020741
  7
ARIAL
  0
LINE
  5
55A
  8
0
 62
     4
 10
190.5665488
 20
441.55690401
 30
0.0
 11
192.5665488
 21
439.55690401
 31
0.0
  0
LINE
  5
55B
  8
0
 62
     4
 10
192.3165488
 20
444.80690401
 30
0.0
 11
190.8165488
 21
446.30690401
 31
0.0
  0
LINE
  5
55C
  8
0
 62
     4
 10
191.5665488
 20
440.55690401
 30
0.0
 11
191.5665488
 21
445.55690401
 31
0.0
  0
LINE
  5
55D
  8
0
 62
     4
 10
193.5665488
 20
440.55690401
 30
0.0
 11
189.5665488
 21
440.55690401
 31
0.0
  0
LINE
  5
55E
  8
0
 62
     4
 10
193.5665488
 20
445.55690401
 30
0.0
 11
189.5665488
 21
445.55690401
 31
0.0
  0
TEXT
  5
55F
  8
TXT_DIM49
 10
190.0665488
 20
466.38706856
 30
0.0
 40
2.5
  1
91
 50
90.00020741
  7
ARIAL
  0
LINE
  5
560
  8
0
 62
     4
 10
190.5665488
 20
446.55690401
 30
0.0
 11
192.5665488
 21
444.55690401
 31
0.0
  0
LINE
  5
561
  8
0
 62
     4
 10
192.3165488
 20
490.30690401
 30
0.0
 11
190.8165488
 21
491.80690401
 31
0.0
  0
LINE
  5
562
  8
0
 62
     4
 10
191.5665488
 20
445.55690401
 30
0.0
 11
191.5665488
 21
491.05690401
 31
0.0
  0
LINE
  5
563
  8
0
 62
     4
 10
193.5665488
 20
445.55690401
 30
0.0
 11
189.5665488
 21
445.55690401
 31
0.0
  0
LINE
  5
564
  8
0
 62
     4
 10
193.5665488
 20
491.05690401
 30
0.0
 11
189.5665488
 21
491.05690401
 31
0.0
  0
TEXT
  5
565
  8
TXT_DIM49
 10
190.0665488
 20
491.63706856
 30
0.0
 40
2.5
  1
10
 50
90.00020741
  7
ARIAL
  0
LINE
  5
566
  8
0
 62
     4
 10
190.5665488
 20
492.05690401
 30
0.0
 11
192.5665488
 21
490.05690401
 31
0.0
  0
LINE
  5
567
  8
0
 62
     4
 10
192.3165488
 20
495.30690401
 30
0.0
 11
190.8165488
 21
496.80690401
 31
0.0
  0
LINE
  5
568
  8
0
 62
     4
 10
191.5665488
 20
491.05690401
 30
0.0
 11
191.5665488
 21
496.05690401
 31
0.0
  0
LINE
  5
569
  8
0
 62
     4
 10
193.5665488
 20
491.05690401
 30
0.0
 11
189.5665488
 21
491.05690401
 31
0.0
  0
LINE
  5
56A
  8
0
 62
     4
 10
193.5665488
 20
496.05690401
 30
0.0
 11
189.5665488
 21
496.05690401
 31
0.0
  0
LINE
  5
56B
  8
0
 62
     4
 10
211.31699045
 20
491.05690401
 30
0.0
 11
213.7537167
 21
486.65734599
 31
0.0
  0
TEXT
  5
56C
  8
TXT_DIM49
 10
213.7537167
 20
485.40734599
 30
0.0
 40
2.5
  1
Ø6.5
  7
ARIAL
  0
LINE
  5
56D
  8
0
 62
     5
 10
211.31699045
 20
445.55690401
 30
0.0
 11
213.22448853
 21
448.86544666
 31
0.0
  0
TEXT
  5
56E
  8
TXT_DIM49
 10
213.22448853
 20
447.61544666
 30
0.0
 40
2.5
  1
Ø6.5
  7
ARIAL
  0
TEXT
  5
56F
  8
TXT_DIM49
 10
297.8127724
 20
487.88706856
 30
0.0
 40
2.5
  1
25
 50
90.00020741
  7
ARIAL
  0
LINE
  5
570
  8
0
 62
     4
 10
300.3127724
 20
495.05690401
 30
0.0
 11
298.3127724
 21
497.05690401
 31
0.0
  0
LINE
  5
571
  8
0
 62
     4
 10
298.5627724
 20
484.30690401
 30
0.0
 11
300.0627724
 21
482.80690401
 31
0.0
  0
LINE
  5
572
  8
0
 62
     4
 10
299.3127724
 20
496.05690401
 30
0.0
 11
299.3127724
 21
483.55690401
 31
0.0
  0
LINE
  5
573
  8
0
 62
     4
 10
297.3127724
 20
496.05690401
 30
0.0
 11
301.3127724
 21
496.05690401
 31
0.0
  0
LINE
  5
574
  8
0
 62
     4
 10
301.3127724
 20
483.55690401
 30
0.0
 11
297.3127724
 21
483.55690401
 31
0.0
  0
TEXT
  5
575
  8
TXT_DIM49
 10
297.8127724
 20
466.38706856
 30
0.0
 40
2.5
  1
61
 50
90.00020741
  7
ARIAL
  0
LINE
  5
576
  8
0
 62
     4
 10
300.3127724
 20
482.55690401
 30
0.0
 11
298.3127724
 21
484.55690401
 31
0.0
  0
LINE
  5
577
  8
0
 62
     4
 10
298.5627724
 20
453.80690401
 30
0.0
 11
300.0627724
 21
452.30690401
 31
0.0
  0
LINE
  5
578
  8
0
 62
     4
 10
299.3127724
 20
483.55690401
 30
0.0
 11
299.3127724
 21
453.05690401
 31
0.0
  0
LINE
  5
579
  8
0
 62
     4
 10
301.3127724
 20
483.55690401
 30
0.0
 11
297.3127724
 21
483.55690401
 31
0.0
  0
LINE
  5
57A
  8
0
 62
     4
 10
299.0742227
 20
453.05690401
 30
0.0
 11
301.3127724
 21
453.05690401
 31
0.0
  0
TEXT
  5
57B
  8
TXT_DIM49
 10
297.8127724
 20
444.88706856
 30
0.0
 40
2.5
  1
25
 50
90.00020741
  7
ARIAL
  0
LINE
  5
57C
  8
0
 62
     4
 10
300.3127724
 20
452.05690401
 30
0.0
 11
298.3127724
 21
454.05690401
 31
0.0
  0
LINE
  5
57D
  8
0
 62
     4
 10
298.5627724
 20
441.30690401
 30
0.0
 11
300.0627724
 21
439.80690401
 31
0.0
  0
LINE
  5
57E
  8
0
 62
     4
 10
299.3127724
 20
453.05690401
 30
0.0
 11
299.3127724
 21
440.55690401
 31
0.0
  0
LINE
  5
57F
  8
0
 62
     4
 10
299.0742227
 20
453.05690401
 30
0.0
 11
301.3127724
 21
453.05690401
 31
0.0
  0
LINE
  5
580
  8
0
 62
     4
 10
297.3127724
 20
440.55690401
 30
0.0
 11
301.3127724
 21
440.55690401
 31
0.0
  0
TEXT
  5
581
  8
TXT_DIM49
 10
316.9546504
 20
475.14740908
 30
0.0
 40
2.5
  1
45
 50
292.4998427350001
  7
ARIAL
  0
TEXT
  5
582
  8
TXT_DIM49
 10
318.42402884
 20
471.60001573
 30
0.0
 40
2.5
  1
°
 50
292.4998427350001
  7
ARIAL
  0
LINE
  5
583
  8
0
 62
     4
 10
320.66034854
 20
467.51832199
 30
0.0
 11
320.56950058
 21
464.69135424
 31
0.0
  0
LINE
  5
584
  8
0
 62
     4
 10
314.4209265
 20
478.53320128
 30
0.0
 11
315.87197313
 21
480.08060674
 31
0.0
  0
POLYLINE
  5
585
  8
0
 62
     4
 66
     1
 10
0.0
 20
0.0
 30
0.0
  0
VERTEX
  5
978
  8
0
 62
     4
 10
315.1464498667054
 20
479.3069040171824
 30
0.0
  0
VERTEX
  5
979
  8
0
 62
     4
 10
315.5051990642386
 20
475.6644622215632
 30
0.0
  0
VERTEX
  5
97A
  8
0
 62
     4
 10
316.567660129287
 20
472.1619974199616
 30
0.0
  0
VERTEX
  5
97B
  8
0
 62
     4
 10
318.293003279308
 20
468.9341073693375
 30
0.0
  0
VERTEX
  5
97C
  8
0
 62
     4
 10
320.6149245452017
 20
466.1048380730451
 30
0.0
  0
SEQEND
  5
9D2
  8
0
 62
     4
  0
LINE
  5
586
  8
0
 62
     5
 10
322.81699045
 20
468.30690401
 30
0.0
 11
327.96852698
 21
488.32889828
 31
0.0
  0
TEXT
  5
587
  8
TXT_DIM49
 10
327.96852698
 20
487.07889828
 30
0.0
 40
2.5
  1
Slobgat 13 x 32
  7
ARIAL
  0
LINE
  5
588
  8
0
 62
     5
 10
337.81699045
 20
468.30690401
 30
0.0
 11
341.63820193
 21
483.71705365
 31
0.0
  0
TEXT
  5
589
  8
TXT_DIM49
 10
341.63820193
 20
482.46705365
 30
0.0
 40
2.5
  1
Slobgat 13 x 32
  7
ARIAL
  0
LINE
  5
58A
  8
0
 62
     5
 10
210.31699045
 20
468.30690401
 30
0.0
 11
214.01876246
 21
474.38322362
 31
0.0
  0
TEXT
  5
58B
  8
TXT_DIM49
 10
214.01876246
 20
473.13322362
 30
0.0
 40
2.5
  1
Ø11
  7
ARIAL
  0
LINE
  5
58C
  8
0
 62
     5
 10
151.05426306
 20
490.80690401
 30
0.0
 11
156.42013522
 21
479.7250396
 31
0.0
  0
TEXT
  5
58D
  8
TXT_DIM49
 10
156.42013522
 20
478.4750396
 30
0.0
 40
2.5
  1
Ø6.5
  7
ARIAL
  0
LINE
  5
58E
  8
0
 62
     5
 10
151.05426306
 20
445.80690401
 30
0.0
 11
156.97159443
 21
454.56080089
 31
0.0
  0
TEXT
  5
58F
  8
TXT_DIM49
 10
156.97159443
 20
453.31080089
 30
0.0
 40
2.5
  1
Ø6.5
  7
ARIAL
  0
TEXT
  5
590
  8
TXT_DIM49
 10
141.00942761
 20
510.46766207
 30
0.0
 40
2.5
  1
46
  7
ARIAL
  0
LINE
  5
591
  8
0
 62
     4
 10
132.55426306
 20
509.96766207
 30
0.0
 11
130.55426306
 21
507.96766207
 31
0.0
  0
LINE
  5
592
  8
0
 62
     4
 10
153.55426306
 20
508.21766207
 30
0.0
 11
155.05426306
 21
509.71766207
 31
0.0
  0
LINE
  5
593
  8
0
 62
     4
 10
131.55426306
 20
508.96766207
 30
0.0
 11
154.30426306
 21
508.96766207
 31
0.0
  0
LINE
  5
594
  8
0
 62
     4
 10
131.55426306
 20
506.96766207
 30
0.0
 11
131.55426306
 21
510.96766207
 31
0.0
  0
LINE
  5
595
  8
0
 62
     4
 10
154.30426306
 20
506.96766207
 30
0.0
 11
154.30426306
 21
510.96766207
 31
0.0
  0
TEXT
  5
596
  8
TXT_DIM49
 10
133.00942761
 20
503.18322038
 30
0.0
 40
2.5
  1
14
  7
ARIAL
  0
LINE
  5
597
  8
0
 62
     4
 10
132.55426306
 20
502.68322038
 30
0.0
 11
130.55426306
 21
500.68322038
 31
0.0
  0
LINE
  5
598
  8
0
 62
     4
 10
137.55426306
 20
500.93322038
 30
0.0
 11
139.05426306
 21
502.43322038
 31
0.0
  0
LINE
  5
599
  8
0
 62
     4
 10
131.55426306
 20
501.68322038
 30
0.0
 11
138.30426306
 21
501.68322038
 31
0.0
  0
LINE
  5
59A
  8
0
 62
     4
 10
131.55426306
 20
499.68322038
 30
0.0
 11
131.55426306
 21
503.68322038
 31
0.0
  0
LINE
  5
59B
  8
0
 62
     4
 10
138.30426306
 20
499.68322038
 30
0.0
 11
138.30426306
 21
503.68322038
 31
0.0
  0
TEXT
  5
59C
  8
TXT_DIM49
 10
144.38442761
 20
503.18322038
 30
0.0
 40
2.5
  1
32
  7
ARIAL
  0
LINE
  5
59D
  8
0
 62
     4
 10
139.30426306
 20
502.68322038
 30
0.0
 11
137.30426306
 21
500.68322038
 31
0.0
  0
LINE
  5
59E
  8
0
 62
     4
 10
153.55426306
 20
500.93322038
 30
0.0
 11
155.05426306
 21
502.43322038
 31
0.0
  0
LINE
  5
59F
  8
0
 62
     4
 10
138.30426306
 20
501.68322038
 30
0.0
 11
154.30426306
 21
501.68322038
 31
0.0
  0
LINE
  5
5A0
  8
0
 62
     4
 10
138.30426306
 20
499.68322038
 30
0.0
 11
138.30426306
 21
503.68322038
 31
0.0
  0
LINE
  5
5A1
  8
0
 62
     4
 10
154.30426306
 20
499.68322038
 30
0.0
 11
154.30426306
 21
503.68322038
 31
0.0
  0
TEXT
  5
5A2
  8
TXT_DIM49
 10
122.74253495
 20
486.51206856
 30
0.0
 40
2.5
  1
31
 50
90.00020741
  7
ARIAL
  0
LINE
  5
5A3
  8
0
 62
     4
 10
125.24253495
 20
495.05690401
 30
0.0
 11
123.24253495
 21
497.05690401
 31
0.0
  0
LINE
  5
5A4
  8
0
 62
     4
 10
123.49253495
 20
481.55690401
 30
0.0
 11
124.99253495
 21
480.05690401
 31
0.0
  0
LINE
  5
5A5
  8
0
 62
     4
 10
124.24253495
 20
496.05690401
 30
0.0
 11
124.24253495
 21
480.80690401
 31
0.0
  0
LINE
  5
5A6
  8
0
 62
     4
 10
126.24253495
 20
496.05690401
 30
0.0
 11
122.24253495
 21
496.05690401
 31
0.0
  0
LINE
  5
5A7
  8
0
 62
     4
 10
126.24253495
 20
480.80690401
 30
0.0
 11
122.24253495
 21
480.80690401
 31
0.0
  0
TEXT
  5
5A8
  8
TXT_DIM49
 10
122.74253495
 20
466.38706856
 30
0.0
 40
2.5
  1
50
 50
90.00020741
  7
ARIAL
  0
LINE
  5
5A9
  8
0
 62
     4
 10
125.24253495
 20
479.80690401
 30
0.0
 11
123.24253495
 21
481.80690401
 31
0.0
  0
LINE
  5
5AA
  8
0
 62
     4
 10
123.49253495
 20
456.55690401
 30
0.0
 11
124.99253495
 21
455.05690401
 31
0.0
  0
LINE
  5
5AB
  8
0
 62
     4
 10
124.24253495
 20
480.80690401
 30
0.0
 11
124.24253495
 21
455.80690401
 31
0.0
  0
LINE
  5
5AC
  8
0
 62
     4
 10
126.24253495
 20
480.80690401
 30
0.0
 11
122.24253495
 21
480.80690401
 31
0.0
  0
LINE
  5
5AD
  8
0
 62
     4
 10
126.24253495
 20
455.80690401
 30
0.0
 11
122.24253495
 21
455.80690401
 31
0.0
  0
TEXT
  5
5AE
  8
TXT_DIM49
 10
122.74253495
 20
446.26206856
 30
0.0
 40
2.5
  1
31
 50
90.00020741
  7
ARIAL
  0
LINE
  5
5AF
  8
0
 62
     4
 10
125.24253495
 20
454.80690401
 30
0.0
 11
123.24253495
 21
456.80690401
 31
0.0
  0
LINE
  5
5B0
  8
0
 62
     4
 10
123.49253495
 20
441.30690401
 30
0.0
 11
124.99253495
 21
439.80690401
 31
0.0
  0
LINE
  5
5B1
  8
0
 62
     4
 10
124.24253495
 20
455.80690401
 30
0.0
 11
124.24253495
 21
440.55690401
 31
0.0
  0
LINE
  5
5B2
  8
0
 62
     4
 10
126.24253495
 20
455.80690401
 30
0.0
 11
122.24253495
 21
455.80690401
 31
0.0
  0
LINE
  5
5B3
  8
0
 62
     4
 10
126.24253495
 20
440.55690401
 30
0.0
 11
122.24253495
 21
440.55690401
 31
0.0
  0
TEXT
  5
5B4
  8
TXT_DIM49
 10
112.82057302
 20
465.4271509
 30
0.0
 40
2.5
  1
111
 50
90.00020741
  7
ARIAL
  0
LINE
  5
5B5
  8
0
 62
     4
 10
113.32057302
 20
441.55690401
 30
0.0
 11
115.32057302
 21
439.55690401
 31
0.0
  0
LINE
  5
5B6
  8
0
 62
     4
 10
115.07057302
 20
495.30690401
 30
0.0
 11
113.57057302
 21
496.80690401
 31
0.0
  0
LINE
  5
5B7
  8
0
 62
     4
 10
114.32057302
 20
440.55690401
 30
0.0
 11
114.32057302
 21
496.05690401
 31
0.0
  0
LINE
  5
5B8
  8
0
 62
     4
 10
116.32057302
 20
440.55690401
 30
0.0
 11
112.32057302
 21
440.55690401
 31
0.0
  0
LINE
  5
5B9
  8
0
 62
     4
 10
116.32057302
 20
496.05690401
 30
0.0
 11
112.32057302
 21
496.05690401
 31
0.0
  0
TEXT
  5
5BA
  8
TXT_DIM49
 10
151.71934534
 20
457.30690401
 30
0.0
 40
2.5
  1
7
  7
ARIAL
  0
LINE
  5
5BB
  8
0
 62
     4
 10
152.05426306
 20
456.80690401
 30
0.0
 11
150.05426306
 21
454.80690401
 31
0.0
  0
LINE
  5
5BC
  8
0
 62
     4
 10
153.55426306
 20
455.05690401
 30
0.0
 11
155.05426306
 21
456.55690401
 31
0.0
  0
LINE
  5
5BD
  8
0
 62
     4
 10
151.05426306
 20
455.80690401
 30
0.0
 11
154.30426306
 21
455.80690401
 31
0.0
  0
LINE
  5
5BE
  8
0
 62
     4
 10
151.05426306
 20
453.80690401
 30
0.0
 11
151.05426306
 21
457.80690401
 31
0.0
  0
LINE
  5
5BF
  8
0
 62
     4
 10
154.30426306
 20
453.80690401
 30
0.0
 11
154.30426306
 21
457.80690401
 31
0.0
  0
TEXT
  5
5C0
  8
TXT_DIM49
 10
160.41374305
 20
440.96723293
 30
0.0
 40
2.5
  1
11
 50
90.00020741
  7
ARIAL
  0
LINE
  5
5C1
  8
0
 62
     4
 10
160.91374305
 20
441.55690401
 30
0.0
 11
162.91374305
 21
439.55690401
 31
0.0
  0
LINE
  5
5C2
  8
0
 62
     4
 10
162.66374305
 20
445.05690401
 30
0.0
 11
161.16374305
 21
446.55690401
 31
0.0
  0
LINE
  5
5C3
  8
0
 62
     4
 10
161.91374305
 20
440.55690401
 30
0.0
 11
161.91374305
 21
445.80690401
 31
0.0
  0
LINE
  5
5C4
  8
0
 62
     4
 10
161.91374305
 20
443.18190401
 30
0.0
 11
161.41374259
 21
442.88706847
 31
0.0
  0
LINE
  5
5C5
  8
0
 62
     4
 10
159.91374305
 20
440.55690401
 30
0.0
 11
163.91374305
 21
440.55690401
 31
0.0
  0
LINE
  5
5C6
  8
0
 62
     4
 10
159.91374305
 20
445.80690401
 30
0.0
 11
163.91374305
 21
445.80690401
 31
0.0
  0
TEXT
  5
5C7
  8
TXT_DIM49
 10
160.41374305
 20
448.15690396
 30
0.0
 40
2.5
  1
11
 50
90.00020741
  7
ARIAL
  0
LINE
  5
5C8
  8
0
 62
     4
 10
160.91374305
 20
446.80690401
 30
0.0
 11
162.91374305
 21
444.80690401
 31
0.0
  0
LINE
  5
5C9
  8
0
 62
     4
 10
162.66374305
 20
450.30690401
 30
0.0
 11
161.16374305
 21
451.80690401
 31
0.0
  0
LINE
  5
5CA
  8
0
 62
     4
 10
161.91374305
 20
445.80690401
 30
0.0
 11
161.91374305
 21
451.05690401
 31
0.0
  0
LINE
  5
5CB
  8
0
 62
     4
 10
161.91374305
 20
448.43190401
 30
0.0
 11
161.41374259
 21
450.07673924
 31
0.0
  0
LINE
  5
5CC
  8
0
 62
     4
 10
159.91374305
 20
445.80690401
 30
0.0
 11
163.91374305
 21
445.80690401
 31
0.0
  0
LINE
  5
5CD
  8
0
 62
     4
 10
159.91374305
 20
451.05690401
 30
0.0
 11
163.91374305
 21
451.05690401
 31
0.0
  0
TEXT
  5
5CE
  8
TXT_DIM49
 10
159.65253814
 20
488.88706856
 30
0.0
 40
2.5
  1
21
 50
90.00020741
  7
ARIAL
  0
LINE
  5
5CF
  8
0
 62
     4
 10
162.15253814
 20
495.05690401
 30
0.0
 11
160.15253814
 21
497.05690401
 31
0.0
  0
LINE
  5
5D0
  8
0
 62
     4
 10
160.40253814
 20
486.30690401
 30
0.0
 11
161.90253814
 21
484.80690401
 31
0.0
  0
LINE
  5
5D1
  8
0
 62
     4
 10
161.15253814
 20
496.05690401
 30
0.0
 11
161.15253814
 21
485.55690401
 31
0.0
  0
LINE
  5
5D2
  8
0
 62
     4
 10
159.15253814
 20
496.05690401
 30
0.0
 11
163.15253814
 21
496.05690401
 31
0.0
  0
LINE
  5
5D3
  8
0
 62
     4
 10
159.15253814
 20
485.55690401
 30
0.0
 11
163.15253814
 21
485.55690401
 31
0.0
  0
TEXT
  5
5D4
  8
TXT_DIM49
 10
252.43723734
 20
385.20553589
 30
0.0
 40
2.5
  1
220
  7
ARIAL
  0
LINE
  5
5D5
  8
0
 62
     4
 10
201.31699045
 20
384.70553589
 30
0.0
 11
199.31699045
 21
382.70553589
 31
0.0
  0
LINE
  5
5D6
  8
0
 62
     4
 10
309.56699045
 20
382.95553589
 30
0.0
 11
311.06699045
 21
384.45553589
 31
0.0
  0
LINE
  5
5D7
  8
0
 62
     4
 10
200.31699045
 20
383.70553589
 30
0.0
 11
310.31699045
 21
383.70553589
 31
0.0
  0
LINE
  5
5D8
  8
0
 62
     4
 10
200.31699045
 20
381.70553589
 30
0.0
 11
200.31699045
 21
385.70553589
 31
0.0
  0
LINE
  5
5D9
  8
0
 62
     4
 10
310.31699045
 20
382.64512986
 30
0.0
 11
310.31699045
 21
385.70553589
 31
0.0
  0
TEXT
  5
5DA
  8
TXT_DIM49
 10
327.147155
 20
385.20553589
 30
0.0
 40
2.5
  1
75
  7
ARIAL
  0
LINE
  5
5DB
  8
0
 62
     4
 10
311.31699045
 20
384.70553589
 30
0.0
 11
309.31699045
 21
382.70553589
 31
0.0
  0
LINE
  5
5DC
  8
0
 62
     4
 10
347.06699045
 20
382.95553589
 30
0.0
 11
348.56699045
 21
384.45553589
 31
0.0
  0
LINE
  5
5DD
  8
0
 62
     4
 10
310.31699045
 20
383.70553589
 30
0.0
 11
347.81699045
 21
383.70553589
 31
0.0
  0
LINE
  5
5DE
  8
0
 62
     4
 10
310.31699045
 20
382.64512986
 30
0.0
 11
310.31699045
 21
385.70553589
 31
0.0
  0
LINE
  5
5DF
  8
0
 62
     4
 10
347.81699045
 20
381.70553589
 30
0.0
 11
347.81699045
 21
385.70553589
 31
0.0
  0
TEXT
  5
5E0
  8
TXT_DIM49
 10
310.10707273
 20
389.80629561
 30
0.0
 40
2.5
  1
3
  7
ARIAL
  0
LINE
  5
5E1
  8
0
 62
     4
 10
311.31699045
 20
389.30629561
 30
0.0
 11
309.31699045
 21
387.30629561
 31
0.0
  0
LINE
  5
5E2
  8
0
 62
     4
 10
311.06699045
 20
387.55629561
 30
0.0
 11
312.56699045
 21
389.05629561
 31
0.0
  0
LINE
  5
5E3
  8
0
 62
     4
 10
310.31699045
 20
388.30629561
 30
0.0
 11
311.81699045
 21
388.30629561
 31
0.0
  0
LINE
  5
5E4
  8
0
 62
     4
 10
310.31699045
 20
386.30629561
 30
0.0
 11
310.31699045
 21
390.30629561
 31
0.0
  0
LINE
  5
5E5
  8
0
 62
     4
 10
311.81699045
 20
386.30629561
 30
0.0
 11
311.81699045
 21
390.30629561
 31
0.0
  0
ENDSEC
  0
EOF
