  0
SECTION
  2
HEADER
  9
$ACADVER
  1
AC1006
  9
$DWGCODEPAGE
  3
ansi_1252
  9
$INSBASE
 10
0.0
 20
0.0
 30
0.0
  9
$EXTMIN
 10
-220.89603706
 20
223.39438854
  9
$EXTMAX
 10
616.63219392
 20
631.82026493
  9
$LIMMIN
 10
-220.89603706
 20
223.39438854
  9
$LIMMAX
 10
616.63219392
 20
631.82026493
  9
$ORTHOMODE
 70
     0
  9
$REGENMODE
 70
     1
  9
$FILLMODE
 70
     1
  9
$QTEXTMODE
 70
     0
  9
$MIRRTEXT
 70
     1
  9
$DRAGMODE
 70
     2
  9
$LTSCALE
 40
1.0
  9
$OSMODE
 70
    37
  9
$ATTMODE
 70
     1
  9
$TEXTSIZE
 40
1.0
  9
$TRACEWID
 40
0.05
  9
$TEXTSTYLE
  7
STANDARD
  9
$CLAYER
  8
0
  9
$CELTYPE
  6
BYBLOCK
  9
$CECOLOR
 62
   256
  9
$DIMSCALE
 40
1.0
  9
$DIMASZ
 40
0.18
  9
$DIMEXO
 40
0.0625
  9
$DIMDLI
 40
0.38
  9
$DIMRND
 40
0.0
  9
$DIMDLE
 40
0.0
  9
$DIMEXE
 40
0.18
  9
$DIMTP
 40
0.0
  9
$DIMTM
 40
0.0
  9
$DIMTXT
 40
0.18
  9
$DIMCEN
 40
0.09
  9
$DIMTSZ
 40
0.0
  9
$DIMTOL
 70
     0
  9
$DIMLIM
 70
     0
  9
$DIMTIH
 70
     1
  9
$DIMTOH
 70
     1
  9
$DIMSE1
 70
     0
  9
$DIMSE2
 70
     0
  9
$DIMTAD
 70
     0
  9
$DIMZIN
 70
     0
  9
$DIMBLK
  1

  9
$DIMASO
 70
     1
  9
$DIMSHO
 70
     1
  9
$DIMPOST
  1

  9
$DIMAPOST
  1

  9
$DIMALT
 70
     0
  9
$DIMALTD
 70
     2
  9
$DIMALTF
 40
25.4
  9
$DIMLFAC
 40
1.0
  9
$DIMTOFL
 70
     0
  9
$DIMTVP
 40
0.0
  9
$DIMTIX
 70
     0
  9
$DIMSOXD
 70
     0
  9
$DIMSAH
 70
     0
  9
$DIMBLK1
  1

  9
$DIMBLK2
  1

  9
$LUNITS
 70
     2
  9
$LUPREC
 70
     4
  9
$SKETCHINC
 40
0.1
  9
$FILLETRAD
 40
0.5
  9
$AUNITS
 70
     0
  9
$AUPREC
 70
     0
  9
$MENU
  1
.
  9
$ELEVATION
 40
0.0
  9
$THICKNESS
 40
0.0
  9
$LIMCHECK
 70
     0
  9
$CHAMFERA
 40
0.0
  9
$CHAMFERB
 40
0.0
  9
$SKPOLY
 70
     0
  9
$TDCREATE
 40
2447893.125
  9
$TDUPDATE
 40
2460791.511407558
  9
$TDINDWG
 40
0.0
  9
$TDUSRTIMER
 40
0.0
  9
$USRTIMER
 70
     1
  9
$ANGBASE
 50
0.0
  9
$ANGDIR
 70
     0
  9
$PDMODE
 70
     0
  9
$PDSIZE
 40
0.0
  9
$PLINEWID
 40
0.0
  9
$COORDS
 70
     1
  9
$SPLFRAME
 70
     0
  9
$SPLINETYPE
 70
     6
  9
$SPLINESEGS
 70
     8
  9
$ATTDIA
 70
     0
  9
$ATTREQ
 70
     1
  9
$HANDLING
 70
     1
  9
$HANDSEED
  5
9B9
  9
$SURFTAB1
 70
     6
  9
$SURFTAB2
 70
     6
  9
$SURFTYPE
 70
     6
  9
$SURFU
 70
     6
  9
$SURFV
 70
     6
  9
$UCSNAME
  2

  9
$UCSORG
 10
0.0
 20
0.0
 30
0.0
  9
$UCSXDIR
 10
1.0
 20
0.0
 30
0.0
  9
$UCSYDIR
 10
0.0
 20
1.0
 30
0.0
  9
$USERI1
 70
     0
  9
$USERI2
 70
     0
  9
$USERI3
 70
     0
  9
$USERI4
 70
     0
  9
$USERI5
 70
     0
  9
$USERR1
 40
0.0
  9
$USERR2
 40
0.0
  9
$USERR3
 40
0.0
  9
$USERR4
 40
0.0
  9
$USERR5
 40
0.0
  9
$WORLDVIEW
 70
     1
  0
ENDSEC
  0
SECTION
  2
TABLES
  0
TABLE
  2
VPORT
 70
     1
  0
VPORT
  2
*ACTIVE
 70
     0
 10
0.0
 20
0.0
 11
1.0
 21
1.0
 12
197.86807843
 22
427.60732673
 13
0.0
 23
0.0
 14
1.0
 24
1.0
 15
0.0
 25
0.0
 16
0.0
 26
0.0
 36
1.0
 17
0.0
 27
0.0
 37
0.0
 40
408.425876391
 41
2.0506248
 42
50.0
 43
0.0
 44
0.0
 50
0.0
 51
0.0
 71
     0
 72
   100
 73
     1
 74
     1
 75
     0
 76
     0
 77
     0
 78
     0
  0
ENDTAB
  0
TABLE
  2
LTYPE
 70
    19
  0
LTYPE
  2
CONTINUOUS
 70
     0
  3
Solid line
 72
    65
 73
     0
 40
0.0
  0
LTYPE
  2
DOT
 70
     0
  3
..............
 72
    65
 73
     2
 40
2.0
 49
0.5
 49
-1.5
  0
LTYPE
  2
HIDDEN
 70
     0
  3
-- -- -- -- --
 72
    65
 73
     2
 40
7.0
 49
4.0
 49
-3.0
  0
LTYPE
  2
DASHDOT
 70
     0
  3
--.--.--.--.--
 72
    65
 73
     4
 40
8.5
 49
4.0
 49
-2.0
 49
0.5
 49
-2.0
  0
LTYPE
  2
STRICHPUNKT2
 70
     0
  3
--.--.--.--.--
 72
    65
 73
     4
 40
18.5
 49
10.0
 49
-4.0
 49
0.5
 49
-4.0
  0
LTYPE
  2
STRICHPUNKT3
 70
     0
  3
--.--.--.--.--
 72
    65
 73
     4
 40
35.5
 49
25.0
 49
-5.0
 49
0.5
 49
-5.0
  0
LTYPE
  2
PHANTOM
 70
     0
  3
--..--..--..--
 72
    65
 73
     6
 40
23.0
 49
10.0
 49
-4.0
 49
0.5
 49
-4.0
 49
0.5
 49
-4.0
  0
LTYPE
  2
PHANTOM2
 70
     0
  3
--..--..--..--
 72
    65
 73
     6
 40
33.0
 49
20.0
 49
-4.0
 49
0.5
 49
-4.0
 49
0.5
 49
-4.0
  0
LTYPE
  2
PHANTOM3
 70
     0
  3
--..--..--..--
 72
    65
 73
     6
 40
50.0
 49
37.0
 49
-4.0
 49
0.5
 49
-4.0
 49
0.5
 49
-4.0
  0
LTYPE
  2
STR3PKT
 70
     0
  3
--...--...--...
 72
    65
 73
     8
 40
31.5
 49
20.0
 49
-2.5
 49
0.5
 49
-2.5
 49
0.5
 49
-2.5
 49
0.5
 49
-2.5
  0
LTYPE
  2
2STRPKT
 70
     0
  3
--.--.--.--.--
 72
    65
 73
     6
 40
28.0
 49
10.0
 49
-2.5
 49
10.0
 49
-2.5
 49
0.5
 49
-2.5
  0
LTYPE
  2
GESTRICHELT2
 70
     0
  3
-- -- -- -- --
 72
    65
 73
     2
 40
25.0
 49
10.0
 49
-15.0
  0
LTYPE
  2
2STR2PKT
 70
     0
  3
--..--..--..--
 72
    65
 73
     8
 40
31.0
 49
10.0
 49
-2.5
 49
10.0
 49
-2.5
 49
0.5
 49
-2.5
 49
0.5
 49
-2.5
  0
LTYPE
  2
STR3PKT2
 70
     0
  3
--...--...--...
 72
    65
 73
     8
 40
21.0
 49
10.0
 49
-2.5
 49
0.5
 49
-2.5
 49
0.5
 49
-2.5
 49
0.5
 49
-2.0
  0
LTYPE
  2
2STR3PKT
 70
     0
  3
--...--...--...
 72
    65
 73
    10
 40
34.0
 49
10.0
 49
-2.5
 49
10.0
 49
-2.5
 49
0.5
 49
-2.5
 49
0.5
 49
-2.5
 49
0.5
 49
-2.5
  0
LTYPE
  2
STRKSTR
 70
     0
  3
-- - -- - -- -
 72
    65
 73
     4
 40
30.0
 49
20.0
 49
-2.5
 49
5.0
 49
-2.5
  0
LTYPE
  2
STRKSTR2
 70
     0
  3
-- - -- - -- -
 72
    65
 73
     6
 40
37.5
 49
20.0
 49
-2.5
 49
5.0
 49
-2.5
 49
5.0
 49
-2.5
  0
LTYPE
  2
STRKSTR3
 70
     0
  3
-- - -- - -- -
 72
    65
 73
     8
 40
45.0
 49
20.0
 49
-2.5
 49
5.0
 49
-2.5
 49
5.0
 49
-2.5
 49
5.0
 49
-2.5
  0
LTYPE
  2
PUNKT2
 70
     0
  3
..............
 72
    65
 73
     2
 40
3.5
 49
0.5
 49
-3.0
  0
ENDTAB
  0
TABLE
  2
LAYER
 70
    17
  0
LAYER
  2
0
 70
     0
 62
     7
  6
CONTINUOUS
  0
LAYER
  2
LE_GREEN
 70
     0
 62
     3
  6
CONTINUOUS
  0
LAYER
  2
LE_RED
 70
     0
 62
     1
  6
CONTINUOUS
  0
LAYER
  2
LE_ALL
 70
     0
 62
     7
  6
CONTINUOUS
  0
LAYER
  2
LE_HIDDEN1
 70
     0
 62
     3
  6
HIDDEN
  0
LAYER
  2
LE_HIDDEN
 70
     0
 62
     7
  6
CONTINUOUS
  0
LAYER
  2
LE_MIDDLE
 70
     0
 62
     7
  6
CONTINUOUS
  0
LAYER
  2
TXT_YELLOW
 70
     0
 62
     2
  6
CONTINUOUS
  0
LAYER
  2
TXT_DIM49
 70
     0
 62
     2
  6
CONTINUOUS
  0
LAYER
  2
TXT_ALL
 70
     0
 62
     7
  6
CONTINUOUS
  0
LAYER
  2
DIM49
 70
     0
 62
     4
  6
CONTINUOUS
  0
LAYER
  2
HATCH
 70
     0
 62
     3
  6
CONTINUOUS
  0
LAYER
  2
APPLE
 70
     0
 62
     7
  6
CONTINUOUS
  0
LAYER
  2
10
 70
     0
 62
     7
  6
CONTINUOUS
  0
LAYER
  2
20
 70
     0
 62
     7
  6
CONTINUOUS
  0
LAYER
  2
47
 70
     0
 62
     7
  6
CONTINUOUS
  0
LAYER
  2
49
 70
     0
 62
     7
  6
CONTINUOUS
  0
ENDTAB
  0
TABLE
  2
STYLE
 70
     5
  0
STYLE
  2
MONOTXT
 70
     0
 40
0.0
 41
1.0
 50
0.0
 71
     0
 42
1.0
  3
monotxt.shx
  4

  0
STYLE
  2
STANDARD
 70
     0
 40
0.0
 41
1.0
 50
0.0
 71
     0
 42
1.0
  3
txt
  4

  0
STYLE
  2
ARIAL
 70
     0
 40
0.0
 41
1.0
 50
0.0
 71
     0
 42
1.0
  3
arial.ttf
  4

  0
STYLE
  2
ARIAL_NARROW
 70
     0
 40
0.0
 41
1.0
 50
0.0
 71
     0
 42
1.0
  3
ArialN.ttf
  4

  0
STYLE
  2
ISOCPEUR
 70
     0
 40
0.0
 41
1.0
 50
0.0
 71
     0
 42
1.0
  3
ISOCPEUR.ttf
  4

  0
ENDTAB
  0
TABLE
  2
VIEW
 70
     0
  0
ENDTAB
  0
TABLE
  2
UCS
 70
     0
  0
ENDTAB
  0
ENDSEC
  0
SECTION
  2
BLOCKS
  0
ENDSEC
  0
SECTION
  2
ENTITIES
  0
POLYLINE
  5
16E
  8
0
 66
     1
 10
0.0
 20
0.0
 30
0.0
 70
     1
  0
VERTEX
  5
16F
  8
0
 10
-37.85910516
 20
254.96994443
 30
0.0
  0
VERTEX
  5
170
  8
0
 10
382.14089484
 20
254.96994443
 30
0.0
  0
VERTEX
  5
171
  8
0
 10
382.14089484
 20
551.96994443
 30
0.0
  0
VERTEX
  5
172
  8
0
 10
-37.85910516
 20
551.96994443
 30
0.0
  0
SEQEND
  5
173
  8
0
  0
POLYLINE
  5
174
  8
0
 66
     1
 10
0.0
 20
0.0
 30
0.0
 70
     1
  0
VERTEX
  5
175
  8
0
 10
-32.85910516
 20
259.96994443
 30
0.0
  0
VERTEX
  5
176
  8
0
 10
377.14089484
 20
259.96994443
 30
0.0
  0
VERTEX
  5
177
  8
0
 10
377.14089484
 20
546.96994443
 30
0.0
  0
VERTEX
  5
178
  8
0
 10
-32.85910516
 20
546.96994443
 30
0.0
  0
SEQEND
  5
179
  8
0
  0
LINE
  5
17A
  8
0
 10
192.14089484
 20
259.96994443
 30
0.0
 11
192.14089484
 21
254.96994443
 31
0.0
  0
LINE
  5
17B
  8
0
 10
192.14089484
 20
546.96994443
 30
0.0
 11
192.14089484
 21
551.96994443
 31
0.0
  0
LINE
  5
17C
  8
0
 10
-17.85910516
 20
259.96994443
 30
0.0
 11
-17.85910516
 21
254.96994443
 31
0.0
  0
LINE
  5
17D
  8
0
 10
-17.85910516
 20
546.96994443
 30
0.0
 11
-17.85910516
 21
551.96994443
 31
0.0
  0
TEXT
  5
17E
  8
TXT_ALL
 62
     4
 10
381.14089484
 20
255.96994443
 30
0.0
 40
2.5
  1

 50
90.00020741
  0
POLYLINE
  5
17F
  8
0
 66
     1
 10
0.0
 20
0.0
 30
0.0
  0
VERTEX
  5
180
  8
0
 10
377.14089484
 20
536.96994443
 30
0.0
  0
VERTEX
  5
181
  8
0
 10
308.14759484
 20
536.96994443
 30
0.0
  0
VERTEX
  5
182
  8
0
 10
308.14759484
 20
546.96994443
 30
0.0
  0
SEQEND
  5
183
  8
0
  0
LINE
  5
184
  8
0
 10
310.05089484
 20
279.46994443
 30
0.0
 11
170.16089484
 21
279.46994443
 31
0.0
  0
LINE
  5
185
  8
0
 10
170.16089484
 20
269.71994443
 30
0.0
 11
310.05089484
 21
269.71994443
 31
0.0
  0
POLYLINE
  5
186
  8
0
 66
     1
 10
0.0
 20
0.0
 30
0.0
  0
VERTEX
  5
187
  8
0
 10
170.16089484
 20
279.46994443
 30
0.0
  0
VERTEX
  5
188
  8
0
 10
170.16089484
 20
269.71994443
 30
0.0
  0
VERTEX
  5
189
  8
0
 10
170.16089484
 20
259.96994443
 30
0.0
  0
SEQEND
  5
18A
  8
0
  0
POLYLINE
  5
18B
  8
0
 66
     1
 10
0.0
 20
0.0
 30
0.0
  0
VERTEX
  5
18C
  8
0
 10
240.10589484
 20
279.46994443
 30
0.0
  0
VERTEX
  5
18D
  8
0
 10
240.10589484
 20
269.71994443
 30
0.0
  0
VERTEX
  5
18E
  8
0
 10
240.10589484
 20
259.96994443
 30
0.0
  0
SEQEND
  5
18F
  8
0
  0
TEXT
  5
190
  8
TXT_ALL
 10
172.16089484
 20
273.29494447
 30
0.0
 40
2.5999999
  1
E-mail: verkoop@jonkers-bouwmetaal.nl
  7
ARIAL
  0
TEXT
  5
191
  8
TXT_ALL
 10
172.16089484
 20
263.54494447
 30
0.0
 40
2.5999999
  1
Telefoon: 0527-685156
  7
ARIAL
  0
TEXT
  5
192
  8
TXT_ALL
 10
242.10589484
 20
263.54494447
 30
0.0
 40
2.5999999
  1
Website: www.jonkers-bouwmetaal.nl
  7
ARIAL
  0
TEXT
  5
193
  8
TXT_ALL
 10
242.10589484
 20
273.29494447
 30
0.0
 40
2.5999999
  1
Adres: Hoornse Hop 10, 8321 WX Urk
  7
ARIAL
  0
TEXT
  5
194
  8
TXT_ALL
 10
-29.41714491
 20
540.71994443
 30
0.0
 40
2.5
  1
Art. nr. 91016532
  7
ARIAL
  0
TEXT
  5
195
  8
TXT_ALL
 10
13.32089191
 20
540.71994443
 30
0.0
 40
2.5
  1
Omschrijving: T07-anker 250x45.5 111x3
  7
ARIAL
  0
LINE
  5
196
  8
0
 10
377.14089484
 20
536.96994443
 30
0.0
 11
-32.85910516
 21
536.96994443
 31
0.0
  0
LINE
  5
197
  8
0
 10
10.16089484
 20
536.96994443
 30
0.0
 11
10.16089484
 21
546.96994443
 31
0.0
  0
LINE
  5
198
  8
0
 10
170.16089484
 20
536.96994443
 30
0.0
 11
170.16089484
 21
546.96994443
 31
0.0
  0
TEXT
  5
199
  8
TXT_ALL
 10
241.15459484
 20
540.71994443
 30
0.0
 40
2.5
  1
Behandeling: N.V.T.
  7
ARIAL
  0
LINE
  5
19A
  8
0
 10
310.05089484
 20
279.46994443
 30
0.0
 11
377.14089484
 21
279.46994443
 31
0.0
  0
LINE
  5
19B
  8
0
 10
310.05089484
 20
259.96994443
 30
0.0
 11
310.05089484
 21
279.46994443
 31
0.0
  0
LINE
  5
19C
  8
0
 10
310.05089484
 20
259.96994443
 30
0.0
 11
310.05089484
 21
279.46994443
 31
0.0
  0
TEXT
  5
19D
  8
TXT_ALL
 10
104.50609293
 20
261.12447784
 30
0.0
 40
2.5
  1

  0
TEXT
  5
19E
  8
TXT_ALL
 10
225.6412759
 20
271.21994443
 30
0.0
 40
2.5
  1

  0
POLYLINE
  5
19F
  8
0
 66
     1
 10
0.0
 20
0.0
 30
0.0
  0
VERTEX
  5
1A0
  8
0
 10
308.14759484
 20
536.96994443
 30
0.0
  0
VERTEX
  5
1A1
  8
0
 10
239.15459484
 20
536.96994443
 30
0.0
  0
VERTEX
  5
1A2
  8
0
 10
239.15459484
 20
546.96994443
 30
0.0
  0
SEQEND
  5
1A3
  8
0
  0
TEXT
  5
1A4
  8
TXT_ALL
 10
310.14759484
 20
540.71994443
 30
0.0
 40
2.5
  1
Verpakkingshoeveelheid: 15 st.
  7
ARIAL
  0
TEXT
  5
1A5
  8
TXT_ALL
 10
172.16089484
 20
540.71994443
 30
0.0
 40
2.5
  1
Materiaal: Sendzimir Verzinkt
  7
ARIAL
  0
TEXT
  5
1A6
  8
TXT_ALL
 10
344.92254207
 20
256.72043458
 30
0.0
 40
1.5
  1
Onderdeel van
  7
ARIAL
  0
LINE
  5
1A7
  8
0
 10
192.81699045
 20
479.30690401
 30
0.0
 11
192.81699045
 21
482.30690401
 31
0.0
  0
POLYLINE
  5
1A8
  8
0
 66
     1
 10
0.0
 20
0.0
 30
0.0
  0
VERTEX
  5
1A9
  8
0
 10
317.81699045
 20
482.30690401
 30
0.0
  0
VERTEX
  5
1AA
  8
0
 10
317.81699045
 20
479.30690401
 30
0.0
  0
VERTEX
  5
1AB
  8
0
 10
192.81699045
 20
479.30690401
 30
0.0
  0
SEQEND
  5
1AC
  8
0
  0
POLYLINE
  5
1AD
  8
0
 66
     1
 10
0.0
 20
0.0
 30
0.0
 70
     1
  0
VERTEX
  5
1AE
  8
0
 10
306.25633028
 20
462.65004976
 30
0.0
 42
-1.0
  0
VERTEX
  5
1AF
  8
0
 10
301.6601362
 20
467.24624384
 30
0.0
  0
VERTEX
  5
1B0
  8
0
 10
308.37765062
 20
473.96375826
 30
0.0
 42
-1.0
  0
VERTEX
  5
1B1
  8
0
 10
312.9738447
 20
469.36756418
 30
0.0
  0
SEQEND
  5
1B2
  8
0
  0
POLYLINE
  5
1B3
  8
0
 66
     1
 10
0.0
 20
0.0
 30
0.0
 70
     1
  0
VERTEX
  5
1B4
  8
0
 10
291.25633028
 20
462.65004976
 30
0.0
 42
-1.0
  0
VERTEX
  5
1B5
  8
0
 10
286.6601362
 20
467.24624384
 30
0.0
  0
VERTEX
  5
1B6
  8
0
 10
293.37765062
 20
473.96375826
 30
0.0
 42
-1.0
  0
VERTEX
  5
1B7
  8
0
 10
297.9738447
 20
469.36756418
 30
0.0
  0
SEQEND
  5
1B8
  8
0
  0
LINE
  5
1B9
  8
0
 10
192.81699045
 20
458.80690401
 30
0.0
 11
192.81699045
 21
477.80690401
 31
0.0
  0
LINE
  5
1BA
  8
0
 10
317.81699045
 20
477.80690401
 30
0.0
 11
317.81699045
 21
458.80690401
 31
0.0
  0
LINE
  5
1BB
  8
0
  6
STRICHPUNKT2
 62
     1
 10
285.59947603
 20
461.58938959
 30
0.0
 11
299.03450487
 21
475.02441843
 31
0.0
  0
LINE
  5
1BC
  8
0
  6
STRICHPUNKT2
 62
     1
 10
292.31699045
 20
461.58938959
 30
0.0
 11
285.59947603
 21
468.30690401
 31
0.0
  0
LINE
  5
1BD
  8
0
  6
STRICHPUNKT2
 62
     1
 10
299.03450487
 20
468.30690401
 30
0.0
 11
292.31699045
 21
475.02441843
 31
0.0
  0
LINE
  5
1BE
  8
0
  6
STRICHPUNKT2
 62
     1
 10
300.59947603
 20
461.58938959
 30
0.0
 11
314.03450487
 21
475.02441843
 31
0.0
  0
LINE
  5
1BF
  8
0
  6
STRICHPUNKT2
 62
     1
 10
307.31699045
 20
461.58938959
 30
0.0
 11
300.59947603
 21
468.30690401
 31
0.0
  0
LINE
  5
1C0
  8
0
  6
STRICHPUNKT2
 62
     1
 10
314.03450487
 20
468.30690401
 30
0.0
 11
307.31699045
 21
475.02441843
 31
0.0
  0
LINE
  5
1C1
  8
0
 10
317.81699045
 20
479.30690401
 30
0.0
 11
317.81699045
 21
477.80690401
 31
0.0
  0
LINE
  5
1C2
  8
0
 10
192.81699045
 20
477.80690401
 30
0.0
 11
192.81699045
 21
479.30690401
 31
0.0
  0
LINE
  5
1C3
  8
0
 10
192.81699045
 20
457.30690401
 30
0.0
 11
192.81699045
 21
458.80690401
 31
0.0
  0
LINE
  5
1C4
  8
0
 10
317.81699045
 20
458.80690401
 30
0.0
 11
317.81699045
 21
457.30690401
 31
0.0
  0
LINE
  5
1C5
  8
0
 10
192.81699045
 20
454.30690401
 30
0.0
 11
192.81699045
 21
457.30690401
 31
0.0
  0
LINE
  5
1C6
  8
0
 10
317.81699045
 20
457.30690401
 30
0.0
 11
192.81699045
 21
457.30690401
 31
0.0
  0
LINE
  5
1C7
  8
0
 10
317.81699045
 20
457.30690401
 30
0.0
 11
317.81699045
 21
454.30690401
 31
0.0
  0
CIRCLE
  5
1C8
  8
0
 10
204.06699045
 20
445.80690401
 30
0.0
 40
1.625
  0
POLYLINE
  5
1C9
  8
0
 66
     1
 10
0.0
 20
0.0
 30
0.0
  0
VERTEX
  5
6A1
  8
0
 10
255.8169904583251
 20
443.8069040122883
 30
0.0
  0
VERTEX
  5
6A2
  8
0
 10
256.3508361819711
 20
444.1561325023827
 30
0.0
  0
VERTEX
  5
6A3
  8
0
 10
256.77233389912
 20
444.5752100652039
 30
0.0
  0
VERTEX
  5
6A4
  8
0
 10
257.0636487825025
 20
445.0464042774405
 30
0.0
  0
VERTEX
  5
6A5
  8
0
 10
257.2124544293536
 20
445.5497775046911
 30
0.0
  0
VERTEX
  5
6A6
  8
0
 10
257.212454428328
 20
446.0640305223225
 30
0.0
  0
VERTEX
  5
6A7
  8
0
 10
257.0636487794691
 20
446.5674037492764
 30
0.0
  0
VERTEX
  5
6A8
  8
0
 10
256.7723338942072
 20
447.038597960932
 30
0.0
  0
VERTEX
  5
6A9
  8
0
 10
256.3508361753867
 20
447.4576755229126
 30
0.0
  0
VERTEX
  5
6AA
  8
0
 10
255.8169904503477
 20
447.8069040119423
 30
0.0
  0
SEQEND
  5
969
  8
0
  0
POLYLINE
  5
1CA
  8
0
 66
     1
 10
0.0
 20
0.0
 30
0.0
  0
VERTEX
  5
1CB
  8
0
 10
255.81699045
 20
451.05690401
 30
0.0
  0
VERTEX
  5
1CC
  8
0
 10
256.81699045
 20
451.05690401
 30
0.0
 42
1.0
  0
VERTEX
  5
1CD
  8
0
 10
256.81699045
 20
453.05690401
 30
0.0
  0
VERTEX
  5
1CE
  8
0
 10
234.81699045
 20
453.05690401
 30
0.0
  0
SEQEND
  5
1CF
  8
0
  0
ARC
  5
1D0
  8
0
 10
234.81699045
 20
452.05690401
 30
0.0
 40
1.0
 50
90.0
 51
180.0
  0
LINE
  5
1D1
  8
0
 10
233.81699045
 20
452.05690401
 30
0.0
 11
233.81699045
 21
441.55690401
 31
0.0
  0
ARC
  5
1D2
  8
0
 10
232.81699045
 20
441.55690401
 30
0.0
 40
1.0
 50
-90.0
 51
0.0
  0
POLYLINE
  5
1D3
  8
0
 66
     1
 10
0.0
 20
0.0
 30
0.0
  0
VERTEX
  5
1D4
  8
0
 10
232.81699045
 20
440.55690401
 30
0.0
  0
VERTEX
  5
1D5
  8
0
 10
192.81699045
 20
440.55690401
 30
0.0
  0
VERTEX
  5
1D6
  8
0
 10
192.81699045
 20
454.30690401
 30
0.0
  0
SEQEND
  5
1D7
  8
0
  0
POLYLINE
  5
1D8
  8
0
 66
     1
 10
0.0
 20
0.0
 30
0.0
  0
VERTEX
  5
1D9
  8
0
 10
317.81699045
 20
454.30690401
 30
0.0
  0
VERTEX
  5
1DA
  8
0
 10
317.81699045
 20
440.55690401
 30
0.0
  0
VERTEX
  5
1DB
  8
0
 10
255.81699045
 20
440.55690401
 30
0.0
  0
SEQEND
  5
1DC
  8
0
  0
LINE
  5
1DD
  8
0
  6
STRICHPUNKT2
 62
     1
 10
204.06699045
 20
445.80690401
 30
0.0
 11
201.62949045
 21
445.80690401
 31
0.0
  0
LINE
  5
1DE
  8
0
  6
STRICHPUNKT2
 62
     1
 10
204.06699045
 20
445.80690401
 30
0.0
 11
206.50449045
 21
445.80690401
 31
0.0
  0
LINE
  5
1DF
  8
0
  6
STRICHPUNKT2
 62
     1
 10
204.06699045
 20
445.80690401
 30
0.0
 11
204.06699045
 21
443.36940401
 31
0.0
  0
LINE
  5
1E0
  8
0
  6
STRICHPUNKT2
 62
     1
 10
204.06699045
 20
445.80690401
 30
0.0
 11
204.06699045
 21
448.24440401
 31
0.0
  0
CIRCLE
  5
1E1
  8
0
 10
204.06699045
 20
490.80690401
 30
0.0
 40
1.625
  0
POLYLINE
  5
1E2
  8
0
 66
     1
 10
0.0
 20
0.0
 30
0.0
  0
VERTEX
  5
6AB
  8
0
 10
255.8169904583251
 20
488.8069040122883
 30
0.0
  0
VERTEX
  5
6AC
  8
0
 10
256.3508361819711
 20
489.1561325023827
 30
0.0
  0
VERTEX
  5
6AD
  8
0
 10
256.77233389912
 20
489.5752100652039
 30
0.0
  0
VERTEX
  5
6AE
  8
0
 10
257.0636487825025
 20
490.0464042774405
 30
0.0
  0
VERTEX
  5
6AF
  8
0
 10
257.2124544293536
 20
490.5497775046911
 30
0.0
  0
VERTEX
  5
6B0
  8
0
 10
257.212454428328
 20
491.0640305223225
 30
0.0
  0
VERTEX
  5
6B1
  8
0
 10
257.0636487794691
 20
491.5674037492764
 30
0.0
  0
VERTEX
  5
6B2
  8
0
 10
256.7723338942072
 20
492.038597960932
 30
0.0
  0
VERTEX
  5
6B3
  8
0
 10
256.3508361753867
 20
492.4576755229126
 30
0.0
  0
VERTEX
  5
6B4
  8
0
 10
255.8169904503477
 20
492.8069040119423
 30
0.0
  0
SEQEND
  5
96A
  8
0
  0
LINE
  5
1E3
  8
0
 10
317.81699045
 20
496.05690401
 30
0.0
 11
255.81699045
 21
496.05690401
 31
0.0
  0
LINE
  5
1E4
  8
0
 10
317.81699045
 20
496.05690401
 30
0.0
 11
317.81699045
 21
482.30690401
 31
0.0
  0
LINE
  5
1E5
  8
0
 10
192.81699045
 20
482.30690401
 30
0.0
 11
192.81699045
 21
496.05690401
 31
0.0
  0
LINE
  5
1E6
  8
0
 10
232.81699045
 20
496.05690401
 30
0.0
 11
192.81699045
 21
496.05690401
 31
0.0
  0
ARC
  5
1E7
  8
0
 10
232.81699045
 20
495.05690401
 30
0.0
 40
1.0
 50
0.0
 51
90.0
  0
LINE
  5
1E8
  8
0
 10
233.81699045
 20
495.05690401
 30
0.0
 11
233.81699045
 21
484.55690401
 31
0.0
  0
ARC
  5
1E9
  8
0
 10
234.81699045
 20
484.55690401
 30
0.0
 40
1.0
 50
180.0
 51
-90.0
  0
POLYLINE
  5
1EA
  8
0
 66
     1
 10
0.0
 20
0.0
 30
0.0
  0
VERTEX
  5
1EB
  8
0
 10
234.81699045
 20
483.55690401
 30
0.0
  0
VERTEX
  5
1EC
  8
0
 10
256.81699045
 20
483.55690401
 30
0.0
 42
0.414213562
  0
VERTEX
  5
1ED
  8
0
 10
257.81699045
 20
484.55690401
 30
0.0
 42
0.414213562
  0
VERTEX
  5
1EE
  8
0
 10
256.81699045
 20
485.55690401
 30
0.0
  0
VERTEX
  5
1EF
  8
0
 10
255.81699045
 20
485.55690401
 30
0.0
  0
SEQEND
  5
1F0
  8
0
  0
LINE
  5
1F1
  8
0
  6
STRICHPUNKT2
 62
     1
 10
204.06699045
 20
490.80690401
 30
0.0
 11
201.62949045
 21
490.80690401
 31
0.0
  0
LINE
  5
1F2
  8
0
  6
STRICHPUNKT2
 62
     1
 10
204.06699045
 20
490.80690401
 30
0.0
 11
206.50449045
 21
490.80690401
 31
0.0
  0
LINE
  5
1F3
  8
0
  6
STRICHPUNKT2
 62
     1
 10
204.06699045
 20
490.80690401
 30
0.0
 11
204.06699045
 21
488.36940401
 31
0.0
  0
LINE
  5
1F4
  8
0
  6
STRICHPUNKT2
 62
     1
 10
204.06699045
 20
490.80690401
 30
0.0
 11
204.06699045
 21
493.24440401
 31
0.0
  0
POLYLINE
  5
1F5
  8
0
 66
     1
 10
0.0
 20
0.0
 30
0.0
  0
VERTEX
  5
1F6
  8
0
 10
254.31699046
 20
492.80690402
 30
0.0
  0
VERTEX
  5
1F7
  8
0
 10
254.3205209
 20
492.8575307
 30
0.0
  0
VERTEX
  5
1F8
  8
0
 10
254.33027507
 20
492.8989376
 30
0.0
  0
VERTEX
  5
1F9
  8
0
 10
254.34549573
 20
492.93348143
 30
0.0
  0
VERTEX
  5
1FA
  8
0
 10
254.36605509
 20
492.96288667
 30
0.0
  0
VERTEX
  5
1FB
  8
0
 10
254.39244466
 20
492.98836986
 30
0.0
  0
VERTEX
  5
1FC
  8
0
 10
254.42577104
 20
493.01070473
 30
0.0
  0
VERTEX
  5
1FD
  8
0
 10
254.43084455
 20
493.01348062
 30
0.0
  0
VERTEX
  5
1FE
  8
0
 10
254.4742452
 20
493.03270211
 30
0.0
  0
VERTEX
  5
1FF
  8
0
 10
254.52816179
 20
493.04872678
 30
0.0
  0
VERTEX
  5
200
  8
0
 10
254.594565
 20
493.06096176
 30
0.0
  0
VERTEX
  5
201
  8
0
 10
254.6757139
 20
493.0686026
 30
0.0
  0
VERTEX
  5
202
  8
0
 10
254.75633028
 20
493.07075029
 30
0.0
  0
VERTEX
  5
203
  8
0
 10
254.86893542
 20
493.06722771
 30
0.0
  0
VERTEX
  5
204
  8
0
 10
254.99183191
 20
493.05622689
 30
0.0
  0
VERTEX
  5
205
  8
0
 10
255.12194258
 20
493.03739458
 30
0.0
  0
VERTEX
  5
206
  8
0
 10
255.24375442
 20
493.01348062
 30
0.0
  0
VERTEX
  5
207
  8
0
 10
255.37793411
 20
492.98005551
 30
0.0
  0
VERTEX
  5
208
  8
0
 10
255.50493644
 20
492.94087919
 30
0.0
  0
VERTEX
  5
209
  8
0
 10
255.62511372
 20
492.89619836
 30
0.0
  0
VERTEX
  5
20A
  8
0
 10
255.73877799
 20
492.84621507
 30
0.0
  0
VERTEX
  5
20B
  8
0
 10
255.81699045
 20
492.80690402
 30
0.0
  0
SEQEND
  5
20C
  8
0
  0
LINE
  5
20D
  8
0
 10
255.81699045
 20
496.05690401
 30
0.0
 11
254.31699045
 21
496.05690401
 31
0.0
  0
POLYLINE
  5
20E
  8
0
 66
     1
 10
0.0
 20
0.0
 30
0.0
  0
VERTEX
  5
20F
  8
0
 10
255.81699045
 20
488.806904
 30
0.0
  0
VERTEX
  5
210
  8
0
 10
255.71242081
 20
488.75528024
 30
0.0
  0
VERTEX
  5
211
  8
0
 10
255.60259302
 20
488.7086293
 30
0.0
  0
VERTEX
  5
212
  8
0
 10
255.48741052
 20
488.66705336
 30
0.0
  0
VERTEX
  5
213
  8
0
 10
255.36681457
 20
488.63068426
 30
0.0
  0
VERTEX
  5
214
  8
0
 10
255.24375442
 20
488.6003274
 30
0.0
  0
VERTEX
  5
215
  8
0
 10
255.11194711
 20
488.57471768
 30
0.0
  0
VERTEX
  5
216
  8
0
 10
254.98267665
 20
488.55652635
 30
0.0
  0
VERTEX
  5
217
  8
0
 10
254.8592213
 20
488.54601454
 30
0.0
  0
VERTEX
  5
218
  8
0
 10
254.75633028
 20
488.54305773
 30
0.0
  0
VERTEX
  5
219
  8
0
 10
254.65462442
 20
488.54658031
 30
0.0
  0
VERTEX
  5
21A
  8
0
 10
254.57220167
 20
488.55624126
 30
0.0
  0
VERTEX
  5
21B
  8
0
 10
254.50603611
 20
488.57084049
 30
0.0
  0
VERTEX
  5
21C
  8
0
 10
254.45349517
 20
488.58939806
 30
0.0
  0
VERTEX
  5
21D
  8
0
 10
254.43084455
 20
488.6003274
 30
0.0
  0
VERTEX
  5
21E
  8
0
 10
254.39471911
 20
488.62363476
 30
0.0
  0
VERTEX
  5
21F
  8
0
 10
254.36709786
 20
488.64971311
 30
0.0
  0
VERTEX
  5
220
  8
0
 10
254.34622103
 20
488.6790497
 30
0.0
  0
VERTEX
  5
221
  8
0
 10
254.33107252
 20
488.71252572
 30
0.0
  0
VERTEX
  5
222
  8
0
 10
254.32128978
 20
488.75143139
 30
0.0
  0
VERTEX
  5
223
  8
0
 10
254.31709971
 20
488.79749125
 30
0.0
  0
VERTEX
  5
224
  8
0
 10
254.31699046
 20
488.806904
 30
0.0
  0
SEQEND
  5
225
  8
0
  0
LINE
  5
226
  8
0
 10
254.31699045
 20
485.55690401
 30
0.0
 11
255.81699045
 21
485.55690401
 31
0.0
  0
LINE
  5
227
  8
0
 10
254.31699045
 20
496.05690401
 30
0.0
 11
252.81699045
 21
496.05690401
 31
0.0
  0
LINE
  5
228
  8
0
 10
252.81699045
 20
495.05690401
 30
0.0
 11
252.81699045
 21
496.05690401
 31
0.0
  0
POLYLINE
  5
229
  8
0
 66
     1
 10
0.0
 20
0.0
 30
0.0
  0
VERTEX
  5
22A
  8
0
 10
254.31699045
 20
496.05690401
 30
0.0
  0
VERTEX
  5
22B
  8
0
 10
254.31699045
 20
495.05690401
 30
0.0
  0
VERTEX
  5
22C
  8
0
 10
254.31699045
 20
486.55690401
 30
0.0
  0
SEQEND
  5
22D
  8
0
  0
LINE
  5
22E
  8
0
 10
252.81699045
 20
486.55690401
 30
0.0
 11
252.81699045
 21
495.05690401
 31
0.0
  0
LINE
  5
22F
  8
0
 10
252.81699045
 20
485.55690401
 30
0.0
 11
252.81699045
 21
486.55690401
 31
0.0
  0
LINE
  5
230
  8
0
 10
254.31699045
 20
485.55690401
 30
0.0
 11
252.81699045
 21
485.55690401
 31
0.0
  0
LINE
  5
231
  8
0
 10
254.31699045
 20
486.55690401
 30
0.0
 11
254.31699045
 21
485.55690401
 31
0.0
  0
LINE
  5
232
  8
0
  6
STRICHPUNKT2
 62
     1
 10
254.31699045
 20
490.80690401
 30
0.0
 11
255.12949045
 21
490.80690401
 31
0.0
  0
LINE
  5
233
  8
0
  6
STRICHPUNKT2
 62
     1
 10
252.00449045
 20
490.80690401
 30
0.0
 11
252.81699045
 21
490.80690401
 31
0.0
  0
POLYLINE
  5
234
  8
0
 66
     1
 10
0.0
 20
0.0
 30
0.0
  0
VERTEX
  5
235
  8
0
 10
255.81699045
 20
443.806904
 30
0.0
  0
VERTEX
  5
236
  8
0
 10
255.71242081
 20
443.75528024
 30
0.0
  0
VERTEX
  5
237
  8
0
 10
255.60259302
 20
443.7086293
 30
0.0
  0
VERTEX
  5
238
  8
0
 10
255.48741052
 20
443.66705336
 30
0.0
  0
VERTEX
  5
239
  8
0
 10
255.36681457
 20
443.63068426
 30
0.0
  0
VERTEX
  5
23A
  8
0
 10
255.24375442
 20
443.6003274
 30
0.0
  0
VERTEX
  5
23B
  8
0
 10
255.11194711
 20
443.57471768
 30
0.0
  0
VERTEX
  5
23C
  8
0
 10
254.98267665
 20
443.55652635
 30
0.0
  0
VERTEX
  5
23D
  8
0
 10
254.8592213
 20
443.54601454
 30
0.0
  0
VERTEX
  5
23E
  8
0
 10
254.75633028
 20
443.54305773
 30
0.0
  0
VERTEX
  5
23F
  8
0
 10
254.65462442
 20
443.54658031
 30
0.0
  0
VERTEX
  5
240
  8
0
 10
254.57220167
 20
443.55624126
 30
0.0
  0
VERTEX
  5
241
  8
0
 10
254.50603611
 20
443.57084049
 30
0.0
  0
VERTEX
  5
242
  8
0
 10
254.45349517
 20
443.58939806
 30
0.0
  0
VERTEX
  5
243
  8
0
 10
254.43084455
 20
443.6003274
 30
0.0
  0
VERTEX
  5
244
  8
0
 10
254.39471911
 20
443.62363476
 30
0.0
  0
VERTEX
  5
245
  8
0
 10
254.36709786
 20
443.64971311
 30
0.0
  0
VERTEX
  5
246
  8
0
 10
254.34622103
 20
443.6790497
 30
0.0
  0
VERTEX
  5
247
  8
0
 10
254.33107252
 20
443.71252572
 30
0.0
  0
VERTEX
  5
248
  8
0
 10
254.32128978
 20
443.75143139
 30
0.0
  0
VERTEX
  5
249
  8
0
 10
254.31709971
 20
443.79749125
 30
0.0
  0
VERTEX
  5
24A
  8
0
 10
254.31699046
 20
443.806904
 30
0.0
  0
SEQEND
  5
24B
  8
0
  0
LINE
  5
24C
  8
0
 10
254.31699045
 20
440.55690401
 30
0.0
 11
255.81699045
 21
440.55690401
 31
0.0
  0
POLYLINE
  5
24D
  8
0
 66
     1
 10
0.0
 20
0.0
 30
0.0
  0
VERTEX
  5
24E
  8
0
 10
254.31699046
 20
447.80690402
 30
0.0
  0
VERTEX
  5
24F
  8
0
 10
254.3205209
 20
447.8575307
 30
0.0
  0
VERTEX
  5
250
  8
0
 10
254.33027507
 20
447.8989376
 30
0.0
  0
VERTEX
  5
251
  8
0
 10
254.34549573
 20
447.93348143
 30
0.0
  0
VERTEX
  5
252
  8
0
 10
254.36605509
 20
447.96288667
 30
0.0
  0
VERTEX
  5
253
  8
0
 10
254.39244466
 20
447.98836986
 30
0.0
  0
VERTEX
  5
254
  8
0
 10
254.42577104
 20
448.01070473
 30
0.0
  0
VERTEX
  5
255
  8
0
 10
254.43084455
 20
448.01348062
 30
0.0
  0
VERTEX
  5
256
  8
0
 10
254.4742452
 20
448.03270211
 30
0.0
  0
VERTEX
  5
257
  8
0
 10
254.52816179
 20
448.04872678
 30
0.0
  0
VERTEX
  5
258
  8
0
 10
254.594565
 20
448.06096176
 30
0.0
  0
VERTEX
  5
259
  8
0
 10
254.6757139
 20
448.0686026
 30
0.0
  0
VERTEX
  5
25A
  8
0
 10
254.75633028
 20
448.07075029
 30
0.0
  0
VERTEX
  5
25B
  8
0
 10
254.86893542
 20
448.06722771
 30
0.0
  0
VERTEX
  5
25C
  8
0
 10
254.99183191
 20
448.05622689
 30
0.0
  0
VERTEX
  5
25D
  8
0
 10
255.12194258
 20
448.03739458
 30
0.0
  0
VERTEX
  5
25E
  8
0
 10
255.24375442
 20
448.01348062
 30
0.0
  0
VERTEX
  5
25F
  8
0
 10
255.37793411
 20
447.98005551
 30
0.0
  0
VERTEX
  5
260
  8
0
 10
255.50493644
 20
447.94087919
 30
0.0
  0
VERTEX
  5
261
  8
0
 10
255.62511372
 20
447.89619836
 30
0.0
  0
VERTEX
  5
262
  8
0
 10
255.73877799
 20
447.84621507
 30
0.0
  0
VERTEX
  5
263
  8
0
 10
255.81699045
 20
447.80690402
 30
0.0
  0
SEQEND
  5
264
  8
0
  0
LINE
  5
265
  8
0
 10
255.81699045
 20
451.05690401
 30
0.0
 11
254.31699045
 21
451.05690401
 31
0.0
  0
LINE
  5
266
  8
0
 10
254.31699045
 20
451.05690401
 30
0.0
 11
252.81699045
 21
451.05690401
 31
0.0
  0
LINE
  5
267
  8
0
 10
252.81699045
 20
450.05690401
 30
0.0
 11
252.81699045
 21
451.05690401
 31
0.0
  0
POLYLINE
  5
268
  8
0
 66
     1
 10
0.0
 20
0.0
 30
0.0
  0
VERTEX
  5
269
  8
0
 10
254.31699045
 20
451.05690401
 30
0.0
  0
VERTEX
  5
26A
  8
0
 10
254.31699045
 20
450.05690401
 30
0.0
  0
VERTEX
  5
26B
  8
0
 10
254.31699045
 20
441.55690401
 30
0.0
  0
SEQEND
  5
26C
  8
0
  0
LINE
  5
26D
  8
0
 10
252.81699045
 20
441.55690401
 30
0.0
 11
252.81699045
 21
450.05690401
 31
0.0
  0
LINE
  5
26E
  8
0
 10
252.81699045
 20
440.55690401
 30
0.0
 11
252.81699045
 21
441.55690401
 31
0.0
  0
LINE
  5
26F
  8
0
 10
252.81699045
 20
440.55690401
 30
0.0
 11
254.31699045
 21
440.55690401
 31
0.0
  0
LINE
  5
270
  8
0
 10
254.31699045
 20
441.55690401
 30
0.0
 11
254.31699045
 21
440.55690401
 31
0.0
  0
LINE
  5
271
  8
0
  6
STRICHPUNKT2
 62
     1
 10
254.31699045
 20
445.80690401
 30
0.0
 11
255.12949045
 21
445.80690401
 31
0.0
  0
LINE
  5
272
  8
0
  6
STRICHPUNKT2
 62
     1
 10
252.00449045
 20
445.80690401
 30
0.0
 11
252.81699045
 21
445.80690401
 31
0.0
  0
LINE
  5
273
  8
0
 10
74.29632176
 20
362.73655471
 30
0.0
 11
73.56555775
 21
364.34477269
 31
0.0
  0
LINE
  5
274
  8
0
 10
37.51340073
 20
352.67104655
 30
0.0
 11
36.78263673
 21
354.27926453
 31
0.0
  0
POLYLINE
  5
275
  8
0
 66
     1
 10
0.0
 20
0.0
 30
0.0
  0
VERTEX
  5
6B5
  8
0
 10
29.46442972456506
 20
381.1772034590194
 30
0.0
  0
VERTEX
  5
6B6
  8
0
 10
28.9855183113996
 20
380.99345814431
 30
0.0
  0
VERTEX
  5
6B7
  8
0
 10
28.52398729002164
 20
380.7111078569898
 30
0.0
  0
VERTEX
  5
6B8
  8
0
 10
28.0975730388253
 20
380.3410031603007
 30
0.0
  0
VERTEX
  5
6B9
  8
0
 10
27.72266241841485
 20
379.8973669702373
 30
0.0
  0
VERTEX
  5
6BA
  8
0
 10
27.41366303373897
 20
379.3972479768589
 30
0.0
  0
VERTEX
  5
6BB
  8
0
 10
27.1824495579102
 20
378.8598654726893
 30
0.0
  0
VERTEX
  5
6BC
  8
0
 10
27.03790739517478
 20
378.3058707660802
 30
0.0
  0
VERTEX
  5
6BD
  8
0
 10
26.98559121980905
 20
377.7565535630094
 30
0.0
  0
SEQEND
  5
96B
  8
0
  0
POLYLINE
  5
276
  8
0
 66
     1
 10
0.0
 20
0.0
 30
0.0
  0
VERTEX
  5
6BE
  8
0
 10
101.4649974745651
 20
339.7335235290194
 30
0.0
  0
VERTEX
  5
6BF
  8
0
 10
100.9860860613996
 20
339.54977821431
 30
0.0
  0
VERTEX
  5
6C0
  8
0
 10
100.5245550400216
 20
339.2674279269898
 30
0.0
  0
VERTEX
  5
6C1
  8
0
 10
100.0981407888253
 20
338.8973232303007
 30
0.0
  0
VERTEX
  5
6C2
  8
0
 10
99.72323016841484
 20
338.4536870402372
 30
0.0
  0
VERTEX
  5
6C3
  8
0
 10
99.41423078373896
 20
337.9535680468588
 30
0.0
  0
VERTEX
  5
6C4
  8
0
 10
99.18301730791019
 20
337.4161855426892
 30
0.0
  0
VERTEX
  5
6C5
  8
0
 10
99.03847514517477
 20
336.8621908360802
 30
0.0
  0
VERTEX
  5
6C6
  8
0
 10
98.98615896980904
 20
336.3128736330094
 30
0.0
  0
SEQEND
  5
96C
  8
0
  0
POLYLINE
  5
277
  8
0
 66
     1
 10
0.0
 20
0.0
 30
0.0
  0
VERTEX
  5
6C7
  8
0
 10
101.4516755872825
 20
338.3587155195097
 30
0.0
  0
VERTEX
  5
6C8
  8
0
 10
101.2122198806998
 20
338.266842862155
 30
0.0
  0
VERTEX
  5
6C9
  8
0
 10
100.9814543700108
 20
338.1256677184949
 30
0.0
  0
VERTEX
  5
6CA
  8
0
 10
100.7682472444126
 20
337.9406153701503
 30
0.0
  0
VERTEX
  5
6CB
  8
0
 10
100.5807919342074
 20
337.7187972751186
 30
0.0
  0
VERTEX
  5
6CC
  8
0
 10
100.4262922418695
 20
337.4687377784294
 30
0.0
  0
VERTEX
  5
6CD
  8
0
 10
100.3106855039551
 20
337.2000465263446
 30
0.0
  0
VERTEX
  5
6CE
  8
0
 10
100.2384144225874
 20
336.9230491730401
 30
0.0
  0
VERTEX
  5
6CF
  8
0
 10
100.2122563349045
 20
336.6483905715046
 30
0.0
  0
SEQEND
  5
96D
  8
0
  0
POLYLINE
  5
278
  8
0
 66
     1
 10
0.0
 20
0.0
 30
0.0
  0
VERTEX
  5
6D0
  8
0
 10
79.78807038279508
 20
335.5349457192913
 30
0.0
  0
VERTEX
  5
6D1
  8
0
 10
79.1441512336738
 20
335.5587713661102
 30
0.0
  0
VERTEX
  5
6D2
  8
0
 10
78.50375108967316
 20
335.5313037381119
 30
0.0
  0
VERTEX
  5
6D3
  8
0
 10
77.89214185460784
 20
335.4536267814187
 30
0.0
  0
VERTEX
  5
6D4
  8
0
 10
77.33345926596247
 20
335.3288058366563
 30
0.0
  0
VERTEX
  5
6D5
  8
0
 10
76.84975043408735
 20
335.1617666724081
 30
0.0
  0
SEQEND
  5
96E
  8
0
  0
POLYLINE
  5
279
  8
0
 66
     1
 10
0.0
 20
0.0
 30
0.0
  0
VERTEX
  5
27A
  8
0
 10
79.78807038
 20
335.53494572
 30
0.0
  0
VERTEX
  5
27B
  8
0
 10
89.1482737
 20
334.8103175
 30
0.0
  0
SEQEND
  5
27C
  8
0
  0
POLYLINE
  5
27D
  8
0
 66
     1
 10
0.0
 20
0.0
 30
0.0
  0
VERTEX
  5
6D6
  8
0
 10
91.84337497
 20
333.50286006
 30
0.0
  0
VERTEX
  5
6D7
  8
0
 10
91.78081218950261
 20
333.7622200646065
 30
0.0
  0
VERTEX
  5
6D8
  8
0
 10
91.59061499290395
 20
334.0124550833555
 30
0.0
  0
VERTEX
  5
6D9
  8
0
 10
91.28039980321029
 20
334.2435444861438
 30
0.0
  0
VERTEX
  5
6DA
  8
0
 10
90.86258914898632
 20
334.4462343266706
 30
0.0
  0
VERTEX
  5
6DB
  8
0
 10
90.35391420574881
 20
334.6124079155624
 30
0.0
  0
VERTEX
  5
6DC
  8
0
 10
89.77474479813067
 20
334.7354108521857
 30
0.0
  0
VERTEX
  5
6DD
  8
0
 10
89.14827369279509
 20
334.8103174992913
 30
0.0
  0
SEQEND
  5
96F
  8
0
  0
POLYLINE
  5
27E
  8
0
 66
     1
 10
0.0
 20
0.0
 30
0.0
  0
VERTEX
  5
6DE
  8
0
 10
88.03878137570976
 20
332.2583846215986
 30
0.0
  0
VERTEX
  5
6DF
  8
0
 10
88.66379829746204
 20
332.2345273753647
 30
0.0
  0
VERTEX
  5
6E0
  8
0
 10
89.28620144480468
 20
332.2590180622777
 30
0.0
  0
VERTEX
  5
6E1
  8
0
 10
89.88284005805093
 20
332.330945732562
 30
0.0
  0
VERTEX
  5
6E2
  8
0
 10
90.43152170900689
 20
332.4476349816723
 30
0.0
  0
VERTEX
  5
6E3
  8
0
 10
90.91183776526117
 20
332.6047454640047
 30
0.0
  0
VERTEX
  5
6E4
  8
0
 10
91.3059225048304
 20
332.7964333353627
 30
0.0
  0
VERTEX
  5
6E5
  8
0
 10
91.599117645312
 20
333.015568619197
 30
0.0
  0
VERTEX
  5
6E6
  8
0
 10
91.7805175698762
 20
333.254000411521
 30
0.0
  0
VERTEX
  5
6E7
  8
0
 10
91.84337497
 20
333.50286006
 30
0.0
  0
SEQEND
  5
970
  8
0
  0
LINE
  5
27F
  8
0
 10
88.03878139
 20
332.25838462
 30
0.0
 11
80.58419764
 21
332.83548766
 31
0.0
  0
POLYLINE
  5
280
  8
0
 66
     1
 10
0.0
 20
0.0
 30
0.0
  0
VERTEX
  5
6E8
  8
0
 10
91.34476032424743
 20
332.8202230786049
 30
0.0
  0
VERTEX
  5
6E9
  8
0
 10
90.9246642377811
 20
333.0404235462223
 30
0.0
  0
VERTEX
  5
6EA
  8
0
 10
90.4001563269606
 20
333.2213934893509
 30
0.0
  0
VERTEX
  5
6EB
  8
0
 10
89.7945958562131
 20
333.3550733064715
 30
0.0
  0
VERTEX
  5
6EC
  8
0
 10
89.1349518127951
 20
333.4355094892913
 30
0.0
  0
SEQEND
  5
971
  8
0
  0
POLYLINE
  5
281
  8
0
 66
     1
 10
0.0
 20
0.0
 30
0.0
  0
VERTEX
  5
282
  8
0
 10
89.13495182
 20
333.43550949
 30
0.0
  0
VERTEX
  5
283
  8
0
 10
79.7747485
 20
334.16013771
 30
0.0
  0
SEQEND
  5
284
  8
0
  0
POLYLINE
  5
285
  8
0
 66
     1
 10
0.0
 20
0.0
 30
0.0
  0
VERTEX
  5
6ED
  8
0
 10
79.77474850279509
 20
334.1601377092913
 30
0.0
  0
VERTEX
  5
6EE
  8
0
 10
79.17848044119428
 20
334.1839586784478
 30
0.0
  0
VERTEX
  5
6EF
  8
0
 10
78.58361896926814
 20
334.1637482530808
 30
0.0
  0
SEQEND
  5
972
  8
0
  0
POLYLINE
  5
286
  8
0
 66
     1
 10
0.0
 20
0.0
 30
0.0
  0
VERTEX
  5
6F0
  8
0
 10
71.14800224279509
 20
340.5081873092913
 30
0.0
  0
VERTEX
  5
6F1
  8
0
 10
70.5040830936738
 20
340.5320129561102
 30
0.0
  0
VERTEX
  5
6F2
  8
0
 10
69.86368294967316
 20
340.5045453281119
 30
0.0
  0
VERTEX
  5
6F3
  8
0
 10
69.25207371460785
 20
340.4268683714187
 30
0.0
  0
VERTEX
  5
6F4
  8
0
 10
68.69339112596248
 20
340.3020474266563
 30
0.0
  0
VERTEX
  5
6F5
  8
0
 10
68.20968229408736
 20
340.1350082624081
 30
0.0
  0
SEQEND
  5
973
  8
0
  0
POLYLINE
  5
287
  8
0
 66
     1
 10
0.0
 20
0.0
 30
0.0
  0
VERTEX
  5
288
  8
0
 10
71.14800225
 20
340.50818731
 30
0.0
  0
VERTEX
  5
289
  8
0
 10
80.50820557
 20
339.78355909
 30
0.0
  0
SEQEND
  5
28A
  8
0
  0
POLYLINE
  5
28B
  8
0
 66
     1
 10
0.0
 20
0.0
 30
0.0
  0
VERTEX
  5
6F6
  8
0
 10
83.20330684
 20
338.47610165
 30
0.0
  0
VERTEX
  5
6F7
  8
0
 10
83.14074405950261
 20
338.7354616546065
 30
0.0
  0
VERTEX
  5
6F8
  8
0
 10
82.95054686290395
 20
338.9856966733554
 30
0.0
  0
VERTEX
  5
6F9
  8
0
 10
82.64033167321028
 20
339.2167860761438
 30
0.0
  0
VERTEX
  5
6FA
  8
0
 10
82.22252101898631
 20
339.4194759166706
 30
0.0
  0
VERTEX
  5
6FB
  8
0
 10
81.7138460757488
 20
339.5856495055623
 30
0.0
  0
VERTEX
  5
6FC
  8
0
 10
81.13467666813067
 20
339.7086524421857
 30
0.0
  0
VERTEX
  5
6FD
  8
0
 10
80.50820556279508
 20
339.7835590892913
 30
0.0
  0
SEQEND
  5
974
  8
0
  0
POLYLINE
  5
28C
  8
0
 66
     1
 10
0.0
 20
0.0
 30
0.0
  0
VERTEX
  5
6FE
  8
0
 10
79.39871324570976
 20
337.2316262115986
 30
0.0
  0
VERTEX
  5
6FF
  8
0
 10
80.02373016746203
 20
337.2077689653647
 30
0.0
  0
VERTEX
  5
700
  8
0
 10
80.64613331480467
 20
337.2322596522777
 30
0.0
  0
VERTEX
  5
701
  8
0
 10
81.24277192805093
 20
337.304187322562
 30
0.0
  0
VERTEX
  5
702
  8
0
 10
81.79145357900688
 20
337.4208765716722
 30
0.0
  0
VERTEX
  5
703
  8
0
 10
82.27176963526117
 20
337.5779870540047
 30
0.0
  0
VERTEX
  5
704
  8
0
 10
82.6658543748304
 20
337.7696749253627
 30
0.0
  0
VERTEX
  5
705
  8
0
 10
82.959049515312
 20
337.988810209197
 30
0.0
  0
VERTEX
  5
706
  8
0
 10
83.14044943987619
 20
338.2272420015209
 30
0.0
  0
VERTEX
  5
707
  8
0
 10
83.20330684
 20
338.47610165
 30
0.0
  0
SEQEND
  5
975
  8
0
  0
LINE
  5
28D
  8
0
 10
79.39871326
 20
337.23162621
 30
0.0
 11
72.29886279
 21
337.78126727
 31
0.0
  0
POLYLINE
  5
28E
  8
0
 66
     1
 10
0.0
 20
0.0
 30
0.0
  0
VERTEX
  5
708
  8
0
 10
82.70469219424743
 20
337.7934646686049
 30
0.0
  0
VERTEX
  5
709
  8
0
 10
82.2845961077811
 20
338.0136651362223
 30
0.0
  0
VERTEX
  5
70A
  8
0
 10
81.7600881969606
 20
338.1946350793509
 30
0.0
  0
VERTEX
  5
70B
  8
0
 10
81.1545277262131
 20
338.3283148964715
 30
0.0
  0
VERTEX
  5
70C
  8
0
 10
80.49488368279509
 20
338.4087510792913
 30
0.0
  0
SEQEND
  5
976
  8
0
  0
POLYLINE
  5
28F
  8
0
 66
     1
 10
0.0
 20
0.0
 30
0.0
  0
VERTEX
  5
290
  8
0
 10
80.49488369
 20
338.40875108
 30
0.0
  0
VERTEX
  5
291
  8
0
 10
71.13468037
 20
339.1333793
 30
0.0
  0
SEQEND
  5
292
  8
0
  0
POLYLINE
  5
293
  8
0
 66
     1
 10
0.0
 20
0.0
 30
0.0
  0
VERTEX
  5
70D
  8
0
 10
71.13468037279509
 20
339.1333792992913
 30
0.0
  0
VERTEX
  5
70E
  8
0
 10
70.53841231119428
 20
339.1572002684478
 30
0.0
  0
VERTEX
  5
70F
  8
0
 10
69.94355083926814
 20
339.1369898430808
 30
0.0
  0
SEQEND
  5
977
  8
0
  0
LINE
  5
294
  8
0
 10
14.66297176
 20
370.95660873
 30
0.0
 11
25.72618915
 21
373.9840166
 31
0.0
  0
LINE
  5
295
  8
0
 10
97.7267569
 20
332.54033667
 30
0.0
 11
82.19619025
 21
328.29045544
 31
0.0
  0
LINE
  5
296
  8
0
 10
97.71343502
 20
331.16552866
 30
0.0
 11
82.18286837
 21
326.91564743
 31
0.0
  0
LINE
  5
297
  8
0
  6
STRICHPUNKT2
 62
     1
 10
70.60657797
 20
340.60702888
 30
0.0
 11
70.58873474
 21
338.76562061
 31
0.0
  0
LINE
  5
298
  8
0
  6
STRICHPUNKT2
 62
     1
 10
69.65143413
 20
339.30513284
 30
0.0
 11
84.63356107
 21
338.14527854
 31
0.0
  0
LINE
  5
299
  8
0
  6
STRICHPUNKT2
 62
     1
 10
70.89751798
 20
338.58788432
 30
0.0
 11
71.13468037
 21
339.1333793
 31
0.0
  0
LINE
  5
29A
  8
0
  6
STRICHPUNKT2
 62
     1
 10
70.43009445
 20
338.8569343
 30
0.0
 11
71.40403894
 21
341.0970949
 31
0.0
  0
LINE
  5
29B
  8
0
  6
STRICHPUNKT2
 62
     1
 10
79.96678129
 20
339.88240066
 30
0.0
 11
79.94086782
 21
337.20814944
 31
0.0
  0
LINE
  5
29C
  8
0
  6
STRICHPUNKT2
 62
     1
 10
79.14267657
 20
336.64271862
 30
0.0
 11
80.76424225
 21
340.37246668
 31
0.0
  0
LINE
  5
29D
  8
0
  6
STRICHPUNKT2
 62
     1
 10
79.9727963
 20
337.20790277
 30
0.0
 11
80.49488369
 21
338.40875108
 31
0.0
  0
LINE
  5
29E
  8
0
  6
STRICHPUNKT2
 62
     1
 10
79.24664611
 20
335.63378729
 30
0.0
 11
79.22880287
 21
333.79237902
 31
0.0
  0
LINE
  5
29F
  8
0
  6
STRICHPUNKT2
 62
     1
 10
78.29150226
 20
334.33189124
 30
0.0
 11
93.2736292
 21
333.17203694
 31
0.0
  0
LINE
  5
2A0
  8
0
  6
STRICHPUNKT2
 62
     1
 10
79.53758611
 20
333.61464273
 30
0.0
 11
79.7747485
 21
334.16013771
 31
0.0
  0
LINE
  5
2A1
  8
0
  6
STRICHPUNKT2
 62
     1
 10
79.07016258
 20
333.88369271
 30
0.0
 11
80.04410707
 21
336.12385331
 31
0.0
  0
LINE
  5
2A2
  8
0
  6
STRICHPUNKT2
 62
     1
 10
88.60684942
 20
334.90915907
 30
0.0
 11
88.58093595
 21
332.23490785
 31
0.0
  0
LINE
  5
2A3
  8
0
  6
STRICHPUNKT2
 62
     1
 10
87.7827447
 20
331.66947703
 30
0.0
 11
89.40431038
 21
335.39922508
 31
0.0
  0
LINE
  5
2A4
  8
0
  6
STRICHPUNKT2
 62
     1
 10
88.61286443
 20
332.23466118
 30
0.0
 11
89.13495182
 21
333.43550949
 31
0.0
  0
POLYLINE
  5
2A5
  8
0
 66
     1
 10
0.0
 20
0.0
 30
0.0
  0
VERTEX
  5
710
  8
0
 10
97.72675689711892
 20
332.5403366716948
 30
0.0
  0
VERTEX
  5
711
  8
0
 10
97.96621260362639
 20
332.6322093299892
 30
0.0
  0
VERTEX
  5
712
  8
0
 10
98.19697811407389
 20
332.7733844745065
 30
0.0
  0
VERTEX
  5
713
  8
0
 10
98.41018523927357
 20
332.958436823593
 30
0.0
  0
VERTEX
  5
714
  8
0
 10
98.59764054893868
 20
333.1802549192229
 30
0.0
  0
VERTEX
  5
715
  8
0
 10
98.75214024061559
 20
333.4303144163433
 30
0.0
  0
VERTEX
  5
716
  8
0
 10
98.86774697777344
 20
333.6990056686759
 30
0.0
  0
VERTEX
  5
717
  8
0
 10
98.9400180583182
 20
333.9760030220353
 30
0.0
  0
VERTEX
  5
718
  8
0
 10
98.96617614514331
 20
334.2506616234306
 30
0.0
  0
SEQEND
  5
978
  8
0
  0
POLYLINE
  5
2A6
  8
0
 66
     1
 10
0.0
 20
0.0
 30
0.0
  0
VERTEX
  5
719
  8
0
 10
25.72618914711891
 20
373.9840166016947
 30
0.0
  0
VERTEX
  5
71A
  8
0
 10
25.96564485362639
 20
374.0758892599891
 30
0.0
  0
VERTEX
  5
71B
  8
0
 10
26.19641036407388
 20
374.2170644045065
 30
0.0
  0
VERTEX
  5
71C
  8
0
 10
26.40961748927358
 20
374.402116753593
 30
0.0
  0
VERTEX
  5
71D
  8
0
 10
26.59707279893868
 20
374.6239348492228
 30
0.0
  0
VERTEX
  5
71E
  8
0
 10
26.75157249061558
 20
374.8739943463432
 30
0.0
  0
VERTEX
  5
71F
  8
0
 10
26.86717922777344
 20
375.1426855986759
 30
0.0
  0
VERTEX
  5
720
  8
0
 10
26.93945030831819
 20
375.4196829520353
 30
0.0
  0
VERTEX
  5
721
  8
0
 10
26.9656083951433
 20
375.6943415534306
 30
0.0
  0
SEQEND
  5
979
  8
0
  0
POLYLINE
  5
2A7
  8
0
 66
     1
 10
0.0
 20
0.0
 30
0.0
  0
VERTEX
  5
722
  8
0
 10
97.7134350142378
 20
331.1655286633895
 30
0.0
  0
VERTEX
  5
723
  8
0
 10
98.1923464272528
 20
331.3492739799782
 30
0.0
  0
VERTEX
  5
724
  8
0
 10
98.65387744814775
 20
331.6316242690131
 30
0.0
  0
VERTEX
  5
725
  8
0
 10
99.08029169854717
 20
332.001728967186
 30
0.0
  0
VERTEX
  5
726
  8
0
 10
99.45520231787735
 20
332.4453651584457
 30
0.0
  0
VERTEX
  5
727
  8
0
 10
99.76420170123119
 20
332.9454841526866
 30
0.0
  0
VERTEX
  5
728
  8
0
 10
99.99541517554688
 20
333.4828666573518
 30
0.0
  0
VERTEX
  5
729
  8
0
 10
100.1399573366364
 20
334.0368613640707
 30
0.0
  0
VERTEX
  5
72A
  8
0
 10
100.1922735102866
 20
334.5861785668612
 30
0.0
  0
SEQEND
  5
97A
  8
0
  0
POLYLINE
  5
2A8
  8
0
 66
     1
 10
0.0
 20
0.0
 30
0.0
  0
VERTEX
  5
72B
  8
0
 10
81.46121724
 20
328.36524239
 30
0.0
  0
VERTEX
  5
72C
  8
0
 10
81.68588197301277
 20
328.2758388947968
 30
0.0
  0
VERTEX
  5
72D
  8
0
 10
81.93469841165438
 20
328.2505206559582
 30
0.0
  0
VERTEX
  5
72E
  8
0
 10
82.1961902471189
 20
328.2904554416947
 30
0.0
  0
SEQEND
  5
97B
  8
0
  0
POLYLINE
  5
2A9
  8
0
 66
     1
 10
0.0
 20
0.0
 30
0.0
  0
VERTEX
  5
72F
  8
0
 10
80.98341476490452
 20
329.3297465115047
 30
0.0
  0
VERTEX
  5
730
  8
0
 10
81.00189709644353
 20
329.0825135880951
 30
0.0
  0
VERTEX
  5
731
  8
0
 10
81.06161537013251
 20
328.855179588536
 30
0.0
  0
VERTEX
  5
732
  8
0
 10
81.16053041023197
 20
328.6555071949687
 30
0.0
  0
VERTEX
  5
733
  8
0
 10
81.2952646048722
 20
328.4903145398619
 30
0.0
  0
VERTEX
  5
734
  8
0
 10
81.46121724
 20
328.36524239
 30
0.0
  0
SEQEND
  5
97C
  8
0
  0
POLYLINE
  5
2AA
  8
0
 66
     1
 10
0.0
 20
0.0
 30
0.0
  0
VERTEX
  5
735
  8
0
 10
79.75731739980904
 20
328.9942295730094
 30
0.0
  0
VERTEX
  5
736
  8
0
 10
79.79428206288705
 20
328.4997637261902
 30
0.0
  0
VERTEX
  5
737
  8
0
 10
79.91371861026505
 20
328.045095727072
 30
0.0
  0
VERTEX
  5
738
  8
0
 10
80.11154869046393
 20
327.6457509399373
 30
0.0
  0
VERTEX
  5
739
  8
0
 10
80.38101707974442
 20
327.3153656297237
 30
0.0
  0
VERTEX
  5
73A
  8
0
 10
80.71292235
 20
327.06522133
 30
0.0
  0
SEQEND
  5
97D
  8
0
  0
POLYLINE
  5
2AB
  8
0
 66
     1
 10
0.0
 20
0.0
 30
0.0
  0
VERTEX
  5
73B
  8
0
 10
80.7129223554793
 20
327.0652213268461
 30
0.0
  0
VERTEX
  5
73C
  8
0
 10
81.16225182019502
 20
326.8864143385833
 30
0.0
  0
VERTEX
  5
73D
  8
0
 10
81.65988469555565
 20
326.8357778619807
 30
0.0
  0
VERTEX
  5
73E
  8
0
 10
82.18286836423779
 20
326.9156474333895
 30
0.0
  0
SEQEND
  5
97E
  8
0
  0
LINE
  5
2AC
  8
0
 10
80.71292235
 20
327.06522133
 30
0.0
 11
74.09717545
 21
330.87325932
 31
0.0
  0
LINE
  5
2AD
  8
0
 10
29.94042172
 20
356.28998068
 30
0.0
 11
25.71279392
 21
358.72341223
 31
0.0
  0
LINE
  5
2AE
  8
0
 10
79.75731739
 20
328.99422958
 30
0.0
 11
79.77730021
 21
331.05644159
 31
0.0
  0
LINE
  5
2AF
  8
0
 10
80.98341476
 20
329.32974651
 30
0.0
 11
81.00339758
 21
331.39195853
 31
0.0
  0
POLYLINE
  5
2B0
  8
0
 66
     1
 10
0.0
 20
0.0
 30
0.0
  0
VERTEX
  5
73F
  8
0
 10
8.047224876973988
 20
374.7646467059858
 30
0.0
  0
VERTEX
  5
740
  8
0
 10
7.597895411934741
 20
374.9434536984777
 30
0.0
  0
VERTEX
  5
741
  8
0
 10
7.10026253527066
 20
374.9940901783295
 30
0.0
  0
VERTEX
  5
742
  8
0
 10
6.577278864565065
 20
374.9142206090194
 30
0.0
  0
SEQEND
  5
97F
  8
0
  0
LINE
  5
2B1
  8
0
 10
29.99701438
 20
362.13030118
 30
0.0
 11
8.04722486
 21
374.76464671
 31
0.0
  0
LINE
  5
2B2
  8
0
 10
80.04779262
 20
333.32096678
 30
0.0
 11
39.37346583
 21
356.73319579
 31
0.0
  0
POLYLINE
  5
2B3
  8
0
 66
     1
 10
0.0
 20
0.0
 30
0.0
  0
VERTEX
  5
743
  8
0
 10
80.04779262697399
 20
333.3209667659858
 30
0.0
  0
VERTEX
  5
744
  8
0
 10
79.59846316193475
 20
333.4997737584777
 30
0.0
  0
VERTEX
  5
745
  8
0
 10
79.10083028527066
 20
333.5504102383294
 30
0.0
  0
VERTEX
  5
746
  8
0
 10
78.57784661456506
 20
333.4705406690194
 30
0.0
  0
SEQEND
  5
980
  8
0
  0
POLYLINE
  5
2B4
  8
0
 66
     1
 10
0.0
 20
0.0
 30
0.0
  0
VERTEX
  5
747
  8
0
 10
79.29949773348699
 20
332.0209457079928
 30
0.0
  0
VERTEX
  5
748
  8
0
 10
79.07483300096737
 20
332.1103492042388
 30
0.0
  0
VERTEX
  5
749
  8
0
 10
78.82601656263533
 20
332.1356674441647
 30
0.0
  0
VERTEX
  5
74A
  8
0
 10
78.56452472728253
 20
332.0957326595097
 30
0.0
  0
SEQEND
  5
981
  8
0
  0
POLYLINE
  5
2B5
  8
0
 66
     1
 10
0.0
 20
0.0
 30
0.0
  0
VERTEX
  5
74B
  8
0
 10
79.7773002051433
 20
331.0564415934306
 30
0.0
  0
VERTEX
  5
74C
  8
0
 10
79.75881787309876
 20
331.3036745146825
 30
0.0
  0
VERTEX
  5
74D
  8
0
 10
79.69909959955798
 20
331.531008512297
 30
0.0
  0
VERTEX
  5
74E
  8
0
 10
79.60018456022388
 20
331.7306809043195
 30
0.0
  0
VERTEX
  5
74F
  8
0
 10
79.46545036688771
 20
331.8958735584392
 30
0.0
  0
VERTEX
  5
750
  8
0
 10
79.29949773348699
 20
332.0209457079928
 30
0.0
  0
SEQEND
  5
982
  8
0
  0
POLYLINE
  5
2B6
  8
0
 66
     1
 10
0.0
 20
0.0
 30
0.0
  0
VERTEX
  5
751
  8
0
 10
81.0033975702866
 20
331.3919585368611
 30
0.0
  0
VERTEX
  5
752
  8
0
 10
80.96643290619753
 20
331.886424379365
 30
0.0
  0
VERTEX
  5
753
  8
0
 10
80.84699635911596
 20
332.3410923745942
 30
0.0
  0
VERTEX
  5
754
  8
0
 10
80.64916628044776
 20
332.7404371586389
 30
0.0
  0
VERTEX
  5
755
  8
0
 10
80.37969789377541
 20
333.0708224668784
 30
0.0
  0
VERTEX
  5
756
  8
0
 10
80.04779262697399
 20
333.3209667659858
 30
0.0
  0
SEQEND
  5
983
  8
0
  0
LINE
  5
2B7
  8
0
 10
98.96617615
 20
334.25066161
 30
0.0
 11
98.98615897
 21
336.31287363
 31
0.0
  0
LINE
  5
2B8
  8
0
 10
26.98559121
 20
377.75655357
 30
0.0
 11
26.96560839
 21
375.69434155
 31
0.0
  0
LINE
  5
2B9
  8
0
 10
100.19227352
 20
334.58617855
 30
0.0
 11
100.21225634
 21
336.64839057
 31
0.0
  0
POLYLINE
  5
2BA
  8
0
 66
     1
 10
0.0
 20
0.0
 30
0.0
  0
VERTEX
  5
757
  8
0
 10
4.484521150022601
 20
369.2987722623323
 30
0.0
  0
VERTEX
  5
758
  8
0
 10
4.514515353143863
 20
369.1717153202543
 30
0.0
  0
VERTEX
  5
759
  8
0
 10
4.605801802906457
 20
369.0489360143913
 30
0.0
  0
VERTEX
  5
75A
  8
0
 10
4.754872412232046
 20
368.9351526846228
 30
0.0
  0
VERTEX
  5
75B
  8
0
 10
4.955998481190959
 20
368.8347379605117
 30
0.0
  0
VERTEX
  5
75C
  8
0
 10
5.201450847728296
 20
368.7515507236008
 30
0.0
  0
VERTEX
  5
75D
  8
0
 10
5.481796915027815
 20
368.6887878127599
 30
0.0
  0
VERTEX
  5
75E
  8
0
 10
5.786263140918536
 20
368.6488611714606
 30
0.0
  0
VERTEX
  5
75F
  8
0
 10
6.103149059059455
 20
368.6333051581402
 30
0.0
  0
VERTEX
  5
760
  8
0
 10
6.420276921300343
 20
368.642717581668
 30
0.0
  0
VERTEX
  5
761
  8
0
 10
6.725459681714877
 20
368.6767367278857
 30
0.0
  0
VERTEX
  5
762
  8
0
 10
7.006969337942073
 20
368.7340552600793
 30
0.0
  0
VERTEX
  5
763
  8
0
 10
7.25398763174091
 20
368.8124704591961
 30
0.0
  0
VERTEX
  5
764
  8
0
 10
7.457021788588531
 20
368.9089688731029
 30
0.0
  0
VERTEX
  5
765
  8
0
 10
7.608269319682373
 20
369.0198421218619
 30
0.0
  0
VERTEX
  5
766
  8
0
 10
7.701917867209852
 20
369.140829408692
 30
0.0
  0
VERTEX
  5
767
  8
0
 10
7.73436857
 20
369.26728126
 30
0.0
  0
SEQEND
  5
984
  8
0
  0
POLYLINE
  5
2BB
  8
0
 66
     1
 10
0.0
 20
0.0
 30
0.0
  0
VERTEX
  5
768
  8
0
 10
7.73436857
 20
369.26728126
 30
0.0
  0
VERTEX
  5
769
  8
0
 10
7.704374365879793
 20
369.3943382017569
 30
0.0
  0
VERTEX
  5
76A
  8
0
 10
7.613087915435019
 20
369.517117507241
 30
0.0
  0
VERTEX
  5
76B
  8
0
 10
7.464017305754249
 20
369.6309008366088
 30
0.0
  0
VERTEX
  5
76C
  8
0
 10
7.262891236754704
 20
369.7313155603329
 30
0.0
  0
VERTEX
  5
76D
  8
0
 10
7.017438870457632
 20
369.8145027969028
 30
0.0
  0
VERTEX
  5
76E
  8
0
 10
6.737092803627067
 20
369.8772657074762
 30
0.0
  0
VERTEX
  5
76F
  8
0
 10
6.432626578366882
 20
369.9171923486031
 30
0.0
  0
VERTEX
  5
770
  8
0
 10
6.115740660940545
 20
369.9327483618598
 30
0.0
  0
VERTEX
  5
771
  8
0
 10
5.79861279941534
 20
369.9233359383819
 30
0.0
  0
VERTEX
  5
772
  8
0
 10
5.493430039634565
 20
369.8893167923243
 30
0.0
  0
VERTEX
  5
773
  8
0
 10
5.211920383881414
 20
369.831998260389
 30
0.0
  0
VERTEX
  5
774
  8
0
 10
4.964902090329406
 20
369.7535830616085
 30
0.0
  0
VERTEX
  5
775
  8
0
 10
4.761867933448662
 20
369.6570846480895
 30
0.0
  0
VERTEX
  5
776
  8
0
 10
4.610620402007472
 20
369.546211399738
 30
0.0
  0
VERTEX
  5
777
  8
0
 10
4.516971853805284
 20
369.4252241133
 30
0.0
  0
VERTEX
  5
778
  8
0
 10
4.484521150022601
 20
369.2987722623323
 30
0.0
  0
SEQEND
  5
985
  8
0
  0
POLYLINE
  5
2BC
  8
0
 66
     1
 10
0.0
 20
0.0
 30
0.0
  0
VERTEX
  5
779
  8
0
 10
34.28288343163131
 20
351.6779873488098
 30
0.0
  0
VERTEX
  5
77A
  8
0
 10
34.87583974882129
 20
351.5791058154363
 30
0.0
  0
VERTEX
  5
77B
  8
0
 10
35.46117761324199
 20
351.5330968986726
 30
0.0
  0
VERTEX
  5
77C
  8
0
 10
36.01412963166358
 20
351.5419073731982
 30
0.0
  0
VERTEX
  5
77D
  8
0
 10
36.51129875272495
 20
351.6051644415225
 30
0.0
  0
VERTEX
  5
77E
  8
0
 10
36.93164826605499
 20
351.7201915081593
 30
0.0
  0
VERTEX
  5
77F
  8
0
 10
37.2573919283173
 20
351.8821214343763
 30
0.0
  0
VERTEX
  5
780
  8
0
 10
37.47474655228656
 20
352.0841024813707
 30
0.0
  0
VERTEX
  5
781
  8
0
 10
37.57451521466534
 20
352.3175882278022
 30
0.0
  0
VERTEX
  5
782
  8
0
 10
37.55247640537655
 20
352.5726991944043
 30
0.0
  0
SEQEND
  5
986
  8
0
  0
POLYLINE
  5
2BD
  8
0
 66
     1
 10
0.0
 20
0.0
 30
0.0
  0
VERTEX
  5
2BE
  8
0
 10
40.2090207
 20
353.29965255
 30
0.0
  0
VERTEX
  5
2BF
  8
0
 10
40.78502524
 20
352.96810312
 30
0.0
  0
SEQEND
  5
2C0
  8
0
  0
POLYLINE
  5
2C1
  8
0
 66
     1
 10
0.0
 20
0.0
 30
0.0
  0
VERTEX
  5
783
  8
0
 10
40.78502524095246
 20
352.9681031117075
 30
0.0
  0
VERTEX
  5
784
  8
0
 10
40.91150742230315
 20
352.9083408817302
 30
0.0
  0
VERTEX
  5
785
  8
0
 10
41.06394955342055
 20
352.8592284157307
 30
0.0
  0
VERTEX
  5
786
  8
0
 10
41.23662389073181
 20
352.8226110277924
 30
0.0
  0
VERTEX
  5
787
  8
0
 10
41.42304250128502
 20
352.7998645515308
 30
0.0
  0
VERTEX
  5
788
  8
0
 10
41.61620103535987
 20
352.7918436455778
 30
0.0
  0
VERTEX
  5
789
  8
0
 10
41.80884190252528
 20
352.7988496812944
 30
0.0
  0
VERTEX
  5
78A
  8
0
 10
41.99372696276909
 20
352.8206194192745
 30
0.0
  0
VERTEX
  5
78B
  8
0
 10
42.16390948681268
 20
352.8563349001004
 30
0.0
  0
VERTEX
  5
78C
  8
0
 10
42.3129951671824
 20
352.9046541777219
 30
0.0
  0
VERTEX
  5
78D
  8
0
 10
42.43538237300832
 20
352.9637617407064
 30
0.0
  0
VERTEX
  5
78E
  8
0
 10
42.52647262140101
 20
353.0314367268716
 30
0.0
  0
VERTEX
  5
78F
  8
0
 10
42.58284335731644
 20
353.1051363682556
 30
0.0
  0
VERTEX
  5
790
  8
0
 10
42.60237655001093
 20
353.1820915311276
 30
0.0
  0
SEQEND
  5
987
  8
0
  0
POLYLINE
  5
2C2
  8
0
 66
     1
 10
0.0
 20
0.0
 30
0.0
  0
VERTEX
  5
791
  8
0
 10
42.60237655
 20
353.18209153
 30
0.0
  0
VERTEX
  5
792
  8
0
 10
42.58204469371101
 20
353.2640450272612
 30
0.0
  0
VERTEX
  5
793
  8
0
 10
42.52032385449002
 20
353.3429453732816
 30
0.0
  0
VERTEX
  5
794
  8
0
 10
42.41982173697981
 20
353.4154590294827
 30
0.0
  0
SEQEND
  5
988
  8
0
  0
LINE
  5
2C3
  8
0
 10
29.98194091
 20
360.57472969
 30
0.0
 11
29.74772181
 21
360.7095467
 31
0.0
  0
LINE
  5
2C4
  8
0
 10
42.41982173
 20
353.41545903
 30
0.0
 11
39.35839235
 21
355.1776243
 31
0.0
  0
POLYLINE
  5
2C5
  8
0
 66
     1
 10
0.0
 20
0.0
 30
0.0
  0
VERTEX
  5
795
  8
0
 10
29.7477218069798
 20
360.7095466994827
 30
0.0
  0
VERTEX
  5
796
  8
0
 10
29.61964281686136
 20
360.7699308772041
 30
0.0
  0
VERTEX
  5
797
  8
0
 10
29.46507367450488
 20
360.8193987063908
 30
0.0
  0
VERTEX
  5
798
  8
0
 10
29.2899543853165
 20
360.8560491661254
 30
0.0
  0
VERTEX
  5
799
  8
0
 10
29.10101468531369
 20
360.8784737998063
 30
0.0
  0
VERTEX
  5
79A
  8
0
 10
28.90551542114632
 20
360.8858108413444
 30
0.0
  0
VERTEX
  5
79B
  8
0
 10
28.71096951983432
 20
360.8777783323504
 30
0.0
  0
VERTEX
  5
79C
  8
0
 10
28.52485327119803
 20
360.8546849576378
 30
0.0
  0
VERTEX
  5
79D
  8
0
 10
28.35431901823566
 20
360.8174181826381
 30
0.0
  0
SEQEND
  5
989
  8
0
  0
LINE
  5
2C6
  8
0
 10
28.35431902
 20
360.81741818
 30
0.0
 11
19.77163745
 21
358.46879961
 31
0.0
  0
POLYLINE
  5
2C7
  8
0
 66
     1
 10
0.0
 20
0.0
 30
0.0
  0
VERTEX
  5
79E
  8
0
 10
18.37823466095246
 20
358.5766710917075
 30
0.0
  0
VERTEX
  5
79F
  8
0
 10
18.50631365144368
 20
358.5162869134547
 30
0.0
  0
VERTEX
  5
7A0
  8
0
 10
18.66088279457429
 20
358.4668190838497
 30
0.0
  0
VERTEX
  5
7A1
  8
0
 10
18.83600208483298
 20
358.4301686238503
 30
0.0
  0
VERTEX
  5
7A2
  8
0
 10
19.02494178607577
 20
358.4077439900861
 30
0.0
  0
VERTEX
  5
7A3
  8
0
 10
19.22044105151296
 20
358.4004069486604
 30
0.0
  0
VERTEX
  5
7A4
  8
0
 10
19.4149869539805
 20
358.4084394579615
 30
0.0
  0
VERTEX
  5
7A5
  8
0
 10
19.60110320351874
 20
358.4315328331605
 30
0.0
  0
VERTEX
  5
7A6
  8
0
 10
19.77163745700403
 20
358.4687996087958
 30
0.0
  0
SEQEND
  5
98A
  8
0
  0
POLYLINE
  5
2C8
  8
0
 66
     1
 10
0.0
 20
0.0
 30
0.0
  0
VERTEX
  5
2C9
  8
0
 10
18.37823466
 20
358.57667109
 30
0.0
  0
VERTEX
  5
2CA
  8
0
 10
-4.66194702
 20
371.83864867
 30
0.0
  0
VERTEX
  5
2CB
  8
0
 10
6.57727885
 20
374.91422061
 30
0.0
  0
SEQEND
  5
2CC
  8
0
  0
POLYLINE
  5
2CD
  8
0
 66
     1
 10
0.0
 20
0.0
 30
0.0
  0
VERTEX
  5
2CE
  8
0
 10
78.5778466
 20
333.47054067
 30
0.0
  0
VERTEX
  5
2CF
  8
0
 10
67.33862074
 20
330.39496874
 30
0.0
  0
VERTEX
  5
2D0
  8
0
 10
31.62633913
 20
350.95103398
 30
0.0
  0
SEQEND
  5
2D1
  8
0
  0
LINE
  5
2D2
  8
0
 10
67.32529886
 20
329.02016073
 30
0.0
 11
31.61301725
 21
349.57622597
 31
0.0
  0
LINE
  5
2D3
  8
0
 10
67.33862074
 20
330.39496874
 30
0.0
 11
67.32529886
 21
329.02016073
 31
0.0
  0
LINE
  5
2D4
  8
0
 10
78.56452472
 20
332.09573266
 30
0.0
 11
67.32529886
 21
329.02016073
 31
0.0
  0
LINE
  5
2D5
  8
0
 10
-4.66194702
 20
371.83864867
 30
0.0
 11
-4.6752689
 21
370.46384066
 31
0.0
  0
LINE
  5
2D6
  8
0
 10
18.36491278
 20
357.20186308
 30
0.0
 11
-4.6752689
 21
370.46384066
 31
0.0
  0
POLYLINE
  5
2D7
  8
0
 66
     1
 10
0.0
 20
0.0
 30
0.0
  0
VERTEX
  5
7A7
  8
0
 10
18.36491278095246
 20
357.2018630817075
 30
0.0
  0
VERTEX
  5
7A8
  8
0
 10
18.49299177144368
 20
357.1414789034546
 30
0.0
  0
VERTEX
  5
7A9
  8
0
 10
18.64756091457429
 20
357.0920110738497
 30
0.0
  0
VERTEX
  5
7AA
  8
0
 10
18.82268020483298
 20
357.0553606138503
 30
0.0
  0
VERTEX
  5
7AB
  8
0
 10
19.01161990607577
 20
357.0329359800861
 30
0.0
  0
VERTEX
  5
7AC
  8
0
 10
19.20711917151296
 20
357.0255989386604
 30
0.0
  0
VERTEX
  5
7AD
  8
0
 10
19.4016650739805
 20
357.0336314479615
 30
0.0
  0
VERTEX
  5
7AE
  8
0
 10
19.58778132351874
 20
357.0567248231604
 30
0.0
  0
VERTEX
  5
7AF
  8
0
 10
19.75831557700403
 20
357.0939915987958
 30
0.0
  0
SEQEND
  5
98B
  8
0
  0
LINE
  5
2D8
  8
0
 10
19.75831557
 20
357.0939916
 30
0.0
 11
28.34099714
 21
359.44261017
 31
0.0
  0
POLYLINE
  5
2D9
  8
0
 66
     1
 10
0.0
 20
0.0
 30
0.0
  0
VERTEX
  5
7B0
  8
0
 10
29.7343999269798
 20
359.3347386894827
 30
0.0
  0
VERTEX
  5
7B1
  8
0
 10
29.60632093686136
 20
359.3951228672041
 30
0.0
  0
VERTEX
  5
7B2
  8
0
 10
29.45175179450487
 20
359.4445906963908
 30
0.0
  0
VERTEX
  5
7B3
  8
0
 10
29.2766325053165
 20
359.4812411561255
 30
0.0
  0
VERTEX
  5
7B4
  8
0
 10
29.08769280531368
 20
359.5036657898063
 30
0.0
  0
VERTEX
  5
7B5
  8
0
 10
28.89219354114632
 20
359.5110028313444
 30
0.0
  0
VERTEX
  5
7B6
  8
0
 10
28.69764763983432
 20
359.5029703223504
 30
0.0
  0
VERTEX
  5
7B7
  8
0
 10
28.51153139119802
 20
359.4798769476378
 30
0.0
  0
VERTEX
  5
7B8
  8
0
 10
28.34099713823566
 20
359.4426101726381
 30
0.0
  0
SEQEND
  5
98C
  8
0
  0
LINE
  5
2DA
  8
0
 10
29.73439993
 20
359.33473869
 30
0.0
 11
29.96861903
 21
359.19992168
 31
0.0
  0
LINE
  5
2DB
  8
0
 10
40.12952732
 20
353.35128125
 30
0.0
 11
40.86670239
 21
352.92696172
 31
0.0
  0
LINE
  5
2DC
  8
0
  6
STRICHPUNKT2
 62
     1
 10
6.11666088
 20
370.02771444
 30
0.0
 11
6.10314907
 21
368.63330516
 31
0.0
  0
LINE
  5
2DD
  8
0
  6
STRICHPUNKT2
 62
     1
 10
6.10944486
 20
369.28302676
 30
0.0
 11
4.70543379
 21
370.09117852
 31
0.0
  0
LINE
  5
2DE
  8
0
  6
STRICHPUNKT2
 62
     1
 10
6.10944486
 20
369.28302676
 30
0.0
 11
7.51345593
 21
368.47487501
 31
0.0
  0
LINE
  5
2DF
  8
0
  6
STRICHPUNKT2
 62
     1
 10
6.10944486
 20
369.28302676
 30
0.0
 11
4.11703664
 21
368.73781174
 31
0.0
  0
LINE
  5
2E0
  8
0
  6
STRICHPUNKT2
 62
     1
 10
6.10944486
 20
369.28302676
 30
0.0
 11
8.10185309
 21
369.82824179
 31
0.0
  0
POLYLINE
  5
2E1
  8
0
 66
     1
 10
0.0
 20
0.0
 30
0.0
  0
VERTEX
  5
7B9
  8
0
 10
41.26744218002261
 20
379.3642804223323
 30
0.0
  0
VERTEX
  5
7BA
  8
0
 10
41.29743638319866
 20
379.2372234801414
 30
0.0
  0
VERTEX
  5
7BB
  8
0
 10
41.38872283312363
 20
379.1144441741775
 30
0.0
  0
VERTEX
  5
7BC
  8
0
 10
41.53779344270668
 20
379.0006608443326
 30
0.0
  0
VERTEX
  5
7BD
  8
0
 10
41.73891951199798
 20
378.9002461201799
 30
0.0
  0
VERTEX
  5
7BE
  8
0
 10
41.98437187891603
 20
378.8170588832711
 30
0.0
  0
VERTEX
  5
7BF
  8
0
 10
42.26471794661305
 20
378.7542959724817
 30
0.0
  0
VERTEX
  5
7C0
  8
0
 10
42.56918417288354
 20
378.7143693312852
 30
0.0
  0
VERTEX
  5
7C1
  8
0
 10
42.88607009135093
 20
378.6988133181181
 30
0.0
  0
VERTEX
  5
7C2
  8
0
 10
43.20319795383067
 20
378.7082257418447
 30
0.0
  0
VERTEX
  5
7C3
  8
0
 10
43.50838071436544
 20
378.7422448882984
 30
0.0
  0
VERTEX
  5
7C4
  8
0
 10
43.78989037056864
 20
378.7995634207539
 30
0.0
  0
VERTEX
  5
7C5
  8
0
 10
44.03690866418081
 20
378.8779786201443
 30
0.0
  0
VERTEX
  5
7C6
  8
0
 10
44.23994282066928
 20
378.9744770343209
 30
0.0
  0
VERTEX
  5
7C7
  8
0
 10
44.39119035123132
 20
379.0853502833284
 30
0.0
  0
VERTEX
  5
7C8
  8
0
 10
44.48483889806439
 20
379.2063375703688
 30
0.0
  0
VERTEX
  5
7C9
  8
0
 10
44.51728960001775
 20
379.3327894218325
 30
0.0
  0
SEQEND
  5
98D
  8
0
  0
POLYLINE
  5
2E2
  8
0
 66
     1
 10
0.0
 20
0.0
 30
0.0
  0
VERTEX
  5
7CA
  8
0
 10
44.5172896
 20
379.33278942
 30
0.0
  0
VERTEX
  5
7CB
  8
0
 10
44.48729539587979
 20
379.4598463617569
 30
0.0
  0
VERTEX
  5
7CC
  8
0
 10
44.39600894543502
 20
379.5826256672411
 30
0.0
  0
VERTEX
  5
7CD
  8
0
 10
44.24693833575425
 20
379.6964089966088
 30
0.0
  0
VERTEX
  5
7CE
  8
0
 10
44.0458122667547
 20
379.796823720333
 30
0.0
  0
VERTEX
  5
7CF
  8
0
 10
43.80035990045763
 20
379.8800109569028
 30
0.0
  0
VERTEX
  5
7D0
  8
0
 10
43.52001383362707
 20
379.9427738674762
 30
0.0
  0
VERTEX
  5
7D1
  8
0
 10
43.21554760836688
 20
379.9827005086032
 30
0.0
  0
VERTEX
  5
7D2
  8
0
 10
42.89866169094055
 20
379.9982565218598
 30
0.0
  0
VERTEX
  5
7D3
  8
0
 10
42.58153382941533
 20
379.9888440983819
 30
0.0
  0
VERTEX
  5
7D4
  8
0
 10
42.27635106963456
 20
379.9548249523243
 30
0.0
  0
VERTEX
  5
7D5
  8
0
 10
41.99484141388141
 20
379.897506420389
 30
0.0
  0
VERTEX
  5
7D6
  8
0
 10
41.74782312032941
 20
379.8190912216086
 30
0.0
  0
VERTEX
  5
7D7
  8
0
 10
41.54478896344867
 20
379.7225928080895
 30
0.0
  0
VERTEX
  5
7D8
  8
0
 10
41.39354143200747
 20
379.611719559738
 30
0.0
  0
VERTEX
  5
7D9
  8
0
 10
41.29989288380528
 20
379.4907322733
 30
0.0
  0
VERTEX
  5
7DA
  8
0
 10
41.26744218002261
 20
379.3642804223323
 30
0.0
  0
SEQEND
  5
98E
  8
0
  0
POLYLINE
  5
2E3
  8
0
 66
     1
 10
0.0
 20
0.0
 30
0.0
  0
VERTEX
  5
7DB
  8
0
 10
71.06580446163132
 20
361.7434955088098
 30
0.0
  0
VERTEX
  5
7DC
  8
0
 10
71.65876077882129
 20
361.6446139754364
 30
0.0
  0
VERTEX
  5
7DD
  8
0
 10
72.24409864324197
 20
361.5986050586726
 30
0.0
  0
VERTEX
  5
7DE
  8
0
 10
72.79705066166358
 20
361.6074155331983
 30
0.0
  0
VERTEX
  5
7DF
  8
0
 10
73.29421978272494
 20
361.6706726015225
 30
0.0
  0
VERTEX
  5
7E0
  8
0
 10
73.71456929605499
 20
361.7856996681593
 30
0.0
  0
VERTEX
  5
7E1
  8
0
 10
74.04031295831729
 20
361.9476295943763
 30
0.0
  0
VERTEX
  5
7E2
  8
0
 10
74.25766758228656
 20
362.1496106413708
 30
0.0
  0
VERTEX
  5
7E3
  8
0
 10
74.35743624466534
 20
362.3830963878023
 30
0.0
  0
VERTEX
  5
7E4
  8
0
 10
74.33539743537654
 20
362.6382073544043
 30
0.0
  0
SEQEND
  5
98F
  8
0
  0
LINE
  5
2E4
  8
0
 10
112.70422333
 20
342.80909546
 30
0.0
 11
76.99194172
 21
363.36516071
 31
0.0
  0
LINE
  5
2E5
  8
0
 10
112.70422333
 20
342.80909546
 30
0.0
 11
101.46499746
 21
339.73352353
 31
0.0
  0
LINE
  5
2E6
  8
0
 10
29.46442971
 20
381.17720346
 30
0.0
 11
40.70365557
 21
384.2527754
 31
0.0
  0
LINE
  5
2E7
  8
0
 10
63.74383726
 20
370.99079782
 30
0.0
 11
40.70365557
 21
384.2527754
 31
0.0
  0
POLYLINE
  5
2E8
  8
0
 66
     1
 10
0.0
 20
0.0
 30
0.0
  0
VERTEX
  5
7E5
  8
0
 10
63.92639207000001
 20
370.75743032
 30
0.0
  0
VERTEX
  5
7E6
  8
0
 10
63.90606021371102
 20
370.8393838172612
 30
0.0
  0
VERTEX
  5
7E7
  8
0
 10
63.84433937449003
 20
370.9182841632816
 30
0.0
  0
VERTEX
  5
7E8
  8
0
 10
63.74383725697981
 20
370.9907978194827
 30
0.0
  0
SEQEND
  5
990
  8
0
  0
POLYLINE
  5
2E9
  8
0
 66
     1
 10
0.0
 20
0.0
 30
0.0
  0
VERTEX
  5
7E9
  8
0
 10
63.50244355700404
 20
370.4355704187957
 30
0.0
  0
VERTEX
  5
7EA
  8
0
 10
63.64687559249262
 20
370.4839533651885
 30
0.0
  0
VERTEX
  5
7EB
  8
0
 10
63.76521112589432
 20
370.5425935017385
 30
0.0
  0
VERTEX
  5
7EC
  8
0
 10
63.85316366819759
 20
370.6093666963803
 30
0.0
  0
VERTEX
  5
7ED
  8
0
 10
63.90754729886543
 20
370.6818542118432
 30
0.0
  0
VERTEX
  5
7EE
  8
0
 10
63.92639207000001
 20
370.75743032
 30
0.0
  0
SEQEND
  5
991
  8
0
  0
LINE
  5
2EA
  8
0
 10
63.50244355
 20
370.43557042
 30
0.0
 11
54.91976198
 21
368.08695185
 31
0.0
  0
POLYLINE
  5
2EB
  8
0
 66
     1
 10
0.0
 20
0.0
 30
0.0
  0
VERTEX
  5
7EF
  8
0
 10
54.91976197823566
 20
368.086951852638
 30
0.0
  0
VERTEX
  5
7F0
  8
0
 10
54.77532994156146
 20
368.0385689064626
 30
0.0
  0
VERTEX
  5
7F1
  8
0
 10
54.65699440698128
 20
367.9799287700097
 30
0.0
  0
VERTEX
  5
7F2
  8
0
 10
54.56904186357465
 20
367.9131555753536
 30
0.0
  0
VERTEX
  5
7F3
  8
0
 10
54.51465823193733
 20
367.8406680597799
 30
0.0
  0
VERTEX
  5
7F4
  8
0
 10
54.4958134600139
 20
367.7650919514353
 30
0.0
  0
SEQEND
  5
992
  8
0
  0
POLYLINE
  5
2EC
  8
0
 66
     1
 10
0.0
 20
0.0
 30
0.0
  0
VERTEX
  5
7F5
  8
0
 10
54.4958134600139
 20
367.7650919514353
 30
0.0
  0
VERTEX
  5
7F6
  8
0
 10
54.51614531556866
 20
367.6831384541509
 30
0.0
  0
VERTEX
  5
7F7
  8
0
 10
54.57786615408585
 20
367.6042381080476
 30
0.0
  0
VERTEX
  5
7F8
  8
0
 10
54.67836827095245
 20
367.5317244517075
 30
0.0
  0
SEQEND
  5
993
  8
0
  0
POLYLINE
  5
2ED
  8
0
 66
     1
 10
0.0
 20
0.0
 30
0.0
  0
VERTEX
  5
2EE
  8
0
 10
54.67836828
 20
367.53172445
 30
0.0
  0
VERTEX
  5
2EF
  8
0
 10
67.3504682
 20
360.23763679
 30
0.0
  0
SEQEND
  5
2F0
  8
0
  0
POLYLINE
  5
2F1
  8
0
 66
     1
 10
0.0
 20
0.0
 30
0.0
  0
VERTEX
  5
7F9
  8
0
 10
67.35046820095246
 20
360.2376367817075
 30
0.0
  0
VERTEX
  5
7FA
  8
0
 10
67.47854719144368
 20
360.1772526034546
 30
0.0
  0
VERTEX
  5
7FB
  8
0
 10
67.6331163345743
 20
360.1277847738497
 30
0.0
  0
VERTEX
  5
7FC
  8
0
 10
67.80823562483299
 20
360.0911343138503
 30
0.0
  0
VERTEX
  5
7FD
  8
0
 10
67.99717532607578
 20
360.0687096800861
 30
0.0
  0
VERTEX
  5
7FE
  8
0
 10
68.19267459151297
 20
360.0613726386604
 30
0.0
  0
VERTEX
  5
7FF
  8
0
 10
68.3872204939805
 20
360.0694051479614
 30
0.0
  0
VERTEX
  5
800
  8
0
 10
68.57333674351874
 20
360.0924985231604
 30
0.0
  0
VERTEX
  5
801
  8
0
 10
68.74387099700404
 20
360.1297652987957
 30
0.0
  0
SEQEND
  5
994
  8
0
  0
POLYLINE
  5
2F2
  8
0
 66
     1
 10
0.0
 20
0.0
 30
0.0
  0
VERTEX
  5
802
  8
0
 10
68.74387099700404
 20
360.1297652987957
 30
0.0
  0
VERTEX
  5
803
  8
0
 10
68.88830303249263
 20
360.1781482451885
 30
0.0
  0
VERTEX
  5
804
  8
0
 10
69.00663856589432
 20
360.2367883817385
 30
0.0
  0
VERTEX
  5
805
  8
0
 10
69.09459110819759
 20
360.3035615763803
 30
0.0
  0
VERTEX
  5
806
  8
0
 10
69.14897473886543
 20
360.3760490918432
 30
0.0
  0
VERTEX
  5
807
  8
0
 10
69.16781951
 20
360.4516252
 30
0.0
  0
SEQEND
  5
995
  8
0
  0
POLYLINE
  5
2F3
  8
0
 66
     1
 10
0.0
 20
0.0
 30
0.0
  0
VERTEX
  5
808
  8
0
 10
69.16781951
 20
360.4516252
 30
0.0
  0
VERTEX
  5
809
  8
0
 10
69.14748765371102
 20
360.5335786972612
 30
0.0
  0
VERTEX
  5
80A
  8
0
 10
69.08576681449003
 20
360.6124790432816
 30
0.0
  0
VERTEX
  5
80B
  8
0
 10
68.98526469697981
 20
360.6849926994827
 30
0.0
  0
SEQEND
  5
996
  8
0
  0
LINE
  5
2F4
  8
0
 10
68.98526469
 20
360.6849927
 30
0.0
 11
68.40926015
 21
361.01654214
 31
0.0
  0
LINE
  5
2F5
  8
0
 10
55.71692383
 20
366.93392967
 30
0.0
 11
63.48912167
 21
369.06076241
 31
0.0
  0
POLYLINE
  5
2F6
  8
0
 66
     1
 10
0.0
 20
0.0
 30
0.0
  0
VERTEX
  5
80C
  8
0
 10
63.48912167700404
 20
369.0607624087958
 30
0.0
  0
VERTEX
  5
80D
  8
0
 10
63.63355371249262
 20
369.1091453551886
 30
0.0
  0
VERTEX
  5
80E
  8
0
 10
63.75188924589432
 20
369.1677854917385
 30
0.0
  0
VERTEX
  5
80F
  8
0
 10
63.83984178819759
 20
369.2345586863804
 30
0.0
  0
VERTEX
  5
810
  8
0
 10
63.89422541886543
 20
369.3070462018432
 30
0.0
  0
VERTEX
  5
811
  8
0
 10
63.91307019000001
 20
369.38262231
 30
0.0
  0
SEQEND
  5
997
  8
0
  0
LINE
  5
2F7
  8
0
 10
63.92639207
 20
370.75743032
 30
0.0
 11
63.91307019
 21
369.38262231
 31
0.0
  0
LINE
  5
2F8
  8
0
 10
112.69090145
 20
341.43428745
 30
0.0
 11
101.45167558
 21
338.35871552
 31
0.0
  0
LINE
  5
2F9
  8
0
 10
112.70422333
 20
342.80909546
 30
0.0
 11
112.69090145
 21
341.43428745
 31
0.0
  0
LINE
  5
2FA
  8
0
  6
STRICHPUNKT2
 62
     1
 10
42.8995819
 20
380.09322259
 30
0.0
 11
42.88607009
 21
378.69881332
 31
0.0
  0
LINE
  5
2FB
  8
0
  6
STRICHPUNKT2
 62
     1
 10
42.89236589
 20
379.34853492
 30
0.0
 11
41.48835482
 21
380.15668668
 31
0.0
  0
LINE
  5
2FC
  8
0
  6
STRICHPUNKT2
 62
     1
 10
42.89236589
 20
379.34853492
 30
0.0
 11
44.29637696
 21
378.54038316
 31
0.0
  0
LINE
  5
2FD
  8
0
  6
STRICHPUNKT2
 62
     1
 10
42.89236589
 20
379.34853492
 30
0.0
 11
40.89995766
 21
378.8033199
 31
0.0
  0
LINE
  5
2FE
  8
0
  6
STRICHPUNKT2
 62
     1
 10
42.89236589
 20
379.34853492
 30
0.0
 11
44.88477411
 21
379.89374995
 31
0.0
  0
POLYLINE
  5
2FF
  8
0
 66
     1
 10
0.0
 20
0.0
 30
0.0
  0
VERTEX
  5
300
  8
0
 10
73.4847125
 20
364.51033951
 30
0.0
  0
VERTEX
  5
301
  8
0
 10
73.54200684
 20
364.39580617
 30
0.0
  0
VERTEX
  5
302
  8
0
 10
73.56555775
 20
364.34477269
 30
0.0
  0
SEQEND
  5
303
  8
0
  0
POLYLINE
  5
304
  8
0
 66
     1
 10
0.0
 20
0.0
 30
0.0
  0
VERTEX
  5
305
  8
0
 10
74.29632176
 20
362.73655471
 30
0.0
  0
VERTEX
  5
306
  8
0
 10
74.31647609
 20
362.69007431
 30
0.0
  0
VERTEX
  5
307
  8
0
 10
74.33539743
 20
362.63820735
 30
0.0
  0
SEQEND
  5
308
  8
0
  0
POLYLINE
  5
309
  8
0
 66
     1
 10
0.0
 20
0.0
 30
0.0
  0
VERTEX
  5
812
  8
0
 10
76.14125678937143
 20
365.2372928804839
 30
0.0
  0
VERTEX
  5
813
  8
0
 10
76.15525946863791
 20
364.9595251974386
 30
0.0
  0
VERTEX
  5
814
  8
0
 10
76.20192733011768
 20
364.6733200820597
 30
0.0
  0
VERTEX
  5
815
  8
0
 10
76.27946695405846
 20
364.3896762364702
 30
0.0
  0
VERTEX
  5
816
  8
0
 10
76.38489853618476
 20
364.1194939346313
 30
0.0
  0
VERTEX
  5
817
  8
0
 10
76.51417039990575
 20
363.8731561309248
 30
0.0
  0
VERTEX
  5
818
  8
0
 10
76.66231469997486
 20
363.6601294490379
 30
0.0
  0
VERTEX
  5
819
  8
0
 10
76.82363833399761
 20
363.4886003849219
 30
0.0
  0
VERTEX
  5
81A
  8
0
 10
76.9919417251646
 20
363.3651607043433
 30
0.0
  0
SEQEND
  5
998
  8
0
  0
POLYLINE
  5
30A
  8
0
 66
     1
 10
0.0
 20
0.0
 30
0.0
  0
VERTEX
  5
81B
  8
0
 10
67.55857521937142
 20
362.8886743104839
 30
0.0
  0
VERTEX
  5
81C
  8
0
 10
67.5725778986379
 20
362.6109066274386
 30
0.0
  0
VERTEX
  5
81D
  8
0
 10
67.61924576011768
 20
362.3247015120597
 30
0.0
  0
VERTEX
  5
81E
  8
0
 10
67.69678538405846
 20
362.0410576664702
 30
0.0
  0
VERTEX
  5
81F
  8
0
 10
67.80221696618476
 20
361.7708753646313
 30
0.0
  0
VERTEX
  5
820
  8
0
 10
67.93148882990575
 20
361.5245375609248
 30
0.0
  0
VERTEX
  5
821
  8
0
 10
68.07963312997485
 20
361.3115108790379
 30
0.0
  0
VERTEX
  5
822
  8
0
 10
68.2409567639976
 20
361.139981814922
 30
0.0
  0
VERTEX
  5
823
  8
0
 10
68.40926015516459
 20
361.0165421343433
 30
0.0
  0
SEQEND
  5
999
  8
0
  0
POLYLINE
  5
30B
  8
0
 66
     1
 10
0.0
 20
0.0
 30
0.0
  0
VERTEX
  5
30C
  8
0
 10
71.06580444
 20
361.74349551
 30
0.0
  0
VERTEX
  5
30D
  8
0
 10
70.97818187
 20
361.76554112
 30
0.0
  0
VERTEX
  5
30E
  8
0
 10
70.89467936
 20
361.79371249
 30
0.0
  0
VERTEX
  5
30F
  8
0
 10
70.81500379
 20
361.82793479
 30
0.0
  0
VERTEX
  5
310
  8
0
 10
70.73889339
 20
361.86820936
 30
0.0
  0
VERTEX
  5
311
  8
0
 10
70.66612308
 20
361.91461267
 30
0.0
  0
VERTEX
  5
312
  8
0
 10
70.59650924
 20
361.96729376
 30
0.0
  0
VERTEX
  5
313
  8
0
 10
70.5677737
 20
361.99169664
 30
0.0
  0
VERTEX
  5
314
  8
0
 10
70.50240328
 20
362.05376906
 30
0.0
  0
VERTEX
  5
315
  8
0
 10
70.44051784
 20
362.12223362
 30
0.0
  0
VERTEX
  5
316
  8
0
 10
70.38248207
 20
362.19694511
 30
0.0
  0
VERTEX
  5
317
  8
0
 10
70.32866467
 20
362.27772518
 30
0.0
  0
VERTEX
  5
318
  8
0
 10
70.27943146
 20
362.36436319
 30
0.0
  0
VERTEX
  5
319
  8
0
 10
70.24309377
 20
362.43881214
 30
0.0
  0
VERTEX
  5
31A
  8
0
 10
70.20363487
 20
362.53404809
 30
0.0
  0
VERTEX
  5
31B
  8
0
 10
70.17049551
 20
362.6321992
 30
0.0
  0
VERTEX
  5
31C
  8
0
 10
70.14394177
 20
362.73260546
 30
0.0
  0
VERTEX
  5
31D
  8
0
 10
70.1241906
 20
362.83454396
 30
0.0
  0
VERTEX
  5
31E
  8
0
 10
70.11139679
 20
362.9372474
 30
0.0
  0
VERTEX
  5
31F
  8
0
 10
70.10675358
 20
363.00627979
 30
0.0
  0
VERTEX
  5
320
  8
0
 10
70.10576136
 20
363.10854874
 30
0.0
  0
VERTEX
  5
321
  8
0
 10
70.1118261
 20
363.20905522
 30
0.0
  0
VERTEX
  5
322
  8
0
 10
70.12483229
 20
363.30760673
 30
0.0
  0
VERTEX
  5
323
  8
0
 10
70.14467588
 20
363.4040549
 30
0.0
  0
VERTEX
  5
324
  8
0
 10
70.17127267
 20
363.49828761
 30
0.0
  0
VERTEX
  5
325
  8
0
 10
70.20456506
 20
363.59022073
 30
0.0
  0
VERTEX
  5
326
  8
0
 10
70.21511951
 20
363.61562768
 30
0.0
  0
SEQEND
  5
327
  8
0
  0
POLYLINE
  5
328
  8
0
 66
     1
 10
0.0
 20
0.0
 30
0.0
  0
VERTEX
  5
824
  8
0
 10
66.69456841342354
 20
363.3859984662496
 30
0.0
  0
VERTEX
  5
825
  8
0
 10
66.72681616268586
 20
362.792359282189
 30
0.0
  0
VERTEX
  5
826
  8
0
 10
66.83323215057858
 20
362.1811810371163
 30
0.0
  0
VERTEX
  5
827
  8
0
 10
67.0091620279747
 20
361.5791950238354
 30
0.0
  0
VERTEX
  5
828
  8
0
 10
67.24691109516334
 20
361.0127304916525
 30
0.0
  0
VERTEX
  5
829
  8
0
 10
67.53608084732183
 20
360.5065630758178
 30
0.0
  0
VERTEX
  5
82A
  8
0
 10
67.86402377715203
 20
360.0828311778691
 30
0.0
  0
SEQEND
  5
99A
  8
0
  0
POLYLINE
  5
329
  8
0
 66
     1
 10
0.0
 20
0.0
 30
0.0
  0
VERTEX
  5
82B
  8
0
 10
71.12585542
 20
371.59087951
 30
0.0
  0
VERTEX
  5
82C
  8
0
 10
71.34672746475165
 20
371.499772106125
 30
0.0
  0
VERTEX
  5
82D
  8
0
 10
71.590264453123
 20
371.4662882455851
 30
0.0
  0
VERTEX
  5
82E
  8
0
 10
71.8471073952494
 20
371.4917146943603
 30
0.0
  0
VERTEX
  5
82F
  8
0
 10
72.10738596092656
 20
371.5750743282856
 30
0.0
  0
VERTEX
  5
830
  8
0
 10
72.36109779086424
 20
371.7131636833851
 30
0.0
  0
VERTEX
  5
831
  8
0
 10
72.59849288174331
 20
371.9006760631958
 30
0.0
  0
VERTEX
  5
832
  8
0
 10
72.81044827337485
 20
372.1304054721362
 30
0.0
  0
VERTEX
  5
833
  8
0
 10
72.9888186389429
 20
372.3935235378746
 30
0.0
  0
VERTEX
  5
834
  8
0
 10
73.12674930534558
 20
372.6799187807259
 30
0.0
  0
VERTEX
  5
835
  8
0
 10
73.21893967443752
 20
372.9785851921449
 30
0.0
  0
VERTEX
  5
836
  8
0
 10
73.26184692204355
 20
373.2780451894608
 30
0.0
  0
VERTEX
  5
837
  8
0
 10
73.25382214670456
 20
373.5667906929422
 30
0.0
  0
VERTEX
  5
838
  8
0
 10
73.19517373603581
 20
373.8337253748457
 30
0.0
  0
VERTEX
  5
839
  8
0
 10
73.08815551556373
 20
374.068591085068
 30
0.0
  0
VERTEX
  5
83A
  8
0
 10
72.9368801354752
 20
374.2623620661
 30
0.0
  0
VERTEX
  5
83B
  8
0
 10
72.74716102377756
 20
374.4075918078256
 30
0.0
  0
SEQEND
  5
99B
  8
0
  0
POLYLINE
  5
32A
  8
0
 66
     1
 10
0.0
 20
0.0
 30
0.0
  0
VERTEX
  5
83C
  8
0
 10
72.74716102377756
 20
374.4075918078256
 30
0.0
  0
VERTEX
  5
83D
  8
0
 10
72.52628897898697
 20
374.4986992128721
 30
0.0
  0
VERTEX
  5
83E
  8
0
 10
72.28275199032973
 20
374.5321830743593
 30
0.0
  0
VERTEX
  5
83F
  8
0
 10
72.02590904772414
 20
374.5067566262652
 30
0.0
  0
VERTEX
  5
840
  8
0
 10
71.76563048143787
 20
374.4233969927332
 30
0.0
  0
VERTEX
  5
841
  8
0
 10
71.51191865083015
 20
374.2853076377384
 30
0.0
  0
VERTEX
  5
842
  8
0
 10
71.27452355929022
 20
374.0977952577639
 30
0.0
  0
VERTEX
  5
843
  8
0
 10
71.06256816707405
 20
373.8680658484306
 30
0.0
  0
VERTEX
  5
844
  8
0
 10
70.88419780105708
 20
373.6049477821254
 30
0.0
  0
VERTEX
  5
845
  8
0
 10
70.74626713438975
 20
373.3185525386012
 30
0.0
  0
VERTEX
  5
846
  8
0
 10
70.65407676525172
 20
373.0198861264794
 30
0.0
  0
VERTEX
  5
847
  8
0
 10
70.61116951783607
 20
372.7204261285098
 30
0.0
  0
VERTEX
  5
848
  8
0
 10
70.61919429360212
 20
372.4316806245017
 30
0.0
  0
VERTEX
  5
849
  8
0
 10
70.67784270491678
 20
372.1647459422689
 30
0.0
  0
VERTEX
  5
84A
  8
0
 10
70.78486092621856
 20
371.9298802319743
 30
0.0
  0
VERTEX
  5
84B
  8
0
 10
70.93613630726989
 20
371.7361092511709
 30
0.0
  0
VERTEX
  5
84C
  8
0
 10
71.12585542
 20
371.59087951
 30
0.0
  0
SEQEND
  5
99C
  8
0
  0
POLYLINE
  5
32B
  8
0
 66
     1
 10
0.0
 20
0.0
 30
0.0
  0
VERTEX
  5
84D
  8
0
 10
70.76531287109886
 20
371.9636913209695
 30
0.0
  0
VERTEX
  5
84E
  8
0
 10
71.0166284743231
 20
371.9965676962723
 30
0.0
  0
VERTEX
  5
84F
  8
0
 10
71.26998242628548
 20
372.0841665774822
 30
0.0
  0
VERTEX
  5
850
  8
0
 10
71.51613190303145
 20
372.2232921942891
 30
0.0
  0
VERTEX
  5
851
  8
0
 10
71.74609691327824
 20
372.4088689851168
 30
0.0
  0
VERTEX
  5
852
  8
0
 10
71.95148790521915
 20
372.6341267630615
 30
0.0
  0
VERTEX
  5
853
  8
0
 10
72.12481183299617
 20
372.8908477049164
 30
0.0
  0
VERTEX
  5
854
  8
0
 10
72.25974551696615
 20
373.1696661526656
 30
0.0
  0
VERTEX
  5
855
  8
0
 10
72.35136632506902
 20
373.4604102901294
 30
0.0
  0
VERTEX
  5
856
  8
0
 10
72.39633175961208
 20
373.7524732297592
 30
0.0
  0
VERTEX
  5
857
  8
0
 10
72.39300139781012
 20
374.035199971648
 30
0.0
  0
VERTEX
  5
858
  8
0
 10
72.34149673746336
 20
374.2982761177674
 30
0.0
  0
VERTEX
  5
859
  8
0
 10
72.24369676449146
 20
374.5321041604159
 30
0.0
  0
SEQEND
  5
99D
  8
0
  0
LINE
  5
32C
  8
0
 10
66.69456841
 20
363.38599847
 30
0.0
 11
66.80114344
 21
374.38446255
 31
0.0
  0
LINE
  5
32D
  8
0
 10
67.66515026
 20
373.88713839
 30
0.0
 11
67.55857522
 21
362.88867431
 31
0.0
  0
POLYLINE
  5
32E
  8
0
 66
     1
 10
0.0
 20
0.0
 30
0.0
  0
VERTEX
  5
85A
  8
0
 10
73.48471249093544
 20
364.5103395010281
 30
0.0
  0
VERTEX
  5
85B
  8
0
 10
73.20399495858183
 20
364.9215150386371
 30
0.0
  0
VERTEX
  5
85C
  8
0
 10
72.8651851253633
 20
365.2140955855443
 30
0.0
  0
VERTEX
  5
85D
  8
0
 10
72.48261904726549
 20
365.3757011849433
 30
0.0
  0
VERTEX
  5
85E
  8
0
 10
72.0724842376842
 20
365.3994938212471
 30
0.0
  0
VERTEX
  5
85F
  8
0
 10
71.6521347253853
 20
365.284466756951
 30
0.0
  0
VERTEX
  5
860
  8
0
 10
71.23935675371548
 20
365.0354871307029
 30
0.0
  0
VERTEX
  5
861
  8
0
 10
70.8516161915231
 20
364.6630900141309
 30
0.0
  0
VERTEX
  5
862
  8
0
 10
70.50531950008087
 20
364.1830326414963
 30
0.0
  0
VERTEX
  5
863
  8
0
 10
70.21511952670734
 20
363.6156276740493
 30
0.0
  0
SEQEND
  5
99E
  8
0
  0
POLYLINE
  5
32F
  8
0
 66
     1
 10
0.0
 20
0.0
 30
0.0
  0
VERTEX
  5
330
  8
0
 10
76.14125679
 20
365.23729288
 30
0.0
  0
VERTEX
  5
331
  8
0
 10
76.24783183
 20
376.23575696
 30
0.0
  0
SEQEND
  5
332
  8
0
  0
POLYLINE
  5
333
  8
0
 66
     1
 10
0.0
 20
0.0
 30
0.0
  0
VERTEX
  5
864
  8
0
 10
76.24783182541833
 20
376.2357569642925
 30
0.0
  0
VERTEX
  5
865
  8
0
 10
76.23551027041229
 20
376.4005789122494
 30
0.0
  0
VERTEX
  5
866
  8
0
 10
76.19569808768473
 20
376.5521349110308
 30
0.0
  0
VERTEX
  5
867
  8
0
 10
76.12975472771681
 20
376.6852498393206
 30
0.0
  0
VERTEX
  5
868
  8
0
 10
76.03993193171675
 20
376.7953782755692
 30
0.0
  0
VERTEX
  5
869
  8
0
 10
75.92929684232466
 20
376.878759708662
 30
0.0
  0
SEQEND
  5
99F
  8
0
  0
POLYLINE
  5
334
  8
0
 66
     1
 10
0.0
 20
0.0
 30
0.0
  0
VERTEX
  5
86A
  8
0
 10
75.92929684232466
 20
376.878759708662
 30
0.0
  0
VERTEX
  5
86B
  8
0
 10
75.77952035344644
 20
376.9383620394157
 30
0.0
  0
VERTEX
  5
86C
  8
0
 10
75.61364272738446
 20
376.9552408658059
 30
0.0
  0
VERTEX
  5
86D
  8
0
 10
75.43931483668992
 20
376.9286176756691
 30
0.0
  0
SEQEND
  5
9A0
  8
0
  0
POLYLINE
  5
335
  8
0
 66
     1
 10
0.0
 20
0.0
 30
0.0
  0
VERTEX
  5
336
  8
0
 10
75.43931484
 20
376.92861768
 30
0.0
  0
VERTEX
  5
337
  8
0
 10
68.49142975
 20
375.02735503
 30
0.0
  0
SEQEND
  5
338
  8
0
  0
POLYLINE
  5
339
  8
0
 66
     1
 10
0.0
 20
0.0
 30
0.0
  0
VERTEX
  5
86E
  8
0
 10
68.49142975668991
 20
375.0273550256691
 30
0.0
  0
VERTEX
  5
86F
  8
0
 10
68.33179261860876
 20
374.9661065869902
 30
0.0
  0
VERTEX
  5
870
  8
0
 10
68.17794894452817
 20
374.8719898240224
 30
0.0
  0
VERTEX
  5
871
  8
0
 10
68.03581086059057
 20
374.7486215911999
 30
0.0
  0
VERTEX
  5
872
  8
0
 10
67.91084065367197
 20
374.6007428605438
 30
0.0
  0
VERTEX
  5
873
  8
0
 10
67.80784085875965
 20
374.4340365287648
 30
0.0
  0
VERTEX
  5
874
  8
0
 10
67.73076970022528
 20
374.2549090267293
 30
0.0
  0
VERTEX
  5
875
  8
0
 10
67.68258897948135
 20
374.0702441239126
 30
0.0
  0
VERTEX
  5
876
  8
0
 10
67.66515025461355
 20
373.8871383889977
 30
0.0
  0
SEQEND
  5
9A1
  8
0
  0
POLYLINE
  5
33A
  8
0
 66
     1
 10
0.0
 20
0.0
 30
0.0
  0
VERTEX
  5
33B
  8
0
 10
67.62742294
 20
375.52467918
 30
0.0
  0
VERTEX
  5
33C
  8
0
 10
74.57530802
 20
377.42594184
 30
0.0
  0
SEQEND
  5
33D
  8
0
  0
POLYLINE
  5
33E
  8
0
 66
     1
 10
0.0
 20
0.0
 30
0.0
  0
VERTEX
  5
877
  8
0
 10
75.06529003232467
 20
377.3760838686619
 30
0.0
  0
VERTEX
  5
878
  8
0
 10
74.91551354344645
 20
377.4356861994157
 30
0.0
  0
VERTEX
  5
879
  8
0
 10
74.74963591738447
 20
377.4525650258058
 30
0.0
  0
VERTEX
  5
87A
  8
0
 10
74.57530802668992
 20
377.4259418356691
 30
0.0
  0
SEQEND
  5
9A2
  8
0
  0
LINE
  5
33F
  8
0
 10
75.92929684
 20
376.87875971
 30
0.0
 11
75.06529003
 21
377.37608387
 31
0.0
  0
POLYLINE
  5
340
  8
0
 66
     1
 10
0.0
 20
0.0
 30
0.0
  0
VERTEX
  5
87B
  8
0
 10
67.62742294668992
 20
375.5246791856691
 30
0.0
  0
VERTEX
  5
87C
  8
0
 10
67.46778580860877
 20
375.4634307469902
 30
0.0
  0
VERTEX
  5
87D
  8
0
 10
67.31394213452818
 20
375.3693139840224
 30
0.0
  0
VERTEX
  5
87E
  8
0
 10
67.17180405059058
 20
375.2459457511999
 30
0.0
  0
VERTEX
  5
87F
  8
0
 10
67.04683384367198
 20
375.0980670205438
 30
0.0
  0
VERTEX
  5
880
  8
0
 10
66.94383404875965
 20
374.9313606887648
 30
0.0
  0
VERTEX
  5
881
  8
0
 10
66.86676289022529
 20
374.7522331867293
 30
0.0
  0
VERTEX
  5
882
  8
0
 10
66.81858216948136
 20
374.5675682839126
 30
0.0
  0
VERTEX
  5
883
  8
0
 10
66.80114344461356
 20
374.3844625489977
 30
0.0
  0
SEQEND
  5
9A3
  8
0
  0
LINE
  5
341
  8
0
  6
STRICHPUNKT2
 62
     1
 10
70.8841978
 20
373.60494778
 30
0.0
 11
72.40451191
 21
372.72985174
 31
0.0
  0
LINE
  5
342
  8
0
  6
STRICHPUNKT2
 62
     1
 10
71.07250141
 20
373.49655982
 30
0.0
 11
71.05806937
 21
372.00718448
 31
0.0
  0
LINE
  5
343
  8
0
  6
STRICHPUNKT2
 62
     1
 10
71.07250141
 20
373.49655982
 30
0.0
 11
71.07626714
 21
373.8851802
 31
0.0
  0
LINE
  5
344
  8
0
  6
STRICHPUNKT2
 62
     1
 10
71.07250141
 20
373.49655982
 30
0.0
 11
70.78873278
 21
373.4189076
 31
0.0
  0
LINE
  5
345
  8
0
  6
STRICHPUNKT2
 62
     1
 10
71.07250141
 20
373.49655982
 30
0.0
 11
72.40077356
 21
373.86003651
 31
0.0
  0
LINE
  5
346
  8
0
  6
STRICHPUNKT2
 62
     1
 10
71.93650822
 20
372.99923566
 30
0.0
 11
71.91486017
 21
370.76517265
 31
0.0
  0
LINE
  5
347
  8
0
  6
STRICHPUNKT2
 62
     1
 10
71.93650822
 20
372.99923566
 30
0.0
 11
71.95815628
 21
375.23329868
 31
0.0
  0
LINE
  5
348
  8
0
  6
STRICHPUNKT2
 62
     1
 10
71.93650822
 20
372.99923566
 30
0.0
 11
69.9441
 21
372.45402064
 31
0.0
  0
LINE
  5
349
  8
0
  6
STRICHPUNKT2
 62
     1
 10
71.93650822
 20
372.99923566
 30
0.0
 11
73.92891644
 21
373.54445069
 31
0.0
  0
POLYLINE
  5
34A
  8
0
 66
     1
 10
0.0
 20
0.0
 30
0.0
  0
VERTEX
  5
34B
  8
0
 10
36.70179148
 20
354.44483136
 30
0.0
  0
VERTEX
  5
34C
  8
0
 10
36.75908582
 20
354.33029802
 30
0.0
  0
VERTEX
  5
34D
  8
0
 10
36.78263673
 20
354.27926453
 30
0.0
  0
SEQEND
  5
34E
  8
0
  0
POLYLINE
  5
34F
  8
0
 66
     1
 10
0.0
 20
0.0
 30
0.0
  0
VERTEX
  5
350
  8
0
 10
37.51340073
 20
352.67104655
 30
0.0
  0
VERTEX
  5
351
  8
0
 10
37.53355507
 20
352.62456615
 30
0.0
  0
VERTEX
  5
352
  8
0
 10
37.55247641
 20
352.5726992
 30
0.0
  0
SEQEND
  5
353
  8
0
  0
POLYLINE
  5
354
  8
0
 66
     1
 10
0.0
 20
0.0
 30
0.0
  0
VERTEX
  5
884
  8
0
 10
39.35833576937143
 20
355.1717847204839
 30
0.0
  0
VERTEX
  5
885
  8
0
 10
39.3723384486379
 20
354.8940170374386
 30
0.0
  0
VERTEX
  5
886
  8
0
 10
39.41900631011769
 20
354.6078119220597
 30
0.0
  0
VERTEX
  5
887
  8
0
 10
39.49654593405845
 20
354.3241680764702
 30
0.0
  0
VERTEX
  5
888
  8
0
 10
39.60197751618477
 20
354.0539857746313
 30
0.0
  0
VERTEX
  5
889
  8
0
 10
39.73124937990574
 20
353.8076479709248
 30
0.0
  0
VERTEX
  5
88A
  8
0
 10
39.87939367997487
 20
353.5946212890379
 30
0.0
  0
VERTEX
  5
88B
  8
0
 10
40.0407173139976
 20
353.423092224922
 30
0.0
  0
VERTEX
  5
88C
  8
0
 10
40.20902070516459
 20
353.2996525443433
 30
0.0
  0
SEQEND
  5
9A4
  8
0
  0
POLYLINE
  5
355
  8
0
 66
     1
 10
0.0
 20
0.0
 30
0.0
  0
VERTEX
  5
88D
  8
0
 10
30.77565419937143
 20
352.8231661504839
 30
0.0
  0
VERTEX
  5
88E
  8
0
 10
30.7896568786379
 20
352.5453984674386
 30
0.0
  0
VERTEX
  5
88F
  8
0
 10
30.83632474011769
 20
352.2591933520597
 30
0.0
  0
VERTEX
  5
890
  8
0
 10
30.91386436405845
 20
351.9755495064702
 30
0.0
  0
VERTEX
  5
891
  8
0
 10
31.01929594618477
 20
351.7053672046313
 30
0.0
  0
VERTEX
  5
892
  8
0
 10
31.14856780990574
 20
351.4590294009248
 30
0.0
  0
VERTEX
  5
893
  8
0
 10
31.29671210997486
 20
351.2460027190379
 30
0.0
  0
VERTEX
  5
894
  8
0
 10
31.45803574399761
 20
351.074473654922
 30
0.0
  0
VERTEX
  5
895
  8
0
 10
31.62633913516459
 20
350.9510339743433
 30
0.0
  0
SEQEND
  5
9A5
  8
0
  0
POLYLINE
  5
356
  8
0
 66
     1
 10
0.0
 20
0.0
 30
0.0
  0
VERTEX
  5
357
  8
0
 10
34.28288342
 20
351.67798736
 30
0.0
  0
VERTEX
  5
358
  8
0
 10
34.19526085
 20
351.70003296
 30
0.0
  0
VERTEX
  5
359
  8
0
 10
34.11175834
 20
351.72820433
 30
0.0
  0
VERTEX
  5
35A
  8
0
 10
34.03208277
 20
351.76242664
 30
0.0
  0
VERTEX
  5
35B
  8
0
 10
33.95597237
 20
351.8027012
 30
0.0
  0
VERTEX
  5
35C
  8
0
 10
33.88320205
 20
351.84910451
 30
0.0
  0
VERTEX
  5
35D
  8
0
 10
33.81358821
 20
351.9017856
 30
0.0
  0
VERTEX
  5
35E
  8
0
 10
33.78485268
 20
351.92618848
 30
0.0
  0
VERTEX
  5
35F
  8
0
 10
33.71948226
 20
351.9882609
 30
0.0
  0
VERTEX
  5
360
  8
0
 10
33.65759681
 20
352.05672547
 30
0.0
  0
VERTEX
  5
361
  8
0
 10
33.59956105
 20
352.13143695
 30
0.0
  0
VERTEX
  5
362
  8
0
 10
33.54574364
 20
352.21221702
 30
0.0
  0
VERTEX
  5
363
  8
0
 10
33.49651044
 20
352.29885503
 30
0.0
  0
VERTEX
  5
364
  8
0
 10
33.46017275
 20
352.37330398
 30
0.0
  0
VERTEX
  5
365
  8
0
 10
33.42071384
 20
352.46853994
 30
0.0
  0
VERTEX
  5
366
  8
0
 10
33.38757449
 20
352.56669104
 30
0.0
  0
VERTEX
  5
367
  8
0
 10
33.36102074
 20
352.66709731
 30
0.0
  0
VERTEX
  5
368
  8
0
 10
33.34126958
 20
352.7690358
 30
0.0
  0
VERTEX
  5
369
  8
0
 10
33.32847577
 20
352.87173924
 30
0.0
  0
VERTEX
  5
36A
  8
0
 10
33.32383255
 20
352.94077164
 30
0.0
  0
VERTEX
  5
36B
  8
0
 10
33.32284033
 20
353.04304058
 30
0.0
  0
VERTEX
  5
36C
  8
0
 10
33.32890507
 20
353.14354706
 30
0.0
  0
VERTEX
  5
36D
  8
0
 10
33.34191127
 20
353.24209857
 30
0.0
  0
VERTEX
  5
36E
  8
0
 10
33.36175485
 20
353.33854674
 30
0.0
  0
VERTEX
  5
36F
  8
0
 10
33.38835164
 20
353.43277945
 30
0.0
  0
VERTEX
  5
370
  8
0
 10
33.42164403
 20
353.52471257
 30
0.0
  0
VERTEX
  5
371
  8
0
 10
33.43219849
 20
353.55011952
 30
0.0
  0
SEQEND
  5
372
  8
0
  0
POLYLINE
  5
373
  8
0
 66
     1
 10
0.0
 20
0.0
 30
0.0
  0
VERTEX
  5
896
  8
0
 10
29.91164739342354
 20
353.3204903062496
 30
0.0
  0
VERTEX
  5
897
  8
0
 10
29.93965275235521
 20
352.7649549419697
 30
0.0
  0
VERTEX
  5
898
  8
0
 10
30.0329884755183
 20
352.1925447131343
 30
0.0
  0
VERTEX
  5
899
  8
0
 10
30.18806772340035
 20
351.6252570239158
 30
0.0
  0
VERTEX
  5
89A
  8
0
 10
30.39893088745044
 20
351.0848924221607
 30
0.0
  0
VERTEX
  5
89B
  8
0
 10
30.65747461449459
 20
350.5922168165593
 30
0.0
  0
VERTEX
  5
89C
  8
0
 10
30.95376321405508
 20
350.1661634544159
 30
0.0
  0
VERTEX
  5
89D
  8
0
 10
31.27641048136503
 20
349.823105327571
 30
0.0
  0
VERTEX
  5
89E
  8
0
 10
31.61301726283397
 20
349.5762259675035
 30
0.0
  0
SEQEND
  5
9A6
  8
0
  0
POLYLINE
  5
374
  8
0
 66
     1
 10
0.0
 20
0.0
 30
0.0
  0
VERTEX
  5
89F
  8
0
 10
34.3429344
 20
361.52537135
 30
0.0
  0
VERTEX
  5
8A0
  8
0
 10
34.56380644475165
 20
361.4342639461249
 30
0.0
  0
VERTEX
  5
8A1
  8
0
 10
34.80734343312301
 20
361.4007800855851
 30
0.0
  0
VERTEX
  5
8A2
  8
0
 10
35.0641863752494
 20
361.4262065343603
 30
0.0
  0
VERTEX
  5
8A3
  8
0
 10
35.32446494092657
 20
361.5095661682855
 30
0.0
  0
VERTEX
  5
8A4
  8
0
 10
35.57817677086422
 20
361.647655523385
 30
0.0
  0
VERTEX
  5
8A5
  8
0
 10
35.81557186174332
 20
361.8351679031957
 30
0.0
  0
VERTEX
  5
8A6
  8
0
 10
36.02752725337484
 20
362.0648973121362
 30
0.0
  0
VERTEX
  5
8A7
  8
0
 10
36.20589761894291
 20
362.3280153778746
 30
0.0
  0
VERTEX
  5
8A8
  8
0
 10
36.34382828534559
 20
362.6144106207259
 30
0.0
  0
VERTEX
  5
8A9
  8
0
 10
36.43601865443754
 20
362.9130770321449
 30
0.0
  0
VERTEX
  5
8AA
  8
0
 10
36.47892590204356
 20
363.2125370294608
 30
0.0
  0
VERTEX
  5
8AB
  8
0
 10
36.47090112670458
 20
363.5012825329421
 30
0.0
  0
VERTEX
  5
8AC
  8
0
 10
36.41225271603582
 20
363.7682172148457
 30
0.0
  0
VERTEX
  5
8AD
  8
0
 10
36.30523449556374
 20
364.003082925068
 30
0.0
  0
VERTEX
  5
8AE
  8
0
 10
36.1539591154752
 20
364.1968539061
 30
0.0
  0
VERTEX
  5
8AF
  8
0
 10
35.96424000377758
 20
364.3420836478256
 30
0.0
  0
SEQEND
  5
9A7
  8
0
  0
POLYLINE
  5
375
  8
0
 66
     1
 10
0.0
 20
0.0
 30
0.0
  0
VERTEX
  5
8B0
  8
0
 10
35.96424000377758
 20
364.3420836478256
 30
0.0
  0
VERTEX
  5
8B1
  8
0
 10
35.74336795898697
 20
364.4331910528721
 30
0.0
  0
VERTEX
  5
8B2
  8
0
 10
35.49983097032973
 20
364.4666749143593
 30
0.0
  0
VERTEX
  5
8B3
  8
0
 10
35.24298802772415
 20
364.4412484662652
 30
0.0
  0
VERTEX
  5
8B4
  8
0
 10
34.98270946143786
 20
364.3578888327331
 30
0.0
  0
VERTEX
  5
8B5
  8
0
 10
34.72899763083015
 20
364.2197994777383
 30
0.0
  0
VERTEX
  5
8B6
  8
0
 10
34.49160253929022
 20
364.0322870977639
 30
0.0
  0
VERTEX
  5
8B7
  8
0
 10
34.27964714707404
 20
363.8025576884306
 30
0.0
  0
VERTEX
  5
8B8
  8
0
 10
34.10127678105709
 20
363.5394396221254
 30
0.0
  0
VERTEX
  5
8B9
  8
0
 10
33.96334611438975
 20
363.2530443786012
 30
0.0
  0
VERTEX
  5
8BA
  8
0
 10
33.87115574525172
 20
362.9543779664793
 30
0.0
  0
VERTEX
  5
8BB
  8
0
 10
33.82824849783609
 20
362.6549179685098
 30
0.0
  0
VERTEX
  5
8BC
  8
0
 10
33.83627327360212
 20
362.3661724645016
 30
0.0
  0
VERTEX
  5
8BD
  8
0
 10
33.8949216849168
 20
362.0992377822689
 30
0.0
  0
VERTEX
  5
8BE
  8
0
 10
34.00193990621855
 20
361.8643720719742
 30
0.0
  0
VERTEX
  5
8BF
  8
0
 10
34.15321528726989
 20
361.6706010911709
 30
0.0
  0
VERTEX
  5
8C0
  8
0
 10
34.3429344
 20
361.52537135
 30
0.0
  0
SEQEND
  5
9A8
  8
0
  0
POLYLINE
  5
376
  8
0
 66
     1
 10
0.0
 20
0.0
 30
0.0
  0
VERTEX
  5
8C1
  8
0
 10
33.98239185109884
 20
361.8981831609695
 30
0.0
  0
VERTEX
  5
8C2
  8
0
 10
34.23370745432309
 20
361.9310595362722
 30
0.0
  0
VERTEX
  5
8C3
  8
0
 10
34.48706140628548
 20
362.0186584174822
 30
0.0
  0
VERTEX
  5
8C4
  8
0
 10
34.73321088303145
 20
362.157784034289
 30
0.0
  0
VERTEX
  5
8C5
  8
0
 10
34.96317589327824
 20
362.3433608251168
 30
0.0
  0
VERTEX
  5
8C6
  8
0
 10
35.16856688521915
 20
362.5686186030615
 30
0.0
  0
VERTEX
  5
8C7
  8
0
 10
35.34189081299617
 20
362.8253395449163
 30
0.0
  0
VERTEX
  5
8C8
  8
0
 10
35.47682449696615
 20
363.1041579926656
 30
0.0
  0
VERTEX
  5
8C9
  8
0
 10
35.56844530506901
 20
363.3949021301294
 30
0.0
  0
VERTEX
  5
8CA
  8
0
 10
35.61341073961207
 20
363.6869650697592
 30
0.0
  0
VERTEX
  5
8CB
  8
0
 10
35.61008037781011
 20
363.9696918116479
 30
0.0
  0
VERTEX
  5
8CC
  8
0
 10
35.55857571746336
 20
364.2327679577674
 30
0.0
  0
VERTEX
  5
8CD
  8
0
 10
35.46077574449145
 20
364.4665960004159
 30
0.0
  0
SEQEND
  5
9A9
  8
0
  0
LINE
  5
377
  8
0
 10
29.91164738
 20
353.32049031
 30
0.0
 11
30.01822242
 21
364.31895439
 31
0.0
  0
LINE
  5
378
  8
0
 10
30.88222923
 20
363.82163023
 30
0.0
 11
30.77565419
 21
352.82316615
 31
0.0
  0
POLYLINE
  5
379
  8
0
 66
     1
 10
0.0
 20
0.0
 30
0.0
  0
VERTEX
  5
8CE
  8
0
 10
36.70179147093543
 20
354.4448313510281
 30
0.0
  0
VERTEX
  5
8CF
  8
0
 10
36.42107393858184
 20
354.8560068886371
 30
0.0
  0
VERTEX
  5
8D0
  8
0
 10
36.08226410536329
 20
355.1485874355443
 30
0.0
  0
VERTEX
  5
8D1
  8
0
 10
35.6996980272655
 20
355.3101930349433
 30
0.0
  0
VERTEX
  5
8D2
  8
0
 10
35.2895632176842
 20
355.3339856712471
 30
0.0
  0
VERTEX
  5
8D3
  8
0
 10
34.8692137053853
 20
355.218958606951
 30
0.0
  0
VERTEX
  5
8D4
  8
0
 10
34.45643573371549
 20
354.9699789807029
 30
0.0
  0
VERTEX
  5
8D5
  8
0
 10
34.06869517152311
 20
354.5975818641309
 30
0.0
  0
VERTEX
  5
8D6
  8
0
 10
33.72239848008088
 20
354.1175244914963
 30
0.0
  0
VERTEX
  5
8D7
  8
0
 10
33.43219850670735
 20
353.5501195240494
 30
0.0
  0
SEQEND
  5
9AA
  8
0
  0
POLYLINE
  5
37A
  8
0
 66
     1
 10
0.0
 20
0.0
 30
0.0
  0
VERTEX
  5
37B
  8
0
 10
39.35833577
 20
355.17178472
 30
0.0
  0
VERTEX
  5
37C
  8
0
 10
39.4649108
 20
366.1702488
 30
0.0
  0
SEQEND
  5
37D
  8
0
  0
POLYLINE
  5
37E
  8
0
 66
     1
 10
0.0
 20
0.0
 30
0.0
  0
VERTEX
  5
8D8
  8
0
 10
39.46491080541833
 20
366.1702488142925
 30
0.0
  0
VERTEX
  5
8D9
  8
0
 10
39.4525892504123
 20
366.3350707622494
 30
0.0
  0
VERTEX
  5
8DA
  8
0
 10
39.41277706768474
 20
366.4866267610308
 30
0.0
  0
VERTEX
  5
8DB
  8
0
 10
39.34683370771681
 20
366.6197416893206
 30
0.0
  0
VERTEX
  5
8DC
  8
0
 10
39.25701091171675
 20
366.7298701255692
 30
0.0
  0
VERTEX
  5
8DD
  8
0
 10
39.14637582232466
 20
366.8132515586619
 30
0.0
  0
SEQEND
  5
9AB
  8
0
  0
POLYLINE
  5
37F
  8
0
 66
     1
 10
0.0
 20
0.0
 30
0.0
  0
VERTEX
  5
8DE
  8
0
 10
39.14637582232466
 20
366.8132515586619
 30
0.0
  0
VERTEX
  5
8DF
  8
0
 10
38.99659933344644
 20
366.8728538894157
 30
0.0
  0
VERTEX
  5
8E0
  8
0
 10
38.83072170738447
 20
366.8897327158058
 30
0.0
  0
VERTEX
  5
8E1
  8
0
 10
38.65639381668992
 20
366.8631095256691
 30
0.0
  0
SEQEND
  5
9AC
  8
0
  0
POLYLINE
  5
380
  8
0
 66
     1
 10
0.0
 20
0.0
 30
0.0
  0
VERTEX
  5
381
  8
0
 10
38.65639381
 20
366.86310952
 30
0.0
  0
VERTEX
  5
382
  8
0
 10
31.70850873
 20
364.96184687
 30
0.0
  0
SEQEND
  5
383
  8
0
  0
POLYLINE
  5
384
  8
0
 66
     1
 10
0.0
 20
0.0
 30
0.0
  0
VERTEX
  5
8E2
  8
0
 10
31.70850873668992
 20
364.9618468656691
 30
0.0
  0
VERTEX
  5
8E3
  8
0
 10
31.54887159860877
 20
364.9005984269902
 30
0.0
  0
VERTEX
  5
8E4
  8
0
 10
31.39502792452818
 20
364.8064816640224
 30
0.0
  0
VERTEX
  5
8E5
  8
0
 10
31.25288984059058
 20
364.6831134312
 30
0.0
  0
VERTEX
  5
8E6
  8
0
 10
31.12791963367197
 20
364.5352347005438
 30
0.0
  0
VERTEX
  5
8E7
  8
0
 10
31.02491983875966
 20
364.3685283687648
 30
0.0
  0
VERTEX
  5
8E8
  8
0
 10
30.94784868022528
 20
364.1894008667293
 30
0.0
  0
VERTEX
  5
8E9
  8
0
 10
30.89966795948136
 20
364.0047359639127
 30
0.0
  0
VERTEX
  5
8EA
  8
0
 10
30.88222923461355
 20
363.8216302289977
 30
0.0
  0
SEQEND
  5
9AD
  8
0
  0
POLYLINE
  5
385
  8
0
 66
     1
 10
0.0
 20
0.0
 30
0.0
  0
VERTEX
  5
386
  8
0
 10
30.84450192
 20
365.45917103
 30
0.0
  0
VERTEX
  5
387
  8
0
 10
37.792387
 20
367.36043368
 30
0.0
  0
SEQEND
  5
388
  8
0
  0
POLYLINE
  5
389
  8
0
 66
     1
 10
0.0
 20
0.0
 30
0.0
  0
VERTEX
  5
8EB
  8
0
 10
38.28236901232466
 20
367.3105757086619
 30
0.0
  0
VERTEX
  5
8EC
  8
0
 10
38.13259252344644
 20
367.3701780394157
 30
0.0
  0
VERTEX
  5
8ED
  8
0
 10
37.96671489738447
 20
367.3870568658058
 30
0.0
  0
VERTEX
  5
8EE
  8
0
 10
37.79238700668992
 20
367.3604336756691
 30
0.0
  0
SEQEND
  5
9AE
  8
0
  0
LINE
  5
38A
  8
0
 10
39.14637582
 20
366.81325155
 30
0.0
 11
38.282369
 21
367.31057571
 31
0.0
  0
POLYLINE
  5
38B
  8
0
 66
     1
 10
0.0
 20
0.0
 30
0.0
  0
VERTEX
  5
8EF
  8
0
 10
30.84450191668992
 20
365.4591710256691
 30
0.0
  0
VERTEX
  5
8F0
  8
0
 10
30.68486477860877
 20
365.3979225869902
 30
0.0
  0
VERTEX
  5
8F1
  8
0
 10
30.53102110452818
 20
365.3038058240224
 30
0.0
  0
VERTEX
  5
8F2
  8
0
 10
30.38888302059058
 20
365.1804375912
 30
0.0
  0
VERTEX
  5
8F3
  8
0
 10
30.26391281367197
 20
365.0325588605438
 30
0.0
  0
VERTEX
  5
8F4
  8
0
 10
30.16091301875966
 20
364.8658525287648
 30
0.0
  0
VERTEX
  5
8F5
  8
0
 10
30.08384186022528
 20
364.6867250267293
 30
0.0
  0
VERTEX
  5
8F6
  8
0
 10
30.03566113948136
 20
364.5020601239127
 30
0.0
  0
VERTEX
  5
8F7
  8
0
 10
30.01822241461355
 20
364.3189543889977
 30
0.0
  0
SEQEND
  5
9AF
  8
0
  0
LINE
  5
38C
  8
0
  6
STRICHPUNKT2
 62
     1
 10
34.10127677
 20
363.53943962
 30
0.0
 11
35.62159089
 21
362.66434358
 31
0.0
  0
LINE
  5
38D
  8
0
  6
STRICHPUNKT2
 62
     1
 10
34.28958039
 20
363.43105166
 30
0.0
 11
34.27514835
 21
361.94167632
 31
0.0
  0
LINE
  5
38E
  8
0
  6
STRICHPUNKT2
 62
     1
 10
34.28958039
 20
363.43105166
 30
0.0
 11
34.29334611
 21
363.81967204
 31
0.0
  0
LINE
  5
38F
  8
0
  6
STRICHPUNKT2
 62
     1
 10
34.28958039
 20
363.43105166
 30
0.0
 11
34.00581176
 21
363.35339945
 31
0.0
  0
LINE
  5
390
  8
0
  6
STRICHPUNKT2
 62
     1
 10
34.28958039
 20
363.43105166
 30
0.0
 11
35.61785253
 21
363.79452835
 31
0.0
  0
LINE
  5
391
  8
0
  6
STRICHPUNKT2
 62
     1
 10
35.1535872
 20
362.9337275
 30
0.0
 11
35.13193914
 21
360.69966449
 31
0.0
  0
LINE
  5
392
  8
0
  6
STRICHPUNKT2
 62
     1
 10
35.1535872
 20
362.9337275
 30
0.0
 11
35.17523525
 21
365.16779052
 31
0.0
  0
LINE
  5
393
  8
0
  6
STRICHPUNKT2
 62
     1
 10
35.1535872
 20
362.9337275
 30
0.0
 11
33.16117898
 21
362.38851248
 31
0.0
  0
LINE
  5
394
  8
0
  6
STRICHPUNKT2
 62
     1
 10
35.1535872
 20
362.9337275
 30
0.0
 11
37.14599542
 21
363.47894253
 31
0.0
  0
POLYLINE
  5
395
  8
0
 66
     1
 10
0.0
 20
0.0
 30
0.0
  0
VERTEX
  5
396
  8
0
 10
140.59888571
 20
488.30690401
 30
0.0
  0
VERTEX
  5
397
  8
0
 10
140.3511503
 20
488.31004283
 30
0.0
  0
VERTEX
  5
398
  8
0
 10
140.04719173
 20
488.31987753
 30
0.0
  0
VERTEX
  5
399
  8
0
 10
139.80426306
 20
488.32974094
 30
0.0
  0
SEQEND
  5
39A
  8
0
  0
POLYLINE
  5
39B
  8
0
 66
     1
 10
0.0
 20
0.0
 30
0.0
  0
VERTEX
  5
39C
  8
0
 10
141.30426306
 20
488.34581065
 30
0.0
  0
VERTEX
  5
39D
  8
0
 10
141.13659275
 20
488.32802835
 30
0.0
  0
VERTEX
  5
39E
  8
0
 10
140.95448316
 20
488.31552039
 30
0.0
  0
VERTEX
  5
39F
  8
0
 10
140.75438836
 20
488.30849711
 30
0.0
  0
VERTEX
  5
3A0
  8
0
 10
140.59888571
 20
488.30690401
 30
0.0
  0
SEQEND
  5
3A1
  8
0
  0
POLYLINE
  5
3A2
  8
0
 66
     1
 10
0.0
 20
0.0
 30
0.0
  0
VERTEX
  5
3A3
  8
0
 10
141.30426306
 20
489.90858307
 30
0.0
  0
VERTEX
  5
3A4
  8
0
 10
141.20376788
 20
489.87765951
 30
0.0
  0
VERTEX
  5
3A5
  8
0
 10
141.09554678
 20
489.85199379
 30
0.0
  0
VERTEX
  5
3A6
  8
0
 10
141.07024824
 20
489.84700035
 30
0.0
  0
VERTEX
  5
3A7
  8
0
 10
140.95464032
 20
489.8284398
 30
0.0
  0
VERTEX
  5
3A8
  8
0
 10
140.83083573
 20
489.81546956
 30
0.0
  0
VERTEX
  5
3A9
  8
0
 10
140.69717452
 20
489.80828928
 30
0.0
  0
VERTEX
  5
3AA
  8
0
 10
140.59877123
 20
489.80690401
 30
0.0
  0
VERTEX
  5
3AB
  8
0
 10
140.44231137
 20
489.81017143
 30
0.0
  0
VERTEX
  5
3AC
  8
0
 10
140.26525577
 20
489.82047843
 30
0.0
  0
VERTEX
  5
3AD
  8
0
 10
140.04890444
 20
489.83961509
 30
0.0
  0
VERTEX
  5
3AE
  8
0
 10
139.80426306
 20
489.86544505
 30
0.0
  0
SEQEND
  5
3AF
  8
0
  0
POLYLINE
  5
3B0
  8
0
 66
     1
 10
0.0
 20
0.0
 30
0.0
  0
VERTEX
  5
3B1
  8
0
 10
140.59877123
 20
491.80690401
 30
0.0
  0
VERTEX
  5
3B2
  8
0
 10
140.75391478
 20
491.80326095
 30
0.0
  0
VERTEX
  5
3B3
  8
0
 10
140.89285471
 20
491.79266727
 30
0.0
  0
VERTEX
  5
3B4
  8
0
 10
141.01973615
 20
491.77574662
 30
0.0
  0
VERTEX
  5
3B5
  8
0
 10
141.07024824
 20
491.76680767
 30
0.0
  0
VERTEX
  5
3B6
  8
0
 10
141.17942059
 20
491.74256643
 30
0.0
  0
VERTEX
  5
3B7
  8
0
 10
141.28032752
 20
491.7132755
 30
0.0
  0
VERTEX
  5
3B8
  8
0
 10
141.30426306
 20
491.70522495
 30
0.0
  0
SEQEND
  5
3B9
  8
0
  0
POLYLINE
  5
3BA
  8
0
 66
     1
 10
0.0
 20
0.0
 30
0.0
  0
VERTEX
  5
8F8
  8
0
 10
141.3042630671333
 20
489.9085830723309
 30
0.0
  0
VERTEX
  5
8F9
  8
0
 10
141.5475167048654
 20
490.0155406883271
 30
0.0
  0
VERTEX
  5
8FA
  8
0
 10
141.7553002456261
 20
490.1549648534569
 30
0.0
  0
VERTEX
  5
8FB
  8
0
 10
141.9190891415238
 20
490.3211355382679
 30
0.0
  0
VERTEX
  5
8FC
  8
0
 10
142.0321637732756
 20
490.5072354079717
 30
0.0
  0
VERTEX
  5
8FD
  8
0
 10
142.0898851299656
 20
490.7056295110892
 30
0.0
  0
VERTEX
  5
8FE
  8
0
 10
142.0898851295616
 20
490.9081785117168
 30
0.0
  0
VERTEX
  5
8FF
  8
0
 10
142.0321637720803
 20
491.106572614719
 30
0.0
  0
VERTEX
  5
900
  8
0
 10
141.9190891395862
 20
491.2926724841973
 30
0.0
  0
VERTEX
  5
901
  8
0
 10
141.7553002430257
 20
491.4588431686817
 30
0.0
  0
VERTEX
  5
902
  8
0
 10
141.5475167017089
 20
491.5982673333971
 30
0.0
  0
VERTEX
  5
903
  8
0
 10
141.3042630635502
 20
491.7052249489082
 30
0.0
  0
SEQEND
  5
9B0
  8
0
  0
POLYLINE
  5
3BB
  8
0
 66
     1
 10
0.0
 20
0.0
 30
0.0
  0
VERTEX
  5
904
  8
0
 10
141.3042630498832
 20
488.345810651777
 30
0.0
  0
VERTEX
  5
905
  8
0
 10
141.9805976256426
 20
488.4813834512516
 30
0.0
  0
VERTEX
  5
906
  8
0
 10
142.605629318653
 20
488.7088958781549
 30
0.0
  0
VERTEX
  5
907
  8
0
 10
143.1546474546655
 20
489.0193532118485
 30
0.0
  0
VERTEX
  5
908
  8
0
 10
143.6059465610338
 20
489.400481498664
 30
0.0
  0
VERTEX
  5
909
  8
0
 10
143.9416844941816
 20
489.8372128035708
 30
0.0
  0
VERTEX
  5
90A
  8
0
 10
144.1485878300703
 20
490.3122809221018
 30
0.0
  0
VERTEX
  5
90B
  8
0
 10
144.21847663
 20
490.8069040010255
 30
0.0
  0
VERTEX
  5
90C
  8
0
 10
144.1485878350924
 20
491.301527080304
 30
0.0
  0
VERTEX
  5
90D
  8
0
 10
143.9416845040273
 20
491.7765951998854
 30
0.0
  0
VERTEX
  5
90E
  8
0
 10
143.6059465753139
 20
492.2133265064966
 30
0.0
  0
VERTEX
  5
90F
  8
0
 10
143.1546474728154
 20
492.5944547956033
 30
0.0
  0
VERTEX
  5
910
  8
0
 10
142.605629339955
 20
492.9049121320841
 30
0.0
  0
VERTEX
  5
911
  8
0
 10
141.9805976492547
 20
493.1324245621605
 30
0.0
  0
VERTEX
  5
912
  8
0
 10
141.3042630748718
 20
493.2679973650687
 30
0.0
  0
SEQEND
  5
9B1
  8
0
  0
POLYLINE
  5
3BC
  8
0
 66
     1
 10
0.0
 20
0.0
 30
0.0
  0
VERTEX
  5
3BD
  8
0
 10
140.59888571
 20
493.30690401
 30
0.0
  0
VERTEX
  5
3BE
  8
0
 10
140.72262411
 20
493.30587369
 30
0.0
  0
VERTEX
  5
3BF
  8
0
 10
140.94991813
 20
493.29852091
 30
0.0
  0
VERTEX
  5
3C0
  8
0
 10
141.14859674
 20
493.28471972
 30
0.0
  0
VERTEX
  5
3C1
  8
0
 10
141.30426306
 20
493.26799737
 30
0.0
  0
SEQEND
  5
3C2
  8
0
  0
POLYLINE
  5
3C3
  8
0
 66
     1
 10
0.0
 20
0.0
 30
0.0
  0
VERTEX
  5
3C4
  8
0
 10
139.80426306
 20
493.28406708
 30
0.0
  0
VERTEX
  5
3C5
  8
0
 10
139.90389671
 20
493.28815289
 30
0.0
  0
VERTEX
  5
3C6
  8
0
 10
139.99104623
 20
493.29170514
 30
0.0
  0
VERTEX
  5
3C7
  8
0
 10
140.06715269
 20
493.29470297
 30
0.0
  0
VERTEX
  5
3C8
  8
0
 10
140.19977782
 20
493.29946843
 30
0.0
  0
VERTEX
  5
3C9
  8
0
 10
140.2993387
 20
493.30246261
 30
0.0
  0
VERTEX
  5
3CA
  8
0
 10
140.59888571
 20
493.30690401
 30
0.0
  0
SEQEND
  5
3CB
  8
0
  0
POLYLINE
  5
3CC
  8
0
 66
     1
 10
0.0
 20
0.0
 30
0.0
  0
VERTEX
  5
3CD
  8
0
 10
139.80426306
 20
491.74836297
 30
0.0
  0
VERTEX
  5
3CE
  8
0
 10
140.04890444
 20
491.77419293
 30
0.0
  0
VERTEX
  5
3CF
  8
0
 10
140.19615365
 20
491.78784902
 30
0.0
  0
VERTEX
  5
3D0
  8
0
 10
140.31090994
 20
491.79654351
 30
0.0
  0
VERTEX
  5
3D1
  8
0
 10
140.41099924
 20
491.80226541
 30
0.0
  0
VERTEX
  5
3D2
  8
0
 10
140.50506079
 20
491.80571021
 30
0.0
  0
VERTEX
  5
3D3
  8
0
 10
140.59877123
 20
491.80690401
 30
0.0
  0
SEQEND
  5
3D4
  8
0
  0
POLYLINE
  5
3D5
  8
0
 66
     1
 10
0.0
 20
0.0
 30
0.0
  0
VERTEX
  5
3D6
  8
0
 10
140.59888571
 20
443.30690401
 30
0.0
  0
VERTEX
  5
3D7
  8
0
 10
140.3511503
 20
443.31004283
 30
0.0
  0
VERTEX
  5
3D8
  8
0
 10
140.04719173
 20
443.31987753
 30
0.0
  0
VERTEX
  5
3D9
  8
0
 10
139.80426306
 20
443.32974094
 30
0.0
  0
SEQEND
  5
3DA
  8
0
  0
POLYLINE
  5
3DB
  8
0
 66
     1
 10
0.0
 20
0.0
 30
0.0
  0
VERTEX
  5
3DC
  8
0
 10
141.30426306
 20
443.34581065
 30
0.0
  0
VERTEX
  5
3DD
  8
0
 10
141.13659275
 20
443.32802835
 30
0.0
  0
VERTEX
  5
3DE
  8
0
 10
140.95448316
 20
443.31552039
 30
0.0
  0
VERTEX
  5
3DF
  8
0
 10
140.75438836
 20
443.30849711
 30
0.0
  0
VERTEX
  5
3E0
  8
0
 10
140.59888571
 20
443.30690401
 30
0.0
  0
SEQEND
  5
3E1
  8
0
  0
POLYLINE
  5
3E2
  8
0
 66
     1
 10
0.0
 20
0.0
 30
0.0
  0
VERTEX
  5
3E3
  8
0
 10
141.30426306
 20
444.90858307
 30
0.0
  0
VERTEX
  5
3E4
  8
0
 10
141.20376788
 20
444.87765951
 30
0.0
  0
VERTEX
  5
3E5
  8
0
 10
141.09554678
 20
444.85199379
 30
0.0
  0
VERTEX
  5
3E6
  8
0
 10
141.07024824
 20
444.84700035
 30
0.0
  0
VERTEX
  5
3E7
  8
0
 10
140.95464032
 20
444.8284398
 30
0.0
  0
VERTEX
  5
3E8
  8
0
 10
140.83083573
 20
444.81546956
 30
0.0
  0
VERTEX
  5
3E9
  8
0
 10
140.69717452
 20
444.80828928
 30
0.0
  0
VERTEX
  5
3EA
  8
0
 10
140.59877123
 20
444.80690401
 30
0.0
  0
VERTEX
  5
3EB
  8
0
 10
140.44231137
 20
444.81017143
 30
0.0
  0
VERTEX
  5
3EC
  8
0
 10
140.26525577
 20
444.82047843
 30
0.0
  0
VERTEX
  5
3ED
  8
0
 10
140.04890444
 20
444.83961509
 30
0.0
  0
VERTEX
  5
3EE
  8
0
 10
139.80426306
 20
444.86544505
 30
0.0
  0
SEQEND
  5
3EF
  8
0
  0
POLYLINE
  5
3F0
  8
0
 66
     1
 10
0.0
 20
0.0
 30
0.0
  0
VERTEX
  5
3F1
  8
0
 10
140.59877123
 20
446.80690401
 30
0.0
  0
VERTEX
  5
3F2
  8
0
 10
140.75391478
 20
446.80326095
 30
0.0
  0
VERTEX
  5
3F3
  8
0
 10
140.89285471
 20
446.79266727
 30
0.0
  0
VERTEX
  5
3F4
  8
0
 10
141.01973615
 20
446.77574662
 30
0.0
  0
VERTEX
  5
3F5
  8
0
 10
141.07024824
 20
446.76680767
 30
0.0
  0
VERTEX
  5
3F6
  8
0
 10
141.17942059
 20
446.74256643
 30
0.0
  0
VERTEX
  5
3F7
  8
0
 10
141.28032752
 20
446.7132755
 30
0.0
  0
VERTEX
  5
3F8
  8
0
 10
141.30426306
 20
446.70522495
 30
0.0
  0
SEQEND
  5
3F9
  8
0
  0
POLYLINE
  5
3FA
  8
0
 66
     1
 10
0.0
 20
0.0
 30
0.0
  0
VERTEX
  5
913
  8
0
 10
141.3042630671333
 20
444.9085830723309
 30
0.0
  0
VERTEX
  5
914
  8
0
 10
141.5475167048654
 20
445.0155406883271
 30
0.0
  0
VERTEX
  5
915
  8
0
 10
141.7553002456261
 20
445.1549648534569
 30
0.0
  0
VERTEX
  5
916
  8
0
 10
141.9190891415238
 20
445.3211355382679
 30
0.0
  0
VERTEX
  5
917
  8
0
 10
142.0321637732756
 20
445.5072354079717
 30
0.0
  0
VERTEX
  5
918
  8
0
 10
142.0898851299656
 20
445.7056295110892
 30
0.0
  0
VERTEX
  5
919
  8
0
 10
142.0898851295616
 20
445.9081785117168
 30
0.0
  0
VERTEX
  5
91A
  8
0
 10
142.0321637720803
 20
446.106572614719
 30
0.0
  0
VERTEX
  5
91B
  8
0
 10
141.9190891395862
 20
446.2926724841973
 30
0.0
  0
VERTEX
  5
91C
  8
0
 10
141.7553002430257
 20
446.4588431686817
 30
0.0
  0
VERTEX
  5
91D
  8
0
 10
141.5475167017089
 20
446.5982673333971
 30
0.0
  0
VERTEX
  5
91E
  8
0
 10
141.3042630635502
 20
446.7052249489082
 30
0.0
  0
SEQEND
  5
9B2
  8
0
  0
POLYLINE
  5
3FB
  8
0
 66
     1
 10
0.0
 20
0.0
 30
0.0
  0
VERTEX
  5
91F
  8
0
 10
141.3042630498832
 20
443.345810651777
 30
0.0
  0
VERTEX
  5
920
  8
0
 10
141.9805976256426
 20
443.4813834512516
 30
0.0
  0
VERTEX
  5
921
  8
0
 10
142.605629318653
 20
443.7088958781549
 30
0.0
  0
VERTEX
  5
922
  8
0
 10
143.1546474546655
 20
444.0193532118485
 30
0.0
  0
VERTEX
  5
923
  8
0
 10
143.6059465610338
 20
444.400481498664
 30
0.0
  0
VERTEX
  5
924
  8
0
 10
143.9416844941816
 20
444.8372128035708
 30
0.0
  0
VERTEX
  5
925
  8
0
 10
144.1485878300703
 20
445.3122809221018
 30
0.0
  0
VERTEX
  5
926
  8
0
 10
144.21847663
 20
445.8069040010255
 30
0.0
  0
VERTEX
  5
927
  8
0
 10
144.1485878350924
 20
446.301527080304
 30
0.0
  0
VERTEX
  5
928
  8
0
 10
143.9416845040273
 20
446.7765951998854
 30
0.0
  0
VERTEX
  5
929
  8
0
 10
143.6059465753139
 20
447.2133265064966
 30
0.0
  0
VERTEX
  5
92A
  8
0
 10
143.1546474728154
 20
447.5944547956033
 30
0.0
  0
VERTEX
  5
92B
  8
0
 10
142.605629339955
 20
447.9049121320841
 30
0.0
  0
VERTEX
  5
92C
  8
0
 10
141.9805976492547
 20
448.1324245621605
 30
0.0
  0
VERTEX
  5
92D
  8
0
 10
141.3042630748718
 20
448.2679973650687
 30
0.0
  0
SEQEND
  5
9B3
  8
0
  0
POLYLINE
  5
3FC
  8
0
 66
     1
 10
0.0
 20
0.0
 30
0.0
  0
VERTEX
  5
3FD
  8
0
 10
140.59888571
 20
448.30690401
 30
0.0
  0
VERTEX
  5
3FE
  8
0
 10
140.72262411
 20
448.30587369
 30
0.0
  0
VERTEX
  5
3FF
  8
0
 10
140.94991813
 20
448.29852091
 30
0.0
  0
VERTEX
  5
400
  8
0
 10
141.14859674
 20
448.28471972
 30
0.0
  0
VERTEX
  5
401
  8
0
 10
141.30426306
 20
448.26799737
 30
0.0
  0
SEQEND
  5
402
  8
0
  0
POLYLINE
  5
403
  8
0
 66
     1
 10
0.0
 20
0.0
 30
0.0
  0
VERTEX
  5
404
  8
0
 10
139.80426306
 20
448.28406708
 30
0.0
  0
VERTEX
  5
405
  8
0
 10
139.90389671
 20
448.28815289
 30
0.0
  0
VERTEX
  5
406
  8
0
 10
139.99104623
 20
448.29170514
 30
0.0
  0
VERTEX
  5
407
  8
0
 10
140.06715269
 20
448.29470297
 30
0.0
  0
VERTEX
  5
408
  8
0
 10
140.19977782
 20
448.29946843
 30
0.0
  0
VERTEX
  5
409
  8
0
 10
140.2993387
 20
448.30246261
 30
0.0
  0
VERTEX
  5
40A
  8
0
 10
140.59888571
 20
448.30690401
 30
0.0
  0
SEQEND
  5
40B
  8
0
  0
POLYLINE
  5
40C
  8
0
 66
     1
 10
0.0
 20
0.0
 30
0.0
  0
VERTEX
  5
40D
  8
0
 10
139.80426306
 20
446.74836297
 30
0.0
  0
VERTEX
  5
40E
  8
0
 10
140.04890444
 20
446.77419293
 30
0.0
  0
VERTEX
  5
40F
  8
0
 10
140.19615365
 20
446.78784902
 30
0.0
  0
VERTEX
  5
410
  8
0
 10
140.31090994
 20
446.79654351
 30
0.0
  0
VERTEX
  5
411
  8
0
 10
140.41099924
 20
446.80226541
 30
0.0
  0
VERTEX
  5
412
  8
0
 10
140.50506079
 20
446.80571021
 30
0.0
  0
VERTEX
  5
413
  8
0
 10
140.59877123
 20
446.80690401
 30
0.0
  0
SEQEND
  5
414
  8
0
  0
ARC
  5
415
  8
0
 10
136.80426306
 20
482.30690401
 30
0.0
 40
3.0
 50
-90.0
 51
0.0
  0
ARC
  5
416
  8
0
 10
136.80426306
 20
482.30690401
 30
0.0
 40
1.5
 50
-90.0
 51
0.0
  0
LINE
  5
417
  8
0
 10
133.05426306
 20
458.80690401
 30
0.0
 11
133.05426306
 21
477.80690401
 31
0.0
  0
LINE
  5
418
  8
0
 10
131.55426306
 20
458.80690401
 30
0.0
 11
131.55426306
 21
477.80690401
 31
0.0
  0
LINE
  5
419
  8
0
  6
STRICHPUNKT2
 62
     1
 10
131.55426306
 20
464.9481468
 30
0.0
 11
130.05426306
 21
464.9481468
 31
0.0
  0
LINE
  5
41A
  8
0
  6
STRICHPUNKT2
 62
     1
 10
134.55426306
 20
464.9481468
 30
0.0
 11
133.05426306
 21
464.9481468
 31
0.0
  0
LINE
  5
41B
  8
0
  6
STRICHPUNKT2
 62
     1
 10
131.55426306
 20
471.66566122
 30
0.0
 11
130.05426306
 21
471.66566122
 31
0.0
  0
LINE
  5
41C
  8
0
  6
STRICHPUNKT2
 62
     1
 10
134.55426306
 20
471.66566122
 30
0.0
 11
133.05426306
 21
471.66566122
 31
0.0
  0
ARC
  5
41D
  8
0
 10
134.55426306
 20
477.80690401
 30
0.0
 40
1.5
 50
90.0
 51
180.0
  0
ARC
  5
41E
  8
0
 10
134.55426306
 20
477.80690401
 30
0.0
 40
3.0
 50
90.0
 51
180.0
  0
ARC
  5
41F
  8
0
 10
134.55426306
 20
458.80690401
 30
0.0
 40
1.5
 50
180.0
 51
-90.0
  0
ARC
  5
420
  8
0
 10
134.55426306
 20
458.80690401
 30
0.0
 40
3.0
 50
180.0
 51
-90.0
  0
LINE
  5
421
  8
0
 10
136.80426306
 20
457.30690401
 30
0.0
 11
134.55426306
 21
457.30690401
 31
0.0
  0
LINE
  5
422
  8
0
 10
136.80426306
 20
455.80690401
 30
0.0
 11
134.55426306
 21
455.80690401
 31
0.0
  0
ARC
  5
423
  8
0
 10
136.80426306
 20
454.30690401
 30
0.0
 40
3.0
 50
0.0
 51
90.0
  0
ARC
  5
424
  8
0
 10
136.80426306
 20
454.30690401
 30
0.0
 40
1.5
 50
0.0
 51
90.0
  0
LINE
  5
425
  8
0
 10
136.80426306
 20
479.30690401
 30
0.0
 11
134.55426306
 21
479.30690401
 31
0.0
  0
LINE
  5
426
  8
0
 10
136.80426306
 20
480.80690401
 30
0.0
 11
134.55426306
 21
480.80690401
 31
0.0
  0
LINE
  5
427
  8
0
 10
139.80426306
 20
440.55690401
 30
0.0
 11
139.80426306
 21
454.30690401
 31
0.0
  0
LINE
  5
428
  8
0
 10
138.30426306
 20
440.55690401
 30
0.0
 11
138.30426306
 21
454.30690401
 31
0.0
  0
LINE
  5
429
  8
0
 10
139.80426306
 20
440.55690401
 30
0.0
 11
138.30426306
 21
440.55690401
 31
0.0
  0
LINE
  5
42A
  8
0
  6
STRICHPUNKT2
 62
     1
 10
138.30426306
 20
445.80690401
 30
0.0
 11
137.49176306
 21
445.80690401
 31
0.0
  0
LINE
  5
42B
  8
0
  6
STRICHPUNKT2
 62
     1
 10
140.61676306
 20
445.80690401
 30
0.0
 11
139.80426306
 21
445.80690401
 31
0.0
  0
POLYLINE
  5
42C
  8
0
 66
     1
 10
0.0
 20
0.0
 30
0.0
  0
VERTEX
  5
42D
  8
0
 10
139.80426306
 20
482.30690401
 30
0.0
  0
VERTEX
  5
42E
  8
0
 10
139.80426306
 20
496.05690401
 30
0.0
  0
VERTEX
  5
42F
  8
0
 10
138.30426306
 20
496.05690401
 30
0.0
  0
SEQEND
  5
430
  8
0
  0
LINE
  5
431
  8
0
 10
138.30426306
 20
482.30690401
 30
0.0
 11
138.30426306
 21
496.05690401
 31
0.0
  0
LINE
  5
432
  8
0
  6
STRICHPUNKT2
 62
     1
 10
138.30426306
 20
490.80690401
 30
0.0
 11
137.49176306
 21
490.80690401
 31
0.0
  0
LINE
  5
433
  8
0
  6
STRICHPUNKT2
 62
     1
 10
140.61676306
 20
490.80690401
 30
0.0
 11
139.80426306
 21
490.80690401
 31
0.0
  0
POLYLINE
  5
434
  8
0
 66
     1
 10
0.0
 20
0.0
 30
0.0
  0
VERTEX
  5
435
  8
0
 10
139.80426306
 20
491.74836297
 30
0.0
  0
VERTEX
  5
436
  8
0
 10
140.04890444
 20
491.77419293
 30
0.0
  0
VERTEX
  5
437
  8
0
 10
140.19615365
 20
491.78784902
 30
0.0
  0
VERTEX
  5
438
  8
0
 10
140.31090994
 20
491.79654351
 30
0.0
  0
VERTEX
  5
439
  8
0
 10
140.41099924
 20
491.80226541
 30
0.0
  0
VERTEX
  5
43A
  8
0
 10
140.50506079
 20
491.80571021
 30
0.0
  0
VERTEX
  5
43B
  8
0
 10
140.59877123
 20
491.80690401
 30
0.0
  0
VERTEX
  5
43C
  8
0
 10
140.75391478
 20
491.80326095
 30
0.0
  0
VERTEX
  5
43D
  8
0
 10
140.89285471
 20
491.79266727
 30
0.0
  0
VERTEX
  5
43E
  8
0
 10
141.01973615
 20
491.77574662
 30
0.0
  0
VERTEX
  5
43F
  8
0
 10
141.07024824
 20
491.76680767
 30
0.0
  0
VERTEX
  5
440
  8
0
 10
141.17942059
 20
491.74256643
 30
0.0
  0
VERTEX
  5
441
  8
0
 10
141.28032752
 20
491.7132755
 30
0.0
  0
VERTEX
  5
442
  8
0
 10
141.30426306
 20
491.70522495
 30
0.0
  0
SEQEND
  5
443
  8
0
  0
POLYLINE
  5
444
  8
0
 66
     1
 10
0.0
 20
0.0
 30
0.0
  0
VERTEX
  5
445
  8
0
 10
141.30426306
 20
489.90858307
 30
0.0
  0
VERTEX
  5
446
  8
0
 10
141.20376788
 20
489.87765951
 30
0.0
  0
VERTEX
  5
447
  8
0
 10
141.09554678
 20
489.85199379
 30
0.0
  0
VERTEX
  5
448
  8
0
 10
141.07024824
 20
489.84700035
 30
0.0
  0
VERTEX
  5
449
  8
0
 10
140.95464032
 20
489.8284398
 30
0.0
  0
VERTEX
  5
44A
  8
0
 10
140.83083573
 20
489.81546956
 30
0.0
  0
VERTEX
  5
44B
  8
0
 10
140.69717452
 20
489.80828928
 30
0.0
  0
VERTEX
  5
44C
  8
0
 10
140.59877123
 20
489.80690401
 30
0.0
  0
VERTEX
  5
44D
  8
0
 10
140.44231137
 20
489.81017143
 30
0.0
  0
VERTEX
  5
44E
  8
0
 10
140.26525577
 20
489.82047843
 30
0.0
  0
VERTEX
  5
44F
  8
0
 10
140.04890444
 20
489.83961509
 30
0.0
  0
VERTEX
  5
450
  8
0
 10
139.80426306
 20
489.86544505
 30
0.0
  0
SEQEND
  5
451
  8
0
  0
LINE
  5
452
  8
0
 10
139.80426306
 20
496.05690401
 30
0.0
 11
141.30426306
 21
496.05690401
 31
0.0
  0
POLYLINE
  5
453
  8
0
 66
     1
 10
0.0
 20
0.0
 30
0.0
  0
VERTEX
  5
454
  8
0
 10
139.80426306
 20
493.28406708
 30
0.0
  0
VERTEX
  5
455
  8
0
 10
139.90389671
 20
493.28815289
 30
0.0
  0
VERTEX
  5
456
  8
0
 10
139.99104623
 20
493.29170514
 30
0.0
  0
VERTEX
  5
457
  8
0
 10
140.06715269
 20
493.29470297
 30
0.0
  0
VERTEX
  5
458
  8
0
 10
140.19977782
 20
493.29946843
 30
0.0
  0
VERTEX
  5
459
  8
0
 10
140.2993387
 20
493.30246261
 30
0.0
  0
VERTEX
  5
45A
  8
0
 10
140.59888571
 20
493.30690401
 30
0.0
  0
VERTEX
  5
45B
  8
0
 10
140.72262411
 20
493.30587369
 30
0.0
  0
VERTEX
  5
45C
  8
0
 10
140.94991813
 20
493.29852091
 30
0.0
  0
VERTEX
  5
45D
  8
0
 10
141.14859674
 20
493.28471972
 30
0.0
  0
VERTEX
  5
45E
  8
0
 10
141.30426306
 20
493.26799737
 30
0.0
  0
SEQEND
  5
45F
  8
0
  0
POLYLINE
  5
460
  8
0
 66
     1
 10
0.0
 20
0.0
 30
0.0
  0
VERTEX
  5
461
  8
0
 10
140.59888571
 20
488.30690401
 30
0.0
  0
VERTEX
  5
462
  8
0
 10
140.3511503
 20
488.31004283
 30
0.0
  0
VERTEX
  5
463
  8
0
 10
140.04719173
 20
488.31987753
 30
0.0
  0
VERTEX
  5
464
  8
0
 10
139.80426306
 20
488.32974094
 30
0.0
  0
SEQEND
  5
465
  8
0
  0
POLYLINE
  5
466
  8
0
 66
     1
 10
0.0
 20
0.0
 30
0.0
  0
VERTEX
  5
467
  8
0
 10
141.30426306
 20
488.34581065
 30
0.0
  0
VERTEX
  5
468
  8
0
 10
141.13659275
 20
488.32802835
 30
0.0
  0
VERTEX
  5
469
  8
0
 10
140.95448316
 20
488.31552039
 30
0.0
  0
VERTEX
  5
46A
  8
0
 10
140.75438836
 20
488.30849711
 30
0.0
  0
VERTEX
  5
46B
  8
0
 10
140.59888571
 20
488.30690401
 30
0.0
  0
SEQEND
  5
46C
  8
0
  0
LINE
  5
46D
  8
0
 10
141.30426306
 20
485.55690401
 30
0.0
 11
139.80426306
 21
485.55690401
 31
0.0
  0
POLYLINE
  5
46E
  8
0
 66
     1
 10
0.0
 20
0.0
 30
0.0
  0
VERTEX
  5
92E
  8
0
 10
141.3042630671333
 20
489.9085830723309
 30
0.0
  0
VERTEX
  5
92F
  8
0
 10
141.5475167048654
 20
490.0155406883271
 30
0.0
  0
VERTEX
  5
930
  8
0
 10
141.7553002456261
 20
490.1549648534569
 30
0.0
  0
VERTEX
  5
931
  8
0
 10
141.9190891415238
 20
490.3211355382679
 30
0.0
  0
VERTEX
  5
932
  8
0
 10
142.0321637732756
 20
490.5072354079717
 30
0.0
  0
VERTEX
  5
933
  8
0
 10
142.0898851299656
 20
490.7056295110892
 30
0.0
  0
VERTEX
  5
934
  8
0
 10
142.0898851295616
 20
490.9081785117168
 30
0.0
  0
VERTEX
  5
935
  8
0
 10
142.0321637720803
 20
491.106572614719
 30
0.0
  0
VERTEX
  5
936
  8
0
 10
141.9190891395862
 20
491.2926724841973
 30
0.0
  0
VERTEX
  5
937
  8
0
 10
141.7553002430257
 20
491.4588431686817
 30
0.0
  0
VERTEX
  5
938
  8
0
 10
141.5475167017089
 20
491.5982673333971
 30
0.0
  0
VERTEX
  5
939
  8
0
 10
141.3042630635502
 20
491.7052249489082
 30
0.0
  0
SEQEND
  5
9B4
  8
0
  0
CIRCLE
  5
46F
  8
0
 10
151.05426306
 20
490.80690401
 30
0.0
 40
1.625
  0
POLYLINE
  5
470
  8
0
 66
     1
 10
0.0
 20
0.0
 30
0.0
  0
VERTEX
  5
471
  8
0
 10
141.30426306
 20
485.55690401
 30
0.0
  0
VERTEX
  5
472
  8
0
 10
153.30426306
 20
485.55690401
 30
0.0
 42
0.414213562
  0
VERTEX
  5
473
  8
0
 10
154.30426306
 20
486.55690401
 30
0.0
  0
VERTEX
  5
474
  8
0
 10
154.30426306
 20
495.05690401
 30
0.0
 42
0.414213562
  0
VERTEX
  5
475
  8
0
 10
153.30426306
 20
496.05690401
 30
0.0
  0
VERTEX
  5
476
  8
0
 10
141.30426306
 20
496.05690401
 30
0.0
  0
SEQEND
  5
477
  8
0
  0
POLYLINE
  5
478
  8
0
 66
     1
 10
0.0
 20
0.0
 30
0.0
  0
VERTEX
  5
93A
  8
0
 10
141.3042630498832
 20
488.345810651777
 30
0.0
  0
VERTEX
  5
93B
  8
0
 10
141.9805976256426
 20
488.4813834512516
 30
0.0
  0
VERTEX
  5
93C
  8
0
 10
142.605629318653
 20
488.7088958781549
 30
0.0
  0
VERTEX
  5
93D
  8
0
 10
143.1546474546655
 20
489.0193532118485
 30
0.0
  0
VERTEX
  5
93E
  8
0
 10
143.6059465610338
 20
489.400481498664
 30
0.0
  0
VERTEX
  5
93F
  8
0
 10
143.9416844941816
 20
489.8372128035708
 30
0.0
  0
VERTEX
  5
940
  8
0
 10
144.1485878300703
 20
490.3122809221018
 30
0.0
  0
VERTEX
  5
941
  8
0
 10
144.21847663
 20
490.8069040010255
 30
0.0
  0
VERTEX
  5
942
  8
0
 10
144.1485878350924
 20
491.301527080304
 30
0.0
  0
VERTEX
  5
943
  8
0
 10
143.9416845040273
 20
491.7765951998854
 30
0.0
  0
VERTEX
  5
944
  8
0
 10
143.6059465753139
 20
492.2133265064966
 30
0.0
  0
VERTEX
  5
945
  8
0
 10
143.1546474728154
 20
492.5944547956033
 30
0.0
  0
VERTEX
  5
946
  8
0
 10
142.605629339955
 20
492.9049121320841
 30
0.0
  0
VERTEX
  5
947
  8
0
 10
141.9805976492547
 20
493.1324245621605
 30
0.0
  0
VERTEX
  5
948
  8
0
 10
141.3042630748718
 20
493.2679973650687
 30
0.0
  0
SEQEND
  5
9B5
  8
0
  0
LINE
  5
479
  8
0
  6
STRICHPUNKT2
 62
     1
 10
151.05426306
 20
490.80690401
 30
0.0
 11
148.61676306
 21
490.80690401
 31
0.0
  0
LINE
  5
47A
  8
0
  6
STRICHPUNKT2
 62
     1
 10
151.05426306
 20
490.80690401
 30
0.0
 11
153.49176306
 21
490.80690401
 31
0.0
  0
LINE
  5
47B
  8
0
  6
STRICHPUNKT2
 62
     1
 10
151.05426306
 20
490.80690401
 30
0.0
 11
151.05426306
 21
488.36940401
 31
0.0
  0
LINE
  5
47C
  8
0
  6
STRICHPUNKT2
 62
     1
 10
151.05426306
 20
490.80690401
 30
0.0
 11
151.05426306
 21
493.24440401
 31
0.0
  0
POLYLINE
  5
47D
  8
0
 66
     1
 10
0.0
 20
0.0
 30
0.0
  0
VERTEX
  5
47E
  8
0
 10
139.80426306
 20
446.74836297
 30
0.0
  0
VERTEX
  5
47F
  8
0
 10
140.04890444
 20
446.77419293
 30
0.0
  0
VERTEX
  5
480
  8
0
 10
140.19615365
 20
446.78784902
 30
0.0
  0
VERTEX
  5
481
  8
0
 10
140.31090994
 20
446.79654351
 30
0.0
  0
VERTEX
  5
482
  8
0
 10
140.41099924
 20
446.80226541
 30
0.0
  0
VERTEX
  5
483
  8
0
 10
140.50506079
 20
446.80571021
 30
0.0
  0
VERTEX
  5
484
  8
0
 10
140.59877123
 20
446.80690401
 30
0.0
  0
VERTEX
  5
485
  8
0
 10
140.75391478
 20
446.80326095
 30
0.0
  0
VERTEX
  5
486
  8
0
 10
140.89285471
 20
446.79266727
 30
0.0
  0
VERTEX
  5
487
  8
0
 10
141.01973615
 20
446.77574662
 30
0.0
  0
VERTEX
  5
488
  8
0
 10
141.07024824
 20
446.76680767
 30
0.0
  0
VERTEX
  5
489
  8
0
 10
141.17942059
 20
446.74256643
 30
0.0
  0
VERTEX
  5
48A
  8
0
 10
141.28032752
 20
446.7132755
 30
0.0
  0
VERTEX
  5
48B
  8
0
 10
141.30426306
 20
446.70522495
 30
0.0
  0
SEQEND
  5
48C
  8
0
  0
POLYLINE
  5
48D
  8
0
 66
     1
 10
0.0
 20
0.0
 30
0.0
  0
VERTEX
  5
48E
  8
0
 10
141.30426306
 20
444.90858307
 30
0.0
  0
VERTEX
  5
48F
  8
0
 10
141.20376788
 20
444.87765951
 30
0.0
  0
VERTEX
  5
490
  8
0
 10
141.09554678
 20
444.85199379
 30
0.0
  0
VERTEX
  5
491
  8
0
 10
141.07024824
 20
444.84700035
 30
0.0
  0
VERTEX
  5
492
  8
0
 10
140.95464032
 20
444.8284398
 30
0.0
  0
VERTEX
  5
493
  8
0
 10
140.83083573
 20
444.81546956
 30
0.0
  0
VERTEX
  5
494
  8
0
 10
140.69717452
 20
444.80828928
 30
0.0
  0
VERTEX
  5
495
  8
0
 10
140.59877123
 20
444.80690401
 30
0.0
  0
VERTEX
  5
496
  8
0
 10
140.44231137
 20
444.81017143
 30
0.0
  0
VERTEX
  5
497
  8
0
 10
140.26525577
 20
444.82047843
 30
0.0
  0
VERTEX
  5
498
  8
0
 10
140.04890444
 20
444.83961509
 30
0.0
  0
VERTEX
  5
499
  8
0
 10
139.80426306
 20
444.86544505
 30
0.0
  0
SEQEND
  5
49A
  8
0
  0
POLYLINE
  5
49B
  8
0
 66
     1
 10
0.0
 20
0.0
 30
0.0
  0
VERTEX
  5
49C
  8
0
 10
140.59888571
 20
443.30690401
 30
0.0
  0
VERTEX
  5
49D
  8
0
 10
140.3511503
 20
443.31004283
 30
0.0
  0
VERTEX
  5
49E
  8
0
 10
140.04719173
 20
443.31987753
 30
0.0
  0
VERTEX
  5
49F
  8
0
 10
139.80426306
 20
443.32974094
 30
0.0
  0
SEQEND
  5
4A0
  8
0
  0
POLYLINE
  5
4A1
  8
0
 66
     1
 10
0.0
 20
0.0
 30
0.0
  0
VERTEX
  5
4A2
  8
0
 10
141.30426306
 20
443.34581065
 30
0.0
  0
VERTEX
  5
4A3
  8
0
 10
141.13659275
 20
443.32802835
 30
0.0
  0
VERTEX
  5
4A4
  8
0
 10
140.95448316
 20
443.31552039
 30
0.0
  0
VERTEX
  5
4A5
  8
0
 10
140.75438836
 20
443.30849711
 30
0.0
  0
VERTEX
  5
4A6
  8
0
 10
140.59888571
 20
443.30690401
 30
0.0
  0
SEQEND
  5
4A7
  8
0
  0
LINE
  5
4A8
  8
0
 10
141.30426306
 20
440.55690401
 30
0.0
 11
139.80426306
 21
440.55690401
 31
0.0
  0
LINE
  5
4A9
  8
0
 10
139.80426306
 20
451.05690401
 30
0.0
 11
141.30426306
 21
451.05690401
 31
0.0
  0
POLYLINE
  5
4AA
  8
0
 66
     1
 10
0.0
 20
0.0
 30
0.0
  0
VERTEX
  5
4AB
  8
0
 10
139.80426306
 20
448.28406708
 30
0.0
  0
VERTEX
  5
4AC
  8
0
 10
139.90389671
 20
448.28815289
 30
0.0
  0
VERTEX
  5
4AD
  8
0
 10
139.99104623
 20
448.29170514
 30
0.0
  0
VERTEX
  5
4AE
  8
0
 10
140.06715269
 20
448.29470297
 30
0.0
  0
VERTEX
  5
4AF
  8
0
 10
140.19977782
 20
448.29946843
 30
0.0
  0
VERTEX
  5
4B0
  8
0
 10
140.2993387
 20
448.30246261
 30
0.0
  0
VERTEX
  5
4B1
  8
0
 10
140.59888571
 20
448.30690401
 30
0.0
  0
VERTEX
  5
4B2
  8
0
 10
140.72262411
 20
448.30587369
 30
0.0
  0
VERTEX
  5
4B3
  8
0
 10
140.94991813
 20
448.29852091
 30
0.0
  0
VERTEX
  5
4B4
  8
0
 10
141.14859674
 20
448.28471972
 30
0.0
  0
VERTEX
  5
4B5
  8
0
 10
141.30426306
 20
448.26799737
 30
0.0
  0
SEQEND
  5
4B6
  8
0
  0
POLYLINE
  5
4B7
  8
0
 66
     1
 10
0.0
 20
0.0
 30
0.0
  0
VERTEX
  5
949
  8
0
 10
141.3042630671333
 20
444.9085830723309
 30
0.0
  0
VERTEX
  5
94A
  8
0
 10
141.5475167048654
 20
445.0155406883271
 30
0.0
  0
VERTEX
  5
94B
  8
0
 10
141.7553002456261
 20
445.1549648534569
 30
0.0
  0
VERTEX
  5
94C
  8
0
 10
141.9190891415238
 20
445.3211355382679
 30
0.0
  0
VERTEX
  5
94D
  8
0
 10
142.0321637732756
 20
445.5072354079717
 30
0.0
  0
VERTEX
  5
94E
  8
0
 10
142.0898851299656
 20
445.7056295110892
 30
0.0
  0
VERTEX
  5
94F
  8
0
 10
142.0898851295616
 20
445.9081785117168
 30
0.0
  0
VERTEX
  5
950
  8
0
 10
142.0321637720803
 20
446.106572614719
 30
0.0
  0
VERTEX
  5
951
  8
0
 10
141.9190891395862
 20
446.2926724841973
 30
0.0
  0
VERTEX
  5
952
  8
0
 10
141.7553002430257
 20
446.4588431686817
 30
0.0
  0
VERTEX
  5
953
  8
0
 10
141.5475167017089
 20
446.5982673333971
 30
0.0
  0
VERTEX
  5
954
  8
0
 10
141.3042630635502
 20
446.7052249489082
 30
0.0
  0
SEQEND
  5
9B6
  8
0
  0
CIRCLE
  5
4B8
  8
0
 10
151.05426306
 20
445.80690401
 30
0.0
 40
1.625
  0
POLYLINE
  5
4B9
  8
0
 66
     1
 10
0.0
 20
0.0
 30
0.0
  0
VERTEX
  5
4BA
  8
0
 10
141.30426306
 20
440.55690401
 30
0.0
  0
VERTEX
  5
4BB
  8
0
 10
153.30426306
 20
440.55690401
 30
0.0
 42
0.414213562
  0
VERTEX
  5
4BC
  8
0
 10
154.30426306
 20
441.55690401
 30
0.0
  0
VERTEX
  5
4BD
  8
0
 10
154.30426306
 20
450.05690401
 30
0.0
 42
0.414213562
  0
VERTEX
  5
4BE
  8
0
 10
153.30426306
 20
451.05690401
 30
0.0
  0
VERTEX
  5
4BF
  8
0
 10
141.30426306
 20
451.05690401
 30
0.0
  0
SEQEND
  5
4C0
  8
0
  0
POLYLINE
  5
4C1
  8
0
 66
     1
 10
0.0
 20
0.0
 30
0.0
  0
VERTEX
  5
955
  8
0
 10
141.3042630498832
 20
443.345810651777
 30
0.0
  0
VERTEX
  5
956
  8
0
 10
141.9805976256426
 20
443.4813834512516
 30
0.0
  0
VERTEX
  5
957
  8
0
 10
142.605629318653
 20
443.7088958781549
 30
0.0
  0
VERTEX
  5
958
  8
0
 10
143.1546474546655
 20
444.0193532118485
 30
0.0
  0
VERTEX
  5
959
  8
0
 10
143.6059465610338
 20
444.400481498664
 30
0.0
  0
VERTEX
  5
95A
  8
0
 10
143.9416844941816
 20
444.8372128035708
 30
0.0
  0
VERTEX
  5
95B
  8
0
 10
144.1485878300703
 20
445.3122809221018
 30
0.0
  0
VERTEX
  5
95C
  8
0
 10
144.21847663
 20
445.8069040010255
 30
0.0
  0
VERTEX
  5
95D
  8
0
 10
144.1485878350924
 20
446.301527080304
 30
0.0
  0
VERTEX
  5
95E
  8
0
 10
143.9416845040273
 20
446.7765951998854
 30
0.0
  0
VERTEX
  5
95F
  8
0
 10
143.6059465753139
 20
447.2133265064966
 30
0.0
  0
VERTEX
  5
960
  8
0
 10
143.1546474728154
 20
447.5944547956033
 30
0.0
  0
VERTEX
  5
961
  8
0
 10
142.605629339955
 20
447.9049121320841
 30
0.0
  0
VERTEX
  5
962
  8
0
 10
141.9805976492547
 20
448.1324245621605
 30
0.0
  0
VERTEX
  5
963
  8
0
 10
141.3042630748718
 20
448.2679973650687
 30
0.0
  0
SEQEND
  5
9B7
  8
0
  0
LINE
  5
4C2
  8
0
  6
STRICHPUNKT2
 62
     1
 10
151.05426306
 20
445.80690401
 30
0.0
 11
148.61676306
 21
445.80690401
 31
0.0
  0
LINE
  5
4C3
  8
0
  6
STRICHPUNKT2
 62
     1
 10
151.05426306
 20
445.80690401
 30
0.0
 11
153.49176306
 21
445.80690401
 31
0.0
  0
LINE
  5
4C4
  8
0
  6
STRICHPUNKT2
 62
     1
 10
151.05426306
 20
445.80690401
 30
0.0
 11
151.05426306
 21
443.36940401
 31
0.0
  0
LINE
  5
4C5
  8
0
  6
STRICHPUNKT2
 62
     1
 10
151.05426306
 20
445.80690401
 30
0.0
 11
151.05426306
 21
448.24440401
 31
0.0
  0
LINE
  5
4C6
  8
0
 10
257.23120401
 20
369.14512986
 30
0.0
 11
254.31699045
 21
372.05934342
 31
0.0
  0
LINE
  5
4C7
  8
0
  6
STRICHPUNKT2
 62
     1
 10
288.95823324
 20
360.89512986
 30
0.0
 11
288.95823324
 21
359.39512986
 31
0.0
  0
LINE
  5
4C8
  8
0
  6
STRICHPUNKT2
 62
     1
 10
310.67574766
 20
360.89512986
 30
0.0
 11
310.67574766
 21
359.39512986
 31
0.0
  0
LINE
  5
4C9
  8
0
  6
STRICHPUNKT2
 62
     1
 10
303.95823324
 20
360.89512986
 30
0.0
 11
303.95823324
 21
359.39512986
 31
0.0
  0
LINE
  5
4CA
  8
0
  6
STRICHPUNKT2
 62
     1
 10
295.67574766
 20
360.89512986
 30
0.0
 11
295.67574766
 21
359.39512986
 31
0.0
  0
LINE
  5
4CB
  8
0
 10
317.81699045
 20
360.89512986
 30
0.0
 11
192.81699045
 21
360.89512986
 31
0.0
  0
LINE
  5
4CC
  8
0
 10
192.81699045
 20
363.89512986
 30
0.0
 11
192.81699045
 21
360.89512986
 31
0.0
  0
LINE
  5
4CD
  8
0
 10
317.81699045
 20
360.89512986
 30
0.0
 11
317.81699045
 21
363.89512986
 31
0.0
  0
LINE
  5
4CE
  8
0
 10
192.81699045
 20
366.14512986
 30
0.0
 11
192.81699045
 21
363.89512986
 31
0.0
  0
LINE
  5
4CF
  8
0
 10
317.81699045
 20
363.89512986
 30
0.0
 11
317.81699045
 21
366.14512986
 31
0.0
  0
LINE
  5
4D0
  8
0
 10
192.81699045
 20
367.64512986
 30
0.0
 11
192.81699045
 21
366.14512986
 31
0.0
  0
POLYLINE
  5
4D1
  8
0
 66
     1
 10
0.0
 20
0.0
 30
0.0
  0
VERTEX
  5
4D2
  8
0
 10
317.81699045
 20
366.14512986
 30
0.0
  0
VERTEX
  5
4D3
  8
0
 10
317.81699045
 20
367.64512986
 30
0.0
  0
VERTEX
  5
4D4
  8
0
 10
233.81699045
 20
367.64512986
 30
0.0
  0
SEQEND
  5
4D5
  8
0
  0
LINE
  5
4D6
  8
0
 10
234.81699045
 20
367.64512986
 30
0.0
 11
255.81699045
 21
367.64512986
 31
0.0
  0
LINE
  5
4D7
  8
0
 10
253.21890439
 20
369.14512986
 30
0.0
 11
234.81699045
 21
369.14512986
 31
0.0
  0
LINE
  5
4D8
  8
0
 10
234.81699045
 20
367.64512986
 30
0.0
 11
233.81699045
 21
367.64512986
 31
0.0
  0
LINE
  5
4D9
  8
0
 10
233.81699045
 20
369.14512986
 30
0.0
 11
234.81699045
 21
369.14512986
 31
0.0
  0
LINE
  5
4DA
  8
0
 10
233.81699045
 20
367.64512986
 30
0.0
 11
232.81699045
 21
367.64512986
 31
0.0
  0
LINE
  5
4DB
  8
0
 10
233.81699045
 20
369.14512986
 30
0.0
 11
233.81699045
 21
367.64512986
 31
0.0
  0
LINE
  5
4DC
  8
0
 10
232.81699045
 20
369.14512986
 30
0.0
 11
233.81699045
 21
369.14512986
 31
0.0
  0
POLYLINE
  5
4DD
  8
0
 66
     1
 10
0.0
 20
0.0
 30
0.0
  0
VERTEX
  5
4DE
  8
0
 10
232.81699045
 20
369.14512986
 30
0.0
  0
VERTEX
  5
4DF
  8
0
 10
192.81699045
 20
369.14512986
 30
0.0
  0
VERTEX
  5
4E0
  8
0
 10
192.81699045
 20
367.64512986
 30
0.0
  0
SEQEND
  5
4E1
  8
0
  0
LINE
  5
4E2
  8
0
 10
232.81699045
 20
367.64512986
 30
0.0
 11
192.81699045
 21
367.64512986
 31
0.0
  0
LINE
  5
4E3
  8
0
 10
317.81699045
 20
367.64512986
 30
0.0
 11
255.81699045
 21
367.64512986
 31
0.0
  0
LINE
  5
4E4
  8
0
 10
317.81699045
 20
369.14512986
 30
0.0
 11
255.81699045
 21
369.14512986
 31
0.0
  0
LINE
  5
4E5
  8
0
 10
317.81699045
 20
369.14512986
 30
0.0
 11
317.81699045
 21
367.64512986
 31
0.0
  0
LINE
  5
4E6
  8
0
  6
STRICHPUNKT2
 62
     1
 10
204.06699045
 20
367.64512986
 30
0.0
 11
204.06699045
 21
366.83262986
 31
0.0
  0
LINE
  5
4E7
  8
0
  6
STRICHPUNKT2
 62
     1
 10
204.06699045
 20
369.95762986
 30
0.0
 11
204.06699045
 21
369.14512986
 31
0.0
  0
ARC
  5
4E8
  8
0
 10
255.81699045
 20
370.64512986
 30
0.0
 40
3.0
 50
180.0
 51
-90.0
  0
ARC
  5
4E9
  8
0
 10
255.81699045
 20
370.64512986
 30
0.0
 40
1.5
 50
180.0
 51
-90.0
  0
LINE
  5
4EA
  8
0
 10
252.81699045
 20
370.64512986
 30
0.0
 11
252.81699045
 21
382.64512986
 31
0.0
  0
LINE
  5
4EB
  8
0
 10
254.31699045
 20
382.64512986
 30
0.0
 11
254.31699045
 21
370.64512986
 31
0.0
  0
LINE
  5
4EC
  8
0
 10
254.31699045
 20
383.64512986
 30
0.0
 11
254.31699045
 21
382.64512986
 31
0.0
  0
LINE
  5
4ED
  8
0
 10
252.81699045
 20
383.64512986
 30
0.0
 11
254.31699045
 21
383.64512986
 31
0.0
  0
LINE
  5
4EE
  8
0
 10
252.81699045
 20
382.64512986
 30
0.0
 11
252.81699045
 21
383.64512986
 31
0.0
  0
LINE
  5
4EF
  8
0
  6
STRICHPUNKT2
 62
     1
 10
254.31699045
 20
380.39512986
 30
0.0
 11
255.12949045
 21
380.39512986
 31
0.0
  0
LINE
  5
4F0
  8
0
  6
STRICHPUNKT2
 62
     1
 10
252.00449045
 20
380.39512986
 30
0.0
 11
252.81699045
 21
380.39512986
 31
0.0
  0
TEXT
  5
4F1
  8
TXT_DIM49
 10
282.43723734
 20
514.8978082
 30
0.0
 40
2.5
  1
130
  7
ARIAL
  0
LINE
  5
4F2
  8
0
 62
     4
 10
316.81699045
 20
512.3978082
 30
0.0
 11
318.81699045
 21
514.3978082
 31
0.0
  0
LINE
  5
4F3
  8
0
 62
     4
 10
253.56699045
 20
514.1478082
 30
0.0
 11
252.06699045
 21
512.6478082
 31
0.0
  0
LINE
  5
4F4
  8
0
 62
     4
 10
317.81699045
 20
513.3978082
 30
0.0
 11
252.81699045
 21
513.3978082
 31
0.0
  0
LINE
  5
4F5
  8
0
 62
     4
 10
317.81699045
 20
511.3978082
 30
0.0
 11
317.81699045
 21
515.3978082
 31
0.0
  0
LINE
  5
4F6
  8
0
 62
     4
 10
252.81699045
 20
511.3978082
 30
0.0
 11
252.81699045
 21
515.3978082
 31
0.0
  0
TEXT
  5
4F7
  8
TXT_DIM49
 10
219.93723734
 20
514.8978082
 30
0.0
 40
2.5
  1
120
  7
ARIAL
  0
LINE
  5
4F8
  8
0
 62
     4
 10
251.81699045
 20
512.3978082
 30
0.0
 11
253.81699045
 21
514.3978082
 31
0.0
  0
LINE
  5
4F9
  8
0
 62
     4
 10
193.56699045
 20
514.1478082
 30
0.0
 11
192.06699045
 21
512.6478082
 31
0.0
  0
LINE
  5
4FA
  8
0
 62
     4
 10
252.81699045
 20
513.3978082
 30
0.0
 11
192.81699045
 21
513.3978082
 31
0.0
  0
LINE
  5
4FB
  8
0
 62
     4
 10
252.81699045
 20
511.3978082
 30
0.0
 11
252.81699045
 21
515.3978082
 31
0.0
  0
LINE
  5
4FC
  8
0
 62
     4
 10
192.81699045
 20
511.3978082
 30
0.0
 11
192.81699045
 21
515.3978082
 31
0.0
  0
TEXT
  5
4FD
  8
TXT_DIM49
 10
211.397155
 20
503.24646643
 30
0.0
 40
2.5
  1
82
  7
ARIAL
  0
LINE
  5
4FE
  8
0
 62
     4
 10
193.81699045
 20
502.74646643
 30
0.0
 11
191.81699045
 21
500.74646643
 31
0.0
  0
LINE
  5
4FF
  8
0
 62
     4
 10
233.06699045
 20
500.99646643
 30
0.0
 11
234.56699045
 21
502.49646643
 31
0.0
  0
LINE
  5
500
  8
0
 62
     4
 10
192.81699045
 20
501.74646643
 30
0.0
 11
233.81699045
 21
501.74646643
 31
0.0
  0
LINE
  5
501
  8
0
 62
     4
 10
192.81699045
 20
499.74646643
 30
0.0
 11
192.81699045
 21
503.74646643
 31
0.0
  0
LINE
  5
502
  8
0
 62
     4
 10
233.81699045
 20
499.74646643
 30
0.0
 11
233.81699045
 21
503.74646643
 31
0.0
  0
TEXT
  5
503
  8
TXT_DIM49
 10
241.397155
 20
503.24646643
 30
0.0
 40
2.5
  1
38
  7
ARIAL
  0
LINE
  5
504
  8
0
 62
     4
 10
234.81699045
 20
502.74646643
 30
0.0
 11
232.81699045
 21
500.74646643
 31
0.0
  0
LINE
  5
505
  8
0
 62
     4
 10
252.06699045
 20
500.99646643
 30
0.0
 11
253.56699045
 21
502.49646643
 31
0.0
  0
LINE
  5
506
  8
0
 62
     4
 10
233.81699045
 20
501.74646643
 30
0.0
 11
252.81699045
 21
501.74646643
 31
0.0
  0
LINE
  5
507
  8
0
 62
     4
 10
233.81699045
 20
499.74646643
 30
0.0
 11
233.81699045
 21
503.74646643
 31
0.0
  0
LINE
  5
508
  8
0
 62
     4
 10
252.81699045
 20
499.74646643
 30
0.0
 11
252.81699045
 21
503.74646643
 31
0.0
  0
TEXT
  5
509
  8
TXT_DIM49
 10
282.43723734
 20
503.24646643
 30
0.0
 40
2.5
  1
130
  7
ARIAL
  0
LINE
  5
50A
  8
0
 62
     4
 10
253.81699045
 20
502.74646643
 30
0.0
 11
251.81699045
 21
500.74646643
 31
0.0
  0
LINE
  5
50B
  8
0
 62
     4
 10
317.06699045
 20
500.99646643
 30
0.0
 11
318.56699045
 21
502.49646643
 31
0.0
  0
LINE
  5
50C
  8
0
 62
     4
 10
252.81699045
 20
501.74646643
 30
0.0
 11
317.81699045
 21
501.74646643
 31
0.0
  0
LINE
  5
50D
  8
0
 62
     4
 10
252.81699045
 20
499.74646643
 30
0.0
 11
252.81699045
 21
503.74646643
 31
0.0
  0
LINE
  5
50E
  8
0
 62
     4
 10
317.81699045
 20
499.74646643
 30
0.0
 11
317.81699045
 21
503.74646643
 31
0.0
  0
LINE
  5
50F
  8
0
 62
     4
 10
204.06699045
 20
490.80690401
 30
0.0
 11
206.5037167
 21
486.40734599
 31
0.0
  0
TEXT
  5
510
  8
TXT_DIM49
 10
206.5037167
 20
485.15734599
 30
0.0
 40
2.5
  1
Ø6.5
  7
ARIAL
  0
TEXT
  5
511
  8
TXT_DIM49
 10
275.98759478
 20
470.81181269
 30
0.0
 40
2.5
  1
45
 50
292.4998427350001
  7
ARIAL
  0
TEXT
  5
512
  8
TXT_DIM49
 10
277.45697322
 20
467.26441933
 30
0.0
 40
2.5
  1
°
 50
292.4998427350001
  7
ARIAL
  0
LINE
  5
513
  8
0
 62
     4
 10
282.13206563
 20
459.50763138
 30
0.0
 11
282.0755084
 21
456.67976977
 31
0.0
  0
LINE
  5
514
  8
0
 62
     4
 10
272.58213741
 20
478.54205696
 30
0.0
 11
274.05184349
 21
480.07175106
 31
0.0
  0
POLYLINE
  5
515
  8
0
 62
     4
 66
     1
 10
0.0
 20
0.0
 30
0.0
  0
VERTEX
  5
964
  8
0
 62
     4
 10
273.31699025
 20
479.3069041176938
 30
0.0
  0
VERTEX
  5
965
  8
0
 62
     4
 10
273.8934318303967
 20
473.454194426082
 30
0.0
  0
VERTEX
  5
966
  8
0
 62
     4
 10
275.6006042865732
 20
467.8264010853123
 30
0.0
  0
VERTEX
  5
967
  8
0
 62
     4
 10
278.3729019373323
 20
462.6397970409921
 30
0.0
  0
VERTEX
  5
968
  8
0
 62
     4
 10
282.1037869368924
 20
458.093700581204
 30
0.0
  0
SEQEND
  5
9B8
  8
0
 62
     4
  0
LINE
  5
516
  8
0
 62
     4
 10
285.5994763
 20
461.58938986
 30
0.0
 11
280.68957345
 21
456.67948701
 31
0.0
  0
LINE
  5
517
  8
0
 62
     5
 10
204.06699045
 20
445.80690401
 30
0.0
 11
207.16497679
 21
449.86083898
 31
0.0
  0
TEXT
  5
518
  8
TXT_DIM49
 10
207.16497679
 20
448.61083898
 30
0.0
 40
2.5
  1
Ø6.5
  7
ARIAL
  0
TEXT
  5
519
  8
TXT_DIM49
 10
185.69650127
 20
439.82261317
 30
0.0
 40
2.5
  1
10,5
 50
90.00020741
  7
ARIAL
  0
LINE
  5
51A
  8
0
 62
     4
 10
186.19650127
 20
441.55690401
 30
0.0
 11
188.19650127
 21
439.55690401
 31
0.0
  0
LINE
  5
51B
  8
0
 62
     4
 10
187.94650127
 20
445.05690401
 30
0.0
 11
186.44650127
 21
446.55690401
 31
0.0
  0
LINE
  5
51C
  8
0
 62
     4
 10
187.19650127
 20
440.55690401
 30
0.0
 11
187.19650127
 21
445.80690401
 31
0.0
  0
LINE
  5
51D
  8
0
 62
     4
 10
189.19650127
 20
440.55690401
 30
0.0
 11
185.19650127
 21
440.55690401
 31
0.0
  0
LINE
  5
51E
  8
0
 62
     4
 10
189.19650127
 20
445.80690401
 30
0.0
 11
185.19650127
 21
445.80690401
 31
0.0
  0
TEXT
  5
51F
  8
TXT_DIM49
 10
185.69650127
 20
466.38706856
 30
0.0
 40
2.5
  1
90
 50
90.00020741
  7
ARIAL
  0
LINE
  5
520
  8
0
 62
     4
 10
186.19650127
 20
446.80690401
 30
0.0
 11
188.19650127
 21
444.80690401
 31
0.0
  0
LINE
  5
521
  8
0
 62
     4
 10
187.94650127
 20
490.05690401
 30
0.0
 11
186.44650127
 21
491.55690401
 31
0.0
  0
LINE
  5
522
  8
0
 62
     4
 10
187.19650127
 20
445.80690401
 30
0.0
 11
187.19650127
 21
490.80690401
 31
0.0
  0
LINE
  5
523
  8
0
 62
     4
 10
189.19650127
 20
445.80690401
 30
0.0
 11
185.19650127
 21
445.80690401
 31
0.0
  0
LINE
  5
524
  8
0
 62
     4
 10
189.19650127
 20
490.80690401
 30
0.0
 11
185.19650127
 21
490.80690401
 31
0.0
  0
TEXT
  5
525
  8
TXT_DIM49
 10
185.69650127
 20
490.07261317
 30
0.0
 40
2.5
  1
10,5
 50
90.00020741
  7
ARIAL
  0
LINE
  5
526
  8
0
 62
     4
 10
186.19650127
 20
491.80690401
 30
0.0
 11
188.19650127
 21
489.80690401
 31
0.0
  0
LINE
  5
527
  8
0
 62
     4
 10
187.94650127
 20
495.30690401
 30
0.0
 11
186.44650127
 21
496.80690401
 31
0.0
  0
LINE
  5
528
  8
0
 62
     4
 10
187.19650127
 20
490.80690401
 30
0.0
 11
187.19650127
 21
496.05690401
 31
0.0
  0
LINE
  5
529
  8
0
 62
     4
 10
189.19650127
 20
490.80690401
 30
0.0
 11
185.19650127
 21
490.80690401
 31
0.0
  0
LINE
  5
52A
  8
0
 62
     4
 10
189.19650127
 20
496.05690401
 30
0.0
 11
185.19650127
 21
496.05690401
 31
0.0
  0
TEXT
  5
52B
  8
TXT_DIM49
 10
252.43723734
 20
422.05690401
 30
0.0
 40
2.5
  1
250
  7
ARIAL
  0
LINE
  5
52C
  8
0
 62
     4
 10
316.81699045
 20
419.55690401
 30
0.0
 11
318.81699045
 21
421.55690401
 31
0.0
  0
LINE
  5
52D
  8
0
 62
     4
 10
193.56699045
 20
421.30690401
 30
0.0
 11
192.06699045
 21
419.80690401
 31
0.0
  0
LINE
  5
52E
  8
0
 62
     4
 10
317.81699045
 20
420.55690401
 30
0.0
 11
192.81699045
 21
420.55690401
 31
0.0
  0
LINE
  5
52F
  8
0
 62
     4
 10
317.81699045
 20
422.55690401
 30
0.0
 11
317.81699045
 21
418.55690401
 31
0.0
  0
LINE
  5
530
  8
0
 62
     4
 10
192.81699045
 20
422.55690401
 30
0.0
 11
192.81699045
 21
418.55690401
 31
0.0
  0
TEXT
  5
531
  8
TXT_DIM49
 10
310.647155
 20
429.96236724
 30
0.0
 40
2.5
  1
21
  7
ARIAL
  0
LINE
  5
532
  8
0
 62
     4
 10
316.81699045
 20
427.46236724
 30
0.0
 11
318.81699045
 21
429.46236724
 31
0.0
  0
LINE
  5
533
  8
0
 62
     4
 10
308.06699045
 20
429.21236724
 30
0.0
 11
306.56699045
 21
427.71236724
 31
0.0
  0
LINE
  5
534
  8
0
 62
     4
 10
317.81699045
 20
428.46236724
 30
0.0
 11
307.31699045
 21
428.46236724
 31
0.0
  0
LINE
  5
535
  8
0
 62
     4
 10
317.81699045
 20
430.46236724
 30
0.0
 11
317.81699045
 21
426.46236724
 31
0.0
  0
LINE
  5
536
  8
0
 62
     4
 10
307.31699045
 20
430.46236724
 30
0.0
 11
307.31699045
 21
426.46236724
 31
0.0
  0
TEXT
  5
537
  8
TXT_DIM49
 10
297.897155
 20
429.96236724
 30
0.0
 40
2.5
  1
30
  7
ARIAL
  0
LINE
  5
538
  8
0
 62
     4
 10
306.31699045
 20
427.46236724
 30
0.0
 11
308.31699045
 21
429.46236724
 31
0.0
  0
LINE
  5
539
  8
0
 62
     4
 10
293.06699045
 20
429.21236724
 30
0.0
 11
291.56699045
 21
427.71236724
 31
0.0
  0
LINE
  5
53A
  8
0
 62
     4
 10
307.31699045
 20
428.46236724
 30
0.0
 11
292.31699045
 21
428.46236724
 31
0.0
  0
LINE
  5
53B
  8
0
 62
     4
 10
307.31699045
 20
430.46236724
 30
0.0
 11
307.31699045
 21
426.46236724
 31
0.0
  0
LINE
  5
53C
  8
0
 62
     4
 10
292.31699045
 20
430.46236724
 30
0.0
 11
292.31699045
 21
426.46236724
 31
0.0
  0
TEXT
  5
53D
  8
TXT_DIM49
 10
239.68723734
 20
429.96236724
 30
0.0
 40
2.5
  1
199
  7
ARIAL
  0
LINE
  5
53E
  8
0
 62
     4
 10
291.31699045
 20
427.46236724
 30
0.0
 11
293.31699045
 21
429.46236724
 31
0.0
  0
LINE
  5
53F
  8
0
 62
     4
 10
193.56699045
 20
429.21236724
 30
0.0
 11
192.06699045
 21
427.71236724
 31
0.0
  0
LINE
  5
540
  8
0
 62
     4
 10
292.31699045
 20
428.46236724
 30
0.0
 11
192.81699045
 21
428.46236724
 31
0.0
  0
LINE
  5
541
  8
0
 62
     4
 10
292.31699045
 20
430.46236724
 30
0.0
 11
292.31699045
 21
426.46236724
 31
0.0
  0
LINE
  5
542
  8
0
 62
     4
 10
192.81699045
 20
430.46236724
 30
0.0
 11
192.81699045
 21
426.46236724
 31
0.0
  0
TEXT
  5
543
  8
TXT_DIM49
 10
195.08269961
 20
435.28654813
 30
0.0
 40
2.5
  1
22,5
  7
ARIAL
  0
LINE
  5
544
  8
0
 62
     4
 10
193.81699045
 20
434.78654813
 30
0.0
 11
191.81699045
 21
432.78654813
 31
0.0
  0
LINE
  5
545
  8
0
 62
     4
 10
203.31699045
 20
433.03654813
 30
0.0
 11
204.81699045
 21
434.53654813
 31
0.0
  0
LINE
  5
546
  8
0
 62
     4
 10
192.81699045
 20
433.78654813
 30
0.0
 11
204.06699045
 21
433.78654813
 31
0.0
  0
LINE
  5
547
  8
0
 62
     4
 10
192.81699045
 20
435.78654813
 30
0.0
 11
192.81699045
 21
431.78654813
 31
0.0
  0
LINE
  5
548
  8
0
 62
     4
 10
204.06699045
 20
435.78654813
 30
0.0
 11
204.06699045
 21
431.78654813
 31
0.0
  0
LINE
  5
549
  8
0
 62
     5
 10
307.31699045
 20
468.30690401
 30
0.0
 11
312.70806494
 21
460.8396373
 31
0.0
  0
TEXT
  5
54A
  8
TXT_DIM49
 10
312.70806494
 20
459.5896373
 30
0.0
 40
2.5
  1
Slobgat 13 x 32
  7
ARIAL
  0
LINE
  5
54B
  8
0
 62
     5
 10
292.31699045
 20
468.30690401
 30
0.0
 11
303.96848331
 21
451.95803232
 31
0.0
  0
TEXT
  5
54C
  8
TXT_DIM49
 10
303.96848331
 20
450.70803232
 30
0.0
 40
2.5
  1
Slobgat 13 x 32
  7
ARIAL
  0
TEXT
  5
54D
  8
TXT_DIM49
 10
244.19146262
 20
487.88706856
 30
0.0
 40
2.5
  1
25
 50
90.00020741
  7
ARIAL
  0
LINE
  5
54E
  8
0
 62
     4
 10
246.69146262
 20
495.05690401
 30
0.0
 11
244.69146262
 21
497.05690401
 31
0.0
  0
LINE
  5
54F
  8
0
 62
     4
 10
244.94146262
 20
484.30690401
 30
0.0
 11
246.44146262
 21
482.80690401
 31
0.0
  0
LINE
  5
550
  8
0
 62
     4
 10
245.69146262
 20
496.05690401
 30
0.0
 11
245.69146262
 21
483.55690401
 31
0.0
  0
LINE
  5
551
  8
0
 62
     4
 10
243.69146262
 20
496.05690401
 30
0.0
 11
247.69146262
 21
496.05690401
 31
0.0
  0
LINE
  5
552
  8
0
 62
     4
 10
245.81699045
 20
483.55690401
 30
0.0
 11
243.69146262
 21
483.55690401
 31
0.0
  0
TEXT
  5
553
  8
TXT_DIM49
 10
244.19146262
 20
466.91024036
 30
0.0
 40
2.5
  1
61
 50
90.00020741
  7
ARIAL
  0
LINE
  5
554
  8
0
 62
     4
 10
246.69146262
 20
482.55690401
 30
0.0
 11
244.69146262
 21
484.55690401
 31
0.0
  0
LINE
  5
555
  8
0
 62
     4
 10
244.94146262
 20
453.80690401
 30
0.0
 11
246.44146262
 21
452.30690401
 31
0.0
  0
LINE
  5
556
  8
0
 62
     4
 10
245.69146262
 20
483.55690401
 30
0.0
 11
245.69146262
 21
453.05690401
 31
0.0
  0
LINE
  5
557
  8
0
 62
     4
 10
245.81699045
 20
483.55690401
 30
0.0
 11
243.69146262
 21
483.55690401
 31
0.0
  0
LINE
  5
558
  8
0
 62
     4
 10
243.69146262
 20
453.05690401
 30
0.0
 11
247.69146262
 21
453.05690401
 31
0.0
  0
TEXT
  5
559
  8
TXT_DIM49
 10
244.19146262
 20
444.88706856
 30
0.0
 40
2.5
  1
25
 50
90.00020741
  7
ARIAL
  0
LINE
  5
55A
  8
0
 62
     4
 10
246.69146262
 20
452.05690401
 30
0.0
 11
244.69146262
 21
454.05690401
 31
0.0
  0
LINE
  5
55B
  8
0
 62
     4
 10
244.94146262
 20
441.30690401
 30
0.0
 11
246.44146262
 21
439.80690401
 31
0.0
  0
LINE
  5
55C
  8
0
 62
     4
 10
245.69146262
 20
453.05690401
 30
0.0
 11
245.69146262
 21
440.55690401
 31
0.0
  0
LINE
  5
55D
  8
0
 62
     4
 10
243.69146262
 20
453.05690401
 30
0.0
 11
247.69146262
 21
453.05690401
 31
0.0
  0
LINE
  5
55E
  8
0
 62
     4
 10
243.69146262
 20
440.55690401
 30
0.0
 11
247.69146262
 21
440.55690401
 31
0.0
  0
TEXT
  5
55F
  8
TXT_DIM49
 10
131.56997222
 20
503.18322038
 30
0.0
 40
2.5
  1
13,5
  7
ARIAL
  0
LINE
  5
560
  8
0
 62
     4
 10
132.55426306
 20
502.68322038
 30
0.0
 11
130.55426306
 21
500.68322038
 31
0.0
  0
LINE
  5
561
  8
0
 62
     4
 10
137.55426306
 20
500.93322038
 30
0.0
 11
139.05426306
 21
502.43322038
 31
0.0
  0
LINE
  5
562
  8
0
 62
     4
 10
131.55426306
 20
501.68322038
 30
0.0
 11
138.30426306
 21
501.68322038
 31
0.0
  0
LINE
  5
563
  8
0
 62
     4
 10
131.55426306
 20
499.68322038
 30
0.0
 11
131.55426306
 21
503.68322038
 31
0.0
  0
LINE
  5
564
  8
0
 62
     4
 10
138.30426306
 20
499.68322038
 30
0.0
 11
138.30426306
 21
503.68322038
 31
0.0
  0
TEXT
  5
565
  8
TXT_DIM49
 10
144.38442761
 20
503.18322038
 30
0.0
 40
2.5
  1
32
  7
ARIAL
  0
LINE
  5
566
  8
0
 62
     4
 10
139.30426306
 20
502.68322038
 30
0.0
 11
137.30426306
 21
500.68322038
 31
0.0
  0
LINE
  5
567
  8
0
 62
     4
 10
153.55426306
 20
500.93322038
 30
0.0
 11
155.05426306
 21
502.43322038
 31
0.0
  0
LINE
  5
568
  8
0
 62
     4
 10
138.30426306
 20
501.68322038
 30
0.0
 11
154.30426306
 21
501.68322038
 31
0.0
  0
LINE
  5
569
  8
0
 62
     4
 10
138.30426306
 20
499.68322038
 30
0.0
 11
138.30426306
 21
503.68322038
 31
0.0
  0
LINE
  5
56A
  8
0
 62
     4
 10
154.30426306
 20
499.68322038
 30
0.0
 11
154.30426306
 21
503.68322038
 31
0.0
  0
TEXT
  5
56B
  8
TXT_DIM49
 10
112.82057302
 20
465.4271509
 30
0.0
 40
2.5
  1
111
 50
90.00020741
  7
ARIAL
  0
LINE
  5
56C
  8
0
 62
     4
 10
113.32057302
 20
441.55690401
 30
0.0
 11
115.32057302
 21
439.55690401
 31
0.0
  0
LINE
  5
56D
  8
0
 62
     4
 10
115.07057302
 20
495.30690401
 30
0.0
 11
113.57057302
 21
496.80690401
 31
0.0
  0
LINE
  5
56E
  8
0
 62
     4
 10
114.32057302
 20
440.55690401
 30
0.0
 11
114.32057302
 21
496.05690401
 31
0.0
  0
LINE
  5
56F
  8
0
 62
     4
 10
116.32057302
 20
440.55690401
 30
0.0
 11
112.32057302
 21
440.55690401
 31
0.0
  0
LINE
  5
570
  8
0
 62
     4
 10
116.32057302
 20
496.05690401
 30
0.0
 11
112.32057302
 21
496.05690401
 31
0.0
  0
TEXT
  5
571
  8
TXT_DIM49
 10
159.65253814
 20
488.88706856
 30
0.0
 40
2.5
  1
21
 50
90.00020741
  7
ARIAL
  0
LINE
  5
572
  8
0
 62
     4
 10
162.15253814
 20
495.05690401
 30
0.0
 11
160.15253814
 21
497.05690401
 31
0.0
  0
LINE
  5
573
  8
0
 62
     4
 10
160.40253814
 20
486.30690401
 30
0.0
 11
161.90253814
 21
484.80690401
 31
0.0
  0
LINE
  5
574
  8
0
 62
     4
 10
161.15253814
 20
496.05690401
 30
0.0
 11
161.15253814
 21
485.55690401
 31
0.0
  0
LINE
  5
575
  8
0
 62
     4
 10
159.15253814
 20
496.05690401
 30
0.0
 11
163.15253814
 21
496.05690401
 31
0.0
  0
LINE
  5
576
  8
0
 62
     4
 10
159.15253814
 20
485.55690401
 30
0.0
 11
163.15253814
 21
485.55690401
 31
0.0
  0
LINE
  5
577
  8
0
 62
     5
 10
151.05426306
 20
490.80690401
 30
0.0
 11
156.42013522
 21
479.7250396
 31
0.0
  0
TEXT
  5
578
  8
TXT_DIM49
 10
156.42013522
 20
478.4750396
 30
0.0
 40
2.5
  1
Ø6.5
  7
ARIAL
  0
LINE
  5
579
  8
0
 62
     5
 10
151.05426306
 20
445.80690401
 30
0.0
 11
156.97159443
 21
454.56080089
 31
0.0
  0
TEXT
  5
57A
  8
TXT_DIM49
 10
156.97159443
 20
453.31080089
 30
0.0
 40
2.5
  1
Ø6.5
  7
ARIAL
  0
TEXT
  5
57B
  8
TXT_DIM49
 10
150.27989001
 20
455.51914591
 30
0.0
 40
2.5
  1
6,5
  7
ARIAL
  0
LINE
  5
57C
  8
0
 62
     4
 10
153.30426306
 20
453.01914591
 30
0.0
 11
155.30426306
 21
455.01914591
 31
0.0
  0
LINE
  5
57D
  8
0
 62
     4
 10
151.80426306
 20
454.76914591
 30
0.0
 11
150.30426306
 21
453.26914591
 31
0.0
  0
LINE
  5
57E
  8
0
 62
     4
 10
154.30426306
 20
454.01914591
 30
0.0
 11
151.05426306
 21
454.01914591
 31
0.0
  0
LINE
  5
57F
  8
0
 62
     4
 10
154.30426306
 20
452.01914591
 30
0.0
 11
154.30426306
 21
456.01914591
 31
0.0
  0
LINE
  5
580
  8
0
 62
     4
 10
151.05426306
 20
452.01914591
 30
0.0
 11
151.05426306
 21
456.01914591
 31
0.0
  0
TEXT
  5
581
  8
TXT_DIM49
 10
158.52864181
 20
445.07261317
 30
0.0
 40
2.5
  1
10,5
 50
90.00020741
  7
ARIAL
  0
LINE
  5
582
  8
0
 62
     4
 10
161.02864181
 20
450.05690401
 30
0.0
 11
159.02864181
 21
452.05690401
 31
0.0
  0
LINE
  5
583
  8
0
 62
     4
 10
159.27864181
 20
446.55690401
 30
0.0
 11
160.77864181
 21
445.05690401
 31
0.0
  0
LINE
  5
584
  8
0
 62
     4
 10
160.02864181
 20
451.05690401
 30
0.0
 11
160.02864181
 21
445.80690401
 31
0.0
  0
LINE
  5
585
  8
0
 62
     4
 10
160.02864181
 20
448.43190401
 30
0.0
 11
159.52864181
 21
448.43190389
 31
0.0
  0
LINE
  5
586
  8
0
 62
     4
 10
158.02864181
 20
451.05690401
 30
0.0
 11
162.02864181
 21
451.05690401
 31
0.0
  0
LINE
  5
587
  8
0
 62
     4
 10
158.02864181
 20
445.80690401
 30
0.0
 11
162.02864181
 21
445.80690401
 31
0.0
  0
TEXT
  5
588
  8
TXT_DIM49
 10
158.52864181
 20
435.00403135
 30
0.0
 40
2.5
  1
10,5
 50
90.00020741
  7
ARIAL
  0
LINE
  5
589
  8
0
 62
     4
 10
161.02864181
 20
444.80690401
 30
0.0
 11
159.02864181
 21
446.80690401
 31
0.0
  0
LINE
  5
58A
  8
0
 62
     4
 10
159.27864181
 20
441.30690401
 30
0.0
 11
160.77864181
 21
439.80690401
 31
0.0
  0
LINE
  5
58B
  8
0
 62
     4
 10
160.02864181
 20
445.80690401
 30
0.0
 11
160.02864181
 21
434.00403231
 31
0.0
  0
LINE
  5
58C
  8
0
 62
     4
 10
160.02864181
 20
443.18190401
 30
0.0
 11
159.07864181
 21
442.62261255
 31
0.0
  0
LINE
  5
58D
  8
0
 62
     4
 10
158.02864181
 20
445.80690401
 30
0.0
 11
162.02864181
 21
445.80690401
 31
0.0
  0
LINE
  5
58E
  8
0
 62
     4
 10
158.02864181
 20
440.55690401
 30
0.0
 11
162.02864181
 21
440.55690401
 31
0.0
  0
TEXT
  5
58F
  8
TXT_DIM49
 10
126.80426306
 20
444.82261317
 30
0.0
 40
2.5
  1
30,5
 50
90.00020741
  7
ARIAL
  0
LINE
  5
590
  8
0
 62
     4
 10
127.30426306
 20
441.55690401
 30
0.0
 11
129.30426306
 21
439.55690401
 31
0.0
  0
LINE
  5
591
  8
0
 62
     4
 10
129.05426306
 20
455.05690401
 30
0.0
 11
127.55426306
 21
456.55690401
 31
0.0
  0
LINE
  5
592
  8
0
 62
     4
 10
128.30426306
 20
440.55690401
 30
0.0
 11
128.30426306
 21
455.80690401
 31
0.0
  0
LINE
  5
593
  8
0
 62
     4
 10
130.30426306
 20
440.55690401
 30
0.0
 11
126.30426306
 21
440.55690401
 31
0.0
  0
LINE
  5
594
  8
0
 62
     4
 10
130.30426306
 20
455.80690401
 30
0.0
 11
126.30426306
 21
455.80690401
 31
0.0
  0
TEXT
  5
595
  8
TXT_DIM49
 10
126.80426306
 20
466.38706856
 30
0.0
 40
2.5
  1
50
 50
90.00020741
  7
ARIAL
  0
LINE
  5
596
  8
0
 62
     4
 10
127.30426306
 20
456.80690401
 30
0.0
 11
129.30426306
 21
454.80690401
 31
0.0
  0
LINE
  5
597
  8
0
 62
     4
 10
129.05426306
 20
480.05690401
 30
0.0
 11
127.55426306
 21
481.55690401
 31
0.0
  0
LINE
  5
598
  8
0
 62
     4
 10
128.30426306
 20
455.80690401
 30
0.0
 11
128.30426306
 21
480.80690401
 31
0.0
  0
LINE
  5
599
  8
0
 62
     4
 10
130.30426306
 20
455.80690401
 30
0.0
 11
126.30426306
 21
455.80690401
 31
0.0
  0
LINE
  5
59A
  8
0
 62
     4
 10
130.30426306
 20
480.80690401
 30
0.0
 11
126.30426306
 21
480.80690401
 31
0.0
  0
TEXT
  5
59B
  8
TXT_DIM49
 10
126.80426306
 20
485.07261317
 30
0.0
 40
2.5
  1
30,5
 50
90.00020741
  7
ARIAL
  0
LINE
  5
59C
  8
0
 62
     4
 10
127.30426306
 20
481.80690401
 30
0.0
 11
129.30426306
 21
479.80690401
 31
0.0
  0
LINE
  5
59D
  8
0
 62
     4
 10
129.05426306
 20
495.30690401
 30
0.0
 11
127.55426306
 21
496.80690401
 31
0.0
  0
LINE
  5
59E
  8
0
 62
     4
 10
128.30426306
 20
480.80690401
 30
0.0
 11
128.30426306
 21
496.05690401
 31
0.0
  0
LINE
  5
59F
  8
0
 62
     4
 10
130.30426306
 20
480.80690401
 30
0.0
 11
126.30426306
 21
480.80690401
 31
0.0
  0
LINE
  5
5A0
  8
0
 62
     4
 10
130.30426306
 20
496.05690401
 30
0.0
 11
126.30426306
 21
496.05690401
 31
0.0
  0
TEXT
  5
5A1
  8
TXT_DIM49
 10
139.56997222
 20
510.81807947
 30
0.0
 40
2.5
  1
45,5
  7
ARIAL
  0
LINE
  5
5A2
  8
0
 62
     4
 10
132.55426306
 20
510.31807947
 30
0.0
 11
130.55426306
 21
508.31807947
 31
0.0
  0
LINE
  5
5A3
  8
0
 62
     4
 10
153.55426306
 20
508.56807947
 30
0.0
 11
155.05426306
 21
510.06807947
 31
0.0
  0
LINE
  5
5A4
  8
0
 62
     4
 10
131.55426306
 20
509.31807947
 30
0.0
 11
154.30426306
 21
509.31807947
 31
0.0
  0
LINE
  5
5A5
  8
0
 62
     4
 10
131.55426306
 20
507.31807947
 30
0.0
 11
131.55426306
 21
511.31807947
 31
0.0
  0
LINE
  5
5A6
  8
0
 62
     4
 10
154.30426306
 20
507.31807947
 30
0.0
 11
154.30426306
 21
511.31807947
 31
0.0
  0
TEXT
  5
5A7
  8
TXT_DIM49
 10
326.31699045
 20
361.66083902
 30
0.0
 40
2.5
  1
16,5
 50
90.00020741
  7
ARIAL
  0
LINE
  5
5A8
  8
0
 62
     4
 10
326.81699045
 20
361.89512986
 30
0.0
 11
328.81699045
 21
359.89512986
 31
0.0
  0
LINE
  5
5A9
  8
0
 62
     4
 10
328.56699045
 20
368.39512986
 30
0.0
 11
327.06699045
 21
369.89512986
 31
0.0
  0
LINE
  5
5AA
  8
0
 62
     4
 10
327.81699045
 20
360.89512986
 30
0.0
 11
327.81699045
 21
369.14512986
 31
0.0
  0
LINE
  5
5AB
  8
0
 62
     4
 10
325.81699045
 20
360.89512986
 30
0.0
 11
329.81699045
 21
360.89512986
 31
0.0
  0
LINE
  5
5AC
  8
0
 62
     4
 10
325.81699045
 20
369.14512986
 30
0.0
 11
329.81699045
 21
369.14512986
 31
0.0
  0
TEXT
  5
5AD
  8
TXT_DIM49
 10
326.31699045
 20
374.47529441
 30
0.0
 40
2.5
  1
29
 50
90.00020741
  7
ARIAL
  0
LINE
  5
5AE
  8
0
 62
     4
 10
326.81699045
 20
370.14512986
 30
0.0
 11
328.81699045
 21
368.14512986
 31
0.0
  0
LINE
  5
5AF
  8
0
 62
     4
 10
328.56699045
 20
382.89512986
 30
0.0
 11
327.06699045
 21
384.39512986
 31
0.0
  0
LINE
  5
5B0
  8
0
 62
     4
 10
327.81699045
 20
369.14512986
 30
0.0
 11
327.81699045
 21
383.64512986
 31
0.0
  0
LINE
  5
5B1
  8
0
 62
     4
 10
325.81699045
 20
369.14512986
 30
0.0
 11
329.81699045
 21
369.14512986
 31
0.0
  0
LINE
  5
5B2
  8
0
 62
     4
 10
325.81699045
 20
383.64512986
 30
0.0
 11
329.81699045
 21
383.64512986
 31
0.0
  0
TEXT
  5
5B3
  8
TXT_DIM49
 10
219.93723734
 20
389.47416797
 30
0.0
 40
2.5
  1
120
  7
ARIAL
  0
LINE
  5
5B4
  8
0
 62
     4
 10
193.81699045
 20
388.97416797
 30
0.0
 11
191.81699045
 21
386.97416797
 31
0.0
  0
LINE
  5
5B5
  8
0
 62
     4
 10
252.06699045
 20
387.22416797
 30
0.0
 11
253.56699045
 21
388.72416797
 31
0.0
  0
LINE
  5
5B6
  8
0
 62
     4
 10
192.81699045
 20
387.97416797
 30
0.0
 11
252.81699045
 21
387.97416797
 31
0.0
  0
LINE
  5
5B7
  8
0
 62
     4
 10
192.81699045
 20
385.97416797
 30
0.0
 11
192.81699045
 21
389.97416797
 31
0.0
  0
LINE
  5
5B8
  8
0
 62
     4
 10
252.81699045
 20
385.97416797
 30
0.0
 11
252.81699045
 21
389.97416797
 31
0.0
  0
TEXT
  5
5B9
  8
TXT_DIM49
 10
282.43723734
 20
389.47416797
 30
0.0
 40
2.5
  1
130
  7
ARIAL
  0
LINE
  5
5BA
  8
0
 62
     4
 10
253.81699045
 20
388.97416797
 30
0.0
 11
251.81699045
 21
386.97416797
 31
0.0
  0
LINE
  5
5BB
  8
0
 62
     4
 10
317.06699045
 20
387.22416797
 30
0.0
 11
318.56699045
 21
388.72416797
 31
0.0
  0
LINE
  5
5BC
  8
0
 62
     4
 10
252.81699045
 20
387.97416797
 30
0.0
 11
317.81699045
 21
387.97416797
 31
0.0
  0
LINE
  5
5BD
  8
0
 62
     4
 10
252.81699045
 20
385.97416797
 30
0.0
 11
252.81699045
 21
389.97416797
 31
0.0
  0
LINE
  5
5BE
  8
0
 62
     4
 10
317.81699045
 20
385.97416797
 30
0.0
 11
317.81699045
 21
389.97416797
 31
0.0
  0
TEXT
  5
5BF
  8
TXT_DIM49
 10
252.60707273
 20
375.55349647
 30
0.0
 40
2.5
  1
3
  7
ARIAL
  0
LINE
  5
5C0
  8
0
 62
     4
 10
253.81699045
 20
375.05349647
 30
0.0
 11
251.81699045
 21
373.05349647
 31
0.0
  0
LINE
  5
5C1
  8
0
 62
     4
 10
253.56699045
 20
373.30349647
 30
0.0
 11
255.06699045
 21
374.80349647
 31
0.0
  0
LINE
  5
5C2
  8
0
 62
     4
 10
252.81699045
 20
374.05349647
 30
0.0
 11
254.31699045
 21
374.05349647
 31
0.0
  0
LINE
  5
5C3
  8
0
 62
     4
 10
252.81699045
 20
376.05349647
 30
0.0
 11
252.81699045
 21
372.05349647
 31
0.0
  0
LINE
  5
5C4
  8
0
 62
     4
 10
254.31699045
 20
376.05349647
 30
0.0
 11
254.31699045
 21
372.05349647
 31
0.0
  0
ENDSEC
  0
EOF
