  0
SECTION
  2
HEADER
  9
$ACADVER
  1
AC1006
  9
$DWGCODEPAGE
  3
ansi_1252
  9
$INSBASE
 10
0.0
 20
0.0
 30
0.0
  9
$EXTMIN
 10
-3.745121129999973
 20
-186.10525267
  9
$EXTMAX
 10
416.25487887
 20
110.89474733
  9
$LIMMIN
 10
-149.43778934
 20
-232.53076219
  9
$LIMMAX
 10
798.42555039
 20
223.96910844
  9
$ORTHOMODE
 70
     0
  9
$REGENMODE
 70
     1
  9
$FILLMODE
 70
     1
  9
$QTEXTMODE
 70
     0
  9
$MIRRTEXT
 70
     1
  9
$DRAGMODE
 70
     2
  9
$LTSCALE
 40
1.0
  9
$OSMODE
 70
    37
  9
$ATTMODE
 70
     1
  9
$TEXTSIZE
 40
1.0
  9
$TRACEWID
 40
0.05
  9
$TEXTSTYLE
  7
STANDARD
  9
$CLAYER
  8
0
  9
$CELTYPE
  6
BYBLOCK
  9
$CECOLOR
 62
   256
  9
$DIMSCALE
 40
1.0
  9
$DIMASZ
 40
0.18
  9
$DIMEXO
 40
0.0625
  9
$DIMDLI
 40
0.38
  9
$DIMRND
 40
0.0
  9
$DIMDLE
 40
0.0
  9
$DIMEXE
 40
0.18
  9
$DIMTP
 40
0.0
  9
$DIMTM
 40
0.0
  9
$DIMTXT
 40
0.18
  9
$DIMCEN
 40
0.09
  9
$DIMTSZ
 40
0.0
  9
$DIMTOL
 70
     0
  9
$DIMLIM
 70
     0
  9
$DIMTIH
 70
     1
  9
$DIMTOH
 70
     1
  9
$DIMSE1
 70
     0
  9
$DIMSE2
 70
     0
  9
$DIMTAD
 70
     0
  9
$DIMZIN
 70
     0
  9
$DIMBLK
  1

  9
$DIMASO
 70
     1
  9
$DIMSHO
 70
     1
  9
$DIMPOST
  1

  9
$DIMAPOST
  1

  9
$DIMALT
 70
     0
  9
$DIMALTD
 70
     2
  9
$DIMALTF
 40
25.4
  9
$DIMLFAC
 40
1.0
  9
$DIMTOFL
 70
     0
  9
$DIMTVP
 40
0.0
  9
$DIMTIX
 70
     0
  9
$DIMSOXD
 70
     0
  9
$DIMSAH
 70
     0
  9
$DIMBLK1
  1

  9
$DIMBLK2
  1

  9
$LUNITS
 70
     2
  9
$LUPREC
 70
     4
  9
$SKETCHINC
 40
0.1
  9
$FILLETRAD
 40
0.5
  9
$AUNITS
 70
     0
  9
$AUPREC
 70
     0
  9
$MENU
  1
.
  9
$ELEVATION
 40
0.0
  9
$THICKNESS
 40
0.0
  9
$LIMCHECK
 70
     0
  9
$CHAMFERA
 40
0.0
  9
$CHAMFERB
 40
0.0
  9
$SKPOLY
 70
     0
  9
$TDCREATE
 40
2447893.125
  9
$TDUPDATE
 40
2460791.51130456
  9
$TDINDWG
 40
0.0003017824
  9
$TDUSRTIMER
 40
2460788.322689433
  9
$USRTIMER
 70
     1
  9
$ANGBASE
 50
0.0
  9
$ANGDIR
 70
     0
  9
$PDMODE
 70
     0
  9
$PDSIZE
 40
0.0
  9
$PLINEWID
 40
0.0
  9
$COORDS
 70
     1
  9
$SPLFRAME
 70
     0
  9
$SPLINETYPE
 70
     6
  9
$SPLINESEGS
 70
     8
  9
$ATTDIA
 70
     0
  9
$ATTREQ
 70
     1
  9
$HANDLING
 70
     1
  9
$HANDSEED
  5
9EA
  9
$SURFTAB1
 70
     6
  9
$SURFTAB2
 70
     6
  9
$SURFTYPE
 70
     6
  9
$SURFU
 70
     6
  9
$SURFV
 70
     6
  9
$UCSNAME
  2

  9
$UCSORG
 10
0.0
 20
0.0
 30
0.0
  9
$UCSXDIR
 10
1.0
 20
0.0
 30
0.0
  9
$UCSYDIR
 10
0.0
 20
1.0
 30
0.0
  9
$USERI1
 70
     0
  9
$USERI2
 70
     0
  9
$USERI3
 70
     0
  9
$USERI4
 70
     0
  9
$USERI5
 70
     0
  9
$USERR1
 40
0.0
  9
$USERR2
 40
0.0
  9
$USERR3
 40
0.0
  9
$USERR4
 40
0.0
  9
$USERR5
 40
0.0
  9
$WORLDVIEW
 70
     1
  0
ENDSEC
  0
SECTION
  2
TABLES
  0
TABLE
  2
VPORT
 70
     1
  0
VPORT
  2
*ACTIVE
 70
     0
 10
0.0
 20
0.0
 11
1.0
 21
1.0
 12
272.0372254468313
 22
-41.6004879880589
 13
0.0
 23
0.0
 14
1.0
 24
1.0
 15
0.0
 25
0.0
 16
0.0
 26
0.0
 36
1.0
 17
0.0
 27
0.0
 37
0.0
 40
713.2810478624999
 41
2.818499127399651
 42
50.0
 43
0.0
 44
0.0
 50
0.0
 51
0.0
 71
    16
 72
   100
 73
     1
 74
     1
 75
     0
 76
     0
 77
     0
 78
     0
  0
ENDTAB
  0
TABLE
  2
LTYPE
 70
    19
  0
LTYPE
  2
CONTINUOUS
 70
     0
  3
Solid line
 72
    65
 73
     0
 40
0.0
  0
LTYPE
  2
DOT
 70
     0
  3
..............
 72
    65
 73
     2
 40
2.0
 49
0.5
 49
-1.5
  0
LTYPE
  2
HIDDEN
 70
     0
  3
-- -- -- -- --
 72
    65
 73
     2
 40
7.0
 49
4.0
 49
-3.0
  0
LTYPE
  2
DASHDOT
 70
     0
  3
--.--.--.--.--
 72
    65
 73
     4
 40
8.5
 49
4.0
 49
-2.0
 49
0.5
 49
-2.0
  0
LTYPE
  2
STRICHPUNKT2
 70
     0
  3
--.--.--.--.--
 72
    65
 73
     4
 40
18.5
 49
10.0
 49
-4.0
 49
0.5
 49
-4.0
  0
LTYPE
  2
STRICHPUNKT3
 70
     0
  3
--.--.--.--.--
 72
    65
 73
     4
 40
35.5
 49
25.0
 49
-5.0
 49
0.5
 49
-5.0
  0
LTYPE
  2
PHANTOM
 70
     0
  3
--..--..--..--
 72
    65
 73
     6
 40
23.0
 49
10.0
 49
-4.0
 49
0.5
 49
-4.0
 49
0.5
 49
-4.0
  0
LTYPE
  2
PHANTOM2
 70
     0
  3
--..--..--..--
 72
    65
 73
     6
 40
33.0
 49
20.0
 49
-4.0
 49
0.5
 49
-4.0
 49
0.5
 49
-4.0
  0
LTYPE
  2
PHANTOM3
 70
     0
  3
--..--..--..--
 72
    65
 73
     6
 40
50.0
 49
37.0
 49
-4.0
 49
0.5
 49
-4.0
 49
0.5
 49
-4.0
  0
LTYPE
  2
STR3PKT
 70
     0
  3
--...--...--...
 72
    65
 73
     8
 40
31.5
 49
20.0
 49
-2.5
 49
0.5
 49
-2.5
 49
0.5
 49
-2.5
 49
0.5
 49
-2.5
  0
LTYPE
  2
2STRPKT
 70
     0
  3
--.--.--.--.--
 72
    65
 73
     6
 40
28.0
 49
10.0
 49
-2.5
 49
10.0
 49
-2.5
 49
0.5
 49
-2.5
  0
LTYPE
  2
GESTRICHELT2
 70
     0
  3
-- -- -- -- --
 72
    65
 73
     2
 40
25.0
 49
10.0
 49
-15.0
  0
LTYPE
  2
2STR2PKT
 70
     0
  3
--..--..--..--
 72
    65
 73
     8
 40
31.0
 49
10.0
 49
-2.5
 49
10.0
 49
-2.5
 49
0.5
 49
-2.5
 49
0.5
 49
-2.5
  0
LTYPE
  2
STR3PKT2
 70
     0
  3
--...--...--...
 72
    65
 73
     8
 40
21.0
 49
10.0
 49
-2.5
 49
0.5
 49
-2.5
 49
0.5
 49
-2.5
 49
0.5
 49
-2.0
  0
LTYPE
  2
2STR3PKT
 70
     0
  3
--...--...--...
 72
    65
 73
    10
 40
34.0
 49
10.0
 49
-2.5
 49
10.0
 49
-2.5
 49
0.5
 49
-2.5
 49
0.5
 49
-2.5
 49
0.5
 49
-2.5
  0
LTYPE
  2
STRKSTR
 70
     0
  3
-- - -- - -- -
 72
    65
 73
     4
 40
30.0
 49
20.0
 49
-2.5
 49
5.0
 49
-2.5
  0
LTYPE
  2
STRKSTR2
 70
     0
  3
-- - -- - -- -
 72
    65
 73
     6
 40
37.5
 49
20.0
 49
-2.5
 49
5.0
 49
-2.5
 49
5.0
 49
-2.5
  0
LTYPE
  2
STRKSTR3
 70
     0
  3
-- - -- - -- -
 72
    65
 73
     8
 40
45.0
 49
20.0
 49
-2.5
 49
5.0
 49
-2.5
 49
5.0
 49
-2.5
 49
5.0
 49
-2.5
  0
LTYPE
  2
PUNKT2
 70
     0
  3
..............
 72
    65
 73
     2
 40
3.5
 49
0.5
 49
-3.0
  0
ENDTAB
  0
TABLE
  2
LAYER
 70
    18
  0
LAYER
  2
0
 70
     0
 62
     7
  6
CONTINUOUS
  0
LAYER
  2
LE_GREEN
 70
     0
 62
     3
  6
CONTINUOUS
  0
LAYER
  2
LE_RED
 70
     0
 62
     1
  6
CONTINUOUS
  0
LAYER
  2
LE_ALL
 70
     0
 62
     7
  6
CONTINUOUS
  0
LAYER
  2
LE_HIDDEN1
 70
     0
 62
     3
  6
HIDDEN
  0
LAYER
  2
LE_HIDDEN
 70
     0
 62
     7
  6
CONTINUOUS
  0
LAYER
  2
LE_MIDDLE
 70
     0
 62
     7
  6
CONTINUOUS
  0
LAYER
  2
TXT_YELLOW
 70
     0
 62
     2
  6
CONTINUOUS
  0
LAYER
  2
TXT_DIM49
 70
     0
 62
     2
  6
CONTINUOUS
  0
LAYER
  2
TXT_ALL
 70
     0
 62
     7
  6
CONTINUOUS
  0
LAYER
  2
DIM49
 70
     0
 62
     4
  6
CONTINUOUS
  0
LAYER
  2
HATCH
 70
     0
 62
     3
  6
CONTINUOUS
  0
LAYER
  2
APPLE
 70
     0
 62
     7
  6
CONTINUOUS
  0
LAYER
  2
10
 70
     0
 62
     7
  6
CONTINUOUS
  0
LAYER
  2
20
 70
     0
 62
     7
  6
CONTINUOUS
  0
LAYER
  2
40
 70
     0
 62
     7
  6
CONTINUOUS
  0
LAYER
  2
47
 70
     0
 62
     7
  6
CONTINUOUS
  0
LAYER
  2
49
 70
     0
 62
     7
  6
CONTINUOUS
  0
ENDTAB
  0
TABLE
  2
STYLE
 70
     5
  0
STYLE
  2
MONOTXT
 70
     0
 40
0.0
 41
1.0
 50
0.0
 71
     0
 42
1.0
  3
monotxt.shx
  4

  0
STYLE
  2
STANDARD
 70
     0
 40
0.0
 41
1.0
 50
0.0
 71
     0
 42
1.0
  3
txt
  4

  0
STYLE
  2
ARIAL
 70
     0
 40
0.0
 41
1.0
 50
0.0
 71
     0
 42
1.0
  3
arial.ttf
  4

  0
STYLE
  2
ARIAL_NARROW
 70
     0
 40
0.0
 41
1.0
 50
0.0
 71
     0
 42
1.0
  3
ArialN.ttf
  4

  0
STYLE
  2
ISOCPEUR
 70
     0
 40
0.0
 41
1.0
 50
0.0
 71
     0
 42
1.0
  3
ISOCPEUR.ttf
  4

  0
ENDTAB
  0
TABLE
  2
VIEW
 70
     0
  0
ENDTAB
  0
TABLE
  2
UCS
 70
     0
  0
ENDTAB
  0
ENDSEC
  0
SECTION
  2
BLOCKS
  0
ENDSEC
  0
SECTION
  2
ENTITIES
  0
POLYLINE
  5
16F
  8
0
 66
     1
 10
0.0
 20
0.0
 30
0.0
 70
     1
  0
VERTEX
  5
170
  8
0
 10
-3.74512113
 20
-186.10525267
 30
0.0
  0
VERTEX
  5
171
  8
0
 10
416.25487887
 20
-186.10525267
 30
0.0
  0
VERTEX
  5
172
  8
0
 10
416.25487887
 20
110.89474733
 30
0.0
  0
VERTEX
  5
173
  8
0
 10
-3.74512113
 20
110.89474733
 30
0.0
  0
SEQEND
  5
174
  8
0
  0
POLYLINE
  5
175
  8
0
 66
     1
 10
0.0
 20
0.0
 30
0.0
 70
     1
  0
VERTEX
  5
176
  8
0
 10
1.25487887
 20
-181.10525267
 30
0.0
  0
VERTEX
  5
177
  8
0
 10
411.25487887
 20
-181.10525267
 30
0.0
  0
VERTEX
  5
178
  8
0
 10
411.25487887
 20
105.89474733
 30
0.0
  0
VERTEX
  5
179
  8
0
 10
1.25487887
 20
105.89474733
 30
0.0
  0
SEQEND
  5
17A
  8
0
  0
LINE
  5
17B
  8
0
 10
226.25487887
 20
-181.10525267
 30
0.0
 11
226.25487887
 21
-186.10525267
 31
0.0
  0
LINE
  5
17C
  8
0
 10
226.25487887
 20
105.89474733
 30
0.0
 11
226.25487887
 21
110.89474733
 31
0.0
  0
LINE
  5
17D
  8
0
 10
16.25487887
 20
-181.10525267
 30
0.0
 11
16.25487887
 21
-186.10525267
 31
0.0
  0
LINE
  5
17E
  8
0
 10
16.25487887
 20
105.89474733
 30
0.0
 11
16.25487887
 21
110.89474733
 31
0.0
  0
TEXT
  5
17F
  8
TXT_ALL
 62
     4
 10
415.25487887
 20
-185.10525267
 30
0.0
 40
2.5
  1

 50
90.00020741
  0
POLYLINE
  5
180
  8
0
 66
     1
 10
0.0
 20
0.0
 30
0.0
  0
VERTEX
  5
181
  8
0
 10
411.25487887
 20
95.89474733
 30
0.0
  0
VERTEX
  5
182
  8
0
 10
342.26157887
 20
95.89474733
 30
0.0
  0
VERTEX
  5
183
  8
0
 10
342.26157887
 20
105.89474733
 30
0.0
  0
SEQEND
  5
184
  8
0
  0
LINE
  5
185
  8
0
 10
344.16487887
 20
-161.60525267
 30
0.0
 11
204.27487887
 21
-161.60525267
 31
0.0
  0
LINE
  5
186
  8
0
 10
204.27487887
 20
-171.35525267
 30
0.0
 11
344.16487887
 21
-171.35525267
 31
0.0
  0
POLYLINE
  5
187
  8
0
 66
     1
 10
0.0
 20
0.0
 30
0.0
  0
VERTEX
  5
188
  8
0
 10
204.27487887
 20
-161.60525267
 30
0.0
  0
VERTEX
  5
189
  8
0
 10
204.27487887
 20
-171.35525267
 30
0.0
  0
VERTEX
  5
18A
  8
0
 10
204.27487887
 20
-181.10525267
 30
0.0
  0
SEQEND
  5
18B
  8
0
  0
POLYLINE
  5
18C
  8
0
 66
     1
 10
0.0
 20
0.0
 30
0.0
  0
VERTEX
  5
18D
  8
0
 10
274.21987887
 20
-161.60525267
 30
0.0
  0
VERTEX
  5
18E
  8
0
 10
274.21987887
 20
-171.35525267
 30
0.0
  0
VERTEX
  5
18F
  8
0
 10
274.21987887
 20
-181.10525267
 30
0.0
  0
SEQEND
  5
190
  8
0
  0
TEXT
  5
191
  8
TXT_ALL
 10
206.27487887
 20
-167.78025262
 30
0.0
 40
2.5999999
  1
E-mail: verkoop@jonkers-bouwmetaal.nl
  7
ARIAL
  0
TEXT
  5
192
  8
TXT_ALL
 10
206.27487887
 20
-177.53025262
 30
0.0
 40
2.5999999
  1
Telefoon: 0527-685156
  7
ARIAL
  0
TEXT
  5
193
  8
TXT_ALL
 10
276.21987887
 20
-177.53025262
 30
0.0
 40
2.5999999
  1
Website: www.jonkers-bouwmetaal.nl
  7
ARIAL
  0
TEXT
  5
194
  8
TXT_ALL
 10
276.21987887
 20
-167.78025262
 30
0.0
 40
2.5999999
  1
Adres: Hoornse Hop 10, 8321 WX Urk
  7
ARIAL
  0
TEXT
  5
195
  8
TXT_ALL
 10
4.69683912
 20
99.64474733
 30
0.0
 40
2.5
  1
Art. nr. 91015836
  7
ARIAL
  0
TEXT
  5
196
  8
TXT_ALL
 10
47.43487594
 20
99.64474733
 30
0.0
 40
2.5
  1
Omschrijving: T06-anker 315x45.5 111x3
  7
ARIAL
  0
LINE
  5
197
  8
0
 10
411.25487887
 20
95.89474733
 30
0.0
 11
1.25487887
 21
95.89474733
 31
0.0
  0
LINE
  5
198
  8
0
 10
44.27487887
 20
95.89474733
 30
0.0
 11
44.27487887
 21
105.89474733
 31
0.0
  0
LINE
  5
199
  8
0
 10
204.27487887
 20
95.89474733
 30
0.0
 11
204.27487887
 21
105.89474733
 31
0.0
  0
TEXT
  5
19A
  8
TXT_ALL
 10
275.26857887
 20
99.64474733
 30
0.0
 40
2.5
  1
Behandeling: N.V.T.
  7
ARIAL
  0
LINE
  5
19B
  8
0
 10
344.16487887
 20
-161.60525267
 30
0.0
 11
411.25487887
 21
-161.60525267
 31
0.0
  0
LINE
  5
19C
  8
0
 10
344.16487887
 20
-181.10525267
 30
0.0
 11
344.16487887
 21
-161.60525267
 31
0.0
  0
LINE
  5
19D
  8
0
 10
344.16487887
 20
-181.10525267
 30
0.0
 11
344.16487887
 21
-161.60525267
 31
0.0
  0
TEXT
  5
19E
  8
TXT_ALL
 10
138.62007696
 20
-179.95071926
 30
0.0
 40
2.5
  1

  0
TEXT
  5
19F
  8
TXT_ALL
 10
259.75525993
 20
-169.85525267
 30
0.0
 40
2.5
  1

  0
POLYLINE
  5
1A0
  8
0
 66
     1
 10
0.0
 20
0.0
 30
0.0
  0
VERTEX
  5
1A1
  8
0
 10
342.26157887
 20
95.89474733
 30
0.0
  0
VERTEX
  5
1A2
  8
0
 10
273.26857887
 20
95.89474733
 30
0.0
  0
VERTEX
  5
1A3
  8
0
 10
273.26857887
 20
105.89474733
 30
0.0
  0
SEQEND
  5
1A4
  8
0
  0
TEXT
  5
1A5
  8
TXT_ALL
 10
344.26157887
 20
99.64474733
 30
0.0
 40
2.5
  1
Verpakkingshoeveelheid: 15 st.
  7
ARIAL
  0
TEXT
  5
1A6
  8
TXT_ALL
 10
206.27487887
 20
99.64474733
 30
0.0
 40
2.5
  1
Materiaal: Sendzimir Verzinkt
  7
ARIAL
  0
TEXT
  5
1A7
  8
TXT_ALL
 10
379.0365261
 20
-184.35476252
 30
0.0
 40
1.5
  1
Onderdeel van
  7
ARIAL
  0
LINE
  5
1A8
  8
0
 10
213.31238947
 20
38.70698694
 30
0.0
 11
213.31238947
 21
41.70698694
 31
0.0
  0
POLYLINE
  5
1A9
  8
0
 66
     1
 10
0.0
 20
0.0
 30
0.0
  0
VERTEX
  5
1AA
  8
0
 10
370.81238947
 20
41.70698694
 30
0.0
  0
VERTEX
  5
1AB
  8
0
 10
370.81238947
 20
38.70698694
 30
0.0
  0
VERTEX
  5
1AC
  8
0
 10
213.31238947
 20
38.70698694
 30
0.0
  0
SEQEND
  5
1AD
  8
0
  0
POLYLINE
  5
1AE
  8
0
 66
     1
 10
0.0
 20
0.0
 30
0.0
 70
     1
  0
VERTEX
  5
1AF
  8
0
 10
359.7517293
 20
22.05013269
 30
0.0
 42
-1.0
  0
VERTEX
  5
1B0
  8
0
 10
355.15553522
 20
26.64632677
 30
0.0
  0
VERTEX
  5
1B1
  8
0
 10
361.87304964
 20
33.36384119
 30
0.0
 42
-1.0
  0
VERTEX
  5
1B2
  8
0
 10
366.46924372
 20
28.76764711
 30
0.0
  0
SEQEND
  5
1B3
  8
0
  0
POLYLINE
  5
1B4
  8
0
 66
     1
 10
0.0
 20
0.0
 30
0.0
 70
     1
  0
VERTEX
  5
1B5
  8
0
 10
344.7517293
 20
22.05013269
 30
0.0
 42
-1.0
  0
VERTEX
  5
1B6
  8
0
 10
340.15553522
 20
26.64632677
 30
0.0
  0
VERTEX
  5
1B7
  8
0
 10
346.87304964
 20
33.36384119
 30
0.0
 42
-1.0
  0
VERTEX
  5
1B8
  8
0
 10
351.46924372
 20
28.76764711
 30
0.0
  0
SEQEND
  5
1B9
  8
0
  0
CIRCLE
  5
1BA
  8
0
 10
220.81238947
 20
27.70698694
 30
0.0
 40
2.75
  0
CIRCLE
  5
1BB
  8
0
 10
328.31238947
 20
27.70698694
 30
0.0
 40
2.75
  0
LINE
  5
1BC
  8
0
 10
213.31238947
 20
18.20698694
 30
0.0
 11
213.31238947
 21
37.20698694
 31
0.0
  0
LINE
  5
1BD
  8
0
 10
370.81238947
 20
37.20698694
 30
0.0
 11
370.81238947
 21
18.20698694
 31
0.0
  0
LINE
  5
1BE
  8
0
  6
STRICHPUNKT2
 62
     1
 10
328.31238947
 20
27.70698694
 30
0.0
 11
324.18738947
 21
27.70698694
 31
0.0
  0
LINE
  5
1BF
  8
0
  6
STRICHPUNKT2
 62
     1
 10
328.31238947
 20
27.70698694
 30
0.0
 11
332.43738947
 21
27.70698694
 31
0.0
  0
LINE
  5
1C0
  8
0
  6
STRICHPUNKT2
 62
     1
 10
328.31238947
 20
27.70698694
 30
0.0
 11
328.31238947
 21
23.58198694
 31
0.0
  0
LINE
  5
1C1
  8
0
  6
STRICHPUNKT2
 62
     1
 10
328.31238947
 20
27.70698694
 30
0.0
 11
328.31238947
 21
31.83198694
 31
0.0
  0
LINE
  5
1C2
  8
0
  6
STRICHPUNKT2
 62
     1
 10
220.81238947
 20
27.70698694
 30
0.0
 11
216.68738947
 21
27.70698694
 31
0.0
  0
LINE
  5
1C3
  8
0
  6
STRICHPUNKT2
 62
     1
 10
220.81238947
 20
27.70698694
 30
0.0
 11
224.93738947
 21
27.70698694
 31
0.0
  0
LINE
  5
1C4
  8
0
  6
STRICHPUNKT2
 62
     1
 10
220.81238947
 20
27.70698694
 30
0.0
 11
220.81238947
 21
23.58198694
 31
0.0
  0
LINE
  5
1C5
  8
0
  6
STRICHPUNKT2
 62
     1
 10
220.81238947
 20
27.70698694
 30
0.0
 11
220.81238947
 21
31.83198694
 31
0.0
  0
LINE
  5
1C6
  8
0
  6
STRICHPUNKT2
 62
     1
 10
339.09487505
 20
20.98947252
 30
0.0
 11
352.52990389
 21
34.42450136
 31
0.0
  0
LINE
  5
1C7
  8
0
  6
STRICHPUNKT2
 62
     1
 10
345.81238947
 20
20.98947252
 30
0.0
 11
339.09487505
 21
27.70698694
 31
0.0
  0
LINE
  5
1C8
  8
0
  6
STRICHPUNKT2
 62
     1
 10
352.52990389
 20
27.70698694
 30
0.0
 11
345.81238947
 21
34.42450136
 31
0.0
  0
LINE
  5
1C9
  8
0
  6
STRICHPUNKT2
 62
     1
 10
354.09487505
 20
20.98947252
 30
0.0
 11
367.52990389
 21
34.42450136
 31
0.0
  0
LINE
  5
1CA
  8
0
  6
STRICHPUNKT2
 62
     1
 10
360.81238947
 20
20.98947252
 30
0.0
 11
354.09487505
 21
27.70698694
 31
0.0
  0
LINE
  5
1CB
  8
0
  6
STRICHPUNKT2
 62
     1
 10
367.52990389
 20
27.70698694
 30
0.0
 11
360.81238947
 21
34.42450136
 31
0.0
  0
LINE
  5
1CC
  8
0
 10
370.81238947
 20
38.70698694
 30
0.0
 11
370.81238947
 21
37.20698694
 31
0.0
  0
LINE
  5
1CD
  8
0
 10
213.31238947
 20
37.20698694
 30
0.0
 11
213.31238947
 21
38.70698694
 31
0.0
  0
LINE
  5
1CE
  8
0
 10
213.31238947
 20
16.70698694
 30
0.0
 11
213.31238947
 21
18.20698694
 31
0.0
  0
LINE
  5
1CF
  8
0
 10
370.81238947
 20
18.20698694
 30
0.0
 11
370.81238947
 21
16.70698694
 31
0.0
  0
LINE
  5
1D0
  8
0
 10
213.31238947
 20
13.70698694
 30
0.0
 11
213.31238947
 21
16.70698694
 31
0.0
  0
LINE
  5
1D1
  8
0
 10
370.81238947
 20
16.70698694
 30
0.0
 11
213.31238947
 21
16.70698694
 31
0.0
  0
LINE
  5
1D2
  8
0
 10
370.81238947
 20
16.70698694
 30
0.0
 11
370.81238947
 21
13.70698694
 31
0.0
  0
CIRCLE
  5
1D3
  8
0
 10
224.56238947
 20
4.95698694
 30
0.0
 40
1.625
  0
LINE
  5
1D4
  8
0
 10
314.31238947
 20
11.45698694
 30
0.0
 11
314.31238947
 21
0.95698694
 31
0.0
  0
ARC
  5
1D5
  8
0
 10
313.31238947
 20
0.95698694
 30
0.0
 40
1.0
 50
-90.0
 51
0.0
  0
POLYLINE
  5
1D6
  8
0
 66
     1
 10
0.0
 20
0.0
 30
0.0
  0
VERTEX
  5
1D7
  8
0
 10
313.31238947
 20
-0.04301306
 30
0.0
  0
VERTEX
  5
1D8
  8
0
 10
213.31238947
 20
-0.04301306
 30
0.0
  0
VERTEX
  5
1D9
  8
0
 10
213.31238947
 20
13.70698694
 30
0.0
  0
SEQEND
  5
1DA
  8
0
  0
POLYLINE
  5
1DB
  8
0
 66
     1
 10
0.0
 20
0.0
 30
0.0
  0
VERTEX
  5
1DC
  8
0
 10
370.81238947
 20
13.70698694
 30
0.0
  0
VERTEX
  5
1DD
  8
0
 10
370.81238947
 20
-0.04301306
 30
0.0
  0
VERTEX
  5
1DE
  8
0
 10
336.31238947
 20
-0.04301306
 30
0.0
  0
SEQEND
  5
1DF
  8
0
  0
POLYLINE
  5
1E0
  8
0
 66
     1
 10
0.0
 20
0.0
 30
0.0
  0
VERTEX
  5
676
  8
0
 10
336.312389478325
 20
3.206986942288311
 30
0.0
  0
VERTEX
  5
677
  8
0
 10
336.8462352019711
 20
3.556215432382651
 30
0.0
  0
VERTEX
  5
678
  8
0
 10
337.26773291912
 20
3.9752929952039
 30
0.0
  0
VERTEX
  5
679
  8
0
 10
337.5590478025025
 20
4.44648720744051
 30
0.0
  0
VERTEX
  5
67A
  8
0
 10
337.7078534493536
 20
4.949860434691143
 30
0.0
  0
VERTEX
  5
67B
  8
0
 10
337.707853448328
 20
5.464113452322492
 30
0.0
  0
VERTEX
  5
67C
  8
0
 10
337.5590477994692
 20
5.967486679276358
 30
0.0
  0
VERTEX
  5
67D
  8
0
 10
337.2677329142072
 20
6.438680890931988
 30
0.0
  0
VERTEX
  5
67E
  8
0
 10
336.8462351953868
 20
6.857758452912631
 30
0.0
  0
VERTEX
  5
67F
  8
0
 10
336.3123894703477
 20
7.206986941942309
 30
0.0
  0
SEQEND
  5
994
  8
0
  0
POLYLINE
  5
1E1
  8
0
 66
     1
 10
0.0
 20
0.0
 30
0.0
  0
VERTEX
  5
1E2
  8
0
 10
336.31238947
 20
10.45698694
 30
0.0
  0
VERTEX
  5
1E3
  8
0
 10
337.31238947
 20
10.45698694
 30
0.0
 42
1.0
  0
VERTEX
  5
1E4
  8
0
 10
337.31238947
 20
12.45698694
 30
0.0
  0
VERTEX
  5
1E5
  8
0
 10
315.31238947
 20
12.45698694
 30
0.0
  0
SEQEND
  5
1E6
  8
0
  0
ARC
  5
1E7
  8
0
 10
315.31238947
 20
11.45698694
 30
0.0
 40
1.0
 50
90.0
 51
180.0
  0
LINE
  5
1E8
  8
0
  6
STRICHPUNKT2
 62
     1
 10
224.56238947
 20
4.95698694
 30
0.0
 11
222.12488947
 21
4.95698694
 31
0.0
  0
LINE
  5
1E9
  8
0
  6
STRICHPUNKT2
 62
     1
 10
224.56238947
 20
4.95698694
 30
0.0
 11
226.99988947
 21
4.95698694
 31
0.0
  0
LINE
  5
1EA
  8
0
  6
STRICHPUNKT2
 62
     1
 10
224.56238947
 20
4.95698694
 30
0.0
 11
224.56238947
 21
2.51948694
 31
0.0
  0
LINE
  5
1EB
  8
0
  6
STRICHPUNKT2
 62
     1
 10
224.56238947
 20
4.95698694
 30
0.0
 11
224.56238947
 21
7.39448694
 31
0.0
  0
CIRCLE
  5
1EC
  8
0
 10
224.56238947
 20
50.45698694
 30
0.0
 40
1.625
  0
LINE
  5
1ED
  8
0
 10
313.31238947
 20
55.45698694
 30
0.0
 11
213.31238947
 21
55.45698694
 31
0.0
  0
LINE
  5
1EE
  8
0
 10
213.31238947
 20
41.70698694
 30
0.0
 11
213.31238947
 21
55.45698694
 31
0.0
  0
LINE
  5
1EF
  8
0
 10
370.81238947
 20
55.45698694
 30
0.0
 11
370.81238947
 21
41.70698694
 31
0.0
  0
LINE
  5
1F0
  8
0
 10
370.81238947
 20
55.45698694
 30
0.0
 11
336.31238947
 21
55.45698694
 31
0.0
  0
POLYLINE
  5
1F1
  8
0
 66
     1
 10
0.0
 20
0.0
 30
0.0
  0
VERTEX
  5
680
  8
0
 10
336.312389478325
 20
48.20698694228831
 30
0.0
  0
VERTEX
  5
681
  8
0
 10
336.8462352019711
 20
48.55621543238265
 30
0.0
  0
VERTEX
  5
682
  8
0
 10
337.26773291912
 20
48.9752929952039
 30
0.0
  0
VERTEX
  5
683
  8
0
 10
337.5590478025025
 20
49.44648720744051
 30
0.0
  0
VERTEX
  5
684
  8
0
 10
337.7078534493536
 20
49.94986043469115
 30
0.0
  0
VERTEX
  5
685
  8
0
 10
337.707853448328
 20
50.46411345232249
 30
0.0
  0
VERTEX
  5
686
  8
0
 10
337.5590477994692
 20
50.96748667927636
 30
0.0
  0
VERTEX
  5
687
  8
0
 10
337.2677329142072
 20
51.43868089093199
 30
0.0
  0
VERTEX
  5
688
  8
0
 10
336.8462351953868
 20
51.85775845291263
 30
0.0
  0
VERTEX
  5
689
  8
0
 10
336.3123894703477
 20
52.20698694194231
 30
0.0
  0
SEQEND
  5
995
  8
0
  0
LINE
  5
1F2
  8
0
 10
337.31238947
 20
44.95698694
 30
0.0
 11
336.31238947
 21
44.95698694
 31
0.0
  0
ARC
  5
1F3
  8
0
 10
337.31238947
 20
43.95698694
 30
0.0
 40
1.0
 50
0.0
 51
90.0
  0
ARC
  5
1F4
  8
0
 10
337.31238947
 20
43.95698694
 30
0.0
 40
1.0
 50
-90.0
 51
0.0
  0
LINE
  5
1F5
  8
0
 10
315.31238947
 20
42.95698694
 30
0.0
 11
337.31238947
 21
42.95698694
 31
0.0
  0
ARC
  5
1F6
  8
0
 10
315.31238947
 20
43.95698694
 30
0.0
 40
1.0
 50
180.0
 51
-90.0
  0
LINE
  5
1F7
  8
0
 10
314.31238947
 20
54.45698694
 30
0.0
 11
314.31238947
 21
43.95698694
 31
0.0
  0
ARC
  5
1F8
  8
0
 10
313.31238947
 20
54.45698694
 30
0.0
 40
1.0
 50
0.0
 51
90.0
  0
LINE
  5
1F9
  8
0
  6
STRICHPUNKT2
 62
     1
 10
224.56238947
 20
50.45698694
 30
0.0
 11
222.12488947
 21
50.45698694
 31
0.0
  0
LINE
  5
1FA
  8
0
  6
STRICHPUNKT2
 62
     1
 10
224.56238947
 20
50.45698694
 30
0.0
 11
226.99988947
 21
50.45698694
 31
0.0
  0
LINE
  5
1FB
  8
0
  6
STRICHPUNKT2
 62
     1
 10
224.56238947
 20
50.45698694
 30
0.0
 11
224.56238947
 21
48.01948694
 31
0.0
  0
LINE
  5
1FC
  8
0
  6
STRICHPUNKT2
 62
     1
 10
224.56238947
 20
50.45698694
 30
0.0
 11
224.56238947
 21
52.89448694
 31
0.0
  0
POLYLINE
  5
1FD
  8
0
 66
     1
 10
0.0
 20
0.0
 30
0.0
  0
VERTEX
  5
1FE
  8
0
 10
336.31238947
 20
48.20698693
 30
0.0
  0
VERTEX
  5
1FF
  8
0
 10
336.20781983
 20
48.15536317
 30
0.0
  0
VERTEX
  5
200
  8
0
 10
336.09799204
 20
48.10871224
 30
0.0
  0
VERTEX
  5
201
  8
0
 10
335.98280954
 20
48.06713629
 30
0.0
  0
VERTEX
  5
202
  8
0
 10
335.86221359
 20
48.03076719
 30
0.0
  0
VERTEX
  5
203
  8
0
 10
335.73915344
 20
48.00041033
 30
0.0
  0
VERTEX
  5
204
  8
0
 10
335.60734613
 20
47.97480061
 30
0.0
  0
VERTEX
  5
205
  8
0
 10
335.47807567
 20
47.95660928
 30
0.0
  0
VERTEX
  5
206
  8
0
 10
335.35462032
 20
47.94609747
 30
0.0
  0
VERTEX
  5
207
  8
0
 10
335.2517293
 20
47.94314066
 30
0.0
  0
VERTEX
  5
208
  8
0
 10
335.15002344
 20
47.94666324
 30
0.0
  0
VERTEX
  5
209
  8
0
 10
335.06760069
 20
47.95632419
 30
0.0
  0
VERTEX
  5
20A
  8
0
 10
335.00143513
 20
47.97092342
 30
0.0
  0
VERTEX
  5
20B
  8
0
 10
334.94889419
 20
47.98948099
 30
0.0
  0
VERTEX
  5
20C
  8
0
 10
334.92624357
 20
48.00041033
 30
0.0
  0
VERTEX
  5
20D
  8
0
 10
334.89011813
 20
48.02371769
 30
0.0
  0
VERTEX
  5
20E
  8
0
 10
334.86249688
 20
48.04979605
 30
0.0
  0
VERTEX
  5
20F
  8
0
 10
334.84162005
 20
48.07913263
 30
0.0
  0
VERTEX
  5
210
  8
0
 10
334.82647154
 20
48.11260865
 30
0.0
  0
VERTEX
  5
211
  8
0
 10
334.8166888
 20
48.15151432
 30
0.0
  0
VERTEX
  5
212
  8
0
 10
334.81249873
 20
48.19757418
 30
0.0
  0
VERTEX
  5
213
  8
0
 10
334.81238948
 20
48.20698693
 30
0.0
  0
SEQEND
  5
214
  8
0
  0
LINE
  5
215
  8
0
 10
334.81238947
 20
44.95698694
 30
0.0
 11
336.31238947
 21
44.95698694
 31
0.0
  0
POLYLINE
  5
216
  8
0
 66
     1
 10
0.0
 20
0.0
 30
0.0
  0
VERTEX
  5
217
  8
0
 10
334.81238948
 20
52.20698695
 30
0.0
  0
VERTEX
  5
218
  8
0
 10
334.81591992
 20
52.25761363
 30
0.0
  0
VERTEX
  5
219
  8
0
 10
334.82567409
 20
52.29902054
 30
0.0
  0
VERTEX
  5
21A
  8
0
 10
334.84089475
 20
52.33356436
 30
0.0
  0
VERTEX
  5
21B
  8
0
 10
334.86145411
 20
52.3629696
 30
0.0
  0
VERTEX
  5
21C
  8
0
 10
334.88784368
 20
52.38845279
 30
0.0
  0
VERTEX
  5
21D
  8
0
 10
334.92117006
 20
52.41078767
 30
0.0
  0
VERTEX
  5
21E
  8
0
 10
334.92624357
 20
52.41356355
 30
0.0
  0
VERTEX
  5
21F
  8
0
 10
334.96964423
 20
52.43278504
 30
0.0
  0
VERTEX
  5
220
  8
0
 10
335.02356081
 20
52.44880971
 30
0.0
  0
VERTEX
  5
221
  8
0
 10
335.08996402
 20
52.46104469
 30
0.0
  0
VERTEX
  5
222
  8
0
 10
335.17111292
 20
52.46868554
 30
0.0
  0
VERTEX
  5
223
  8
0
 10
335.2517293
 20
52.47083323
 30
0.0
  0
VERTEX
  5
224
  8
0
 10
335.36433444
 20
52.46731064
 30
0.0
  0
VERTEX
  5
225
  8
0
 10
335.48723093
 20
52.45630983
 30
0.0
  0
VERTEX
  5
226
  8
0
 10
335.6173416
 20
52.43747751
 30
0.0
  0
VERTEX
  5
227
  8
0
 10
335.73915344
 20
52.41356355
 30
0.0
  0
VERTEX
  5
228
  8
0
 10
335.87333313
 20
52.38013845
 30
0.0
  0
VERTEX
  5
229
  8
0
 10
336.00033546
 20
52.34096212
 30
0.0
  0
VERTEX
  5
22A
  8
0
 10
336.12051274
 20
52.29628129
 30
0.0
  0
VERTEX
  5
22B
  8
0
 10
336.23417701
 20
52.24629801
 30
0.0
  0
VERTEX
  5
22C
  8
0
 10
336.31238947
 20
52.20698695
 30
0.0
  0
SEQEND
  5
22D
  8
0
  0
LINE
  5
22E
  8
0
 10
336.31238947
 20
55.45698694
 30
0.0
 11
334.81238947
 21
55.45698694
 31
0.0
  0
LINE
  5
22F
  8
0
 10
334.81238947
 20
54.45698694
 30
0.0
 11
334.81238947
 21
45.95698694
 31
0.0
  0
LINE
  5
230
  8
0
 10
333.31238947
 20
45.95698694
 30
0.0
 11
333.31238947
 21
54.45698694
 31
0.0
  0
LINE
  5
231
  8
0
 10
334.81238947
 20
55.45698694
 30
0.0
 11
334.81238947
 21
54.45698694
 31
0.0
  0
LINE
  5
232
  8
0
 10
334.81238947
 20
55.45698694
 30
0.0
 11
333.31238947
 21
55.45698694
 31
0.0
  0
LINE
  5
233
  8
0
 10
333.31238947
 20
54.45698694
 30
0.0
 11
333.31238947
 21
55.45698694
 31
0.0
  0
LINE
  5
234
  8
0
 10
333.31238947
 20
44.95698694
 30
0.0
 11
333.31238947
 21
45.95698694
 31
0.0
  0
LINE
  5
235
  8
0
 10
334.81238947
 20
44.95698694
 30
0.0
 11
333.31238947
 21
44.95698694
 31
0.0
  0
LINE
  5
236
  8
0
 10
334.81238947
 20
45.95698694
 30
0.0
 11
334.81238947
 21
44.95698694
 31
0.0
  0
LINE
  5
237
  8
0
  6
STRICHPUNKT2
 62
     1
 10
334.81238947
 20
50.20698694
 30
0.0
 11
335.62488947
 21
50.20698694
 31
0.0
  0
LINE
  5
238
  8
0
  6
STRICHPUNKT2
 62
     1
 10
332.49988947
 20
50.20698694
 30
0.0
 11
333.31238947
 21
50.20698694
 31
0.0
  0
POLYLINE
  5
239
  8
0
 66
     1
 10
0.0
 20
0.0
 30
0.0
  0
VERTEX
  5
23A
  8
0
 10
334.81238948
 20
7.20698695
 30
0.0
  0
VERTEX
  5
23B
  8
0
 10
334.81591992
 20
7.25761363
 30
0.0
  0
VERTEX
  5
23C
  8
0
 10
334.82567409
 20
7.29902054
 30
0.0
  0
VERTEX
  5
23D
  8
0
 10
334.84089475
 20
7.33356436
 30
0.0
  0
VERTEX
  5
23E
  8
0
 10
334.86145411
 20
7.3629696
 30
0.0
  0
VERTEX
  5
23F
  8
0
 10
334.88784368
 20
7.38845279
 30
0.0
  0
VERTEX
  5
240
  8
0
 10
334.92117006
 20
7.41078767
 30
0.0
  0
VERTEX
  5
241
  8
0
 10
334.92624357
 20
7.41356355
 30
0.0
  0
VERTEX
  5
242
  8
0
 10
334.96964423
 20
7.43278504
 30
0.0
  0
VERTEX
  5
243
  8
0
 10
335.02356081
 20
7.44880971
 30
0.0
  0
VERTEX
  5
244
  8
0
 10
335.08996402
 20
7.46104469
 30
0.0
  0
VERTEX
  5
245
  8
0
 10
335.17111292
 20
7.46868554
 30
0.0
  0
VERTEX
  5
246
  8
0
 10
335.2517293
 20
7.47083323
 30
0.0
  0
VERTEX
  5
247
  8
0
 10
335.36433444
 20
7.46731064
 30
0.0
  0
VERTEX
  5
248
  8
0
 10
335.48723093
 20
7.45630983
 30
0.0
  0
VERTEX
  5
249
  8
0
 10
335.6173416
 20
7.43747751
 30
0.0
  0
VERTEX
  5
24A
  8
0
 10
335.73915344
 20
7.41356355
 30
0.0
  0
VERTEX
  5
24B
  8
0
 10
335.87333313
 20
7.38013845
 30
0.0
  0
VERTEX
  5
24C
  8
0
 10
336.00033546
 20
7.34096212
 30
0.0
  0
VERTEX
  5
24D
  8
0
 10
336.12051274
 20
7.29628129
 30
0.0
  0
VERTEX
  5
24E
  8
0
 10
336.23417701
 20
7.24629801
 30
0.0
  0
VERTEX
  5
24F
  8
0
 10
336.31238947
 20
7.20698695
 30
0.0
  0
SEQEND
  5
250
  8
0
  0
LINE
  5
251
  8
0
 10
336.31238947
 20
10.45698694
 30
0.0
 11
334.81238947
 21
10.45698694
 31
0.0
  0
POLYLINE
  5
252
  8
0
 66
     1
 10
0.0
 20
0.0
 30
0.0
  0
VERTEX
  5
253
  8
0
 10
336.31238947
 20
3.20698693
 30
0.0
  0
VERTEX
  5
254
  8
0
 10
336.20781983
 20
3.15536317
 30
0.0
  0
VERTEX
  5
255
  8
0
 10
336.09799204
 20
3.10871224
 30
0.0
  0
VERTEX
  5
256
  8
0
 10
335.98280954
 20
3.06713629
 30
0.0
  0
VERTEX
  5
257
  8
0
 10
335.86221359
 20
3.03076719
 30
0.0
  0
VERTEX
  5
258
  8
0
 10
335.73915344
 20
3.00041033
 30
0.0
  0
VERTEX
  5
259
  8
0
 10
335.60734613
 20
2.97480061
 30
0.0
  0
VERTEX
  5
25A
  8
0
 10
335.47807567
 20
2.95660928
 30
0.0
  0
VERTEX
  5
25B
  8
0
 10
335.35462032
 20
2.94609747
 30
0.0
  0
VERTEX
  5
25C
  8
0
 10
335.2517293
 20
2.94314066
 30
0.0
  0
VERTEX
  5
25D
  8
0
 10
335.15002344
 20
2.94666324
 30
0.0
  0
VERTEX
  5
25E
  8
0
 10
335.06760069
 20
2.95632419
 30
0.0
  0
VERTEX
  5
25F
  8
0
 10
335.00143513
 20
2.97092342
 30
0.0
  0
VERTEX
  5
260
  8
0
 10
334.94889419
 20
2.98948099
 30
0.0
  0
VERTEX
  5
261
  8
0
 10
334.92624357
 20
3.00041033
 30
0.0
  0
VERTEX
  5
262
  8
0
 10
334.89011813
 20
3.02371769
 30
0.0
  0
VERTEX
  5
263
  8
0
 10
334.86249688
 20
3.04979605
 30
0.0
  0
VERTEX
  5
264
  8
0
 10
334.84162005
 20
3.07913263
 30
0.0
  0
VERTEX
  5
265
  8
0
 10
334.82647154
 20
3.11260865
 30
0.0
  0
VERTEX
  5
266
  8
0
 10
334.8166888
 20
3.15151432
 30
0.0
  0
VERTEX
  5
267
  8
0
 10
334.81249873
 20
3.19757418
 30
0.0
  0
VERTEX
  5
268
  8
0
 10
334.81238948
 20
3.20698693
 30
0.0
  0
SEQEND
  5
269
  8
0
  0
LINE
  5
26A
  8
0
 10
334.81238947
 20
-0.04301306
 30
0.0
 11
336.31238947
 21
-0.04301306
 31
0.0
  0
LINE
  5
26B
  8
0
 10
334.81238947
 20
9.45698694
 30
0.0
 11
334.81238947
 21
0.95698694
 31
0.0
  0
LINE
  5
26C
  8
0
 10
333.31238947
 20
0.95698694
 30
0.0
 11
333.31238947
 21
9.45698694
 31
0.0
  0
LINE
  5
26D
  8
0
 10
334.81238947
 20
10.45698694
 30
0.0
 11
334.81238947
 21
9.45698694
 31
0.0
  0
LINE
  5
26E
  8
0
 10
334.81238947
 20
10.45698694
 30
0.0
 11
333.31238947
 21
10.45698694
 31
0.0
  0
LINE
  5
26F
  8
0
 10
333.31238947
 20
9.45698694
 30
0.0
 11
333.31238947
 21
10.45698694
 31
0.0
  0
LINE
  5
270
  8
0
 10
333.31238947
 20
-0.04301306
 30
0.0
 11
333.31238947
 21
0.95698694
 31
0.0
  0
LINE
  5
271
  8
0
 10
333.31238947
 20
-0.04301306
 30
0.0
 11
334.81238947
 21
-0.04301306
 31
0.0
  0
LINE
  5
272
  8
0
 10
334.81238947
 20
0.95698694
 30
0.0
 11
334.81238947
 21
-0.04301306
 31
0.0
  0
LINE
  5
273
  8
0
  6
STRICHPUNKT2
 62
     1
 10
334.81238947
 20
5.20698694
 30
0.0
 11
335.62488947
 21
5.20698694
 31
0.0
  0
LINE
  5
274
  8
0
  6
STRICHPUNKT2
 62
     1
 10
332.49988947
 20
5.20698694
 30
0.0
 11
333.31238947
 21
5.20698694
 31
0.0
  0
LINE
  5
275
  8
0
 10
146.73497413
 20
-113.57494759
 30
0.0
 11
146.17131097
 21
-112.24510872
 31
0.0
  0
LINE
  5
276
  8
0
 10
108.66327884
 20
-123.34034864
 30
0.0
 11
108.09961568
 21
-122.01050978
 31
0.0
  0
POLYLINE
  5
277
  8
0
 66
     1
 10
0.0
 20
0.0
 30
0.0
  0
VERTEX
  5
68A
  8
0
 10
72.35121167774231
 20
-73.71110907380564
 30
0.0
  0
VERTEX
  5
68B
  8
0
 10
71.85605039489884
 20
-73.89077054968216
 30
0.0
  0
VERTEX
  5
68C
  8
0
 10
71.37991788277233
 20
-74.1688326509136
 30
0.0
  0
VERTEX
  5
68D
  8
0
 10
70.94111164662785
 20
-74.53460960698081
 30
0.0
  0
VERTEX
  5
68E
  8
0
 10
70.55649476388963
 20
-74.97404481471341
 30
0.0
  0
VERTEX
  5
68F
  8
0
 10
70.24084784553821
 20
-75.470251025662
 30
0.0
  0
VERTEX
  5
690
  8
0
 10
70.0063010255244
 20
-76.0041593135799
 30
0.0
  0
VERTEX
  5
691
  8
0
 10
69.86186780652821
 20
-76.55525188255858
 30
0.0
  0
VERTEX
  5
692
  8
0
 10
69.81309867610874
 20
-77.10235055441113
 30
0.0
  0
SEQEND
  5
996
  8
0
  0
POLYLINE
  5
278
  8
0
 66
     1
 10
0.0
 20
0.0
 30
0.0
  0
VERTEX
  5
693
  8
0
 10
156.3181022977423
 20
-127.9511885838057
 30
0.0
  0
VERTEX
  5
694
  8
0
 10
155.8229410148988
 20
-128.1308500596822
 30
0.0
  0
VERTEX
  5
695
  8
0
 10
155.3468085027723
 20
-128.4089121609136
 30
0.0
  0
VERTEX
  5
696
  8
0
 10
154.9080022666278
 20
-128.7746891169808
 30
0.0
  0
VERTEX
  5
697
  8
0
 10
154.5233853838896
 20
-129.2141243247134
 30
0.0
  0
VERTEX
  5
698
  8
0
 10
154.2077384655382
 20
-129.710330535662
 30
0.0
  0
VERTEX
  5
699
  8
0
 10
153.9731916455244
 20
-130.2442388235799
 30
0.0
  0
VERTEX
  5
69A
  8
0
 10
153.8287584265282
 20
-130.7953313925586
 30
0.0
  0
VERTEX
  5
69B
  8
0
 10
153.7799892961087
 20
-131.3424300644111
 30
0.0
  0
SEQEND
  5
997
  8
0
  0
POLYLINE
  5
279
  8
0
 66
     1
 10
0.0
 20
0.0
 30
0.0
  0
VERTEX
  5
69C
  8
0
 10
156.3181023038712
 20
-129.3212959569028
 30
0.0
  0
VERTEX
  5
69D
  8
0
 10
156.0705216624494
 20
-129.4111266948411
 30
0.0
  0
VERTEX
  5
69E
  8
0
 10
155.8324554063861
 20
-129.5501577454568
 30
0.0
  0
VERTEX
  5
69F
  8
0
 10
155.6130522883139
 20
-129.7330462234904
 30
0.0
  0
VERTEX
  5
6A0
  8
0
 10
155.4207438469448
 20
-129.9527638273567
 30
0.0
  0
VERTEX
  5
6A1
  8
0
 10
155.2629203877691
 20
-130.200866932831
 30
0.0
  0
VERTEX
  5
6A2
  8
0
 10
155.1456469777622
 20
-130.46782107679
 30
0.0
  0
VERTEX
  5
6A3
  8
0
 10
155.0734303682641
 20
-130.7433673612793
 30
0.0
  0
VERTEX
  5
6A4
  8
0
 10
155.0490458030544
 20
-131.0169166972056
 30
0.0
  0
SEQEND
  5
998
  8
0
  0
POLYLINE
  5
27A
  8
0
 66
     1
 10
0.0
 20
0.0
 30
0.0
  0
VERTEX
  5
6A5
  8
0
 10
135.2291855336422
 20
-131.9930389882199
 30
0.0
  0
VERTEX
  5
6A6
  8
0
 10
134.5541307246286
 20
-131.9603705704911
 30
0.0
  0
VERTEX
  5
6A7
  8
0
 10
133.8771484591565
 20
-131.9855784029721
 30
0.0
  0
VERTEX
  5
6A8
  8
0
 10
133.2278586765359
 20
-132.0675595698166
 30
0.0
  0
VERTEX
  5
6A9
  8
0
 10
132.6346696895646
 20
-132.2027271569941
 30
0.0
  0
VERTEX
  5
6AA
  8
0
 10
132.1235352383766
 20
-132.3851671901907
 30
0.0
  0
VERTEX
  5
6AB
  8
0
 10
131.7168189389715
 20
-132.6068973883532
 30
0.0
  0
SEQEND
  5
999
  8
0
  0
POLYLINE
  5
27B
  8
0
 66
     1
 10
0.0
 20
0.0
 30
0.0
  0
VERTEX
  5
27C
  8
0
 10
135.22918552
 20
-131.99303898
 30
0.0
  0
VERTEX
  5
27D
  8
0
 10
144.493718
 20
-132.84866588
 30
0.0
  0
SEQEND
  5
27E
  8
0
  0
POLYLINE
  5
27F
  8
0
 66
     1
 10
0.0
 20
0.0
 30
0.0
  0
VERTEX
  5
6AC
  8
0
 10
147.02460998
 20
-134.13879543
 30
0.0
  0
VERTEX
  5
6AD
  8
0
 10
146.9645627793306
 20
-133.8856688344606
 30
0.0
  0
VERTEX
  5
6AE
  8
0
 10
146.7866400488967
 20
-133.641895804138
 30
0.0
  0
VERTEX
  5
6AF
  8
0
 10
146.4974164114046
 20
-133.4164842701518
 30
0.0
  0
VERTEX
  5
6B0
  8
0
 10
146.1075792944231
 20
-133.2177636673416
 30
0.0
  0
VERTEX
  5
6B1
  8
0
 10
145.6315340072392
 20
-133.0530771439624
 30
0.0
  0
VERTEX
  5
6B2
  8
0
 10
145.0868714340913
 20
-132.928510216763
 30
0.0
  0
VERTEX
  5
6B3
  8
0
 10
144.4937180136422
 20
-132.8486658982198
 30
0.0
  0
SEQEND
  5
99A
  8
0
  0
POLYLINE
  5
280
  8
0
 66
     1
 10
0.0
 20
0.0
 30
0.0
  0
VERTEX
  5
6B4
  8
0
 10
143.0555019666746
 20
-135.4289249636565
 30
0.0
  0
VERTEX
  5
6B5
  8
0
 10
143.6973080919365
 20
-135.4613406532575
 30
0.0
  0
VERTEX
  5
6B6
  8
0
 10
144.3421752392919
 20
-135.4413858219115
 30
0.0
  0
VERTEX
  5
6B7
  8
0
 10
144.9645677764957
 20
-135.3698506466913
 30
0.0
  0
VERTEX
  5
6B8
  8
0
 10
145.5398400272917
 20
-135.2495677977593
 30
0.0
  0
VERTEX
  5
6B9
  8
0
 10
146.0452121978921
 20
-135.0853002694907
 30
0.0
  0
VERTEX
  5
6BA
  8
0
 10
146.4606724177154
 20
-134.8835527740716
 30
0.0
  0
VERTEX
  5
6BB
  8
0
 10
146.7697691751138
 20
-134.6523141660597
 30
0.0
  0
VERTEX
  5
6BC
  8
0
 10
146.9602627689995
 20
-134.4007410974558
 30
0.0
  0
VERTEX
  5
6BD
  8
0
 10
147.02460998
 20
-134.13879543
 30
0.0
  0
SEQEND
  5
99B
  8
0
  0
LINE
  5
281
  8
0
 10
143.05550196
 20
-135.42892497
 30
0.0
 11
134.70424749
 21
-134.65764396
 31
0.0
  0
POLYLINE
  5
282
  8
0
 66
     1
 10
0.0
 20
0.0
 30
0.0
  0
VERTEX
  5
6BE
  8
0
 10
146.5549221528063
 20
-134.8238491312161
 30
0.0
  0
VERTEX
  5
6BF
  8
0
 10
146.1632931859903
 20
-134.61184515127
 30
0.0
  0
VERTEX
  5
6C0
  8
0
 10
145.6756341565041
 20
-134.435904766099
 30
0.0
  0
VERTEX
  5
6C1
  8
0
 10
145.1115499776511
 20
-134.303101147303
 30
0.0
  0
VERTEX
  5
6C2
  8
0
 10
144.4937180136422
 20
-134.2187732782199
 30
0.0
  0
SEQEND
  5
99C
  8
0
  0
POLYLINE
  5
283
  8
0
 66
     1
 10
0.0
 20
0.0
 30
0.0
  0
VERTEX
  5
284
  8
0
 10
144.493718
 20
-134.21877326
 30
0.0
  0
VERTEX
  5
285
  8
0
 10
135.22918552
 20
-133.36314635
 30
0.0
  0
SEQEND
  5
286
  8
0
  0
POLYLINE
  5
287
  8
0
 66
     1
 10
0.0
 20
0.0
 30
0.0
  0
VERTEX
  5
6C3
  8
0
 10
135.2291855336422
 20
-133.3631463682199
 30
0.0
  0
VERTEX
  5
6C4
  8
0
 10
134.6763475673006
 20
-133.3320888169704
 30
0.0
  0
VERTEX
  5
6C5
  8
0
 10
134.1186068762124
 20
-133.3399884677716
 30
0.0
  0
VERTEX
  5
6C6
  8
0
 10
133.5724092893399
 20
-133.3866123874559
 30
0.0
  0
VERTEX
  5
6C7
  8
0
 10
133.0538602697358
 20
-133.4705857991405
 30
0.0
  0
SEQEND
  5
99D
  8
0
  0
POLYLINE
  5
288
  8
0
 66
     1
 10
0.0
 20
0.0
 30
0.0
  0
VERTEX
  5
6C8
  8
0
 10
127.2323388036422
 20
-126.8273171282199
 30
0.0
  0
VERTEX
  5
6C9
  8
0
 10
126.5572839946286
 20
-126.7946487104911
 30
0.0
  0
VERTEX
  5
6CA
  8
0
 10
125.8803017291565
 20
-126.8198565429721
 30
0.0
  0
VERTEX
  5
6CB
  8
0
 10
125.2310119465359
 20
-126.9018377098167
 30
0.0
  0
VERTEX
  5
6CC
  8
0
 10
124.6378229595646
 20
-127.0370052969941
 30
0.0
  0
VERTEX
  5
6CD
  8
0
 10
124.1266885083766
 20
-127.2194453301907
 30
0.0
  0
VERTEX
  5
6CE
  8
0
 10
123.7199722089715
 20
-127.4411755283532
 30
0.0
  0
SEQEND
  5
99E
  8
0
  0
POLYLINE
  5
289
  8
0
 66
     1
 10
0.0
 20
0.0
 30
0.0
  0
VERTEX
  5
28A
  8
0
 10
127.23233879
 20
-126.82731712
 30
0.0
  0
VERTEX
  5
28B
  8
0
 10
136.49687128
 20
-127.68294402
 30
0.0
  0
SEQEND
  5
28C
  8
0
  0
POLYLINE
  5
28D
  8
0
 66
     1
 10
0.0
 20
0.0
 30
0.0
  0
VERTEX
  5
6CF
  8
0
 10
139.02776326
 20
-128.97307357
 30
0.0
  0
VERTEX
  5
6D0
  8
0
 10
138.9677160593306
 20
-128.7199469744606
 30
0.0
  0
VERTEX
  5
6D1
  8
0
 10
138.7897933288966
 20
-128.476173944138
 30
0.0
  0
VERTEX
  5
6D2
  8
0
 10
138.5005696914046
 20
-128.2507624101518
 30
0.0
  0
VERTEX
  5
6D3
  8
0
 10
138.1107325744231
 20
-128.0520418073416
 30
0.0
  0
VERTEX
  5
6D4
  8
0
 10
137.6346872872392
 20
-127.8873552839624
 30
0.0
  0
VERTEX
  5
6D5
  8
0
 10
137.0900247140913
 20
-127.762788356763
 30
0.0
  0
VERTEX
  5
6D6
  8
0
 10
136.4968712936422
 20
-127.6829440382199
 30
0.0
  0
SEQEND
  5
99F
  8
0
  0
POLYLINE
  5
28E
  8
0
 66
     1
 10
0.0
 20
0.0
 30
0.0
  0
VERTEX
  5
6D7
  8
0
 10
135.0586552466746
 20
-130.2632031036565
 30
0.0
  0
VERTEX
  5
6D8
  8
0
 10
135.7004613719365
 20
-130.2956187932575
 30
0.0
  0
VERTEX
  5
6D9
  8
0
 10
136.3453285192919
 20
-130.2756639619115
 30
0.0
  0
VERTEX
  5
6DA
  8
0
 10
136.9677210564957
 20
-130.2041287866913
 30
0.0
  0
VERTEX
  5
6DB
  8
0
 10
137.5429933072917
 20
-130.0838459377593
 30
0.0
  0
VERTEX
  5
6DC
  8
0
 10
138.0483654778921
 20
-129.9195784094908
 30
0.0
  0
VERTEX
  5
6DD
  8
0
 10
138.4638256977154
 20
-129.7178309140716
 30
0.0
  0
VERTEX
  5
6DE
  8
0
 10
138.7729224551138
 20
-129.4865923060597
 30
0.0
  0
VERTEX
  5
6DF
  8
0
 10
138.9634160489994
 20
-129.2350192374558
 30
0.0
  0
VERTEX
  5
6E0
  8
0
 10
139.02776326
 20
-128.97307357
 30
0.0
  0
SEQEND
  5
9A0
  8
0
  0
LINE
  5
28F
  8
0
 10
135.05865524
 20
-130.26320312
 30
0.0
 11
126.92588808
 21
-129.51210052
 31
0.0
  0
POLYLINE
  5
290
  8
0
 66
     1
 10
0.0
 20
0.0
 30
0.0
  0
VERTEX
  5
6E1
  8
0
 10
138.5580754328063
 20
-129.6581272712162
 30
0.0
  0
VERTEX
  5
6E2
  8
0
 10
138.1664464659903
 20
-129.4461232912701
 30
0.0
  0
VERTEX
  5
6E3
  8
0
 10
137.6787874365041
 20
-129.270182906099
 30
0.0
  0
VERTEX
  5
6E4
  8
0
 10
137.1147032576511
 20
-129.137379287303
 30
0.0
  0
VERTEX
  5
6E5
  8
0
 10
136.4968712936422
 20
-129.0530514182199
 30
0.0
  0
SEQEND
  5
9A1
  8
0
  0
POLYLINE
  5
291
  8
0
 66
     1
 10
0.0
 20
0.0
 30
0.0
  0
VERTEX
  5
292
  8
0
 10
136.49687128
 20
-129.0530514
 30
0.0
  0
VERTEX
  5
293
  8
0
 10
127.23233879
 20
-128.19742449
 30
0.0
  0
SEQEND
  5
294
  8
0
  0
POLYLINE
  5
295
  8
0
 66
     1
 10
0.0
 20
0.0
 30
0.0
  0
VERTEX
  5
6E6
  8
0
 10
127.2323388036422
 20
-128.1974245082199
 30
0.0
  0
VERTEX
  5
6E7
  8
0
 10
126.6795008373006
 20
-128.1663669569703
 30
0.0
  0
VERTEX
  5
6E8
  8
0
 10
126.1217601462124
 20
-128.1742666077716
 30
0.0
  0
VERTEX
  5
6E9
  8
0
 10
125.5755625593399
 20
-128.2208905274559
 30
0.0
  0
VERTEX
  5
6EA
  8
0
 10
125.0570135397358
 20
-128.3048639391405
 30
0.0
  0
SEQEND
  5
9A2
  8
0
  0
POLYLINE
  5
296
  8
0
 66
     1
 10
0.0
 20
0.0
 30
0.0
  0
VERTEX
  5
6EB
  8
0
 10
61.75510763
 20
-85.49757795598161
 30
0.0
  0
VERTEX
  5
6EC
  8
0
 10
61.80794810708556
 20
-85.71596077761251
 30
0.0
  0
VERTEX
  5
6ED
  8
0
 10
61.96443891228837
 20
-85.92595127001393
 30
0.0
  0
VERTEX
  5
6EE
  8
0
 10
62.2185661917118
 20
-86.11947961630854
 30
0.0
  0
VERTEX
  5
6EF
  8
0
 10
62.56056397650161
 20
-86.28910863066322
 30
0.0
  0
VERTEX
  5
6F0
  8
0
 10
62.97728948355294
 20
-86.42831956517055
 30
0.0
  0
VERTEX
  5
6F1
  8
0
 10
63.4527281852957
 20
-86.53176262167561
 30
0.0
  0
VERTEX
  5
6F2
  8
0
 10
63.96860923900938
 20
-86.59546254151937
 30
0.0
  0
VERTEX
  5
6F3
  8
0
 10
64.50510762506403
 20
-86.6169713725
 30
0.0
  0
VERTEX
  5
6F4
  8
0
 10
65.04160601130837
 20
-86.59546254230332
 30
0.0
  0
VERTEX
  5
6F5
  8
0
 10
65.55748706558381
 20
-86.53176262321338
 30
0.0
  0
VERTEX
  5
6F6
  8
0
 10
66.03292576823884
 20
-86.42831956740305
 30
0.0
  0
VERTEX
  5
6F7
  8
0
 10
66.44965127651787
 20
-86.28910863350465
 30
0.0
  0
VERTEX
  5
6F8
  8
0
 10
66.79164906280364
 20
-86.11947961964971
 30
0.0
  0
VERTEX
  5
6F9
  8
0
 10
67.04577634393381
 20
-85.92595127372644
 30
0.0
  0
VERTEX
  5
6FA
  8
0
 10
67.20226715098852
 20
-85.71596078155368
 30
0.0
  0
VERTEX
  5
6FB
  8
0
 10
67.25510763
 20
-85.49757796
 30
0.0
  0
SEQEND
  5
9A3
  8
0
  0
POLYLINE
  5
297
  8
0
 66
     1
 10
0.0
 20
0.0
 30
0.0
  0
VERTEX
  5
6FC
  8
0
 10
67.25510763
 20
-85.49757796
 30
0.0
  0
VERTEX
  5
6FD
  8
0
 10
67.20226715122925
 20
-85.27919513893897
 30
0.0
  0
VERTEX
  5
6FE
  8
0
 10
67.04577634487826
 20
-85.06920464720169
 30
0.0
  0
VERTEX
  5
6FF
  8
0
 10
66.79164906486035
 20
-84.87567630160324
 30
0.0
  0
VERTEX
  5
700
  8
0
 10
66.44965128000813
 20
-84.70604728791606
 30
0.0
  0
VERTEX
  5
701
  8
0
 10
66.03292577336897
 20
-84.56683635399226
 30
0.0
  0
VERTEX
  5
702
  8
0
 10
65.55748707242417
 20
-84.46339329793994
 30
0.0
  0
VERTEX
  5
703
  8
0
 10
65.04160601978033
 20
-84.39969337838264
 30
0.0
  0
VERTEX
  5
704
  8
0
 10
64.50510763493597
 20
-84.3781845475
 30
0.0
  0
VERTEX
  5
705
  8
0
 10
63.96860924990191
 20
-84.3996933775987
 30
0.0
  0
VERTEX
  5
706
  8
0
 10
63.4527281966963
 20
-84.46339329640217
 30
0.0
  0
VERTEX
  5
707
  8
0
 10
62.97728949483923
 20
-84.56683635175976
 30
0.0
  0
VERTEX
  5
708
  8
0
 10
62.56056398697238
 20
-84.70604728507463
 30
0.0
  0
VERTEX
  5
709
  8
0
 10
62.2185662006242
 20
-84.87567629826206
 30
0.0
  0
VERTEX
  5
70A
  8
0
 10
61.96443891889955
 20
-85.06920464348919
 30
0.0
  0
VERTEX
  5
70B
  8
0
 10
61.80794811069666
 20
-85.27919513499779
 30
0.0
  0
VERTEX
  5
70C
  8
0
 10
61.75510763
 20
-85.49757795598161
 30
0.0
  0
SEQEND
  5
9A4
  8
0
  0
POLYLINE
  5
298
  8
0
 66
     1
 10
0.0
 20
0.0
 30
0.0
  0
VERTEX
  5
70D
  8
0
 10
66.67999516022526
 20
-86.18263166011258
 30
0.0
  0
VERTEX
  5
70E
  8
0
 10
66.29662710156141
 20
-86.01842216979377
 30
0.0
  0
VERTEX
  5
70F
  8
0
 10
65.83988981159295
 20
-85.88899309183577
 30
0.0
  0
VERTEX
  5
710
  8
0
 10
65.32848834176089
 20
-85.7996450172224
 30
0.0
  0
VERTEX
  5
711
  8
0
 10
64.78336644027742
 20
-85.7540370742283
 30
0.0
  0
VERTEX
  5
712
  8
0
 10
64.22684882954384
 20
-85.75403707382169
 30
0.0
  0
VERTEX
  5
713
  8
0
 10
63.68172692765815
 20
-85.79964501601926
 30
0.0
  0
VERTEX
  5
714
  8
0
 10
63.17032545703812
 20
-85.88899308988535
 30
0.0
  0
VERTEX
  5
715
  8
0
 10
62.71358816592823
 20
-86.01842216717593
 30
0.0
  0
VERTEX
  5
716
  8
0
 10
62.33022010581623
 20
-86.18263165693456
 30
0.0
  0
SEQEND
  5
9A5
  8
0
  0
POLYLINE
  5
299
  8
0
 66
     1
 10
0.0
 20
0.0
 30
0.0
  0
VERTEX
  5
717
  8
0
 10
119.0658425
 20
-122.5185846059816
 30
0.0
  0
VERTEX
  5
718
  8
0
 10
119.1186829770856
 20
-122.7369674276125
 30
0.0
  0
VERTEX
  5
719
  8
0
 10
119.2751737822884
 20
-122.9469579200139
 30
0.0
  0
VERTEX
  5
71A
  8
0
 10
119.5293010617118
 20
-123.1404862663085
 30
0.0
  0
VERTEX
  5
71B
  8
0
 10
119.8712988465016
 20
-123.3101152806632
 30
0.0
  0
VERTEX
  5
71C
  8
0
 10
120.288024353553
 20
-123.4493262151706
 30
0.0
  0
VERTEX
  5
71D
  8
0
 10
120.7634630552957
 20
-123.5527692716756
 30
0.0
  0
VERTEX
  5
71E
  8
0
 10
121.2793441090094
 20
-123.6164691915194
 30
0.0
  0
VERTEX
  5
71F
  8
0
 10
121.815842495064
 20
-123.6379780225
 30
0.0
  0
VERTEX
  5
720
  8
0
 10
122.3523408813084
 20
-123.6164691923033
 30
0.0
  0
VERTEX
  5
721
  8
0
 10
122.8682219355838
 20
-123.5527692732134
 30
0.0
  0
VERTEX
  5
722
  8
0
 10
123.3436606382388
 20
-123.4493262174031
 30
0.0
  0
VERTEX
  5
723
  8
0
 10
123.7603861465179
 20
-123.3101152835047
 30
0.0
  0
VERTEX
  5
724
  8
0
 10
124.1023839328036
 20
-123.1404862696497
 30
0.0
  0
VERTEX
  5
725
  8
0
 10
124.3565112139338
 20
-122.9469579237264
 30
0.0
  0
VERTEX
  5
726
  8
0
 10
124.5130020209885
 20
-122.7369674315537
 30
0.0
  0
VERTEX
  5
727
  8
0
 10
124.5658425
 20
-122.51858461
 30
0.0
  0
SEQEND
  5
9A6
  8
0
  0
POLYLINE
  5
29A
  8
0
 66
     1
 10
0.0
 20
0.0
 30
0.0
  0
VERTEX
  5
728
  8
0
 10
124.5658425
 20
-122.51858461
 30
0.0
  0
VERTEX
  5
729
  8
0
 10
124.5130020212293
 20
-122.300201788939
 30
0.0
  0
VERTEX
  5
72A
  8
0
 10
124.3565112148783
 20
-122.0902112972017
 30
0.0
  0
VERTEX
  5
72B
  8
0
 10
124.1023839348604
 20
-121.8966829516032
 30
0.0
  0
VERTEX
  5
72C
  8
0
 10
123.7603861500081
 20
-121.7270539379161
 30
0.0
  0
VERTEX
  5
72D
  8
0
 10
123.343660643369
 20
-121.5878430039923
 30
0.0
  0
VERTEX
  5
72E
  8
0
 10
122.8682219424242
 20
-121.4843999479399
 30
0.0
  0
VERTEX
  5
72F
  8
0
 10
122.3523408897803
 20
-121.4207000283826
 30
0.0
  0
VERTEX
  5
730
  8
0
 10
121.815842504936
 20
-121.3991911975
 30
0.0
  0
VERTEX
  5
731
  8
0
 10
121.2793441199019
 20
-121.4207000275987
 30
0.0
  0
VERTEX
  5
732
  8
0
 10
120.7634630666963
 20
-121.4843999464022
 30
0.0
  0
VERTEX
  5
733
  8
0
 10
120.2880243648392
 20
-121.5878430017598
 30
0.0
  0
VERTEX
  5
734
  8
0
 10
119.8712988569724
 20
-121.7270539350746
 30
0.0
  0
VERTEX
  5
735
  8
0
 10
119.5293010706242
 20
-121.8966829482621
 30
0.0
  0
VERTEX
  5
736
  8
0
 10
119.2751737888996
 20
-122.0902112934892
 30
0.0
  0
VERTEX
  5
737
  8
0
 10
119.1186829806967
 20
-122.3002017849978
 30
0.0
  0
VERTEX
  5
738
  8
0
 10
119.0658425
 20
-122.5185846059816
 30
0.0
  0
SEQEND
  5
9A7
  8
0
  0
POLYLINE
  5
29B
  8
0
 66
     1
 10
0.0
 20
0.0
 30
0.0
  0
VERTEX
  5
739
  8
0
 10
123.9907300302253
 20
-123.2036383101126
 30
0.0
  0
VERTEX
  5
73A
  8
0
 10
123.6073619715614
 20
-123.0394288197938
 30
0.0
  0
VERTEX
  5
73B
  8
0
 10
123.150624681593
 20
-122.9099997418358
 30
0.0
  0
VERTEX
  5
73C
  8
0
 10
122.6392232117609
 20
-122.8206516672224
 30
0.0
  0
VERTEX
  5
73D
  8
0
 10
122.0941013102774
 20
-122.7750437242283
 30
0.0
  0
VERTEX
  5
73E
  8
0
 10
121.5375836995438
 20
-122.7750437238217
 30
0.0
  0
VERTEX
  5
73F
  8
0
 10
120.9924617976582
 20
-122.8206516660193
 30
0.0
  0
VERTEX
  5
740
  8
0
 10
120.4810603270381
 20
-122.9099997398854
 30
0.0
  0
VERTEX
  5
741
  8
0
 10
120.0243230359282
 20
-123.0394288171759
 30
0.0
  0
VERTEX
  5
742
  8
0
 10
119.6409549758162
 20
-123.2036383069346
 30
0.0
  0
SEQEND
  5
9A8
  8
0
  0
LINE
  5
29C
  8
0
 10
56.41504692
 20
-83.96422322
 30
0.0
 11
68.54404217
 21
-80.85313237
 31
0.0
  0
LINE
  5
29D
  8
0
 10
152.51093279
 20
-135.09321188
 30
0.0
 11
136.436217
 21
-139.21638122
 31
0.0
  0
LINE
  5
29E
  8
0
 10
152.51093279
 20
-136.46331926
 30
0.0
 11
136.436217
 21
-140.58648859
 31
0.0
  0
LINE
  5
29F
  8
0
  6
STRICHPUNKT2
 62
     1
 10
121.8158425
 20
-121.26265285
 30
0.0
 11
121.8158425
 21
-123.63797804
 31
0.0
  0
LINE
  5
2A0
  8
0
  6
STRICHPUNKT2
 62
     1
 10
121.8158425
 20
-122.51858461
 30
0.0
 11
119.61670965
 21
-121.0980111
 31
0.0
  0
LINE
  5
2A1
  8
0
  6
STRICHPUNKT2
 62
     1
 10
121.8158425
 20
-122.51858461
 30
0.0
 11
124.01497535
 21
-123.93915813
 31
0.0
  0
LINE
  5
2A2
  8
0
  6
STRICHPUNKT2
 62
     1
 10
121.8158425
 20
-122.51858461
 30
0.0
 11
118.3259371
 21
-123.41374638
 31
0.0
  0
LINE
  5
2A3
  8
0
  6
STRICHPUNKT2
 62
     1
 10
121.8158425
 20
-122.51858461
 30
0.0
 11
125.3057479
 21
-121.62342285
 31
0.0
  0
LINE
  5
2A4
  8
0
  6
STRICHPUNKT2
 62
     1
 10
121.40861739
 20
-123.62563685
 30
0.0
 11
120.34975394
 21
-122.94164298
 31
0.0
  0
LINE
  5
2A5
  8
0
  6
STRICHPUNKT2
 62
     1
 10
64.50510763
 20
-84.2416462
 30
0.0
 11
64.50510763
 21
-86.61697139
 31
0.0
  0
LINE
  5
2A6
  8
0
  6
STRICHPUNKT2
 62
     1
 10
64.50510763
 20
-85.49757796
 30
0.0
 11
62.30597478
 21
-84.07700445
 31
0.0
  0
LINE
  5
2A7
  8
0
  6
STRICHPUNKT2
 62
     1
 10
64.50510763
 20
-85.49757796
 30
0.0
 11
66.70424048
 21
-86.91815147
 31
0.0
  0
LINE
  5
2A8
  8
0
  6
STRICHPUNKT2
 62
     1
 10
64.50510763
 20
-85.49757796
 30
0.0
 11
61.01520223
 21
-86.39273973
 31
0.0
  0
LINE
  5
2A9
  8
0
  6
STRICHPUNKT2
 62
     1
 10
64.50510763
 20
-85.49757796
 30
0.0
 11
67.99501304
 21
-84.6024162
 31
0.0
  0
LINE
  5
2AA
  8
0
  6
STRICHPUNKT2
 62
     1
 10
64.09788252
 20
-86.60463019
 30
0.0
 11
63.03901907
 21
-85.92063633
 31
0.0
  0
LINE
  5
2AB
  8
0
  6
STRICHPUNKT2
 62
     1
 10
126.51323077
 20
-126.74733929
 30
0.0
 11
126.51323077
 21
-129.24553634
 31
0.0
  0
LINE
  5
2AC
  8
0
  6
STRICHPUNKT2
 62
     1
 10
135.77776326
 20
-127.60296619
 30
0.0
 11
135.77776326
 21
-130.29599307
 31
0.0
  0
LINE
  5
2AD
  8
0
  6
STRICHPUNKT2
 62
     1
 10
124.47555078
 20
-127.9292565
 30
0.0
 11
140.4100295
 21
-129.40088702
 31
0.0
  0
LINE
  5
2AE
  8
0
  6
STRICHPUNKT2
 62
     1
 10
126.05090634
 20
-128.9468887
 30
0.0
 11
127.5642348
 21
-126.23187271
 31
0.0
  0
LINE
  5
2AF
  8
0
  6
STRICHPUNKT2
 62
     1
 10
134.72675923
 20
-130.85864752
 30
0.0
 11
136.82876729
 21
-127.08749962
 31
0.0
  0
LINE
  5
2B0
  8
0
  6
STRICHPUNKT2
 62
     1
 10
126.61241677
 20
-129.3096075
 30
0.0
 11
127.23233879
 21
-128.19742449
 31
0.0
  0
LINE
  5
2B1
  8
0
  6
STRICHPUNKT2
 62
     1
 10
135.8040896
 20
-130.29594967
 30
0.0
 11
136.49687128
 21
-129.0530514
 31
0.0
  0
LINE
  5
2B2
  8
0
  6
STRICHPUNKT2
 62
     1
 10
134.5100775
 20
-131.91306114
 30
0.0
 11
134.5100775
 21
-134.44544365
 31
0.0
  0
LINE
  5
2B3
  8
0
  6
STRICHPUNKT2
 62
     1
 10
143.77460998
 20
-132.76868805
 30
0.0
 11
143.77460998
 21
-135.46171493
 31
0.0
  0
LINE
  5
2B4
  8
0
  6
STRICHPUNKT2
 62
     1
 10
132.4723975
 20
-133.09497836
 30
0.0
 11
148.40687622
 21
-134.56660888
 31
0.0
  0
LINE
  5
2B5
  8
0
  6
STRICHPUNKT2
 62
     1
 10
134.04775306
 20
-134.11261055
 30
0.0
 11
135.56108153
 21
-131.39759457
 31
0.0
  0
LINE
  5
2B6
  8
0
  6
STRICHPUNKT2
 62
     1
 10
142.72360596
 20
-136.02436938
 30
0.0
 11
144.82561401
 21
-132.25322148
 31
0.0
  0
LINE
  5
2B7
  8
0
  6
STRICHPUNKT2
 62
     1
 10
134.58471599
 20
-134.51936928
 30
0.0
 11
135.22918552
 21
-133.36314635
 31
0.0
  0
LINE
  5
2B8
  8
0
  6
STRICHPUNKT2
 62
     1
 10
143.80093633
 20
-135.46167153
 30
0.0
 11
144.493718
 21
-134.21877326
 31
0.0
  0
POLYLINE
  5
2B9
  8
0
 66
     1
 10
0.0
 20
0.0
 30
0.0
  0
VERTEX
  5
743
  8
0
 10
152.5109327879939
 20
-135.0932118751838
 30
0.0
  0
VERTEX
  5
744
  8
0
 10
152.7585134311278
 20
-135.0033811381857
 30
0.0
  0
VERTEX
  5
745
  8
0
 10
152.9965796890293
 20
-134.8643500877693
 30
0.0
  0
VERTEX
  5
746
  8
0
 10
153.2159828088791
 20
-134.6814616092545
 30
0.0
  0
VERTEX
  5
747
  8
0
 10
153.4082912517897
 20
-134.4617440043341
 30
0.0
  0
VERTEX
  5
748
  8
0
 10
153.566114712118
 20
-134.2136408973805
 30
0.0
  0
VERTEX
  5
749
  8
0
 10
153.6833881227671
 20
-133.9466867516948
 30
0.0
  0
VERTEX
  5
74A
  8
0
 10
153.7556047323152
 20
-133.671140465428
 30
0.0
  0
VERTEX
  5
74B
  8
0
 10
153.7799892969456
 20
-133.397591127876
 30
0.0
  0
SEQEND
  5
9A9
  8
0
  0
POLYLINE
  5
2BA
  8
0
 66
     1
 10
0.0
 20
0.0
 30
0.0
  0
VERTEX
  5
74C
  8
0
 10
68.54404216799392
 20
-80.85313236518378
 30
0.0
  0
VERTEX
  5
74D
  8
0
 10
68.79162281112781
 20
-80.76330162818567
 30
0.0
  0
VERTEX
  5
74E
  8
0
 10
69.02968906902929
 20
-80.62427057776934
 30
0.0
  0
VERTEX
  5
74F
  8
0
 10
69.24909218887908
 20
-80.44138209925453
 30
0.0
  0
VERTEX
  5
750
  8
0
 10
69.44140063178972
 20
-80.22166449433412
 30
0.0
  0
VERTEX
  5
751
  8
0
 10
69.59922409211794
 20
-79.97356138738049
 30
0.0
  0
VERTEX
  5
752
  8
0
 10
69.71649750276704
 20
-79.70660724169483
 30
0.0
  0
VERTEX
  5
753
  8
0
 10
69.78871411231518
 20
-79.43106095542795
 30
0.0
  0
VERTEX
  5
754
  8
0
 10
69.81309867694563
 20
-79.15751161787604
 30
0.0
  0
SEQEND
  5
9AA
  8
0
  0
POLYLINE
  5
2BB
  8
0
 66
     1
 10
0.0
 20
0.0
 30
0.0
  0
VERTEX
  5
755
  8
0
 10
152.5109327859878
 20
-136.4633192503676
 30
0.0
  0
VERTEX
  5
756
  8
0
 10
153.0060940722556
 20
-136.2836577763713
 30
0.0
  0
VERTEX
  5
757
  8
0
 10
153.4822265880586
 20
-136.0055956755387
 30
0.0
  0
VERTEX
  5
758
  8
0
 10
153.9210328277582
 20
-135.639818718509
 30
0.0
  0
VERTEX
  5
759
  8
0
 10
154.3056497135794
 20
-135.2003835086682
 30
0.0
  0
VERTEX
  5
75A
  8
0
 10
154.6212966342359
 20
-134.704177294761
 30
0.0
  0
VERTEX
  5
75B
  8
0
 10
154.8558434555341
 20
-134.1702690033896
 30
0.0
  0
VERTEX
  5
75C
  8
0
 10
155.0002766746304
 20
-133.6191764308559
 30
0.0
  0
VERTEX
  5
75D
  8
0
 10
155.0490458038913
 20
-133.0720777557521
 30
0.0
  0
SEQEND
  5
9AB
  8
0
  0
POLYLINE
  5
2BC
  8
0
 66
     1
 10
0.0
 20
0.0
 30
0.0
  0
VERTEX
  5
75E
  8
0
 10
135.6223074827462
 20
-139.106254511774
 30
0.0
  0
VERTEX
  5
75F
  8
0
 10
135.8032349423759
 20
-139.1961439323667
 30
0.0
  0
VERTEX
  5
760
  8
0
 10
136.0032923285893
 20
-139.2452377009286
 30
0.0
  0
VERTEX
  5
761
  8
0
 10
136.2164335251266
 20
-139.2520521100197
 30
0.0
  0
VERTEX
  5
762
  8
0
 10
136.4362169979939
 20
-139.2163812151838
 30
0.0
  0
SEQEND
  5
9AC
  8
0
  0
POLYLINE
  5
2BD
  8
0
 66
     1
 10
0.0
 20
0.0
 30
0.0
  0
VERTEX
  5
763
  8
0
 10
135.1671604930544
 20
-138.1717872072056
 30
0.0
  0
VERTEX
  5
764
  8
0
 10
135.1973710927263
 20
-138.4612106928195
 30
0.0
  0
VERTEX
  5
765
  8
0
 10
135.2865645323667
 20
-138.7213563467292
 30
0.0
  0
VERTEX
  5
766
  8
0
 10
135.4304942125029
 20
-138.9398383432376
 30
0.0
  0
VERTEX
  5
767
  8
0
 10
135.62230748
 20
-139.10625451
 30
0.0
  0
SEQEND
  5
9AD
  8
0
  0
POLYLINE
  5
2BE
  8
0
 66
     1
 10
0.0
 20
0.0
 30
0.0
  0
VERTEX
  5
768
  8
0
 10
133.8981039861087
 20
-138.4973005744111
 30
0.0
  0
VERTEX
  5
769
  8
0
 10
133.9585251854526
 20
-139.0761475456389
 30
0.0
  0
VERTEX
  5
76A
  8
0
 10
134.1369120647334
 20
-139.5964388534583
 30
0.0
  0
VERTEX
  5
76B
  8
0
 10
134.4247714250058
 20
-140.0334028464752
 30
0.0
  0
VERTEX
  5
76C
  8
0
 10
134.80839796
 20
-140.36623518
 30
0.0
  0
SEQEND
  5
9AE
  8
0
  0
POLYLINE
  5
2BF
  8
0
 66
     1
 10
0.0
 20
0.0
 30
0.0
  0
VERTEX
  5
76D
  8
0
 10
134.8083979654924
 20
-140.3662351835479
 30
0.0
  0
VERTEX
  5
76E
  8
0
 10
135.1702528847517
 20
-140.5460140247334
 30
0.0
  0
VERTEX
  5
76F
  8
0
 10
135.5703676571786
 20
-140.6442015618573
 30
0.0
  0
VERTEX
  5
770
  8
0
 10
135.9966500502533
 20
-140.6578303800395
 30
0.0
  0
VERTEX
  5
771
  8
0
 10
136.4362169959878
 20
-140.5864885903676
 30
0.0
  0
SEQEND
  5
9AF
  8
0
  0
LINE
  5
2C0
  8
0
 10
134.80839796
 20
-140.36623518
 30
0.0
 11
128.68332693
 21
-136.40962398
 31
0.0
  0
LINE
  5
2C1
  8
0
 10
101.00391265
 20
-118.52955697
 30
0.0
 11
98.56187093
 21
-116.95207165
 31
0.0
  0
LINE
  5
2C2
  8
0
 10
133.89810398
 20
-138.49730058
 30
0.0
 11
133.89810398
 21
-136.44213951
 31
0.0
  0
LINE
  5
2C3
  8
0
 10
135.16716049
 20
-138.17178721
 30
0.0
 11
135.16716049
 21
-136.11662614
 31
0.0
  0
POLYLINE
  5
2C4
  8
0
 66
     1
 10
0.0
 20
0.0
 30
0.0
  0
VERTEX
  5
772
  8
0
 10
50.28997589699063
 20
-80.00761202451575
 30
0.0
  0
VERTEX
  5
773
  8
0
 10
49.92812097229903
 20
-79.82783317783871
 30
0.0
  0
VERTEX
  5
774
  8
0
 10
49.5280061928214
 20
-79.72964563814273
 30
0.0
  0
VERTEX
  5
775
  8
0
 10
49.10172379173476
 20
-79.71601682049459
 30
0.0
  0
VERTEX
  5
776
  8
0
 10
48.66215683774233
 20
-79.78735861380565
 30
0.0
  0
SEQEND
  5
9B0
  8
0
  0
LINE
  5
2C5
  8
0
 10
101.00391265
 20
-112.76728601
 30
0.0
 11
50.28997589
 21
-80.00761202
 31
0.0
  0
LINE
  5
2C6
  8
0
 10
134.25686651
 20
-134.24769154
 30
0.0
 11
110.68699289
 21
-119.02226387
 31
0.0
  0
POLYLINE
  5
2C7
  8
0
 66
     1
 10
0.0
 20
0.0
 30
0.0
  0
VERTEX
  5
777
  8
0
 10
134.2568665169906
 20
-134.2476915445157
 30
0.0
  0
VERTEX
  5
778
  8
0
 10
133.895011592299
 20
-134.0679126978387
 30
0.0
  0
VERTEX
  5
779
  8
0
 10
133.4948968128214
 20
-133.9697251581427
 30
0.0
  0
VERTEX
  5
77A
  8
0
 10
133.0686144117348
 20
-133.9560963404946
 30
0.0
  0
VERTEX
  5
77B
  8
0
 10
132.6290474577423
 20
-134.0274381338056
 30
0.0
  0
SEQEND
  5
9B1
  8
0
  0
POLYLINE
  5
2C8
  8
0
 66
     1
 10
0.0
 20
0.0
 30
0.0
  0
VERTEX
  5
77C
  8
0
 10
133.4429569934953
 20
-135.5076722122579
 30
0.0
  0
VERTEX
  5
77D
  8
0
 10
133.2620295311495
 20
-135.4177827889194
 30
0.0
  0
VERTEX
  5
77E
  8
0
 10
133.0619721414107
 20
-135.3686890190714
 30
0.0
  0
VERTEX
  5
77F
  8
0
 10
132.8488309408674
 20
-135.3618746102473
 30
0.0
  0
VERTEX
  5
780
  8
0
 10
132.6290474638712
 20
-135.3975455069028
 30
0.0
  0
SEQEND
  5
9B2
  8
0
  0
POLYLINE
  5
2C9
  8
0
 66
     1
 10
0.0
 20
0.0
 30
0.0
  0
VERTEX
  5
781
  8
0
 10
133.8981039769456
 20
-136.442139507876
 30
0.0
  0
VERTEX
  5
782
  8
0
 10
133.8678933767796
 20
-136.1527160249066
 30
0.0
  0
VERTEX
  5
783
  8
0
 10
133.7786999376333
 20
-135.8925703732709
 30
0.0
  0
VERTEX
  5
784
  8
0
 10
133.6347702588863
 20
-135.674088378355
 30
0.0
  0
VERTEX
  5
785
  8
0
 10
133.4429569934953
 20
-135.5076722122579
 30
0.0
  0
SEQEND
  5
9B3
  8
0
  0
POLYLINE
  5
2CA
  8
0
 66
     1
 10
0.0
 20
0.0
 30
0.0
  0
VERTEX
  5
786
  8
0
 10
135.1671604838913
 20
-136.1166261357521
 30
0.0
  0
VERTEX
  5
787
  8
0
 10
135.1067392835593
 20
-135.5377791698133
 30
0.0
  0
VERTEX
  5
788
  8
0
 10
134.9283524052666
 20
-135.0174878665417
 30
0.0
  0
VERTEX
  5
789
  8
0
 10
134.6404930477725
 20
-134.58052387671
 30
0.0
  0
VERTEX
  5
78A
  8
0
 10
134.2568665169906
 20
-134.2476915445157
 30
0.0
  0
SEQEND
  5
9B4
  8
0
  0
LINE
  5
2CB
  8
0
 10
153.7799893
 20
-133.39759113
 30
0.0
 11
153.7799893
 21
-131.34243007
 31
0.0
  0
LINE
  5
2CC
  8
0
 10
69.81309867
 20
-77.10235055
 30
0.0
 11
69.81309867
 21
-79.15751162
 31
0.0
  0
LINE
  5
2CD
  8
0
 10
155.04904581
 20
-133.07207777
 30
0.0
 11
155.04904581
 21
-131.0169167
 31
0.0
  0
POLYLINE
  5
2CE
  8
0
 66
     1
 10
0.0
 20
0.0
 30
0.0
  0
VERTEX
  5
78B
  8
0
 10
45.63196225
 20
-85.56047798762549
 30
0.0
  0
VERTEX
  5
78C
  8
0
 10
45.66318616827784
 20
-85.68952238222556
 30
0.0
  0
VERTEX
  5
78D
  8
0
 10
45.75565800771585
 20
-85.81360767319005
 30
0.0
  0
VERTEX
  5
78E
  8
0
 10
45.90582412737515
 20
-85.92796533236412
 30
0.0
  0
VERTEX
  5
78F
  8
0
 10
46.10791372747823
 20
-86.02820065902827
 30
0.0
  0
VERTEX
  5
790
  8
0
 10
46.35416061800856
 20
-86.1104616657826
 30
0.0
  0
VERTEX
  5
791
  8
0
 10
46.63510166903837
 20
-86.17158710826286
 30
0.0
  0
VERTEX
  5
792
  8
0
 10
46.93994047350554
 20
-86.20922796998872
 30
0.0
  0
VERTEX
  5
793
  8
0
 10
47.25696224708329
 20
-86.22193773375
 30
0.0
  0
VERTEX
  5
794
  8
0
 10
47.57398402077313
 20
-86.20922797045196
 30
0.0
  0
VERTEX
  5
795
  8
0
 10
47.87882282557226
 20
-86.17158710917154
 30
0.0
  0
VERTEX
  5
796
  8
0
 10
48.15976387714113
 20
-86.1104616671018
 30
0.0
  0
VERTEX
  5
797
  8
0
 10
48.40601076839692
 20
-86.0282006607073
 30
0.0
  0
VERTEX
  5
798
  8
0
 10
48.60810036938398
 20
-85.92796533433845
 30
0.0
  0
VERTEX
  5
799
  8
0
 10
48.7582664900518
 20
-85.81360767538379
 30
0.0
  0
VERTEX
  5
79A
  8
0
 10
48.85073833058412
 20
-85.68952238455445
 30
0.0
  0
VERTEX
  5
79B
  8
0
 10
48.88196225
 20
-85.56047799
 30
0.0
  0
SEQEND
  5
9B5
  8
0
  0
POLYLINE
  5
2CF
  8
0
 66
     1
 10
0.0
 20
0.0
 30
0.0
  0
VERTEX
  5
79C
  8
0
 10
48.88196225
 20
-85.56047799
 30
0.0
  0
VERTEX
  5
79D
  8
0
 10
48.85073833072638
 20
-85.43143359573666
 30
0.0
  0
VERTEX
  5
79E
  8
0
 10
48.75826649060988
 20
-85.30734830516464
 30
0.0
  0
VERTEX
  5
79F
  8
0
 10
48.6081003705993
 20
-85.19299064640191
 30
0.0
  0
VERTEX
  5
7A0
  8
0
 10
48.40601077045935
 20
-85.09275532013221
 30
0.0
  0
VERTEX
  5
7A1
  8
0
 10
48.15976388017258
 20
-85.01049431372269
 30
0.0
  0
VERTEX
  5
7A2
  8
0
 10
47.87882282961429
 20
-84.94936887150996
 30
0.0
  0
VERTEX
  5
7A3
  8
0
 10
47.57398402577929
 20
-84.91172800995336
 30
0.0
  0
VERTEX
  5
7A4
  8
0
 10
47.25696225291671
 20
-84.89901824625
 30
0.0
  0
VERTEX
  5
7A5
  8
0
 10
46.93994047994204
 20
-84.91172800949013
 30
0.0
  0
VERTEX
  5
7A6
  8
0
 10
46.63510167577509
 20
-84.94936887060128
 30
0.0
  0
VERTEX
  5
7A7
  8
0
 10
46.35416062467773
 20
-85.0104943124035
 30
0.0
  0
VERTEX
  5
7A8
  8
0
 10
46.1079137336655
 20
-85.09275531845319
 30
0.0
  0
VERTEX
  5
7A9
  8
0
 10
45.90582413264157
 20
-85.19299064442758
 30
0.0
  0
VERTEX
  5
7AA
  8
0
 10
45.75565801162247
 20
-85.30734830297088
 30
0.0
  0
VERTEX
  5
7AB
  8
0
 10
45.66318617041166
 20
-85.43143359340777
 30
0.0
  0
VERTEX
  5
7AC
  8
0
 10
45.63196225
 20
-85.56047798762549
 30
0.0
  0
SEQEND
  5
9B6
  8
0
  0
LINE
  5
2D0
  8
0
 10
100.6040067
 20
-115.05815584
 30
0.0
 11
91.72061114
 21
-117.33674942
 31
0.0
  0
POLYLINE
  5
2D1
  8
0
 66
     1
 10
0.0
 20
0.0
 30
0.0
  0
VERTEX
  5
7AD
  8
0
 10
90.341450344418
 20
-117.2093768785524
 30
0.0
  0
VERTEX
  5
7AE
  8
0
 10
90.46171388079992
 20
-117.2723926022614
 30
0.0
  0
VERTEX
  5
7AF
  8
0
 10
90.60986851044593
 20
-117.3246471363485
 30
0.0
  0
VERTEX
  5
7B0
  8
0
 10
90.78022073400165
 20
-117.3641323683652
 30
0.0
  0
VERTEX
  5
7B1
  8
0
 10
90.96622401102381
 20
-117.3893309029824
 30
0.0
  0
VERTEX
  5
7B2
  8
0
 10
91.16073033985923
 20
-117.3992743746425
 30
0.0
  0
VERTEX
  5
7B3
  8
0
 10
91.35626495134078
 20
-117.3935806613043
 30
0.0
  0
VERTEX
  5
7B4
  8
0
 10
91.5453135599757
 20
-117.3724685691792
 30
0.0
  0
VERTEX
  5
7B5
  8
0
 10
91.72061113372429
 20
-117.3367494241311
 30
0.0
  0
SEQEND
  5
9B7
  8
0
  0
POLYLINE
  5
2D2
  8
0
 66
     1
 10
0.0
 20
0.0
 30
0.0
  0
VERTEX
  5
2D3
  8
0
 10
90.34145035
 20
-117.20937688
 30
0.0
  0
VERTEX
  5
2D4
  8
0
 10
37.02913884
 20
-82.77123116
 30
0.0
  0
VERTEX
  5
2D5
  8
0
 10
48.66215685
 20
-79.78735861
 30
0.0
  0
SEQEND
  5
2D6
  8
0
  0
POLYLINE
  5
2D7
  8
0
 66
     1
 10
0.0
 20
0.0
 30
0.0
  0
VERTEX
  5
2D8
  8
0
 10
132.62904747
 20
-134.02743813
 30
0.0
  0
VERTEX
  5
2D9
  8
0
 10
120.99602947
 20
-137.01131067
 30
0.0
  0
VERTEX
  5
2DA
  8
0
 10
102.603282
 20
-125.1301504
 30
0.0
  0
SEQEND
  5
2DB
  8
0
  0
POLYLINE
  5
2DC
  8
0
 66
     1
 10
0.0
 20
0.0
 30
0.0
  0
VERTEX
  5
7B6
  8
0
 10
105.3529044271506
 20
-124.4248714225892
 30
0.0
  0
VERTEX
  5
7B7
  8
0
 10
105.9329703816749
 20
-124.5329322968624
 30
0.0
  0
VERTEX
  5
7B8
  8
0
 10
106.5122359644067
 20
-124.5871447297924
 30
0.0
  0
VERTEX
  5
7B9
  8
0
 10
107.06619071849
 20
-124.5852148314293
 30
0.0
  0
VERTEX
  5
7BA
  8
0
 10
107.571395163823
 20
-124.5272242615371
 30
0.0
  0
VERTEX
  5
7BB
  8
0
 10
108.0064725914663
 20
-124.4156267743239
 30
0.0
  0
VERTEX
  5
7BC
  8
0
 10
108.353013576042
 20
-124.2551443927739
 30
0.0
  0
VERTEX
  5
7BD
  8
0
 10
108.5963549335038
 20
-124.0525676057516
 30
0.0
  0
VERTEX
  5
7BE
  8
0
 10
108.7262001642476
 20
-123.8164680421373
 30
0.0
  0
VERTEX
  5
7BF
  8
0
 10
108.7370551287612
 20
-123.556835779609
 30
0.0
  0
SEQEND
  5
9B8
  8
0
  0
POLYLINE
  5
2DD
  8
0
 66
     1
 10
0.0
 20
0.0
 30
0.0
  0
VERTEX
  5
2DE
  8
0
 10
111.48667756
 20
-122.85155682
 30
0.0
  0
VERTEX
  5
2DF
  8
0
 10
112.01980068
 20
-123.19593827
 30
0.0
  0
SEQEND
  5
2E0
  8
0
  0
POLYLINE
  5
2E1
  8
0
 66
     1
 10
0.0
 20
0.0
 30
0.0
  0
VERTEX
  5
7C0
  8
0
 10
112.019800674418
 20
-123.1959382685524
 30
0.0
  0
VERTEX
  5
7C1
  8
0
 10
112.1414818773862
 20
-123.2595615453349
 30
0.0
  0
VERTEX
  5
7C2
  8
0
 10
112.2915845052474
 20
-123.3121737151837
 30
0.0
  0
VERTEX
  5
7C3
  8
0
 10
112.4642190122805
 20
-123.3517104452871
 30
0.0
  0
VERTEX
  5
7C4
  8
0
 10
112.6526117740875
 20
-123.3766204411544
 30
0.0
  0
VERTEX
  5
7C5
  8
0
 10
112.8493708628918
 20
-123.385926314437
 30
0.0
  0
VERTEX
  5
7C6
  8
0
 10
113.0467760830771
 20
-123.3792629325123
 30
0.0
  0
VERTEX
  5
7C7
  8
0
 10
113.2370818869041
 20
-123.3568917451168
 30
0.0
  0
VERTEX
  5
7C8
  8
0
 10
113.4128212849625
 20
-123.3196905258969
 30
0.0
  0
VERTEX
  5
7C9
  8
0
 10
113.5670988268885
 20
-123.2691189313864
 30
0.0
  0
VERTEX
  5
7CA
  8
0
 10
113.6938611567222
 20
-123.2071612287652
 30
0.0
  0
VERTEX
  5
7CB
  8
0
 10
113.7881345271819
 20
-123.1362484395787
 30
0.0
  0
VERTEX
  5
7CC
  8
0
 10
113.8462199535559
 20
-123.0591629542495
 30
0.0
  0
VERTEX
  5
7CD
  8
0
 10
113.86583835
 20
-122.97892936
 30
0.0
  0
SEQEND
  5
9B9
  8
0
  0
POLYLINE
  5
2E2
  8
0
 66
     1
 10
0.0
 20
0.0
 30
0.0
  0
VERTEX
  5
7CE
  8
0
 10
113.86583835
 20
-122.97892936
 30
0.0
  0
VERTEX
  5
7CF
  8
0
 10
113.8483248486756
 20
-122.9030817916653
 30
0.0
  0
VERTEX
  5
7D0
  8
0
 10
113.7963977901596
 20
-122.8298909363076
 30
0.0
  0
VERTEX
  5
7D1
  8
0
 10
113.7118760236682
 20
-122.7619204502113
 30
0.0
  0
SEQEND
  5
9BA
  8
0
  0
LINE
  5
2E3
  8
0
 10
113.71187602
 20
-122.76192045
 30
0.0
 11
110.68699289
 21
-120.80793715
 31
0.0
  0
POLYLINE
  5
2E4
  8
0
 66
     1
 10
0.0
 20
0.0
 30
0.0
  0
VERTEX
  5
7D2
  8
0
 10
101.0039126472821
 20
-114.999113258523
 30
0.0
  0
VERTEX
  5
7D3
  8
0
 10
100.7961574415795
 20
-115.0198784360627
 30
0.0
  0
VERTEX
  5
7D4
  8
0
 10
100.6040067032386
 20
-115.0581558466479
 30
0.0
  0
SEQEND
  5
9BB
  8
0
  0
LINE
  5
2E5
  8
0
 10
91.72061114
 20
-118.7068568
 30
0.0
 11
100.6040067
 21
-116.42826322
 31
0.0
  0
POLYLINE
  5
2E6
  8
0
 66
     1
 10
0.0
 20
0.0
 30
0.0
  0
VERTEX
  5
7D5
  8
0
 10
90.341450344418
 20
-118.5794842485524
 30
0.0
  0
VERTEX
  5
7D6
  8
0
 10
90.46171388079992
 20
-118.6424999722614
 30
0.0
  0
VERTEX
  5
7D7
  8
0
 10
90.60986851044593
 20
-118.6947545063485
 30
0.0
  0
VERTEX
  5
7D8
  8
0
 10
90.78022073400165
 20
-118.7342397383652
 30
0.0
  0
VERTEX
  5
7D9
  8
0
 10
90.96622401102381
 20
-118.7594382729824
 30
0.0
  0
VERTEX
  5
7DA
  8
0
 10
91.16073033985923
 20
-118.7693817446425
 30
0.0
  0
VERTEX
  5
7DB
  8
0
 10
91.35626495134078
 20
-118.7636880313043
 30
0.0
  0
VERTEX
  5
7DC
  8
0
 10
91.5453135599757
 20
-118.7425759391792
 30
0.0
  0
VERTEX
  5
7DD
  8
0
 10
91.72061113372429
 20
-118.7068567941311
 30
0.0
  0
SEQEND
  5
9BC
  8
0
  0
LINE
  5
2E7
  8
0
 10
90.34145035
 20
-118.57948426
 30
0.0
 11
37.02913884
 21
-84.14133853
 31
0.0
  0
LINE
  5
2E8
  8
0
 10
37.02913884
 20
-82.77123116
 30
0.0
 11
37.02913884
 21
-84.14133853
 31
0.0
  0
POLYLINE
  5
2E9
  8
0
 66
     1
 10
0.0
 20
0.0
 30
0.0
  0
VERTEX
  5
7DE
  8
0
 10
101.0039126472821
 20
-116.369220638523
 30
0.0
  0
VERTEX
  5
7DF
  8
0
 10
100.7961574415795
 20
-116.3899858160627
 30
0.0
  0
VERTEX
  5
7E0
  8
0
 10
100.6040067032386
 20
-116.4282632266479
 30
0.0
  0
SEQEND
  5
9BD
  8
0
  0
LINE
  5
2EA
  8
0
 10
111.11504272
 20
-122.45455181
 30
0.0
 11
112.5174807
 21
-123.36048446
 31
0.0
  0
LINE
  5
2EB
  8
0
 10
120.99602947
 20
-138.38141805
 30
0.0
 11
102.603282
 21
-126.50025777
 31
0.0
  0
LINE
  5
2EC
  8
0
 10
120.99602947
 20
-137.01131067
 30
0.0
 11
120.99602947
 21
-138.38141805
 31
0.0
  0
LINE
  5
2ED
  8
0
 10
132.62904747
 20
-135.3975455
 30
0.0
 11
120.99602947
 21
-138.38141805
 31
0.0
  0
LINE
  5
2EE
  8
0
  6
STRICHPUNKT2
 62
     1
 10
47.25696225
 20
-84.81833649
 30
0.0
 11
47.25696225
 21
-86.22193774
 31
0.0
  0
LINE
  5
2EF
  8
0
  6
STRICHPUNKT2
 62
     1
 10
47.25696225
 20
-85.56047799
 30
0.0
 11
45.95747466
 21
-84.72104819
 31
0.0
  0
LINE
  5
2F0
  8
0
  6
STRICHPUNKT2
 62
     1
 10
47.25696225
 20
-85.56047799
 30
0.0
 11
48.55644985
 21
-86.39990779
 31
0.0
  0
LINE
  5
2F1
  8
0
  6
STRICHPUNKT2
 62
     1
 10
47.25696225
 20
-85.56047799
 30
0.0
 11
45.19474543
 21
-86.08943721
 31
0.0
  0
LINE
  5
2F2
  8
0
  6
STRICHPUNKT2
 62
     1
 10
47.25696225
 20
-85.56047799
 30
0.0
 11
49.31917908
 21
-85.03151876
 31
0.0
  0
POLYLINE
  5
2F3
  8
0
 66
     1
 10
0.0
 20
0.0
 30
0.0
  0
VERTEX
  5
7E1
  8
0
 10
84.12667638
 20
-75.6865724676255
 30
0.0
  0
VERTEX
  5
7E2
  8
0
 10
84.15790029827784
 20
-75.81561686222557
 30
0.0
  0
VERTEX
  5
7E3
  8
0
 10
84.25037213771586
 20
-75.93970215319005
 30
0.0
  0
VERTEX
  5
7E4
  8
0
 10
84.40053825737516
 20
-76.05405981236413
 30
0.0
  0
VERTEX
  5
7E5
  8
0
 10
84.60262785747823
 20
-76.15429513902828
 30
0.0
  0
VERTEX
  5
7E6
  8
0
 10
84.84887474800857
 20
-76.2365561457826
 30
0.0
  0
VERTEX
  5
7E7
  8
0
 10
85.12981579903838
 20
-76.29768158826286
 30
0.0
  0
VERTEX
  5
7E8
  8
0
 10
85.43465460350555
 20
-76.33532244998872
 30
0.0
  0
VERTEX
  5
7E9
  8
0
 10
85.7516763770833
 20
-76.34803221375
 30
0.0
  0
VERTEX
  5
7EA
  8
0
 10
86.06869815077313
 20
-76.33532245045197
 30
0.0
  0
VERTEX
  5
7EB
  8
0
 10
86.37353695557226
 20
-76.29768158917155
 30
0.0
  0
VERTEX
  5
7EC
  8
0
 10
86.65447800714114
 20
-76.23655614710181
 30
0.0
  0
VERTEX
  5
7ED
  8
0
 10
86.90072489839693
 20
-76.1542951407073
 30
0.0
  0
VERTEX
  5
7EE
  8
0
 10
87.10281449938398
 20
-76.05405981433846
 30
0.0
  0
VERTEX
  5
7EF
  8
0
 10
87.2529806200518
 20
-75.9397021553838
 30
0.0
  0
VERTEX
  5
7F0
  8
0
 10
87.34545246058413
 20
-75.81561686455446
 30
0.0
  0
VERTEX
  5
7F1
  8
0
 10
87.37667638
 20
-75.68657247
 30
0.0
  0
SEQEND
  5
9BE
  8
0
  0
POLYLINE
  5
2F4
  8
0
 66
     1
 10
0.0
 20
0.0
 30
0.0
  0
VERTEX
  5
7F2
  8
0
 10
87.37667638
 20
-75.68657247
 30
0.0
  0
VERTEX
  5
7F3
  8
0
 10
87.34545246072638
 20
-75.55752807573667
 30
0.0
  0
VERTEX
  5
7F4
  8
0
 10
87.25298062060989
 20
-75.43344278516464
 30
0.0
  0
VERTEX
  5
7F5
  8
0
 10
87.10281450059931
 20
-75.31908512640192
 30
0.0
  0
VERTEX
  5
7F6
  8
0
 10
86.90072490045935
 20
-75.21884980013222
 30
0.0
  0
VERTEX
  5
7F7
  8
0
 10
86.65447801017258
 20
-75.1365887937227
 30
0.0
  0
VERTEX
  5
7F8
  8
0
 10
86.37353695961428
 20
-75.07546335150997
 30
0.0
  0
VERTEX
  5
7F9
  8
0
 10
86.0686981557793
 20
-75.03782248995337
 30
0.0
  0
VERTEX
  5
7FA
  8
0
 10
85.75167638291671
 20
-75.02511272625
 30
0.0
  0
VERTEX
  5
7FB
  8
0
 10
85.43465460994204
 20
-75.03782248949014
 30
0.0
  0
VERTEX
  5
7FC
  8
0
 10
85.1298158057751
 20
-75.07546335060128
 30
0.0
  0
VERTEX
  5
7FD
  8
0
 10
84.84887475467774
 20
-75.1365887924035
 30
0.0
  0
VERTEX
  5
7FE
  8
0
 10
84.6026278636655
 20
-75.21884979845319
 30
0.0
  0
VERTEX
  5
7FF
  8
0
 10
84.40053826264158
 20
-75.31908512442759
 30
0.0
  0
VERTEX
  5
800
  8
0
 10
84.25037214162248
 20
-75.43344278297089
 30
0.0
  0
VERTEX
  5
801
  8
0
 10
84.15790030041167
 20
-75.55752807340778
 30
0.0
  0
VERTEX
  5
802
  8
0
 10
84.12667638
 20
-75.6865724676255
 30
0.0
  0
SEQEND
  5
9BF
  8
0
  0
LINE
  5
2F5
  8
0
 10
137.2965412
 20
-105.16538224
 30
0.0
 11
83.9842297
 21
-70.72723652
 31
0.0
  0
LINE
  5
2F6
  8
0
 10
72.35121169
 20
-73.71110906
 30
0.0
 11
83.9842297
 21
-70.72723652
 31
0.0
  0
LINE
  5
2F7
  8
0
 10
167.95112032
 20
-124.96731603
 30
0.0
 11
156.31810231
 21
-127.95118858
 31
0.0
  0
LINE
  5
2F8
  8
0
 10
167.95112032
 20
-124.96731603
 30
0.0
 11
149.55837285
 21
-113.08615576
 31
0.0
  0
POLYLINE
  5
2F9
  8
0
 66
     1
 10
0.0
 20
0.0
 30
0.0
  0
VERTEX
  5
803
  8
0
 10
143.4245997171506
 20
-114.6594703725892
 30
0.0
  0
VERTEX
  5
804
  8
0
 10
144.0046656716749
 20
-114.7675312468624
 30
0.0
  0
VERTEX
  5
805
  8
0
 10
144.5839312544067
 20
-114.8217436797924
 30
0.0
  0
VERTEX
  5
806
  8
0
 10
145.13788600849
 20
-114.8198137814293
 30
0.0
  0
VERTEX
  5
807
  8
0
 10
145.643090453823
 20
-114.7618232115371
 30
0.0
  0
VERTEX
  5
808
  8
0
 10
146.0781678814663
 20
-114.6502257243239
 30
0.0
  0
VERTEX
  5
809
  8
0
 10
146.424708866042
 20
-114.4897433427739
 30
0.0
  0
VERTEX
  5
80A
  8
0
 10
146.6680502235038
 20
-114.2871665557516
 30
0.0
  0
VERTEX
  5
80B
  8
0
 10
146.7978954542476
 20
-114.0510669921373
 30
0.0
  0
VERTEX
  5
80C
  8
0
 10
146.8087504187612
 20
-113.791434729609
 30
0.0
  0
SEQEND
  5
9C0
  8
0
  0
LINE
  5
2FA
  8
0
 10
141.2081004
 20
-115.7091308
 30
0.0
 11
140.67497728
 21
-115.36474934
 31
0.0
  0
POLYLINE
  5
2FB
  8
0
 66
     1
 10
0.0
 20
0.0
 30
0.0
  0
VERTEX
  5
80D
  8
0
 10
141.36206272
 20
-115.92613971
 30
0.0
  0
VERTEX
  5
80E
  8
0
 10
141.3445492186756
 20
-115.8502921416653
 30
0.0
  0
VERTEX
  5
80F
  8
0
 10
141.2926221601596
 20
-115.7771012863076
 30
0.0
  0
VERTEX
  5
810
  8
0
 10
141.2081003936682
 20
-115.7091308002114
 30
0.0
  0
SEQEND
  5
9C1
  8
0
  0
POLYLINE
  5
2FC
  8
0
 66
     1
 10
0.0
 20
0.0
 30
0.0
  0
VERTEX
  5
811
  8
0
 10
140.8951858337243
 20
-116.2705211641311
 30
0.0
  0
VERTEX
  5
812
  8
0
 10
141.0538703830011
 20
-116.2200646680506
 30
0.0
  0
VERTEX
  5
813
  8
0
 10
141.1845050098535
 20
-116.1576907378148
 30
0.0
  0
VERTEX
  5
814
  8
0
 10
141.2817930236763
 20
-116.085928376784
 30
0.0
  0
VERTEX
  5
815
  8
0
 10
141.3417898002822
 20
-116.0076872501262
 30
0.0
  0
VERTEX
  5
816
  8
0
 10
141.36206272
 20
-115.92613971
 30
0.0
  0
SEQEND
  5
9C2
  8
0
  0
POLYLINE
  5
2FD
  8
0
 66
     1
 10
0.0
 20
0.0
 30
0.0
  0
VERTEX
  5
817
  8
0
 10
139.516025044418
 20
-116.1431486185524
 30
0.0
  0
VERTEX
  5
818
  8
0
 10
139.6362885807999
 20
-116.2061643422614
 30
0.0
  0
VERTEX
  5
819
  8
0
 10
139.7844432104459
 20
-116.2584188763485
 30
0.0
  0
VERTEX
  5
81A
  8
0
 10
139.9547954340017
 20
-116.2979041083652
 30
0.0
  0
VERTEX
  5
81B
  8
0
 10
140.1407987110238
 20
-116.3231026429824
 30
0.0
  0
VERTEX
  5
81C
  8
0
 10
140.3353050398592
 20
-116.3330461146425
 30
0.0
  0
VERTEX
  5
81D
  8
0
 10
140.5308396513408
 20
-116.3273524013043
 30
0.0
  0
VERTEX
  5
81E
  8
0
 10
140.7198882599757
 20
-116.3062403091792
 30
0.0
  0
VERTEX
  5
81F
  8
0
 10
140.8951858337243
 20
-116.2705211641311
 30
0.0
  0
SEQEND
  5
9C3
  8
0
  0
LINE
  5
2FE
  8
0
 10
127.78731652
 20
-108.56675656
 30
0.0
 11
139.51602505
 21
-116.14314862
 31
0.0
  0
POLYLINE
  5
2FF
  8
0
 66
     1
 10
0.0
 20
0.0
 30
0.0
  0
VERTEX
  5
820
  8
0
 10
127.63335419
 20
-108.3497476485388
 30
0.0
  0
VERTEX
  5
821
  8
0
 10
127.6508676906555
 20
-108.425595216899
 30
0.0
  0
VERTEX
  5
822
  8
0
 10
127.7027947485261
 20
-108.4987860723326
 30
0.0
  0
VERTEX
  5
823
  8
0
 10
127.787316514418
 20
-108.5667565585524
 30
0.0
  0
SEQEND
  5
9C4
  8
0
  0
POLYLINE
  5
300
  8
0
 66
     1
 10
0.0
 20
0.0
 30
0.0
  0
VERTEX
  5
824
  8
0
 10
128.1002310732386
 20
-108.0053661966479
 30
0.0
  0
VERTEX
  5
825
  8
0
 10
127.9415465254436
 20
-108.0558226925559
 30
0.0
  0
VERTEX
  5
826
  8
0
 10
127.8109118997381
 20
-108.1181966224256
 30
0.0
  0
VERTEX
  5
827
  8
0
 10
127.7136238866055
 20
-108.1899589829472
 30
0.0
  0
VERTEX
  5
828
  8
0
 10
127.6536271101494
 20
-108.2682001090149
 30
0.0
  0
VERTEX
  5
829
  8
0
 10
127.63335419
 20
-108.3497476485388
 30
0.0
  0
SEQEND
  5
9C5
  8
0
  0
LINE
  5
301
  8
0
 10
136.98362665
 20
-105.72677261
 30
0.0
 11
128.10023108
 21
-108.00536619
 31
0.0
  0
POLYLINE
  5
302
  8
0
 66
     1
 10
0.0
 20
0.0
 30
0.0
  0
VERTEX
  5
82A
  8
0
 10
136.9836266437243
 20
-105.7267726141311
 30
0.0
  0
VERTEX
  5
82B
  8
0
 10
137.1423111930011
 20
-105.6763161180506
 30
0.0
  0
VERTEX
  5
82C
  8
0
 10
137.2729458198535
 20
-105.6139421878148
 30
0.0
  0
VERTEX
  5
82D
  8
0
 10
137.3702338336763
 20
-105.542179826784
 30
0.0
  0
VERTEX
  5
82E
  8
0
 10
137.4302306102821
 20
-105.4639387001262
 30
0.0
  0
VERTEX
  5
82F
  8
0
 10
137.45050353
 20
-105.38239116
 30
0.0
  0
SEQEND
  5
9C6
  8
0
  0
POLYLINE
  5
303
  8
0
 66
     1
 10
0.0
 20
0.0
 30
0.0
  0
VERTEX
  5
830
  8
0
 10
137.45050353
 20
-105.38239116
 30
0.0
  0
VERTEX
  5
831
  8
0
 10
137.4329900286756
 20
-105.3065435916653
 30
0.0
  0
VERTEX
  5
832
  8
0
 10
137.3810629701596
 20
-105.2333527363076
 30
0.0
  0
VERTEX
  5
833
  8
0
 10
137.2965412036682
 20
-105.1653822502114
 30
0.0
  0
SEQEND
  5
9C7
  8
0
  0
POLYLINE
  5
304
  8
0
 66
     1
 10
0.0
 20
0.0
 30
0.0
  0
VERTEX
  5
305
  8
0
 10
137.45050353
 20
-105.38239116
 30
0.0
  0
VERTEX
  5
306
  8
0
 10
137.45050353
 20
-106.75249853
 30
0.0
  0
SEQEND
  5
307
  8
0
  0
POLYLINE
  5
308
  8
0
 66
     1
 10
0.0
 20
0.0
 30
0.0
  0
VERTEX
  5
834
  8
0
 10
136.9836266437243
 20
-107.0968799841311
 30
0.0
  0
VERTEX
  5
835
  8
0
 10
137.1423111930011
 20
-107.0464234880506
 30
0.0
  0
VERTEX
  5
836
  8
0
 10
137.2729458198535
 20
-106.9840495578148
 30
0.0
  0
VERTEX
  5
837
  8
0
 10
137.3702338336763
 20
-106.912287196784
 30
0.0
  0
VERTEX
  5
838
  8
0
 10
137.4302306102821
 20
-106.8340460701262
 30
0.0
  0
VERTEX
  5
839
  8
0
 10
137.45050353
 20
-106.75249853
 30
0.0
  0
SEQEND
  5
9C8
  8
0
  0
LINE
  5
309
  8
0
 10
128.77236815
 20
-109.20307021
 30
0.0
 11
136.98362665
 21
-107.09687999
 31
0.0
  0
POLYLINE
  5
30A
  8
0
 66
     1
 10
0.0
 20
0.0
 30
0.0
  0
VERTEX
  5
30B
  8
0
 10
167.95112032
 20
-124.96731603
 30
0.0
  0
VERTEX
  5
30C
  8
0
 10
167.95112032
 20
-126.33742341
 30
0.0
  0
VERTEX
  5
30D
  8
0
 10
156.31810231
 20
-129.32129596
 30
0.0
  0
SEQEND
  5
30E
  8
0
  0
LINE
  5
30F
  8
0
  6
STRICHPUNKT2
 62
     1
 10
85.75167638
 20
-74.94443098
 30
0.0
 11
85.75167638
 21
-76.34803223
 31
0.0
  0
LINE
  5
310
  8
0
  6
STRICHPUNKT2
 62
     1
 10
85.75167638
 20
-75.68657247
 30
0.0
 11
84.45218878
 21
-74.84714267
 31
0.0
  0
LINE
  5
311
  8
0
  6
STRICHPUNKT2
 62
     1
 10
85.75167638
 20
-75.68657247
 30
0.0
 11
87.05116397
 21
-76.52600228
 31
0.0
  0
LINE
  5
312
  8
0
  6
STRICHPUNKT2
 62
     1
 10
85.75167638
 20
-75.68657247
 30
0.0
 11
83.68945955
 21
-76.2155317
 31
0.0
  0
LINE
  5
313
  8
0
  6
STRICHPUNKT2
 62
     1
 10
85.75167638
 20
-75.68657247
 30
0.0
 11
87.81389321
 21
-75.15761325
 31
0.0
  0
POLYLINE
  5
314
  8
0
 66
     1
 10
0.0
 20
0.0
 30
0.0
  0
VERTEX
  5
315
  8
0
 10
146.00906575
 20
-111.90475516
 30
0.0
  0
VERTEX
  5
316
  8
0
 10
146.0655505
 20
-112.01193746
 30
0.0
  0
VERTEX
  5
317
  8
0
 10
146.12703982
 20
-112.14288313
 30
0.0
  0
VERTEX
  5
318
  8
0
 10
146.17131097
 20
-112.24510872
 30
0.0
  0
SEQEND
  5
319
  8
0
  0
POLYLINE
  5
31A
  8
0
 66
     1
 10
0.0
 20
0.0
 30
0.0
  0
VERTEX
  5
31B
  8
0
 10
146.73497413
 20
-113.57494759
 30
0.0
  0
VERTEX
  5
31C
  8
0
 10
146.76311345
 20
-113.64349703
 30
0.0
  0
VERTEX
  5
31D
  8
0
 10
146.78173908
 20
-113.69389829
 30
0.0
  0
VERTEX
  5
31E
  8
0
 10
146.79479904
 20
-113.73439387
 30
0.0
  0
VERTEX
  5
31F
  8
0
 10
146.80875042
 20
-113.79143472
 30
0.0
  0
SEQEND
  5
320
  8
0
  0
POLYLINE
  5
321
  8
0
 66
     1
 10
0.0
 20
0.0
 30
0.0
  0
VERTEX
  5
83A
  8
0
 10
148.7586881687701
 20
-111.1994761914193
 30
0.0
  0
VERTEX
  5
83B
  8
0
 10
148.7740538851223
 20
-111.4766966711637
 30
0.0
  0
VERTEX
  5
83C
  8
0
 10
148.8195605395663
 20
-111.7631153028861
 30
0.0
  0
VERTEX
  5
83D
  8
0
 10
148.893459336885
 20
-112.0477251791501
 30
0.0
  0
VERTEX
  5
83E
  8
0
 10
148.9929103877289
 20
-112.3195889019775
 30
0.0
  0
VERTEX
  5
83F
  8
0
 10
149.1140918439712
 20
-112.5682589009202
 30
0.0
  0
VERTEX
  5
840
  8
0
 10
149.252346770189
 20
-112.784178927336
 30
0.0
  0
VERTEX
  5
841
  8
0
 10
149.4023621070804
 20
-112.9590512956652
 30
0.0
  0
VERTEX
  5
842
  8
0
 10
149.5583728493548
 20
-113.0861557588352
 30
0.0
  0
SEQEND
  5
9C9
  8
0
  0
POLYLINE
  5
322
  8
0
 66
     1
 10
0.0
 20
0.0
 30
0.0
  0
VERTEX
  5
843
  8
0
 10
139.8752925987701
 20
-113.4780697714193
 30
0.0
  0
VERTEX
  5
844
  8
0
 10
139.8906583151223
 20
-113.7552902511637
 30
0.0
  0
VERTEX
  5
845
  8
0
 10
139.9361649695663
 20
-114.0417088828861
 30
0.0
  0
VERTEX
  5
846
  8
0
 10
140.010063766885
 20
-114.3263187591501
 30
0.0
  0
VERTEX
  5
847
  8
0
 10
140.1095148177289
 20
-114.5981824819774
 30
0.0
  0
VERTEX
  5
848
  8
0
 10
140.2306962739712
 20
-114.8468524809202
 30
0.0
  0
VERTEX
  5
849
  8
0
 10
140.368951200189
 20
-115.062772507336
 30
0.0
  0
VERTEX
  5
84A
  8
0
 10
140.5189665370804
 20
-115.2376448756652
 30
0.0
  0
VERTEX
  5
84B
  8
0
 10
140.6749772793547
 20
-115.3647493388352
 30
0.0
  0
SEQEND
  5
9CA
  8
0
  0
POLYLINE
  5
323
  8
0
 66
     1
 10
0.0
 20
0.0
 30
0.0
  0
VERTEX
  5
324
  8
0
 10
143.42459971
 20
-114.65947037
 30
0.0
  0
VERTEX
  5
325
  8
0
 10
143.33976396
 20
-114.63607772
 30
0.0
  0
VERTEX
  5
326
  8
0
 10
143.25909131
 20
-114.60662989
 30
0.0
  0
VERTEX
  5
327
  8
0
 10
143.18224777
 20
-114.57117547
 30
0.0
  0
VERTEX
  5
328
  8
0
 10
143.10893727
 20
-114.52967824
 30
0.0
  0
VERTEX
  5
329
  8
0
 10
143.03890656
 20
-114.48201836
 30
0.0
  0
VERTEX
  5
32A
  8
0
 10
142.97194948
 20
-114.42799515
 30
0.0
  0
VERTEX
  5
32B
  8
0
 10
142.94422275
 20
-114.40289259
 30
0.0
  0
VERTEX
  5
32C
  8
0
 10
142.88136265
 20
-114.33923276
 30
0.0
  0
VERTEX
  5
32D
  8
0
 10
142.82191565
 20
-114.26901387
 30
0.0
  0
VERTEX
  5
32E
  8
0
 10
142.76624918
 20
-114.19235429
 30
0.0
  0
VERTEX
  5
32F
  8
0
 10
142.71474071
 20
-114.10941191
 30
0.0
  0
VERTEX
  5
330
  8
0
 10
142.66776981
 20
-114.02038486
 30
0.0
  0
VERTEX
  5
331
  8
0
 10
142.63591337
 20
-113.95016051
 30
0.0
  0
VERTEX
  5
332
  8
0
 10
142.59831185
 20
-113.8525424
 30
0.0
  0
VERTEX
  5
333
  8
0
 10
142.56706144
 20
-113.75205381
 30
0.0
  0
VERTEX
  5
334
  8
0
 10
142.54243725
 20
-113.64941724
 30
0.0
  0
VERTEX
  5
335
  8
0
 10
142.52465657
 20
-113.54541921
 30
0.0
  0
VERTEX
  5
336
  8
0
 10
142.51386565
 20
-113.44088725
 30
0.0
  0
VERTEX
  5
337
  8
0
 10
142.5108417
 20
-113.38042562
 30
0.0
  0
VERTEX
  5
338
  8
0
 10
142.51121835
 20
-113.27672333
 30
0.0
  0
VERTEX
  5
339
  8
0
 10
142.51863361
 20
-113.1751677
 30
0.0
  0
VERTEX
  5
33A
  8
0
 10
142.53295101
 20
-113.07593074
 30
0.0
  0
VERTEX
  5
33B
  8
0
 10
142.55404838
 20
-112.97913566
 30
0.0
  0
VERTEX
  5
33C
  8
0
 10
142.581827
 20
-112.88486659
 30
0.0
  0
VERTEX
  5
33D
  8
0
 10
142.61621858
 20
-112.79317832
 30
0.0
  0
VERTEX
  5
33E
  8
0
 10
142.62491504
 20
-112.77279082
 30
0.0
  0
SEQEND
  5
33F
  8
0
  0
POLYLINE
  5
340
  8
0
 66
     1
 10
0.0
 20
0.0
 30
0.0
  0
VERTEX
  5
84C
  8
0
 10
139.0756079222006
 20
-112.9614975785301
 30
0.0
  0
VERTEX
  5
84D
  8
0
 10
139.1024024237826
 20
-113.4782898847791
 30
0.0
  0
VERTEX
  5
84E
  8
0
 10
139.1818881484933
 20
-114.0123832576836
 30
0.0
  0
VERTEX
  5
84F
  8
0
 10
139.3114018208517
 20
-114.5458821846887
 30
0.0
  0
VERTEX
  5
850
  8
0
 10
139.4866039121025
 20
-115.060911070944
 30
0.0
  0
VERTEX
  5
851
  8
0
 10
139.701624041929
 20
-115.5402131850093
 30
0.0
  0
VERTEX
  5
852
  8
0
 10
139.949257673394
 20
-115.9677288687142
 30
0.0
  0
VERTEX
  5
853
  8
0
 10
140.2212075105832
 20
-116.3291336374773
 30
0.0
  0
SEQEND
  5
9CB
  8
0
  0
POLYLINE
  5
341
  8
0
 66
     1
 10
0.0
 20
0.0
 30
0.0
  0
VERTEX
  5
854
  8
0
 10
143.43525507
 20
-104.7980541
 30
0.0
  0
VERTEX
  5
855
  8
0
 10
143.6579828624477
 20
-104.9047576360663
 30
0.0
  0
VERTEX
  5
856
  8
0
 10
143.9060359445458
 20
-104.9549052354238
 30
0.0
  0
VERTEX
  5
857
  8
0
 10
144.1698817754808
 20
-104.9465697539565
 30
0.0
  0
VERTEX
  5
858
  8
0
 10
144.4393809079595
 20
-104.880071519542
 30
0.0
  0
VERTEX
  5
859
  8
0
 10
144.7041766414811
 20
-104.7579660220304
 30
0.0
  0
VERTEX
  5
85A
  8
0
 10
144.9540930245287
 20
-104.5849457072027
 30
0.0
  0
VERTEX
  5
85B
  8
0
 10
145.1795259106784
 20
-104.3676596487118
 30
0.0
  0
VERTEX
  5
85C
  8
0
 10
145.3718120405595
 20
-104.1144580279109
 30
0.0
  0
VERTEX
  5
85D
  8
0
 10
145.5235619660527
 20
-103.8350712410683
 30
0.0
  0
VERTEX
  5
85E
  8
0
 10
145.628944022637
 20
-103.5402359656959
 30
0.0
  0
VERTEX
  5
85F
  8
0
 10
145.6839084369859
 20
-103.241282556055
 30
0.0
  0
VERTEX
  5
860
  8
0
 10
145.6863429574853
 20
-102.9496996239968
 30
0.0
  0
VERTEX
  5
861
  8
0
 10
145.6361540268779
 20
-102.6766925380531
 30
0.0
  0
VERTEX
  5
862
  8
0
 10
145.5352703776162
 20
-102.432752807409
 30
0.0
  0
VERTEX
  5
863
  8
0
 10
145.3875689117564
 20
-102.2272548990885
 30
0.0
  0
VERTEX
  5
864
  8
0
 10
145.1987257137866
 20
-102.068095982446
 30
0.0
  0
SEQEND
  5
9CC
  8
0
  0
POLYLINE
  5
342
  8
0
 66
     1
 10
0.0
 20
0.0
 30
0.0
  0
VERTEX
  5
865
  8
0
 10
145.1987257137866
 20
-102.068095982446
 30
0.0
  0
VERTEX
  5
866
  8
0
 10
144.9759979211296
 20
-101.9613924451255
 30
0.0
  0
VERTEX
  5
867
  8
0
 10
144.7279448385239
 20
-101.911244844827
 30
0.0
  0
VERTEX
  5
868
  8
0
 10
144.4640990068632
 20
-101.9195803257146
 30
0.0
  0
VERTEX
  5
869
  8
0
 10
144.1945998735328
 20
-101.9860785599312
 30
0.0
  0
VERTEX
  5
86A
  8
0
 10
143.929804139132
 20
-102.1081840576181
 30
0.0
  0
VERTEX
  5
86B
  8
0
 10
143.6798877552761
 20
-102.2812043729576
 30
0.0
  0
VERTEX
  5
86C
  8
0
 10
143.4544548684809
 20
-102.4984904322351
 30
0.0
  0
VERTEX
  5
86D
  8
0
 10
143.2621687381971
 20
-102.751692054014
 30
0.0
  0
VERTEX
  5
86E
  8
0
 10
143.1104188126061
 20
-103.0310788419268
 30
0.0
  0
VERTEX
  5
86F
  8
0
 10
143.0050367562698
 20
-103.3259141183525
 30
0.0
  0
VERTEX
  5
870
  8
0
 10
142.9500723425308
 20
-103.6248675289172
 30
0.0
  0
VERTEX
  5
871
  8
0
 10
142.9476378229933
 20
-103.9164504616613
 30
0.0
  0
VERTEX
  5
872
  8
0
 10
142.9978267548781
 20
-104.1894575479555
 30
0.0
  0
VERTEX
  5
873
  8
0
 10
143.0987104056713
 20
-104.4333972785349
 30
0.0
  0
VERTEX
  5
874
  8
0
 10
143.2464118732335
 20
-104.6388951863183
 30
0.0
  0
VERTEX
  5
875
  8
0
 10
143.4352550729751
 20
-104.7980541019218
 30
0.0
  0
SEQEND
  5
9CD
  8
0
  0
POLYLINE
  5
343
  8
0
 66
     1
 10
0.0
 20
0.0
 30
0.0
  0
VERTEX
  5
876
  8
0
 10
143.101215359037
 20
-104.437901608825
 30
0.0
  0
VERTEX
  5
877
  8
0
 10
143.3657359118551
 20
-104.4306155612382
 30
0.0
  0
VERTEX
  5
878
  8
0
 10
143.6361198802934
 20
-104.3647566868421
 30
0.0
  0
VERTEX
  5
879
  8
0
 10
143.9019075718617
 20
-104.2428727090758
 30
0.0
  0
VERTEX
  5
87A
  8
0
 10
144.1528170991478
 20
-104.0696786594343
 30
0.0
  0
VERTEX
  5
87B
  8
0
 10
144.3791421303987
 20
-103.8518744784166
 30
0.0
  0
VERTEX
  5
87C
  8
0
 10
144.5721273749682
 20
-103.597885831086
 30
0.0
  0
VERTEX
  5
87D
  8
0
 10
144.7243072781304
 20
-103.3175381636867
 30
0.0
  0
VERTEX
  5
87E
  8
0
 10
144.8297948229905
 20
-103.0216766103008
 30
0.0
  0
VERTEX
  5
87F
  8
0
 10
144.8845092673093
 20
-102.7217464533022
 30
0.0
  0
VERTEX
  5
880
  8
0
 10
144.8863340053366
 20
-102.4293503673203
 30
0.0
  0
VERTEX
  5
881
  8
0
 10
144.835198447833
 20
-102.1557995745493
 30
0.0
  0
VERTEX
  5
882
  8
0
 10
144.733080752786
 20
-101.9116762747751
 30
0.0
  0
SEQEND
  5
9CE
  8
0
  0
LINE
  5
344
  8
0
 10
147.9126505
 20
-99.54222118
 30
0.0
 11
140.72133028
 21
-101.38679693
 31
0.0
  0
LINE
  5
345
  8
0
 10
139.92164561
 20
-100.87022475
 30
0.0
 11
147.11296583
 21
-99.02564899
 31
0.0
  0
POLYLINE
  5
346
  8
0
 66
     1
 10
0.0
 20
0.0
 30
0.0
  0
VERTEX
  5
883
  8
0
 10
148.4552568523302
 20
-99.61563899150525
 30
0.0
  0
VERTEX
  5
884
  8
0
 10
148.3346385444954
 20
-99.55571270878309
 30
0.0
  0
VERTEX
  5
885
  8
0
 10
148.2012669516193
 20
-99.5229835283022
 30
0.0
  0
VERTEX
  5
886
  8
0
 10
148.0591728180855
 20
-99.51844058843581
 30
0.0
  0
VERTEX
  5
887
  8
0
 10
147.9126505001237
 20
-99.54222118550732
 30
0.0
  0
SEQEND
  5
9CF
  8
0
  0
POLYLINE
  5
347
  8
0
 66
     1
 10
0.0
 20
0.0
 30
0.0
  0
VERTEX
  5
888
  8
0
 10
148.7586881714586
 20
-100.2386171893649
 30
0.0
  0
VERTEX
  5
889
  8
0
 10
148.7385477722571
 20
-100.0456682008171
 30
0.0
  0
VERTEX
  5
88A
  8
0
 10
148.6790854803511
 20
-99.8722377662911
 30
0.0
  0
VERTEX
  5
88B
  8
0
 10
148.5831323619528
 20
-99.72658310271602
 30
0.0
  0
VERTEX
  5
88C
  8
0
 10
148.4552568523302
 20
-99.61563899150525
 30
0.0
  0
SEQEND
  5
9D0
  8
0
  0
LINE
  5
348
  8
0
 10
148.75868818
 20
-111.1994762
 30
0.0
 11
148.75868818
 21
-100.23861718
 31
0.0
  0
POLYLINE
  5
349
  8
0
 66
     1
 10
0.0
 20
0.0
 30
0.0
  0
VERTEX
  5
88D
  8
0
 10
146.0090657469646
 20
-111.9047551757211
 30
0.0
  0
VERTEX
  5
88E
  8
0
 10
145.7136052878473
 20
-111.4929235583367
 30
0.0
  0
VERTEX
  5
88F
  8
0
 10
145.3590498810546
 20
-111.1988690335958
 30
0.0
  0
VERTEX
  5
890
  8
0
 10
144.9604018248181
 20
-111.0350339267094
 30
0.0
  0
VERTEX
  5
891
  8
0
 10
144.5345291090617
 20
-111.0083505903852
 30
0.0
  0
VERTEX
  5
892
  8
0
 10
144.0994516803668
 20
-111.1199480762798
 30
0.0
  0
VERTEX
  5
893
  8
0
 10
143.6735789642115
 20
-111.3651043614503
 30
0.0
  0
VERTEX
  5
894
  8
0
 10
143.274930907194
 20
-111.7334461512495
 30
0.0
  0
VERTEX
  5
895
  8
0
 10
142.9203754992712
 20
-112.2093878044039
 30
0.0
  0
VERTEX
  5
896
  8
0
 10
142.6249150387227
 20
-112.772790808047
 30
0.0
  0
SEQEND
  5
9D1
  8
0
  0
LINE
  5
34A
  8
0
 10
139.87529261
 20
-102.51721076
 30
0.0
 11
139.87529261
 21
-113.47806978
 31
0.0
  0
POLYLINE
  5
34B
  8
0
 66
     1
 10
0.0
 20
0.0
 30
0.0
  0
VERTEX
  5
897
  8
0
 10
140.7213302801237
 20
-101.3867969355073
 30
0.0
  0
VERTEX
  5
898
  8
0
 10
140.5562765190634
 20
-101.4466840933128
 30
0.0
  0
VERTEX
  5
899
  8
0
 10
140.3975656814181
 20
-101.5393714595666
 30
0.0
  0
VERTEX
  5
89A
  8
0
 10
140.2512969356197
 20
-101.661297110794
 30
0.0
  0
VERTEX
  5
89B
  8
0
 10
140.1230913074923
 20
-101.8077755126355
 30
0.0
  0
VERTEX
  5
89C
  8
0
 10
140.0178756673839
 20
-101.9731775823029
 30
0.0
  0
VERTEX
  5
89D
  8
0
 10
139.9396933933032
 20
-102.1511470110721
 30
0.0
  0
VERTEX
  5
89E
  8
0
 10
139.8915489861723
 20
-102.334844533661
 30
0.0
  0
VERTEX
  5
89F
  8
0
 10
139.8752926085414
 20
-102.5172107573562
 30
0.0
  0
SEQEND
  5
9D2
  8
0
  0
POLYLINE
  5
34C
  8
0
 66
     1
 10
0.0
 20
0.0
 30
0.0
  0
VERTEX
  5
34D
  8
0
 10
139.07560794
 20
-112.96149759
 30
0.0
  0
VERTEX
  5
34E
  8
0
 10
139.07560794
 20
-102.00063858
 30
0.0
  0
SEQEND
  5
34F
  8
0
  0
POLYLINE
  5
350
  8
0
 66
     1
 10
0.0
 20
0.0
 30
0.0
  0
VERTEX
  5
8A0
  8
0
 10
139.9216456101237
 20
-100.8702247455073
 30
0.0
  0
VERTEX
  5
8A1
  8
0
 10
139.7565918490635
 20
-100.9301119033128
 30
0.0
  0
VERTEX
  5
8A2
  8
0
 10
139.5978810114181
 20
-101.0227992695666
 30
0.0
  0
VERTEX
  5
8A3
  8
0
 10
139.4516122656197
 20
-101.144724920794
 30
0.0
  0
VERTEX
  5
8A4
  8
0
 10
139.3234066374923
 20
-101.2912033226355
 30
0.0
  0
VERTEX
  5
8A5
  8
0
 10
139.2181909973839
 20
-101.4566053923029
 30
0.0
  0
VERTEX
  5
8A6
  8
0
 10
139.1400087233032
 20
-101.6345748210721
 30
0.0
  0
VERTEX
  5
8A7
  8
0
 10
139.0918643161723
 20
-101.818272343661
 30
0.0
  0
VERTEX
  5
8A8
  8
0
 10
139.0756079385415
 20
-102.0006385673562
 30
0.0
  0
SEQEND
  5
9D3
  8
0
  0
LINE
  5
351
  8
0
 10
148.45525685
 20
-99.61563898
 30
0.0
 11
147.65557218
 21
-99.0990668
 31
0.0
  0
POLYLINE
  5
352
  8
0
 66
     1
 10
0.0
 20
0.0
 30
0.0
  0
VERTEX
  5
8A9
  8
0
 10
147.6555721823302
 20
-99.09906680150524
 30
0.0
  0
VERTEX
  5
8AA
  8
0
 10
147.5349538744954
 20
-99.03914051878309
 30
0.0
  0
VERTEX
  5
8AB
  8
0
 10
147.4015822816193
 20
-99.0064113383022
 30
0.0
  0
VERTEX
  5
8AC
  8
0
 10
147.2594881480855
 20
-99.0018683984358
 30
0.0
  0
VERTEX
  5
8AD
  8
0
 10
147.1129658301237
 20
-99.02564899550731
 30
0.0
  0
SEQEND
  5
9D4
  8
0
  0
LINE
  5
353
  8
0
  6
STRICHPUNKT2
 62
     1
 10
143.26216874
 20
-102.75169206
 30
0.0
 11
144.75015292
 21
-103.71288497
 31
0.0
  0
LINE
  5
354
  8
0
  6
STRICHPUNKT2
 62
     1
 10
143.51730572
 20
-102.91650285
 30
0.0
 11
143.51730572
 21
-104.40078584
 31
0.0
  0
LINE
  5
355
  8
0
  6
STRICHPUNKT2
 62
     1
 10
143.51730572
 20
-102.91650285
 30
0.0
 11
143.51730572
 21
-102.43084033
 31
0.0
  0
LINE
  5
356
  8
0
  6
STRICHPUNKT2
 62
     1
 10
143.51730572
 20
-102.91650285
 30
0.0
 11
143.11563205
 21
-103.01953227
 31
0.0
  0
LINE
  5
357
  8
0
  6
STRICHPUNKT2
 62
     1
 10
143.51730572
 20
-102.91650285
 30
0.0
 11
144.89211694
 21
-102.56386337
 31
0.0
  0
LINE
  5
358
  8
0
  6
STRICHPUNKT2
 62
     1
 10
144.31699039
 20
-103.43307504
 30
0.0
 11
144.31699039
 21
-105.65949953
 31
0.0
  0
LINE
  5
359
  8
0
  6
STRICHPUNKT2
 62
     1
 10
144.31699039
 20
-103.43307504
 30
0.0
 11
144.31699039
 21
-101.20665055
 31
0.0
  0
LINE
  5
35A
  8
0
  6
STRICHPUNKT2
 62
     1
 10
144.31699039
 20
-103.43307504
 30
0.0
 11
142.25477357
 21
-103.96203426
 31
0.0
  0
LINE
  5
35B
  8
0
  6
STRICHPUNKT2
 62
     1
 10
144.31699039
 20
-103.43307504
 30
0.0
 11
146.37920722
 21
-102.90411581
 31
0.0
  0
POLYLINE
  5
35C
  8
0
 66
     1
 10
0.0
 20
0.0
 30
0.0
  0
VERTEX
  5
35D
  8
0
 10
107.93737046
 20
-121.67015622
 30
0.0
  0
VERTEX
  5
35E
  8
0
 10
107.99385521
 20
-121.77733851
 30
0.0
  0
VERTEX
  5
35F
  8
0
 10
108.05534453
 20
-121.90828419
 30
0.0
  0
VERTEX
  5
360
  8
0
 10
108.09961568
 20
-122.01050978
 30
0.0
  0
SEQEND
  5
361
  8
0
  0
POLYLINE
  5
362
  8
0
 66
     1
 10
0.0
 20
0.0
 30
0.0
  0
VERTEX
  5
363
  8
0
 10
108.66327884
 20
-123.34034864
 30
0.0
  0
VERTEX
  5
364
  8
0
 10
108.69141816
 20
-123.40889809
 30
0.0
  0
VERTEX
  5
365
  8
0
 10
108.71004379
 20
-123.45929935
 30
0.0
  0
VERTEX
  5
366
  8
0
 10
108.72310376
 20
-123.49979493
 30
0.0
  0
VERTEX
  5
367
  8
0
 10
108.73705513
 20
-123.55683577
 30
0.0
  0
SEQEND
  5
368
  8
0
  0
POLYLINE
  5
369
  8
0
 66
     1
 10
0.0
 20
0.0
 30
0.0
  0
VERTEX
  5
8AE
  8
0
 10
110.6869928787701
 20
-120.9648772514193
 30
0.0
  0
VERTEX
  5
8AF
  8
0
 10
110.7023585951223
 20
-121.2420977311637
 30
0.0
  0
VERTEX
  5
8B0
  8
0
 10
110.7478652495663
 20
-121.5285163628861
 30
0.0
  0
VERTEX
  5
8B1
  8
0
 10
110.821764046885
 20
-121.8131262391501
 30
0.0
  0
VERTEX
  5
8B2
  8
0
 10
110.9212150977289
 20
-122.0849899619775
 30
0.0
  0
VERTEX
  5
8B3
  8
0
 10
111.0423965539712
 20
-122.3336599609202
 30
0.0
  0
VERTEX
  5
8B4
  8
0
 10
111.180651480189
 20
-122.549579987336
 30
0.0
  0
VERTEX
  5
8B5
  8
0
 10
111.3306668170804
 20
-122.7244523556652
 30
0.0
  0
VERTEX
  5
8B6
  8
0
 10
111.4866775593548
 20
-122.8515568188352
 30
0.0
  0
SEQEND
  5
9D5
  8
0
  0
POLYLINE
  5
36A
  8
0
 66
     1
 10
0.0
 20
0.0
 30
0.0
  0
VERTEX
  5
8B7
  8
0
 10
101.8035973187701
 20
-123.2434708314193
 30
0.0
  0
VERTEX
  5
8B8
  8
0
 10
101.8189630351223
 20
-123.5206913111637
 30
0.0
  0
VERTEX
  5
8B9
  8
0
 10
101.8644696895663
 20
-123.8071099428861
 30
0.0
  0
VERTEX
  5
8BA
  8
0
 10
101.938368486885
 20
-124.0917198191501
 30
0.0
  0
VERTEX
  5
8BB
  8
0
 10
102.0378195377289
 20
-124.3635835419774
 30
0.0
  0
VERTEX
  5
8BC
  8
0
 10
102.1590009939712
 20
-124.6122535409202
 30
0.0
  0
VERTEX
  5
8BD
  8
0
 10
102.297255920189
 20
-124.828173567336
 30
0.0
  0
VERTEX
  5
8BE
  8
0
 10
102.4472712570804
 20
-125.0030459356652
 30
0.0
  0
VERTEX
  5
8BF
  8
0
 10
102.6032819993547
 20
-125.1301503988352
 30
0.0
  0
SEQEND
  5
9D6
  8
0
  0
POLYLINE
  5
36B
  8
0
 66
     1
 10
0.0
 20
0.0
 30
0.0
  0
VERTEX
  5
36C
  8
0
 10
105.35290443
 20
-124.42487143
 30
0.0
  0
VERTEX
  5
36D
  8
0
 10
105.26806868
 20
-124.40147878
 30
0.0
  0
VERTEX
  5
36E
  8
0
 10
105.18739602
 20
-124.37203094
 30
0.0
  0
VERTEX
  5
36F
  8
0
 10
105.11055248
 20
-124.33657653
 30
0.0
  0
VERTEX
  5
370
  8
0
 10
105.03724198
 20
-124.2950793
 30
0.0
  0
VERTEX
  5
371
  8
0
 10
104.96721128
 20
-124.24741941
 30
0.0
  0
VERTEX
  5
372
  8
0
 10
104.9002542
 20
-124.19339621
 30
0.0
  0
VERTEX
  5
373
  8
0
 10
104.87252746
 20
-124.16829365
 30
0.0
  0
VERTEX
  5
374
  8
0
 10
104.80966736
 20
-124.10463382
 30
0.0
  0
VERTEX
  5
375
  8
0
 10
104.75022036
 20
-124.03441493
 30
0.0
  0
VERTEX
  5
376
  8
0
 10
104.69455389
 20
-123.95775535
 30
0.0
  0
VERTEX
  5
377
  8
0
 10
104.64304542
 20
-123.87481297
 30
0.0
  0
VERTEX
  5
378
  8
0
 10
104.59607452
 20
-123.78578592
 30
0.0
  0
VERTEX
  5
379
  8
0
 10
104.56421808
 20
-123.71556157
 30
0.0
  0
VERTEX
  5
37A
  8
0
 10
104.52661656
 20
-123.61794346
 30
0.0
  0
VERTEX
  5
37B
  8
0
 10
104.49536615
 20
-123.51745487
 30
0.0
  0
VERTEX
  5
37C
  8
0
 10
104.47074196
 20
-123.4148183
 30
0.0
  0
VERTEX
  5
37D
  8
0
 10
104.45296129
 20
-123.31082026
 30
0.0
  0
VERTEX
  5
37E
  8
0
 10
104.44217037
 20
-123.2062883
 30
0.0
  0
VERTEX
  5
37F
  8
0
 10
104.43914642
 20
-123.14582668
 30
0.0
  0
VERTEX
  5
380
  8
0
 10
104.43952307
 20
-123.04212439
 30
0.0
  0
VERTEX
  5
381
  8
0
 10
104.44693832
 20
-122.94056876
 30
0.0
  0
VERTEX
  5
382
  8
0
 10
104.46125572
 20
-122.84133179
 30
0.0
  0
VERTEX
  5
383
  8
0
 10
104.4823531
 20
-122.74453672
 30
0.0
  0
VERTEX
  5
384
  8
0
 10
104.51013171
 20
-122.65026765
 30
0.0
  0
VERTEX
  5
385
  8
0
 10
104.54452329
 20
-122.55857938
 30
0.0
  0
VERTEX
  5
386
  8
0
 10
104.55321976
 20
-122.53819187
 30
0.0
  0
SEQEND
  5
387
  8
0
  0
POLYLINE
  5
388
  8
0
 66
     1
 10
0.0
 20
0.0
 30
0.0
  0
VERTEX
  5
8C0
  8
0
 10
101.0039126422005
 20
-122.7268986385301
 30
0.0
  0
VERTEX
  5
8C1
  8
0
 10
101.0346440730894
 20
-123.281339597659
 30
0.0
  0
VERTEX
  5
8C2
  8
0
 10
101.1256573800524
 20
-123.8541768609233
 30
0.0
  0
VERTEX
  5
8C3
  8
0
 10
101.2734549727295
 20
-124.4233966134571
 30
0.0
  0
VERTEX
  5
8C4
  8
0
 10
101.4723570724969
 20
-124.9671240593037
 30
0.0
  0
VERTEX
  5
8C5
  8
0
 10
101.7147199831751
 20
-125.4644640575599
 30
0.0
  0
VERTEX
  5
8C6
  8
0
 10
101.9912298339873
 20
-125.8963041109266
 30
0.0
  0
VERTEX
  5
8C7
  8
0
 10
102.2912605063924
 20
-126.2460488482641
 30
0.0
  0
VERTEX
  5
8C8
  8
0
 10
102.6032819898619
 20
-126.5002577754009
 30
0.0
  0
SEQEND
  5
9D7
  8
0
  0
POLYLINE
  5
389
  8
0
 66
     1
 10
0.0
 20
0.0
 30
0.0
  0
VERTEX
  5
8C9
  8
0
 10
105.36355979
 20
-114.56345515
 30
0.0
  0
VERTEX
  5
8CA
  8
0
 10
105.5862875824477
 20
-114.6701586860663
 30
0.0
  0
VERTEX
  5
8CB
  8
0
 10
105.8343406645458
 20
-114.7203062854238
 30
0.0
  0
VERTEX
  5
8CC
  8
0
 10
106.0981864954808
 20
-114.7119708039565
 30
0.0
  0
VERTEX
  5
8CD
  8
0
 10
106.3676856279595
 20
-114.645472569542
 30
0.0
  0
VERTEX
  5
8CE
  8
0
 10
106.6324813614811
 20
-114.5233670720304
 30
0.0
  0
VERTEX
  5
8CF
  8
0
 10
106.8823977445287
 20
-114.3503467572027
 30
0.0
  0
VERTEX
  5
8D0
  8
0
 10
107.1078306306784
 20
-114.1330606987118
 30
0.0
  0
VERTEX
  5
8D1
  8
0
 10
107.3001167605595
 20
-113.8798590779109
 30
0.0
  0
VERTEX
  5
8D2
  8
0
 10
107.4518666860527
 20
-113.6004722910683
 30
0.0
  0
VERTEX
  5
8D3
  8
0
 10
107.557248742637
 20
-113.3056370156959
 30
0.0
  0
VERTEX
  5
8D4
  8
0
 10
107.6122131569859
 20
-113.006683606055
 30
0.0
  0
VERTEX
  5
8D5
  8
0
 10
107.6146476774853
 20
-112.7151006739967
 30
0.0
  0
VERTEX
  5
8D6
  8
0
 10
107.5644587468779
 20
-112.4420935880531
 30
0.0
  0
VERTEX
  5
8D7
  8
0
 10
107.4635750976162
 20
-112.198153857409
 30
0.0
  0
VERTEX
  5
8D8
  8
0
 10
107.3158736317564
 20
-111.9926559490885
 30
0.0
  0
VERTEX
  5
8D9
  8
0
 10
107.1270304337866
 20
-111.833497032446
 30
0.0
  0
SEQEND
  5
9D8
  8
0
  0
POLYLINE
  5
38A
  8
0
 66
     1
 10
0.0
 20
0.0
 30
0.0
  0
VERTEX
  5
8DA
  8
0
 10
107.1270304337866
 20
-111.833497032446
 30
0.0
  0
VERTEX
  5
8DB
  8
0
 10
106.9043026411296
 20
-111.7267934951255
 30
0.0
  0
VERTEX
  5
8DC
  8
0
 10
106.6562495585239
 20
-111.676645894827
 30
0.0
  0
VERTEX
  5
8DD
  8
0
 10
106.3924037268632
 20
-111.6849813757146
 30
0.0
  0
VERTEX
  5
8DE
  8
0
 10
106.1229045935328
 20
-111.7514796099312
 30
0.0
  0
VERTEX
  5
8DF
  8
0
 10
105.8581088591321
 20
-111.8735851076181
 30
0.0
  0
VERTEX
  5
8E0
  8
0
 10
105.6081924752761
 20
-112.0466054229576
 30
0.0
  0
VERTEX
  5
8E1
  8
0
 10
105.3827595884809
 20
-112.2638914822351
 30
0.0
  0
VERTEX
  5
8E2
  8
0
 10
105.1904734581971
 20
-112.517093104014
 30
0.0
  0
VERTEX
  5
8E3
  8
0
 10
105.0387235326061
 20
-112.7964798919268
 30
0.0
  0
VERTEX
  5
8E4
  8
0
 10
104.9333414762698
 20
-113.0913151683525
 30
0.0
  0
VERTEX
  5
8E5
  8
0
 10
104.8783770625308
 20
-113.3902685789172
 30
0.0
  0
VERTEX
  5
8E6
  8
0
 10
104.8759425429933
 20
-113.6818515116613
 30
0.0
  0
VERTEX
  5
8E7
  8
0
 10
104.9261314748781
 20
-113.9548585979555
 30
0.0
  0
VERTEX
  5
8E8
  8
0
 10
105.0270151256713
 20
-114.1987983285349
 30
0.0
  0
VERTEX
  5
8E9
  8
0
 10
105.1747165932335
 20
-114.4042962363182
 30
0.0
  0
VERTEX
  5
8EA
  8
0
 10
105.363559792975
 20
-114.5634551519218
 30
0.0
  0
SEQEND
  5
9D9
  8
0
  0
POLYLINE
  5
38B
  8
0
 66
     1
 10
0.0
 20
0.0
 30
0.0
  0
VERTEX
  5
8EB
  8
0
 10
105.029520069037
 20
-114.203302668825
 30
0.0
  0
VERTEX
  5
8EC
  8
0
 10
105.2940406218551
 20
-114.1960166212382
 30
0.0
  0
VERTEX
  5
8ED
  8
0
 10
105.5644245902934
 20
-114.1301577468421
 30
0.0
  0
VERTEX
  5
8EE
  8
0
 10
105.8302122818617
 20
-114.0082737690758
 30
0.0
  0
VERTEX
  5
8EF
  8
0
 10
106.0811218091478
 20
-113.8350797194343
 30
0.0
  0
VERTEX
  5
8F0
  8
0
 10
106.3074468403987
 20
-113.6172755384166
 30
0.0
  0
VERTEX
  5
8F1
  8
0
 10
106.5004320849682
 20
-113.363286891086
 30
0.0
  0
VERTEX
  5
8F2
  8
0
 10
106.6526119881304
 20
-113.0829392236867
 30
0.0
  0
VERTEX
  5
8F3
  8
0
 10
106.7580995329905
 20
-112.7870776703008
 30
0.0
  0
VERTEX
  5
8F4
  8
0
 10
106.8128139773093
 20
-112.4871475133022
 30
0.0
  0
VERTEX
  5
8F5
  8
0
 10
106.8146387153365
 20
-112.1947514273203
 30
0.0
  0
VERTEX
  5
8F6
  8
0
 10
106.763503157833
 20
-111.9212006345493
 30
0.0
  0
VERTEX
  5
8F7
  8
0
 10
106.661385462786
 20
-111.6770773347751
 30
0.0
  0
SEQEND
  5
9DA
  8
0
  0
LINE
  5
38C
  8
0
 10
109.84095522
 20
-109.30762223
 30
0.0
 11
102.649635
 21
-111.15219799
 31
0.0
  0
LINE
  5
38D
  8
0
 10
101.84995032
 20
-110.6356258
 30
0.0
 11
109.04127054
 21
-108.79105005
 31
0.0
  0
POLYLINE
  5
38E
  8
0
 66
     1
 10
0.0
 20
0.0
 30
0.0
  0
VERTEX
  5
8F8
  8
0
 10
110.3835615723302
 20
-109.3810400415052
 30
0.0
  0
VERTEX
  5
8F9
  8
0
 10
110.2629432644954
 20
-109.3211137587831
 30
0.0
  0
VERTEX
  5
8FA
  8
0
 10
110.1295716716193
 20
-109.2883845783022
 30
0.0
  0
VERTEX
  5
8FB
  8
0
 10
109.9874775380855
 20
-109.2838416384358
 30
0.0
  0
VERTEX
  5
8FC
  8
0
 10
109.8409552201237
 20
-109.3076222355073
 30
0.0
  0
SEQEND
  5
9DB
  8
0
  0
POLYLINE
  5
38F
  8
0
 66
     1
 10
0.0
 20
0.0
 30
0.0
  0
VERTEX
  5
8FD
  8
0
 10
110.6869928914585
 20
-110.0040182393649
 30
0.0
  0
VERTEX
  5
8FE
  8
0
 10
110.6668524922571
 20
-109.8110692508171
 30
0.0
  0
VERTEX
  5
8FF
  8
0
 10
110.6073902003511
 20
-109.6376388162911
 30
0.0
  0
VERTEX
  5
900
  8
0
 10
110.5114370819528
 20
-109.491984152716
 30
0.0
  0
VERTEX
  5
901
  8
0
 10
110.3835615723302
 20
-109.3810400415052
 30
0.0
  0
SEQEND
  5
9DC
  8
0
  0
LINE
  5
390
  8
0
 10
110.68699289
 20
-120.96487725
 30
0.0
 11
110.68699289
 21
-110.00401824
 31
0.0
  0
POLYLINE
  5
391
  8
0
 66
     1
 10
0.0
 20
0.0
 30
0.0
  0
VERTEX
  5
902
  8
0
 10
107.9373704669645
 20
-121.6701562357211
 30
0.0
  0
VERTEX
  5
903
  8
0
 10
107.6419100078473
 20
-121.2583246183367
 30
0.0
  0
VERTEX
  5
904
  8
0
 10
107.2873546010546
 20
-120.9642700935958
 30
0.0
  0
VERTEX
  5
905
  8
0
 10
106.8887065448181
 20
-120.8004349867094
 30
0.0
  0
VERTEX
  5
906
  8
0
 10
106.4628338290617
 20
-120.7737516503852
 30
0.0
  0
VERTEX
  5
907
  8
0
 10
106.0277564003668
 20
-120.8853491362798
 30
0.0
  0
VERTEX
  5
908
  8
0
 10
105.6018836842114
 20
-121.1305054214504
 30
0.0
  0
VERTEX
  5
909
  8
0
 10
105.203235627194
 20
-121.4988472112495
 30
0.0
  0
VERTEX
  5
90A
  8
0
 10
104.8486802192712
 20
-121.9747888644039
 30
0.0
  0
VERTEX
  5
90B
  8
0
 10
104.5532197587227
 20
-122.538191868047
 30
0.0
  0
SEQEND
  5
9DD
  8
0
  0
LINE
  5
392
  8
0
 10
101.80359732
 20
-112.28261182
 30
0.0
 11
101.80359732
 21
-123.24347083
 31
0.0
  0
POLYLINE
  5
393
  8
0
 66
     1
 10
0.0
 20
0.0
 30
0.0
  0
VERTEX
  5
90C
  8
0
 10
102.6496350001237
 20
-111.1521979955073
 30
0.0
  0
VERTEX
  5
90D
  8
0
 10
102.4845812390634
 20
-111.2120851533128
 30
0.0
  0
VERTEX
  5
90E
  8
0
 10
102.3258704014181
 20
-111.3047725195666
 30
0.0
  0
VERTEX
  5
90F
  8
0
 10
102.1796016556197
 20
-111.426698170794
 30
0.0
  0
VERTEX
  5
910
  8
0
 10
102.0513960274923
 20
-111.5731765726355
 30
0.0
  0
VERTEX
  5
911
  8
0
 10
101.9461803873839
 20
-111.7385786423029
 30
0.0
  0
VERTEX
  5
912
  8
0
 10
101.8679981133032
 20
-111.9165480710721
 30
0.0
  0
VERTEX
  5
913
  8
0
 10
101.8198537061723
 20
-112.100245593661
 30
0.0
  0
VERTEX
  5
914
  8
0
 10
101.8035973285414
 20
-112.2826118173562
 30
0.0
  0
SEQEND
  5
9DE
  8
0
  0
POLYLINE
  5
394
  8
0
 66
     1
 10
0.0
 20
0.0
 30
0.0
  0
VERTEX
  5
395
  8
0
 10
101.00391265
 20
-122.72689865
 30
0.0
  0
VERTEX
  5
396
  8
0
 10
101.00391265
 20
-111.76603963
 30
0.0
  0
SEQEND
  5
397
  8
0
  0
POLYLINE
  5
398
  8
0
 66
     1
 10
0.0
 20
0.0
 30
0.0
  0
VERTEX
  5
915
  8
0
 10
101.8499503201237
 20
-110.6356258055073
 30
0.0
  0
VERTEX
  5
916
  8
0
 10
101.6848965590634
 20
-110.6955129633128
 30
0.0
  0
VERTEX
  5
917
  8
0
 10
101.5261857214181
 20
-110.7882003295666
 30
0.0
  0
VERTEX
  5
918
  8
0
 10
101.3799169756197
 20
-110.910125980794
 30
0.0
  0
VERTEX
  5
919
  8
0
 10
101.2517113474923
 20
-111.0566043826355
 30
0.0
  0
VERTEX
  5
91A
  8
0
 10
101.1464957073839
 20
-111.2220064523029
 30
0.0
  0
VERTEX
  5
91B
  8
0
 10
101.0683134333032
 20
-111.3999758810721
 30
0.0
  0
VERTEX
  5
91C
  8
0
 10
101.0201690261723
 20
-111.583673403661
 30
0.0
  0
VERTEX
  5
91D
  8
0
 10
101.0039126485414
 20
-111.7660396273562
 30
0.0
  0
SEQEND
  5
9DF
  8
0
  0
LINE
  5
399
  8
0
 10
110.38356157
 20
-109.38104004
 30
0.0
 11
109.58387689
 21
-108.86446785
 31
0.0
  0
POLYLINE
  5
39A
  8
0
 66
     1
 10
0.0
 20
0.0
 30
0.0
  0
VERTEX
  5
91E
  8
0
 10
109.5838768923302
 20
-108.8644678615052
 30
0.0
  0
VERTEX
  5
91F
  8
0
 10
109.4632585844954
 20
-108.8045415787831
 30
0.0
  0
VERTEX
  5
920
  8
0
 10
109.3298869916193
 20
-108.7718123983022
 30
0.0
  0
VERTEX
  5
921
  8
0
 10
109.1877928580855
 20
-108.7672694584358
 30
0.0
  0
VERTEX
  5
922
  8
0
 10
109.0412705401237
 20
-108.7910500555073
 30
0.0
  0
SEQEND
  5
9E0
  8
0
  0
LINE
  5
39B
  8
0
  6
STRICHPUNKT2
 62
     1
 10
105.19047345
 20
-112.51709311
 30
0.0
 11
106.67845764
 21
-113.47828603
 31
0.0
  0
LINE
  5
39C
  8
0
  6
STRICHPUNKT2
 62
     1
 10
105.44561043
 20
-112.68190391
 30
0.0
 11
105.44561043
 21
-114.1661869
 31
0.0
  0
LINE
  5
39D
  8
0
  6
STRICHPUNKT2
 62
     1
 10
105.44561043
 20
-112.68190391
 30
0.0
 11
105.44561043
 21
-112.19624139
 31
0.0
  0
LINE
  5
39E
  8
0
  6
STRICHPUNKT2
 62
     1
 10
105.44561043
 20
-112.68190391
 30
0.0
 11
105.04393676
 21
-112.78493332
 31
0.0
  0
LINE
  5
39F
  8
0
  6
STRICHPUNKT2
 62
     1
 10
105.44561043
 20
-112.68190391
 30
0.0
 11
106.82042165
 21
-112.32926443
 31
0.0
  0
LINE
  5
3A0
  8
0
  6
STRICHPUNKT2
 62
     1
 10
106.24529511
 20
-113.19847609
 30
0.0
 11
106.24529511
 21
-115.42490058
 31
0.0
  0
LINE
  5
3A1
  8
0
  6
STRICHPUNKT2
 62
     1
 10
106.24529511
 20
-113.19847609
 30
0.0
 11
106.24529511
 21
-110.97205161
 31
0.0
  0
LINE
  5
3A2
  8
0
  6
STRICHPUNKT2
 62
     1
 10
106.24529511
 20
-113.19847609
 30
0.0
 11
104.18307828
 21
-113.72743532
 31
0.0
  0
LINE
  5
3A3
  8
0
  6
STRICHPUNKT2
 62
     1
 10
106.24529511
 20
-113.19847609
 30
0.0
 11
108.30751193
 21
-112.66951687
 31
0.0
  0
LINE
  5
3A4
  8
0
 10
337.72660303
 20
-66.06235088
 30
0.0
 11
334.81238947
 21
-63.14813732
 31
0.0
  0
LINE
  5
3A5
  8
0
  6
STRICHPUNKT2
 62
     1
 10
328.31238947
 20
-74.31235088
 30
0.0
 11
328.31238947
 21
-75.68735088
 31
0.0
  0
LINE
  5
3A6
  8
0
  6
STRICHPUNKT2
 62
     1
 10
357.45363226
 20
-74.31235088
 30
0.0
 11
357.45363226
 21
-75.81235088
 31
0.0
  0
LINE
  5
3A7
  8
0
  6
STRICHPUNKT2
 62
     1
 10
364.17114668
 20
-74.31235088
 30
0.0
 11
364.17114668
 21
-75.81235088
 31
0.0
  0
LINE
  5
3A8
  8
0
  6
STRICHPUNKT2
 62
     1
 10
349.17114668
 20
-74.31235088
 30
0.0
 11
349.17114668
 21
-75.81235088
 31
0.0
  0
LINE
  5
3A9
  8
0
  6
STRICHPUNKT2
 62
     1
 10
342.45363226
 20
-74.31235088
 30
0.0
 11
342.45363226
 21
-75.81235088
 31
0.0
  0
LINE
  5
3AA
  8
0
  6
STRICHPUNKT2
 62
     1
 10
220.81238947
 20
-74.31235088
 30
0.0
 11
220.81238947
 21
-75.68735088
 31
0.0
  0
LINE
  5
3AB
  8
0
 10
370.81238947
 20
-74.31235088
 30
0.0
 11
213.31238947
 21
-74.31235088
 31
0.0
  0
LINE
  5
3AC
  8
0
 10
213.31238947
 20
-71.31235088
 30
0.0
 11
213.31238947
 21
-74.31235088
 31
0.0
  0
LINE
  5
3AD
  8
0
 10
370.81238947
 20
-74.31235088
 30
0.0
 11
370.81238947
 21
-71.31235088
 31
0.0
  0
LINE
  5
3AE
  8
0
 10
213.31238947
 20
-69.06235088
 30
0.0
 11
213.31238947
 21
-71.31235088
 31
0.0
  0
LINE
  5
3AF
  8
0
 10
370.81238947
 20
-71.31235088
 30
0.0
 11
370.81238947
 21
-69.06235088
 31
0.0
  0
LINE
  5
3B0
  8
0
 10
213.31238947
 20
-67.56235088
 30
0.0
 11
213.31238947
 21
-69.06235088
 31
0.0
  0
POLYLINE
  5
3B1
  8
0
 66
     1
 10
0.0
 20
0.0
 30
0.0
  0
VERTEX
  5
3B2
  8
0
 10
370.81238947
 20
-69.06235088
 30
0.0
  0
VERTEX
  5
3B3
  8
0
 10
370.81238947
 20
-67.56235088
 30
0.0
  0
VERTEX
  5
3B4
  8
0
 10
314.31238947
 20
-67.56235088
 30
0.0
  0
SEQEND
  5
3B5
  8
0
  0
LINE
  5
3B6
  8
0
 10
315.31238947
 20
-67.56235088
 30
0.0
 11
336.31238947
 21
-67.56235088
 31
0.0
  0
LINE
  5
3B7
  8
0
 10
333.71430341
 20
-66.06235088
 30
0.0
 11
315.31238947
 21
-66.06235088
 31
0.0
  0
LINE
  5
3B8
  8
0
 10
315.31238947
 20
-67.56235088
 30
0.0
 11
314.31238947
 21
-67.56235088
 31
0.0
  0
LINE
  5
3B9
  8
0
 10
314.31238947
 20
-66.06235088
 30
0.0
 11
315.31238947
 21
-66.06235088
 31
0.0
  0
LINE
  5
3BA
  8
0
 10
370.81238947
 20
-67.56235088
 30
0.0
 11
336.31238947
 21
-67.56235088
 31
0.0
  0
LINE
  5
3BB
  8
0
 10
370.81238947
 20
-66.06235088
 30
0.0
 11
336.31238947
 21
-66.06235088
 31
0.0
  0
LINE
  5
3BC
  8
0
 10
370.81238947
 20
-66.06235088
 30
0.0
 11
370.81238947
 21
-67.56235088
 31
0.0
  0
POLYLINE
  5
3BD
  8
0
 66
     1
 10
0.0
 20
0.0
 30
0.0
  0
VERTEX
  5
3BE
  8
0
 10
313.31238947
 20
-66.06235088
 30
0.0
  0
VERTEX
  5
3BF
  8
0
 10
213.31238947
 20
-66.06235088
 30
0.0
  0
VERTEX
  5
3C0
  8
0
 10
213.31238947
 20
-67.56235088
 30
0.0
  0
SEQEND
  5
3C1
  8
0
  0
LINE
  5
3C2
  8
0
 10
313.31238947
 20
-67.56235088
 30
0.0
 11
213.31238947
 21
-67.56235088
 31
0.0
  0
POLYLINE
  5
3C3
  8
0
 66
     1
 10
0.0
 20
0.0
 30
0.0
  0
VERTEX
  5
3C4
  8
0
 10
313.31238947
 20
-66.06235088
 30
0.0
  0
VERTEX
  5
3C5
  8
0
 10
314.31238947
 20
-66.06235088
 30
0.0
  0
VERTEX
  5
3C6
  8
0
 10
314.31238947
 20
-67.56235088
 30
0.0
  0
VERTEX
  5
3C7
  8
0
 10
313.31238947
 20
-67.56235088
 30
0.0
  0
SEQEND
  5
3C8
  8
0
  0
LINE
  5
3C9
  8
0
  6
STRICHPUNKT2
 62
     1
 10
224.56238947
 20
-67.56235088
 30
0.0
 11
224.56238947
 21
-68.37485088
 31
0.0
  0
LINE
  5
3CA
  8
0
  6
STRICHPUNKT2
 62
     1
 10
224.56238947
 20
-65.24985088
 30
0.0
 11
224.56238947
 21
-66.06235088
 31
0.0
  0
ARC
  5
3CB
  8
0
 10
336.31238947
 20
-64.56235088
 30
0.0
 40
3.0
 50
180.0
 51
-90.0
  0
ARC
  5
3CC
  8
0
 10
336.31238947
 20
-64.56235088
 30
0.0
 40
1.5
 50
180.0
 51
-90.0
  0
LINE
  5
3CD
  8
0
 10
333.31238947
 20
-64.56235088
 30
0.0
 11
333.31238947
 21
-52.56235088
 31
0.0
  0
LINE
  5
3CE
  8
0
 10
334.81238947
 20
-52.56235088
 30
0.0
 11
334.81238947
 21
-64.56235088
 31
0.0
  0
LINE
  5
3CF
  8
0
 10
334.81238947
 20
-51.56235088
 30
0.0
 11
334.81238947
 21
-52.56235088
 31
0.0
  0
LINE
  5
3D0
  8
0
 10
333.31238947
 20
-51.56235088
 30
0.0
 11
334.81238947
 21
-51.56235088
 31
0.0
  0
LINE
  5
3D1
  8
0
 10
333.31238947
 20
-52.56235088
 30
0.0
 11
333.31238947
 21
-51.56235088
 31
0.0
  0
LINE
  5
3D2
  8
0
  6
STRICHPUNKT2
 62
     1
 10
334.81238947
 20
-54.81235088
 30
0.0
 11
335.62488947
 21
-54.81235088
 31
0.0
  0
LINE
  5
3D3
  8
0
  6
STRICHPUNKT2
 62
     1
 10
332.49988947
 20
-54.81235088
 30
0.0
 11
333.31238947
 21
-54.81235088
 31
0.0
  0
POLYLINE
  5
3D4
  8
0
 66
     1
 10
0.0
 20
0.0
 30
0.0
  0
VERTEX
  5
3D5
  8
0
 10
157.45801884
 20
47.70698694
 30
0.0
  0
VERTEX
  5
3D6
  8
0
 10
157.21028343
 20
47.71012576
 30
0.0
  0
VERTEX
  5
3D7
  8
0
 10
156.90632486
 20
47.71996047
 30
0.0
  0
VERTEX
  5
3D8
  8
0
 10
156.66339619
 20
47.72982387
 30
0.0
  0
SEQEND
  5
3D9
  8
0
  0
POLYLINE
  5
3DA
  8
0
 66
     1
 10
0.0
 20
0.0
 30
0.0
  0
VERTEX
  5
3DB
  8
0
 10
158.16339619
 20
47.74589359
 30
0.0
  0
VERTEX
  5
3DC
  8
0
 10
157.99572588
 20
47.72811128
 30
0.0
  0
VERTEX
  5
3DD
  8
0
 10
157.81361629
 20
47.71560332
 30
0.0
  0
VERTEX
  5
3DE
  8
0
 10
157.61352149
 20
47.70858004
 30
0.0
  0
VERTEX
  5
3DF
  8
0
 10
157.45801884
 20
47.70698694
 30
0.0
  0
SEQEND
  5
3E0
  8
0
  0
POLYLINE
  5
3E1
  8
0
 66
     1
 10
0.0
 20
0.0
 30
0.0
  0
VERTEX
  5
3E2
  8
0
 10
158.16339619
 20
49.308666
 30
0.0
  0
VERTEX
  5
3E3
  8
0
 10
158.06290101
 20
49.27774244
 30
0.0
  0
VERTEX
  5
3E4
  8
0
 10
157.95467991
 20
49.25207673
 30
0.0
  0
VERTEX
  5
3E5
  8
0
 10
157.92938138
 20
49.24708328
 30
0.0
  0
VERTEX
  5
3E6
  8
0
 10
157.81377345
 20
49.22852274
 30
0.0
  0
VERTEX
  5
3E7
  8
0
 10
157.68996886
 20
49.21555249
 30
0.0
  0
VERTEX
  5
3E8
  8
0
 10
157.55630765
 20
49.20837222
 30
0.0
  0
VERTEX
  5
3E9
  8
0
 10
157.45790436
 20
49.20698694
 30
0.0
  0
VERTEX
  5
3EA
  8
0
 10
157.3014445
 20
49.21025436
 30
0.0
  0
VERTEX
  5
3EB
  8
0
 10
157.1243889
 20
49.22056136
 30
0.0
  0
VERTEX
  5
3EC
  8
0
 10
156.90803757
 20
49.23969802
 30
0.0
  0
VERTEX
  5
3ED
  8
0
 10
156.66339619
 20
49.26552799
 30
0.0
  0
SEQEND
  5
3EE
  8
0
  0
POLYLINE
  5
3EF
  8
0
 66
     1
 10
0.0
 20
0.0
 30
0.0
  0
VERTEX
  5
3F0
  8
0
 10
157.45790436
 20
51.20698694
 30
0.0
  0
VERTEX
  5
3F1
  8
0
 10
157.61304791
 20
51.20334388
 30
0.0
  0
VERTEX
  5
3F2
  8
0
 10
157.75198784
 20
51.1927502
 30
0.0
  0
VERTEX
  5
3F3
  8
0
 10
157.87886928
 20
51.17582955
 30
0.0
  0
VERTEX
  5
3F4
  8
0
 10
157.92938138
 20
51.1668906
 30
0.0
  0
VERTEX
  5
3F5
  8
0
 10
158.03855372
 20
51.14264936
 30
0.0
  0
VERTEX
  5
3F6
  8
0
 10
158.13946065
 20
51.11335843
 30
0.0
  0
VERTEX
  5
3F7
  8
0
 10
158.16339619
 20
51.10530788
 30
0.0
  0
SEQEND
  5
3F8
  8
0
  0
POLYLINE
  5
3F9
  8
0
 66
     1
 10
0.0
 20
0.0
 30
0.0
  0
VERTEX
  5
923
  8
0
 10
158.1633961971333
 20
49.30866600233088
 30
0.0
  0
VERTEX
  5
924
  8
0
 10
158.4066498348654
 20
49.41562361832708
 30
0.0
  0
VERTEX
  5
925
  8
0
 10
158.6144333756261
 20
49.55504778345693
 30
0.0
  0
VERTEX
  5
926
  8
0
 10
158.7782222715238
 20
49.7212184682679
 30
0.0
  0
VERTEX
  5
927
  8
0
 10
158.8912969032756
 20
49.90731833797177
 30
0.0
  0
VERTEX
  5
928
  8
0
 10
158.9490182599656
 20
50.10571244108916
 30
0.0
  0
VERTEX
  5
929
  8
0
 10
158.9490182595616
 20
50.30826144171675
 30
0.0
  0
VERTEX
  5
92A
  8
0
 10
158.8912969020803
 20
50.50665554471903
 30
0.0
  0
VERTEX
  5
92B
  8
0
 10
158.7782222695863
 20
50.69275541419739
 30
0.0
  0
VERTEX
  5
92C
  8
0
 10
158.6144333730257
 20
50.85892609868171
 30
0.0
  0
VERTEX
  5
92D
  8
0
 10
158.4066498317089
 20
50.99835026339717
 30
0.0
  0
VERTEX
  5
92E
  8
0
 10
158.1633961935502
 20
51.10530787890824
 30
0.0
  0
SEQEND
  5
9E1
  8
0
  0
POLYLINE
  5
3FA
  8
0
 66
     1
 10
0.0
 20
0.0
 30
0.0
  0
VERTEX
  5
92F
  8
0
 10
158.1633961798832
 20
47.74589358177702
 30
0.0
  0
VERTEX
  5
930
  8
0
 10
158.8397307556426
 20
47.88146638125168
 30
0.0
  0
VERTEX
  5
931
  8
0
 10
159.464762448653
 20
48.10897880815497
 30
0.0
  0
VERTEX
  5
932
  8
0
 10
160.0137805846655
 20
48.41943614184846
 30
0.0
  0
VERTEX
  5
933
  8
0
 10
160.4650796910338
 20
48.80056442866405
 30
0.0
  0
VERTEX
  5
934
  8
0
 10
160.8008176241816
 20
49.23729573357083
 30
0.0
  0
VERTEX
  5
935
  8
0
 10
161.0077209600703
 20
49.71236385210177
 30
0.0
  0
VERTEX
  5
936
  8
0
 10
161.07760976
 20
50.20698693102551
 30
0.0
  0
VERTEX
  5
937
  8
0
 10
161.0077209650924
 20
50.70161001030406
 30
0.0
  0
VERTEX
  5
938
  8
0
 10
160.8008176340273
 20
51.1766781298854
 30
0.0
  0
VERTEX
  5
939
  8
0
 10
160.4650797053139
 20
51.61340943649662
 30
0.0
  0
VERTEX
  5
93A
  8
0
 10
160.0137806028154
 20
51.99453772560335
 30
0.0
  0
VERTEX
  5
93B
  8
0
 10
159.464762469955
 20
52.30499506208406
 30
0.0
  0
VERTEX
  5
93C
  8
0
 10
158.8397307792547
 20
52.53250749216047
 30
0.0
  0
VERTEX
  5
93D
  8
0
 10
158.1633962048718
 20
52.6680802950687
 30
0.0
  0
SEQEND
  5
9E2
  8
0
  0
POLYLINE
  5
3FB
  8
0
 66
     1
 10
0.0
 20
0.0
 30
0.0
  0
VERTEX
  5
3FC
  8
0
 10
157.45801884
 20
52.70698694
 30
0.0
  0
VERTEX
  5
3FD
  8
0
 10
157.58175724
 20
52.70595662
 30
0.0
  0
VERTEX
  5
3FE
  8
0
 10
157.80905126
 20
52.69860384
 30
0.0
  0
VERTEX
  5
3FF
  8
0
 10
158.00772987
 20
52.68480265
 30
0.0
  0
VERTEX
  5
400
  8
0
 10
158.16339619
 20
52.6680803
 30
0.0
  0
SEQEND
  5
401
  8
0
  0
POLYLINE
  5
402
  8
0
 66
     1
 10
0.0
 20
0.0
 30
0.0
  0
VERTEX
  5
403
  8
0
 10
156.66339619
 20
52.68415001
 30
0.0
  0
VERTEX
  5
404
  8
0
 10
156.76302984
 20
52.68823582
 30
0.0
  0
VERTEX
  5
405
  8
0
 10
156.85017936
 20
52.69178807
 30
0.0
  0
VERTEX
  5
406
  8
0
 10
156.92628582
 20
52.69478591
 30
0.0
  0
VERTEX
  5
407
  8
0
 10
157.05891095
 20
52.69955136
 30
0.0
  0
VERTEX
  5
408
  8
0
 10
157.15847183
 20
52.70254555
 30
0.0
  0
VERTEX
  5
409
  8
0
 10
157.45801884
 20
52.70698694
 30
0.0
  0
SEQEND
  5
40A
  8
0
  0
POLYLINE
  5
40B
  8
0
 66
     1
 10
0.0
 20
0.0
 30
0.0
  0
VERTEX
  5
40C
  8
0
 10
156.66339619
 20
51.1484459
 30
0.0
  0
VERTEX
  5
40D
  8
0
 10
156.90803757
 20
51.17427586
 30
0.0
  0
VERTEX
  5
40E
  8
0
 10
157.05528678
 20
51.18793195
 30
0.0
  0
VERTEX
  5
40F
  8
0
 10
157.17004307
 20
51.19662644
 30
0.0
  0
VERTEX
  5
410
  8
0
 10
157.27013237
 20
51.20234834
 30
0.0
  0
VERTEX
  5
411
  8
0
 10
157.36419392
 20
51.20579314
 30
0.0
  0
VERTEX
  5
412
  8
0
 10
157.45790436
 20
51.20698694
 30
0.0
  0
SEQEND
  5
413
  8
0
  0
POLYLINE
  5
414
  8
0
 66
     1
 10
0.0
 20
0.0
 30
0.0
  0
VERTEX
  5
415
  8
0
 10
157.45801884
 20
2.70698694
 30
0.0
  0
VERTEX
  5
416
  8
0
 10
157.21028343
 20
2.71012576
 30
0.0
  0
VERTEX
  5
417
  8
0
 10
156.90632486
 20
2.71996047
 30
0.0
  0
VERTEX
  5
418
  8
0
 10
156.66339619
 20
2.72982387
 30
0.0
  0
SEQEND
  5
419
  8
0
  0
POLYLINE
  5
41A
  8
0
 66
     1
 10
0.0
 20
0.0
 30
0.0
  0
VERTEX
  5
41B
  8
0
 10
158.16339619
 20
2.74589359
 30
0.0
  0
VERTEX
  5
41C
  8
0
 10
157.99572588
 20
2.72811128
 30
0.0
  0
VERTEX
  5
41D
  8
0
 10
157.81361629
 20
2.71560332
 30
0.0
  0
VERTEX
  5
41E
  8
0
 10
157.61352149
 20
2.70858004
 30
0.0
  0
VERTEX
  5
41F
  8
0
 10
157.45801884
 20
2.70698694
 30
0.0
  0
SEQEND
  5
420
  8
0
  0
POLYLINE
  5
421
  8
0
 66
     1
 10
0.0
 20
0.0
 30
0.0
  0
VERTEX
  5
422
  8
0
 10
158.16339619
 20
4.308666
 30
0.0
  0
VERTEX
  5
423
  8
0
 10
158.06290101
 20
4.27774244
 30
0.0
  0
VERTEX
  5
424
  8
0
 10
157.95467991
 20
4.25207673
 30
0.0
  0
VERTEX
  5
425
  8
0
 10
157.92938138
 20
4.24708328
 30
0.0
  0
VERTEX
  5
426
  8
0
 10
157.81377345
 20
4.22852274
 30
0.0
  0
VERTEX
  5
427
  8
0
 10
157.68996886
 20
4.21555249
 30
0.0
  0
VERTEX
  5
428
  8
0
 10
157.55630765
 20
4.20837222
 30
0.0
  0
VERTEX
  5
429
  8
0
 10
157.45790436
 20
4.20698694
 30
0.0
  0
VERTEX
  5
42A
  8
0
 10
157.3014445
 20
4.21025436
 30
0.0
  0
VERTEX
  5
42B
  8
0
 10
157.1243889
 20
4.22056136
 30
0.0
  0
VERTEX
  5
42C
  8
0
 10
156.90803757
 20
4.23969802
 30
0.0
  0
VERTEX
  5
42D
  8
0
 10
156.66339619
 20
4.26552799
 30
0.0
  0
SEQEND
  5
42E
  8
0
  0
POLYLINE
  5
42F
  8
0
 66
     1
 10
0.0
 20
0.0
 30
0.0
  0
VERTEX
  5
430
  8
0
 10
157.45790436
 20
6.20698694
 30
0.0
  0
VERTEX
  5
431
  8
0
 10
157.61304791
 20
6.20334388
 30
0.0
  0
VERTEX
  5
432
  8
0
 10
157.75198784
 20
6.1927502
 30
0.0
  0
VERTEX
  5
433
  8
0
 10
157.87886928
 20
6.17582955
 30
0.0
  0
VERTEX
  5
434
  8
0
 10
157.92938138
 20
6.1668906
 30
0.0
  0
VERTEX
  5
435
  8
0
 10
158.03855372
 20
6.14264936
 30
0.0
  0
VERTEX
  5
436
  8
0
 10
158.13946065
 20
6.11335843
 30
0.0
  0
VERTEX
  5
437
  8
0
 10
158.16339619
 20
6.10530788
 30
0.0
  0
SEQEND
  5
438
  8
0
  0
POLYLINE
  5
439
  8
0
 66
     1
 10
0.0
 20
0.0
 30
0.0
  0
VERTEX
  5
93E
  8
0
 10
158.1633961971333
 20
4.30866600233088
 30
0.0
  0
VERTEX
  5
93F
  8
0
 10
158.4066498348654
 20
4.41562361832708
 30
0.0
  0
VERTEX
  5
940
  8
0
 10
158.6144333756261
 20
4.555047783456925
 30
0.0
  0
VERTEX
  5
941
  8
0
 10
158.7782222715238
 20
4.721218468267903
 30
0.0
  0
VERTEX
  5
942
  8
0
 10
158.8912969032756
 20
4.907318337971764
 30
0.0
  0
VERTEX
  5
943
  8
0
 10
158.9490182599656
 20
5.105712441089162
 30
0.0
  0
VERTEX
  5
944
  8
0
 10
158.9490182595616
 20
5.30826144171675
 30
0.0
  0
VERTEX
  5
945
  8
0
 10
158.8912969020803
 20
5.506655544719033
 30
0.0
  0
VERTEX
  5
946
  8
0
 10
158.7782222695863
 20
5.692755414197385
 30
0.0
  0
VERTEX
  5
947
  8
0
 10
158.6144333730257
 20
5.858926098681714
 30
0.0
  0
VERTEX
  5
948
  8
0
 10
158.4066498317089
 20
5.998350263397168
 30
0.0
  0
VERTEX
  5
949
  8
0
 10
158.1633961935502
 20
6.10530787890824
 30
0.0
  0
SEQEND
  5
9E3
  8
0
  0
POLYLINE
  5
43A
  8
0
 66
     1
 10
0.0
 20
0.0
 30
0.0
  0
VERTEX
  5
94A
  8
0
 10
158.1633961798832
 20
2.74589358177702
 30
0.0
  0
VERTEX
  5
94B
  8
0
 10
158.8397307556426
 20
2.881466381251677
 30
0.0
  0
VERTEX
  5
94C
  8
0
 10
159.464762448653
 20
3.108978808154965
 30
0.0
  0
VERTEX
  5
94D
  8
0
 10
160.0137805846655
 20
3.419436141848454
 30
0.0
  0
VERTEX
  5
94E
  8
0
 10
160.4650796910338
 20
3.800564428664054
 30
0.0
  0
VERTEX
  5
94F
  8
0
 10
160.8008176241816
 20
4.237295733570823
 30
0.0
  0
VERTEX
  5
950
  8
0
 10
161.0077209600703
 20
4.712363852101767
 30
0.0
  0
VERTEX
  5
951
  8
0
 10
161.07760976
 20
5.20698693102551
 30
0.0
  0
VERTEX
  5
952
  8
0
 10
161.0077209650924
 20
5.701610010304059
 30
0.0
  0
VERTEX
  5
953
  8
0
 10
160.8008176340273
 20
6.176678129885397
 30
0.0
  0
VERTEX
  5
954
  8
0
 10
160.4650797053139
 20
6.61340943649662
 30
0.0
  0
VERTEX
  5
955
  8
0
 10
160.0137806028154
 20
6.994537725603347
 30
0.0
  0
VERTEX
  5
956
  8
0
 10
159.464762469955
 20
7.304995062084059
 30
0.0
  0
VERTEX
  5
957
  8
0
 10
158.8397307792547
 20
7.53250749216047
 30
0.0
  0
VERTEX
  5
958
  8
0
 10
158.1633962048718
 20
7.668080295068701
 30
0.0
  0
SEQEND
  5
9E4
  8
0
  0
POLYLINE
  5
43B
  8
0
 66
     1
 10
0.0
 20
0.0
 30
0.0
  0
VERTEX
  5
43C
  8
0
 10
157.45801884
 20
7.70698694
 30
0.0
  0
VERTEX
  5
43D
  8
0
 10
157.58175724
 20
7.70595662
 30
0.0
  0
VERTEX
  5
43E
  8
0
 10
157.80905126
 20
7.69860384
 30
0.0
  0
VERTEX
  5
43F
  8
0
 10
158.00772987
 20
7.68480265
 30
0.0
  0
VERTEX
  5
440
  8
0
 10
158.16339619
 20
7.6680803
 30
0.0
  0
SEQEND
  5
441
  8
0
  0
POLYLINE
  5
442
  8
0
 66
     1
 10
0.0
 20
0.0
 30
0.0
  0
VERTEX
  5
443
  8
0
 10
156.66339619
 20
7.68415001
 30
0.0
  0
VERTEX
  5
444
  8
0
 10
156.76302984
 20
7.68823582
 30
0.0
  0
VERTEX
  5
445
  8
0
 10
156.85017936
 20
7.69178807
 30
0.0
  0
VERTEX
  5
446
  8
0
 10
156.92628582
 20
7.69478591
 30
0.0
  0
VERTEX
  5
447
  8
0
 10
157.05891095
 20
7.69955136
 30
0.0
  0
VERTEX
  5
448
  8
0
 10
157.15847183
 20
7.70254555
 30
0.0
  0
VERTEX
  5
449
  8
0
 10
157.45801884
 20
7.70698694
 30
0.0
  0
SEQEND
  5
44A
  8
0
  0
POLYLINE
  5
44B
  8
0
 66
     1
 10
0.0
 20
0.0
 30
0.0
  0
VERTEX
  5
44C
  8
0
 10
156.66339619
 20
6.1484459
 30
0.0
  0
VERTEX
  5
44D
  8
0
 10
156.90803757
 20
6.17427586
 30
0.0
  0
VERTEX
  5
44E
  8
0
 10
157.05528678
 20
6.18793195
 30
0.0
  0
VERTEX
  5
44F
  8
0
 10
157.17004307
 20
6.19662644
 30
0.0
  0
VERTEX
  5
450
  8
0
 10
157.27013237
 20
6.20234834
 30
0.0
  0
VERTEX
  5
451
  8
0
 10
157.36419392
 20
6.20579314
 30
0.0
  0
VERTEX
  5
452
  8
0
 10
157.45790436
 20
6.20698694
 30
0.0
  0
SEQEND
  5
453
  8
0
  0
ARC
  5
454
  8
0
 10
153.66339619
 20
41.70698694
 30
0.0
 40
3.0
 50
-90.0
 51
0.0
  0
ARC
  5
455
  8
0
 10
153.66339619
 20
41.70698694
 30
0.0
 40
1.5
 50
-90.0
 51
0.0
  0
LINE
  5
456
  8
0
 10
149.91339619
 20
18.20698694
 30
0.0
 11
149.91339619
 21
37.20698694
 31
0.0
  0
LINE
  5
457
  8
0
 10
148.41339619
 20
18.20698694
 30
0.0
 11
148.41339619
 21
37.20698694
 31
0.0
  0
LINE
  5
458
  8
0
  6
STRICHPUNKT2
 62
     1
 10
148.41339619
 20
24.34822973
 30
0.0
 11
146.91339619
 21
24.34822973
 31
0.0
  0
LINE
  5
459
  8
0
  6
STRICHPUNKT2
 62
     1
 10
151.41339619
 20
24.34822973
 30
0.0
 11
149.91339619
 21
24.34822973
 31
0.0
  0
LINE
  5
45A
  8
0
  6
STRICHPUNKT2
 62
     1
 10
148.41339619
 20
31.06574415
 30
0.0
 11
146.91339619
 21
31.06574415
 31
0.0
  0
LINE
  5
45B
  8
0
  6
STRICHPUNKT2
 62
     1
 10
151.41339619
 20
31.06574415
 30
0.0
 11
149.91339619
 21
31.06574415
 31
0.0
  0
LINE
  5
45C
  8
0
  6
STRICHPUNKT2
 62
     1
 10
148.41339619
 20
27.70698694
 30
0.0
 11
147.03839619
 21
27.70698694
 31
0.0
  0
LINE
  5
45D
  8
0
  6
STRICHPUNKT2
 62
     1
 10
151.28839619
 20
27.70698694
 30
0.0
 11
149.91339619
 21
27.70698694
 31
0.0
  0
ARC
  5
45E
  8
0
 10
151.41339619
 20
37.20698694
 30
0.0
 40
1.5
 50
90.0
 51
180.0
  0
ARC
  5
45F
  8
0
 10
151.41339619
 20
37.20698694
 30
0.0
 40
3.0
 50
90.0
 51
180.0
  0
ARC
  5
460
  8
0
 10
151.41339619
 20
18.20698694
 30
0.0
 40
1.5
 50
180.0
 51
-90.0
  0
ARC
  5
461
  8
0
 10
151.41339619
 20
18.20698694
 30
0.0
 40
3.0
 50
180.0
 51
-90.0
  0
LINE
  5
462
  8
0
 10
153.66339619
 20
16.70698694
 30
0.0
 11
151.41339619
 21
16.70698694
 31
0.0
  0
LINE
  5
463
  8
0
 10
153.66339619
 20
15.20698694
 30
0.0
 11
151.41339619
 21
15.20698694
 31
0.0
  0
ARC
  5
464
  8
0
 10
153.66339619
 20
13.70698694
 30
0.0
 40
3.0
 50
0.0
 51
90.0
  0
ARC
  5
465
  8
0
 10
153.66339619
 20
13.70698694
 30
0.0
 40
1.5
 50
0.0
 51
90.0
  0
LINE
  5
466
  8
0
 10
153.66339619
 20
38.70698694
 30
0.0
 11
151.41339619
 21
38.70698694
 31
0.0
  0
LINE
  5
467
  8
0
 10
153.66339619
 20
40.20698694
 30
0.0
 11
151.41339619
 21
40.20698694
 31
0.0
  0
LINE
  5
468
  8
0
 10
156.66339619
 20
-0.04301306
 30
0.0
 11
156.66339619
 21
13.70698694
 31
0.0
  0
LINE
  5
469
  8
0
 10
155.16339619
 20
-0.04301306
 30
0.0
 11
155.16339619
 21
13.70698694
 31
0.0
  0
LINE
  5
46A
  8
0
 10
156.66339619
 20
-0.04301306
 30
0.0
 11
155.16339619
 21
-0.04301306
 31
0.0
  0
LINE
  5
46B
  8
0
  6
STRICHPUNKT2
 62
     1
 10
155.16339619
 20
4.95698694
 30
0.0
 11
154.35089619
 21
4.95698694
 31
0.0
  0
LINE
  5
46C
  8
0
  6
STRICHPUNKT2
 62
     1
 10
157.47589619
 20
4.95698694
 30
0.0
 11
156.66339619
 21
4.95698694
 31
0.0
  0
POLYLINE
  5
46D
  8
0
 66
     1
 10
0.0
 20
0.0
 30
0.0
  0
VERTEX
  5
46E
  8
0
 10
156.66339619
 20
41.70698694
 30
0.0
  0
VERTEX
  5
46F
  8
0
 10
156.66339619
 20
55.45698694
 30
0.0
  0
VERTEX
  5
470
  8
0
 10
155.16339619
 20
55.45698694
 30
0.0
  0
SEQEND
  5
471
  8
0
  0
LINE
  5
472
  8
0
 10
155.16339619
 20
41.70698694
 30
0.0
 11
155.16339619
 21
55.45698694
 31
0.0
  0
LINE
  5
473
  8
0
  6
STRICHPUNKT2
 62
     1
 10
155.16339619
 20
50.45698694
 30
0.0
 11
154.35089619
 21
50.45698694
 31
0.0
  0
LINE
  5
474
  8
0
  6
STRICHPUNKT2
 62
     1
 10
157.47589619
 20
50.45698694
 30
0.0
 11
156.66339619
 21
50.45698694
 31
0.0
  0
POLYLINE
  5
475
  8
0
 66
     1
 10
0.0
 20
0.0
 30
0.0
  0
VERTEX
  5
476
  8
0
 10
156.66339619
 20
51.1484459
 30
0.0
  0
VERTEX
  5
477
  8
0
 10
156.90803757
 20
51.17427586
 30
0.0
  0
VERTEX
  5
478
  8
0
 10
157.05528678
 20
51.18793195
 30
0.0
  0
VERTEX
  5
479
  8
0
 10
157.17004307
 20
51.19662644
 30
0.0
  0
VERTEX
  5
47A
  8
0
 10
157.27013237
 20
51.20234834
 30
0.0
  0
VERTEX
  5
47B
  8
0
 10
157.36419392
 20
51.20579314
 30
0.0
  0
VERTEX
  5
47C
  8
0
 10
157.45790436
 20
51.20698694
 30
0.0
  0
VERTEX
  5
47D
  8
0
 10
157.61304791
 20
51.20334388
 30
0.0
  0
VERTEX
  5
47E
  8
0
 10
157.75198784
 20
51.1927502
 30
0.0
  0
VERTEX
  5
47F
  8
0
 10
157.87886928
 20
51.17582955
 30
0.0
  0
VERTEX
  5
480
  8
0
 10
157.92938138
 20
51.1668906
 30
0.0
  0
VERTEX
  5
481
  8
0
 10
158.03855372
 20
51.14264936
 30
0.0
  0
VERTEX
  5
482
  8
0
 10
158.13946065
 20
51.11335843
 30
0.0
  0
VERTEX
  5
483
  8
0
 10
158.16339619
 20
51.10530788
 30
0.0
  0
SEQEND
  5
484
  8
0
  0
POLYLINE
  5
485
  8
0
 66
     1
 10
0.0
 20
0.0
 30
0.0
  0
VERTEX
  5
486
  8
0
 10
158.16339619
 20
49.308666
 30
0.0
  0
VERTEX
  5
487
  8
0
 10
158.06290101
 20
49.27774244
 30
0.0
  0
VERTEX
  5
488
  8
0
 10
157.95467991
 20
49.25207673
 30
0.0
  0
VERTEX
  5
489
  8
0
 10
157.92938138
 20
49.24708328
 30
0.0
  0
VERTEX
  5
48A
  8
0
 10
157.81377345
 20
49.22852274
 30
0.0
  0
VERTEX
  5
48B
  8
0
 10
157.68996886
 20
49.21555249
 30
0.0
  0
VERTEX
  5
48C
  8
0
 10
157.55630765
 20
49.20837222
 30
0.0
  0
VERTEX
  5
48D
  8
0
 10
157.45790436
 20
49.20698694
 30
0.0
  0
VERTEX
  5
48E
  8
0
 10
157.3014445
 20
49.21025436
 30
0.0
  0
VERTEX
  5
48F
  8
0
 10
157.1243889
 20
49.22056136
 30
0.0
  0
VERTEX
  5
490
  8
0
 10
156.90803757
 20
49.23969802
 30
0.0
  0
VERTEX
  5
491
  8
0
 10
156.66339619
 20
49.26552799
 30
0.0
  0
SEQEND
  5
492
  8
0
  0
LINE
  5
493
  8
0
 10
156.66339619
 20
55.45698694
 30
0.0
 11
158.16339619
 21
55.45698694
 31
0.0
  0
POLYLINE
  5
494
  8
0
 66
     1
 10
0.0
 20
0.0
 30
0.0
  0
VERTEX
  5
495
  8
0
 10
156.66339619
 20
52.68415001
 30
0.0
  0
VERTEX
  5
496
  8
0
 10
156.76302984
 20
52.68823582
 30
0.0
  0
VERTEX
  5
497
  8
0
 10
156.85017936
 20
52.69178807
 30
0.0
  0
VERTEX
  5
498
  8
0
 10
156.92628582
 20
52.69478591
 30
0.0
  0
VERTEX
  5
499
  8
0
 10
157.05891095
 20
52.69955136
 30
0.0
  0
VERTEX
  5
49A
  8
0
 10
157.15847183
 20
52.70254555
 30
0.0
  0
VERTEX
  5
49B
  8
0
 10
157.45801884
 20
52.70698694
 30
0.0
  0
VERTEX
  5
49C
  8
0
 10
157.58175724
 20
52.70595662
 30
0.0
  0
VERTEX
  5
49D
  8
0
 10
157.80905126
 20
52.69860384
 30
0.0
  0
VERTEX
  5
49E
  8
0
 10
158.00772987
 20
52.68480265
 30
0.0
  0
VERTEX
  5
49F
  8
0
 10
158.16339619
 20
52.6680803
 30
0.0
  0
SEQEND
  5
4A0
  8
0
  0
POLYLINE
  5
4A1
  8
0
 66
     1
 10
0.0
 20
0.0
 30
0.0
  0
VERTEX
  5
4A2
  8
0
 10
157.45801884
 20
47.70698694
 30
0.0
  0
VERTEX
  5
4A3
  8
0
 10
157.21028343
 20
47.71012576
 30
0.0
  0
VERTEX
  5
4A4
  8
0
 10
156.90632486
 20
47.71996047
 30
0.0
  0
VERTEX
  5
4A5
  8
0
 10
156.66339619
 20
47.72982387
 30
0.0
  0
SEQEND
  5
4A6
  8
0
  0
POLYLINE
  5
4A7
  8
0
 66
     1
 10
0.0
 20
0.0
 30
0.0
  0
VERTEX
  5
4A8
  8
0
 10
158.16339619
 20
47.74589359
 30
0.0
  0
VERTEX
  5
4A9
  8
0
 10
157.99572588
 20
47.72811128
 30
0.0
  0
VERTEX
  5
4AA
  8
0
 10
157.81361629
 20
47.71560332
 30
0.0
  0
VERTEX
  5
4AB
  8
0
 10
157.61352149
 20
47.70858004
 30
0.0
  0
VERTEX
  5
4AC
  8
0
 10
157.45801884
 20
47.70698694
 30
0.0
  0
SEQEND
  5
4AD
  8
0
  0
LINE
  5
4AE
  8
0
 10
158.16339619
 20
44.95698694
 30
0.0
 11
156.66339619
 21
44.95698694
 31
0.0
  0
POLYLINE
  5
4AF
  8
0
 66
     1
 10
0.0
 20
0.0
 30
0.0
  0
VERTEX
  5
959
  8
0
 10
158.1633961971333
 20
49.30866600233088
 30
0.0
  0
VERTEX
  5
95A
  8
0
 10
158.4066498348654
 20
49.41562361832708
 30
0.0
  0
VERTEX
  5
95B
  8
0
 10
158.6144333756261
 20
49.55504778345693
 30
0.0
  0
VERTEX
  5
95C
  8
0
 10
158.7782222715238
 20
49.7212184682679
 30
0.0
  0
VERTEX
  5
95D
  8
0
 10
158.8912969032756
 20
49.90731833797177
 30
0.0
  0
VERTEX
  5
95E
  8
0
 10
158.9490182599656
 20
50.10571244108916
 30
0.0
  0
VERTEX
  5
95F
  8
0
 10
158.9490182595616
 20
50.30826144171675
 30
0.0
  0
VERTEX
  5
960
  8
0
 10
158.8912969020803
 20
50.50665554471903
 30
0.0
  0
VERTEX
  5
961
  8
0
 10
158.7782222695863
 20
50.69275541419739
 30
0.0
  0
VERTEX
  5
962
  8
0
 10
158.6144333730257
 20
50.85892609868171
 30
0.0
  0
VERTEX
  5
963
  8
0
 10
158.4066498317089
 20
50.99835026339717
 30
0.0
  0
VERTEX
  5
964
  8
0
 10
158.1633961935502
 20
51.10530787890824
 30
0.0
  0
SEQEND
  5
9E5
  8
0
  0
CIRCLE
  5
4B0
  8
0
 10
167.91339619
 20
50.20698694
 30
0.0
 40
1.625
  0
POLYLINE
  5
4B1
  8
0
 66
     1
 10
0.0
 20
0.0
 30
0.0
  0
VERTEX
  5
4B2
  8
0
 10
171.16339619
 20
45.95698694
 30
0.0
  0
VERTEX
  5
4B3
  8
0
 10
171.16339619
 20
54.45698694
 30
0.0
 42
0.414213562
  0
VERTEX
  5
4B4
  8
0
 10
170.16339619
 20
55.45698694
 30
0.0
  0
VERTEX
  5
4B5
  8
0
 10
158.16339619
 20
55.45698694
 30
0.0
  0
SEQEND
  5
4B6
  8
0
  0
POLYLINE
  5
4B7
  8
0
 66
     1
 10
0.0
 20
0.0
 30
0.0
  0
VERTEX
  5
965
  8
0
 10
158.1633961798832
 20
47.74589358177702
 30
0.0
  0
VERTEX
  5
966
  8
0
 10
158.8397307556426
 20
47.88146638125168
 30
0.0
  0
VERTEX
  5
967
  8
0
 10
159.464762448653
 20
48.10897880815497
 30
0.0
  0
VERTEX
  5
968
  8
0
 10
160.0137805846655
 20
48.41943614184846
 30
0.0
  0
VERTEX
  5
969
  8
0
 10
160.4650796910338
 20
48.80056442866405
 30
0.0
  0
VERTEX
  5
96A
  8
0
 10
160.8008176241816
 20
49.23729573357083
 30
0.0
  0
VERTEX
  5
96B
  8
0
 10
161.0077209600703
 20
49.71236385210177
 30
0.0
  0
VERTEX
  5
96C
  8
0
 10
161.07760976
 20
50.20698693102551
 30
0.0
  0
VERTEX
  5
96D
  8
0
 10
161.0077209650924
 20
50.70161001030406
 30
0.0
  0
VERTEX
  5
96E
  8
0
 10
160.8008176340273
 20
51.1766781298854
 30
0.0
  0
VERTEX
  5
96F
  8
0
 10
160.4650797053139
 20
51.61340943649662
 30
0.0
  0
VERTEX
  5
970
  8
0
 10
160.0137806028154
 20
51.99453772560335
 30
0.0
  0
VERTEX
  5
971
  8
0
 10
159.464762469955
 20
52.30499506208406
 30
0.0
  0
VERTEX
  5
972
  8
0
 10
158.8397307792547
 20
52.53250749216047
 30
0.0
  0
VERTEX
  5
973
  8
0
 10
158.1633962048718
 20
52.6680802950687
 30
0.0
  0
SEQEND
  5
9E6
  8
0
  0
POLYLINE
  5
4B8
  8
0
 66
     1
 10
0.0
 20
0.0
 30
0.0
  0
VERTEX
  5
4B9
  8
0
 10
158.16339619
 20
44.95698694
 30
0.0
  0
VERTEX
  5
4BA
  8
0
 10
170.16339619
 20
44.95698694
 30
0.0
 42
0.414213562
  0
VERTEX
  5
4BB
  8
0
 10
171.16339619
 20
45.95698694
 30
0.0
  0
SEQEND
  5
4BC
  8
0
  0
LINE
  5
4BD
  8
0
  6
STRICHPUNKT2
 62
     1
 10
167.91339619
 20
50.20698694
 30
0.0
 11
165.47589619
 21
50.20698694
 31
0.0
  0
LINE
  5
4BE
  8
0
  6
STRICHPUNKT2
 62
     1
 10
167.91339619
 20
50.20698694
 30
0.0
 11
170.35089619
 21
50.20698694
 31
0.0
  0
LINE
  5
4BF
  8
0
  6
STRICHPUNKT2
 62
     1
 10
167.91339619
 20
50.20698694
 30
0.0
 11
167.91339619
 21
47.76948694
 31
0.0
  0
LINE
  5
4C0
  8
0
  6
STRICHPUNKT2
 62
     1
 10
167.91339619
 20
50.20698694
 30
0.0
 11
167.91339619
 21
52.64448694
 31
0.0
  0
POLYLINE
  5
4C1
  8
0
 66
     1
 10
0.0
 20
0.0
 30
0.0
  0
VERTEX
  5
4C2
  8
0
 10
156.66339619
 20
6.1484459
 30
0.0
  0
VERTEX
  5
4C3
  8
0
 10
156.90803757
 20
6.17427586
 30
0.0
  0
VERTEX
  5
4C4
  8
0
 10
157.05528678
 20
6.18793195
 30
0.0
  0
VERTEX
  5
4C5
  8
0
 10
157.17004307
 20
6.19662644
 30
0.0
  0
VERTEX
  5
4C6
  8
0
 10
157.27013237
 20
6.20234834
 30
0.0
  0
VERTEX
  5
4C7
  8
0
 10
157.36419392
 20
6.20579314
 30
0.0
  0
VERTEX
  5
4C8
  8
0
 10
157.45790436
 20
6.20698694
 30
0.0
  0
VERTEX
  5
4C9
  8
0
 10
157.61304791
 20
6.20334388
 30
0.0
  0
VERTEX
  5
4CA
  8
0
 10
157.75198784
 20
6.1927502
 30
0.0
  0
VERTEX
  5
4CB
  8
0
 10
157.87886928
 20
6.17582955
 30
0.0
  0
VERTEX
  5
4CC
  8
0
 10
157.92938138
 20
6.1668906
 30
0.0
  0
VERTEX
  5
4CD
  8
0
 10
158.03855372
 20
6.14264936
 30
0.0
  0
VERTEX
  5
4CE
  8
0
 10
158.13946065
 20
6.11335843
 30
0.0
  0
VERTEX
  5
4CF
  8
0
 10
158.16339619
 20
6.10530788
 30
0.0
  0
SEQEND
  5
4D0
  8
0
  0
POLYLINE
  5
4D1
  8
0
 66
     1
 10
0.0
 20
0.0
 30
0.0
  0
VERTEX
  5
4D2
  8
0
 10
158.16339619
 20
4.308666
 30
0.0
  0
VERTEX
  5
4D3
  8
0
 10
158.06290101
 20
4.27774244
 30
0.0
  0
VERTEX
  5
4D4
  8
0
 10
157.95467991
 20
4.25207673
 30
0.0
  0
VERTEX
  5
4D5
  8
0
 10
157.92938138
 20
4.24708328
 30
0.0
  0
VERTEX
  5
4D6
  8
0
 10
157.81377345
 20
4.22852274
 30
0.0
  0
VERTEX
  5
4D7
  8
0
 10
157.68996886
 20
4.21555249
 30
0.0
  0
VERTEX
  5
4D8
  8
0
 10
157.55630765
 20
4.20837222
 30
0.0
  0
VERTEX
  5
4D9
  8
0
 10
157.45790436
 20
4.20698694
 30
0.0
  0
VERTEX
  5
4DA
  8
0
 10
157.3014445
 20
4.21025436
 30
0.0
  0
VERTEX
  5
4DB
  8
0
 10
157.1243889
 20
4.22056136
 30
0.0
  0
VERTEX
  5
4DC
  8
0
 10
156.90803757
 20
4.23969802
 30
0.0
  0
VERTEX
  5
4DD
  8
0
 10
156.66339619
 20
4.26552799
 30
0.0
  0
SEQEND
  5
4DE
  8
0
  0
POLYLINE
  5
4DF
  8
0
 66
     1
 10
0.0
 20
0.0
 30
0.0
  0
VERTEX
  5
4E0
  8
0
 10
157.45801884
 20
2.70698694
 30
0.0
  0
VERTEX
  5
4E1
  8
0
 10
157.21028343
 20
2.71012576
 30
0.0
  0
VERTEX
  5
4E2
  8
0
 10
156.90632486
 20
2.71996047
 30
0.0
  0
VERTEX
  5
4E3
  8
0
 10
156.66339619
 20
2.72982387
 30
0.0
  0
SEQEND
  5
4E4
  8
0
  0
POLYLINE
  5
4E5
  8
0
 66
     1
 10
0.0
 20
0.0
 30
0.0
  0
VERTEX
  5
4E6
  8
0
 10
158.16339619
 20
2.74589359
 30
0.0
  0
VERTEX
  5
4E7
  8
0
 10
157.99572588
 20
2.72811128
 30
0.0
  0
VERTEX
  5
4E8
  8
0
 10
157.81361629
 20
2.71560332
 30
0.0
  0
VERTEX
  5
4E9
  8
0
 10
157.61352149
 20
2.70858004
 30
0.0
  0
VERTEX
  5
4EA
  8
0
 10
157.45801884
 20
2.70698694
 30
0.0
  0
SEQEND
  5
4EB
  8
0
  0
LINE
  5
4EC
  8
0
 10
158.16339619
 20
-0.04301306
 30
0.0
 11
156.66339619
 21
-0.04301306
 31
0.0
  0
LINE
  5
4ED
  8
0
 10
156.66339619
 20
10.45698694
 30
0.0
 11
158.16339619
 21
10.45698694
 31
0.0
  0
POLYLINE
  5
4EE
  8
0
 66
     1
 10
0.0
 20
0.0
 30
0.0
  0
VERTEX
  5
4EF
  8
0
 10
156.66339619
 20
7.68415001
 30
0.0
  0
VERTEX
  5
4F0
  8
0
 10
156.76302984
 20
7.68823582
 30
0.0
  0
VERTEX
  5
4F1
  8
0
 10
156.85017936
 20
7.69178807
 30
0.0
  0
VERTEX
  5
4F2
  8
0
 10
156.92628582
 20
7.69478591
 30
0.0
  0
VERTEX
  5
4F3
  8
0
 10
157.05891095
 20
7.69955136
 30
0.0
  0
VERTEX
  5
4F4
  8
0
 10
157.15847183
 20
7.70254555
 30
0.0
  0
VERTEX
  5
4F5
  8
0
 10
157.45801884
 20
7.70698694
 30
0.0
  0
VERTEX
  5
4F6
  8
0
 10
157.58175724
 20
7.70595662
 30
0.0
  0
VERTEX
  5
4F7
  8
0
 10
157.80905126
 20
7.69860384
 30
0.0
  0
VERTEX
  5
4F8
  8
0
 10
158.00772987
 20
7.68480265
 30
0.0
  0
VERTEX
  5
4F9
  8
0
 10
158.16339619
 20
7.6680803
 30
0.0
  0
SEQEND
  5
4FA
  8
0
  0
POLYLINE
  5
4FB
  8
0
 66
     1
 10
0.0
 20
0.0
 30
0.0
  0
VERTEX
  5
974
  8
0
 10
158.1633961971333
 20
4.30866600233088
 30
0.0
  0
VERTEX
  5
975
  8
0
 10
158.4066498348654
 20
4.41562361832708
 30
0.0
  0
VERTEX
  5
976
  8
0
 10
158.6144333756261
 20
4.555047783456925
 30
0.0
  0
VERTEX
  5
977
  8
0
 10
158.7782222715238
 20
4.721218468267903
 30
0.0
  0
VERTEX
  5
978
  8
0
 10
158.8912969032756
 20
4.907318337971764
 30
0.0
  0
VERTEX
  5
979
  8
0
 10
158.9490182599656
 20
5.105712441089162
 30
0.0
  0
VERTEX
  5
97A
  8
0
 10
158.9490182595616
 20
5.30826144171675
 30
0.0
  0
VERTEX
  5
97B
  8
0
 10
158.8912969020803
 20
5.506655544719033
 30
0.0
  0
VERTEX
  5
97C
  8
0
 10
158.7782222695863
 20
5.692755414197385
 30
0.0
  0
VERTEX
  5
97D
  8
0
 10
158.6144333730257
 20
5.858926098681714
 30
0.0
  0
VERTEX
  5
97E
  8
0
 10
158.4066498317089
 20
5.998350263397168
 30
0.0
  0
VERTEX
  5
97F
  8
0
 10
158.1633961935502
 20
6.10530787890824
 30
0.0
  0
SEQEND
  5
9E7
  8
0
  0
CIRCLE
  5
4FC
  8
0
 10
167.91339619
 20
5.20698694
 30
0.0
 40
1.625
  0
POLYLINE
  5
4FD
  8
0
 66
     1
 10
0.0
 20
0.0
 30
0.0
  0
VERTEX
  5
4FE
  8
0
 10
171.16339619
 20
0.95698694
 30
0.0
  0
VERTEX
  5
4FF
  8
0
 10
171.16339619
 20
9.45698694
 30
0.0
 42
0.414213562
  0
VERTEX
  5
500
  8
0
 10
170.16339619
 20
10.45698694
 30
0.0
  0
VERTEX
  5
501
  8
0
 10
158.16339619
 20
10.45698694
 30
0.0
  0
SEQEND
  5
502
  8
0
  0
POLYLINE
  5
503
  8
0
 66
     1
 10
0.0
 20
0.0
 30
0.0
  0
VERTEX
  5
980
  8
0
 10
158.1633961798832
 20
2.74589358177702
 30
0.0
  0
VERTEX
  5
981
  8
0
 10
158.8397307556426
 20
2.881466381251677
 30
0.0
  0
VERTEX
  5
982
  8
0
 10
159.464762448653
 20
3.108978808154965
 30
0.0
  0
VERTEX
  5
983
  8
0
 10
160.0137805846655
 20
3.419436141848454
 30
0.0
  0
VERTEX
  5
984
  8
0
 10
160.4650796910338
 20
3.800564428664054
 30
0.0
  0
VERTEX
  5
985
  8
0
 10
160.8008176241816
 20
4.237295733570823
 30
0.0
  0
VERTEX
  5
986
  8
0
 10
161.0077209600703
 20
4.712363852101767
 30
0.0
  0
VERTEX
  5
987
  8
0
 10
161.07760976
 20
5.20698693102551
 30
0.0
  0
VERTEX
  5
988
  8
0
 10
161.0077209650924
 20
5.701610010304059
 30
0.0
  0
VERTEX
  5
989
  8
0
 10
160.8008176340273
 20
6.176678129885397
 30
0.0
  0
VERTEX
  5
98A
  8
0
 10
160.4650797053139
 20
6.61340943649662
 30
0.0
  0
VERTEX
  5
98B
  8
0
 10
160.0137806028154
 20
6.994537725603347
 30
0.0
  0
VERTEX
  5
98C
  8
0
 10
159.464762469955
 20
7.304995062084059
 30
0.0
  0
VERTEX
  5
98D
  8
0
 10
158.8397307792547
 20
7.53250749216047
 30
0.0
  0
VERTEX
  5
98E
  8
0
 10
158.1633962048718
 20
7.668080295068701
 30
0.0
  0
SEQEND
  5
9E8
  8
0
  0
POLYLINE
  5
504
  8
0
 66
     1
 10
0.0
 20
0.0
 30
0.0
  0
VERTEX
  5
505
  8
0
 10
158.16339619
 20
-0.04301306
 30
0.0
  0
VERTEX
  5
506
  8
0
 10
170.16339619
 20
-0.04301306
 30
0.0
 42
0.414213562
  0
VERTEX
  5
507
  8
0
 10
171.16339619
 20
0.95698694
 30
0.0
  0
SEQEND
  5
508
  8
0
  0
LINE
  5
509
  8
0
  6
STRICHPUNKT2
 62
     1
 10
167.91339619
 20
5.20698694
 30
0.0
 11
165.47589619
 21
5.20698694
 31
0.0
  0
LINE
  5
50A
  8
0
  6
STRICHPUNKT2
 62
     1
 10
167.91339619
 20
5.20698694
 30
0.0
 11
170.35089619
 21
5.20698694
 31
0.0
  0
LINE
  5
50B
  8
0
  6
STRICHPUNKT2
 62
     1
 10
167.91339619
 20
5.20698694
 30
0.0
 11
167.91339619
 21
2.76948694
 31
0.0
  0
LINE
  5
50C
  8
0
  6
STRICHPUNKT2
 62
     1
 10
167.91339619
 20
5.20698694
 30
0.0
 11
167.91339619
 21
7.64448694
 31
0.0
  0
TEXT
  5
50D
  8
TXT_DIM49
 10
289.18263636
 20
-14.19727258
 30
0.0
 40
2.5
  1
315
  7
ARIAL
  0
LINE
  5
50E
  8
0
 62
     4
 10
369.81238947
 20
-16.69727258
 30
0.0
 11
371.81238947
 21
-14.69727258
 31
0.0
  0
LINE
  5
50F
  8
0
 62
     4
 10
214.06238947
 20
-14.94727258
 30
0.0
 11
212.56238947
 21
-16.44727258
 31
0.0
  0
LINE
  5
510
  8
0
 62
     4
 10
370.81238947
 20
-15.69727258
 30
0.0
 11
213.31238947
 21
-15.69727258
 31
0.0
  0
LINE
  5
511
  8
0
 62
     4
 10
370.81238947
 20
-13.69727258
 30
0.0
 11
370.81238947
 21
-17.69727258
 31
0.0
  0
LINE
  5
512
  8
0
 62
     4
 10
213.31238947
 20
-13.69727258
 30
0.0
 11
213.31238947
 21
-17.69727258
 31
0.0
  0
TEXT
  5
513
  8
TXT_DIM49
 10
363.89255402
 20
15.80272742
 30
0.0
 40
2.5
  1
20
  7
ARIAL
  0
LINE
  5
514
  8
0
 62
     4
 10
369.81238947
 20
13.30272742
 30
0.0
 11
371.81238947
 21
15.30272742
 31
0.0
  0
LINE
  5
515
  8
0
 62
     4
 10
361.56238947
 20
15.05272742
 30
0.0
 11
360.06238947
 21
13.55272742
 31
0.0
  0
LINE
  5
516
  8
0
 62
     4
 10
370.81238947
 20
14.30272742
 30
0.0
 11
360.81238947
 21
14.30272742
 31
0.0
  0
LINE
  5
517
  8
0
 62
     4
 10
370.81238947
 20
18.20698694
 30
0.0
 11
370.81238947
 21
12.30272742
 31
0.0
  0
LINE
  5
518
  8
0
 62
     4
 10
360.81238947
 20
27.70698694
 30
0.0
 11
360.81238947
 21
12.30272742
 31
0.0
  0
TEXT
  5
519
  8
TXT_DIM49
 10
351.39255402
 20
15.80272742
 30
0.0
 40
2.5
  1
30
  7
ARIAL
  0
LINE
  5
51A
  8
0
 62
     4
 10
359.81238947
 20
13.30272742
 30
0.0
 11
361.81238947
 21
15.30272742
 31
0.0
  0
LINE
  5
51B
  8
0
 62
     4
 10
346.56238947
 20
15.05272742
 30
0.0
 11
345.06238947
 21
13.55272742
 31
0.0
  0
LINE
  5
51C
  8
0
 62
     4
 10
360.81238947
 20
14.30272742
 30
0.0
 11
345.81238947
 21
14.30272742
 31
0.0
  0
LINE
  5
51D
  8
0
 62
     4
 10
360.81238947
 20
27.70698694
 30
0.0
 11
360.81238947
 21
12.30272742
 31
0.0
  0
LINE
  5
51E
  8
0
 62
     4
 10
345.81238947
 20
27.70698694
 30
0.0
 11
345.81238947
 21
12.30272742
 31
0.0
  0
TEXT
  5
51F
  8
TXT_DIM49
 10
335.14255402
 20
15.80272742
 30
0.0
 40
2.5
  1
35
  7
ARIAL
  0
LINE
  5
520
  8
0
 62
     4
 10
344.81238947
 20
13.30272742
 30
0.0
 11
346.81238947
 21
15.30272742
 31
0.0
  0
LINE
  5
521
  8
0
 62
     4
 10
329.06238947
 20
15.05272742
 30
0.0
 11
327.56238947
 21
13.55272742
 31
0.0
  0
LINE
  5
522
  8
0
 62
     4
 10
345.81238947
 20
14.30272742
 30
0.0
 11
328.31238947
 21
14.30272742
 31
0.0
  0
LINE
  5
523
  8
0
 62
     4
 10
345.81238947
 20
27.70698694
 30
0.0
 11
345.81238947
 21
12.30272742
 31
0.0
  0
LINE
  5
524
  8
0
 62
     4
 10
328.31238947
 20
23.58198694
 30
0.0
 11
328.31238947
 21
12.30272742
 31
0.0
  0
TEXT
  5
525
  8
TXT_DIM49
 10
271.68263636
 20
15.80272742
 30
0.0
 40
2.5
  1
215
  7
ARIAL
  0
LINE
  5
526
  8
0
 62
     4
 10
327.31238947
 20
13.30272742
 30
0.0
 11
329.31238947
 21
15.30272742
 31
0.0
  0
LINE
  5
527
  8
0
 62
     4
 10
221.56238947
 20
15.05272742
 30
0.0
 11
220.06238947
 21
13.55272742
 31
0.0
  0
LINE
  5
528
  8
0
 62
     4
 10
328.31238947
 20
14.30272742
 30
0.0
 11
220.81238947
 21
14.30272742
 31
0.0
  0
LINE
  5
529
  8
0
 62
     4
 10
328.31238947
 20
23.58198694
 30
0.0
 11
328.31238947
 21
12.30272742
 31
0.0
  0
LINE
  5
52A
  8
0
 62
     4
 10
220.81238947
 20
23.58198694
 30
0.0
 11
220.81238947
 21
12.30272742
 31
0.0
  0
TEXT
  5
52B
  8
TXT_DIM49
 10
215.14255402
 20
15.80272742
 30
0.0
 40
2.5
  1
15
  7
ARIAL
  0
LINE
  5
52C
  8
0
 62
     4
 10
219.81238947
 20
13.30272742
 30
0.0
 11
221.81238947
 21
15.30272742
 31
0.0
  0
LINE
  5
52D
  8
0
 62
     4
 10
214.06238947
 20
15.05272742
 30
0.0
 11
212.56238947
 21
13.55272742
 31
0.0
  0
LINE
  5
52E
  8
0
 62
     4
 10
220.81238947
 20
14.30272742
 30
0.0
 11
213.31238947
 21
14.30272742
 31
0.0
  0
LINE
  5
52F
  8
0
 62
     4
 10
220.81238947
 20
23.58198694
 30
0.0
 11
220.81238947
 21
12.30272742
 31
0.0
  0
LINE
  5
530
  8
0
 62
     4
 10
213.31238947
 20
18.20698694
 30
0.0
 11
213.31238947
 21
12.30272742
 31
0.0
  0
TEXT
  5
531
  8
TXT_DIM49
 10
317.72031871
 20
47.28715149
 30
0.0
 40
2.5
  1
25
 50
90.00020741
  7
ARIAL
  0
LINE
  5
532
  8
0
 62
     4
 10
320.22031871
 20
54.45698694
 30
0.0
 11
318.22031871
 21
56.45698694
 31
0.0
  0
LINE
  5
533
  8
0
 62
     4
 10
318.47031871
 20
43.70698694
 30
0.0
 11
319.97031871
 21
42.20698694
 31
0.0
  0
LINE
  5
534
  8
0
 62
     4
 10
319.22031871
 20
55.45698694
 30
0.0
 11
319.22031871
 21
42.95698694
 31
0.0
  0
LINE
  5
535
  8
0
 62
     4
 10
317.22031871
 20
55.45698694
 30
0.0
 11
321.22031871
 21
55.45698694
 31
0.0
  0
LINE
  5
536
  8
0
 62
     4
 10
321.21162026
 20
42.95698694
 30
0.0
 11
317.22031871
 21
42.95698694
 31
0.0
  0
TEXT
  5
537
  8
TXT_DIM49
 10
317.72031871
 20
25.78715149
 30
0.0
 40
2.5
  1
61
 50
90.00020741
  7
ARIAL
  0
LINE
  5
538
  8
0
 62
     4
 10
320.22031871
 20
41.95698694
 30
0.0
 11
318.22031871
 21
43.95698694
 31
0.0
  0
LINE
  5
539
  8
0
 62
     4
 10
318.47031871
 20
13.20698694
 30
0.0
 11
319.97031871
 21
11.70698694
 31
0.0
  0
LINE
  5
53A
  8
0
 62
     4
 10
319.22031871
 20
42.95698694
 30
0.0
 11
319.22031871
 21
12.45698694
 31
0.0
  0
LINE
  5
53B
  8
0
 62
     4
 10
321.21162026
 20
42.95698694
 30
0.0
 11
317.22031871
 21
42.95698694
 31
0.0
  0
LINE
  5
53C
  8
0
 62
     4
 10
321.22031871
 20
12.45698694
 30
0.0
 11
317.22031871
 21
12.45698694
 31
0.0
  0
TEXT
  5
53D
  8
TXT_DIM49
 10
317.72031871
 20
4.28715149
 30
0.0
 40
2.5
  1
25
 50
90.00020741
  7
ARIAL
  0
LINE
  5
53E
  8
0
 62
     4
 10
320.22031871
 20
11.45698694
 30
0.0
 11
318.22031871
 21
13.45698694
 31
0.0
  0
LINE
  5
53F
  8
0
 62
     4
 10
318.47031871
 20
0.70698694
 30
0.0
 11
319.97031871
 21
-0.79301306
 31
0.0
  0
LINE
  5
540
  8
0
 62
     4
 10
319.22031871
 20
12.45698694
 30
0.0
 11
319.22031871
 21
-0.04301306
 31
0.0
  0
LINE
  5
541
  8
0
 62
     4
 10
321.22031871
 20
12.45698694
 30
0.0
 11
317.22031871
 21
12.45698694
 31
0.0
  0
LINE
  5
542
  8
0
 62
     4
 10
317.22031871
 20
-0.04301306
 30
0.0
 11
321.22031871
 21
-0.04301306
 31
0.0
  0
TEXT
  5
543
  8
TXT_DIM49
 10
217.01755402
 20
-2.37951264
 30
0.0
 40
2.5
  1
23
  7
ARIAL
  0
LINE
  5
544
  8
0
 62
     4
 10
214.31238947
 20
-2.87951264
 30
0.0
 11
212.31238947
 21
-4.87951264
 31
0.0
  0
LINE
  5
545
  8
0
 62
     4
 10
223.81238947
 20
-4.62951264
 30
0.0
 11
225.31238947
 21
-3.12951264
 31
0.0
  0
LINE
  5
546
  8
0
 62
     4
 10
213.31238947
 20
-3.87951264
 30
0.0
 11
224.56238947
 21
-3.87951264
 31
0.0
  0
LINE
  5
547
  8
0
 62
     4
 10
213.31238947
 20
-1.87951264
 30
0.0
 11
213.31238947
 21
-5.87951264
 31
0.0
  0
LINE
  5
548
  8
0
 62
     4
 10
224.56238947
 20
-1.87951264
 30
0.0
 11
224.56238947
 21
-5.87951264
 31
0.0
  0
TEXT
  5
549
  8
TXT_DIM49
 10
338.96924114
 20
34.14122792
 30
0.0
 40
2.5
  1
45
 50
292.4998427350001
  7
ARIAL
  0
TEXT
  5
54A
  8
TXT_DIM49
 10
340.43861958
 20
30.59383457
 30
0.0
 40
2.5
  1
°
 50
292.4998427350001
  7
ARIAL
  0
LINE
  5
54B
  8
0
 62
     4
 10
342.90262785
 20
26.16780312
 30
0.0
 11
342.81666299
 21
23.34068267
 31
0.0
  0
LINE
  5
54C
  8
0
 62
     4
 10
336.35337096
 20
37.93453855
 30
0.0
 11
337.80708824
 21
39.47943533
 31
0.0
  0
POLYLINE
  5
54D
  8
0
 62
     4
 66
     1
 10
0.0
 20
0.0
 30
0.0
  0
VERTEX
  5
98F
  8
0
 62
     4
 10
337.0802296000001
 20
38.70698701083437
 30
0.0
  0
VERTEX
  5
990
  8
0
 62
     4
 10
337.4593775114759
 20
34.85743355441647
 30
0.0
  0
VERTEX
  5
991
  8
0
 62
     4
 10
338.5822508316878
 20
31.15581627823143
 30
0.0
  0
VERTEX
  5
992
  8
0
 62
     4
 10
340.4056981679317
 20
27.74438626069616
 30
0.0
  0
VERTEX
  5
993
  8
0
 62
     4
 10
342.8596454605022
 20
24.75424284642969
 30
0.0
  0
SEQEND
  5
9E9
  8
0
 62
     4
  0
TEXT
  5
54E
  8
TXT_DIM49
 10
260.93263636
 20
67.62048736
 30
0.0
 40
2.5
  1
202
  7
ARIAL
  0
LINE
  5
54F
  8
0
 62
     4
 10
214.31238947
 20
67.12048736
 30
0.0
 11
212.31238947
 21
65.12048736
 31
0.0
  0
LINE
  5
550
  8
0
 62
     4
 10
313.56238947
 20
65.37048736
 30
0.0
 11
315.06238947
 21
66.87048736
 31
0.0
  0
LINE
  5
551
  8
0
 62
     4
 10
213.31238947
 20
66.12048736
 30
0.0
 11
314.31238947
 21
66.12048736
 31
0.0
  0
LINE
  5
552
  8
0
 62
     4
 10
213.31238947
 20
64.12048736
 30
0.0
 11
213.31238947
 21
68.12048736
 31
0.0
  0
LINE
  5
553
  8
0
 62
     4
 10
314.31238947
 20
64.12048736
 30
0.0
 11
314.31238947
 21
68.12048736
 31
0.0
  0
TEXT
  5
554
  8
TXT_DIM49
 10
321.89255402
 20
67.62048736
 30
0.0
 40
2.5
  1
38
  7
ARIAL
  0
LINE
  5
555
  8
0
 62
     4
 10
315.31238947
 20
67.12048736
 30
0.0
 11
313.31238947
 21
65.12048736
 31
0.0
  0
LINE
  5
556
  8
0
 62
     4
 10
332.56238947
 20
65.37048736
 30
0.0
 11
334.06238947
 21
66.87048736
 31
0.0
  0
LINE
  5
557
  8
0
 62
     4
 10
314.31238947
 20
66.12048736
 30
0.0
 11
333.31238947
 21
66.12048736
 31
0.0
  0
LINE
  5
558
  8
0
 62
     4
 10
314.31238947
 20
64.12048736
 30
0.0
 11
314.31238947
 21
68.12048736
 31
0.0
  0
LINE
  5
559
  8
0
 62
     4
 10
333.31238947
 20
64.12048736
 30
0.0
 11
333.31238947
 21
68.12048736
 31
0.0
  0
TEXT
  5
55A
  8
TXT_DIM49
 10
350.14255402
 20
67.62048736
 30
0.0
 40
2.5
  1
75
  7
ARIAL
  0
LINE
  5
55B
  8
0
 62
     4
 10
334.31238947
 20
67.12048736
 30
0.0
 11
332.31238947
 21
65.12048736
 31
0.0
  0
LINE
  5
55C
  8
0
 62
     4
 10
370.06238947
 20
65.37048736
 30
0.0
 11
371.56238947
 21
66.87048736
 31
0.0
  0
LINE
  5
55D
  8
0
 62
     4
 10
333.31238947
 20
66.12048736
 30
0.0
 11
370.81238947
 21
66.12048736
 31
0.0
  0
LINE
  5
55E
  8
0
 62
     4
 10
333.31238947
 20
64.12048736
 30
0.0
 11
333.31238947
 21
68.12048736
 31
0.0
  0
LINE
  5
55F
  8
0
 62
     4
 10
370.81238947
 20
64.12048736
 30
0.0
 11
370.81238947
 21
68.12048736
 31
0.0
  0
TEXT
  5
560
  8
TXT_DIM49
 10
241.78934809
 20
39.66215149
 30
0.0
 40
2.5
  1
56
 50
90.00020741
  7
ARIAL
  0
LINE
  5
561
  8
0
 62
     4
 10
244.28934809
 20
54.45698694
 30
0.0
 11
242.28934809
 21
56.45698694
 31
0.0
  0
LINE
  5
562
  8
0
 62
     4
 10
242.53934809
 20
28.45698694
 30
0.0
 11
244.03934809
 21
26.95698694
 31
0.0
  0
LINE
  5
563
  8
0
 62
     4
 10
243.28934809
 20
55.45698694
 30
0.0
 11
243.28934809
 21
27.70698694
 31
0.0
  0
LINE
  5
564
  8
0
 62
     4
 10
245.28934809
 20
55.45698694
 30
0.0
 11
241.28934809
 21
55.45698694
 31
0.0
  0
LINE
  5
565
  8
0
 62
     4
 10
241.28934809
 20
27.70698694
 30
0.0
 11
245.28934809
 21
27.70698694
 31
0.0
  0
TEXT
  5
566
  8
TXT_DIM49
 10
241.78934809
 20
11.91215149
 30
0.0
 40
2.5
  1
56
 50
90.00020741
  7
ARIAL
  0
LINE
  5
567
  8
0
 62
     4
 10
244.28934809
 20
26.70698694
 30
0.0
 11
242.28934809
 21
28.70698694
 31
0.0
  0
LINE
  5
568
  8
0
 62
     4
 10
242.53934809
 20
0.70698694
 30
0.0
 11
244.03934809
 21
-0.79301306
 31
0.0
  0
LINE
  5
569
  8
0
 62
     4
 10
243.28934809
 20
27.70698694
 30
0.0
 11
243.28934809
 21
-0.04301306
 31
0.0
  0
LINE
  5
56A
  8
0
 62
     4
 10
241.28934809
 20
27.70698694
 30
0.0
 11
245.28934809
 21
27.70698694
 31
0.0
  0
LINE
  5
56B
  8
0
 62
     4
 10
241.46701764
 20
-0.04301306
 30
0.0
 11
245.28934809
 21
-0.04301306
 31
0.0
  0
TEXT
  5
56C
  8
TXT_DIM49
 10
204.04800416
 20
0.53715149
 30
0.0
 40
2.5
  1
10
 50
90.00020741
  7
ARIAL
  0
LINE
  5
56D
  8
0
 62
     4
 10
204.54800416
 20
0.95698694
 30
0.0
 11
206.54800416
 21
-1.04301306
 31
0.0
  0
LINE
  5
56E
  8
0
 62
     4
 10
206.29800416
 20
4.20698694
 30
0.0
 11
204.79800416
 21
5.70698694
 31
0.0
  0
LINE
  5
56F
  8
0
 62
     4
 10
205.54800416
 20
-0.04301306
 30
0.0
 11
205.54800416
 21
4.95698694
 31
0.0
  0
LINE
  5
570
  8
0
 62
     4
 10
207.54800416
 20
-0.04301306
 30
0.0
 11
203.54800416
 21
-0.04301306
 31
0.0
  0
LINE
  5
571
  8
0
 62
     4
 10
207.54800416
 20
4.95698694
 30
0.0
 11
203.54800416
 21
4.95698694
 31
0.0
  0
TEXT
  5
572
  8
TXT_DIM49
 10
204.04800416
 20
25.78715149
 30
0.0
 40
2.5
  1
91
 50
90.00020741
  7
ARIAL
  0
LINE
  5
573
  8
0
 62
     4
 10
204.54800416
 20
5.95698694
 30
0.0
 11
206.54800416
 21
3.95698694
 31
0.0
  0
LINE
  5
574
  8
0
 62
     4
 10
206.29800416
 20
49.70698694
 30
0.0
 11
204.79800416
 21
51.20698694
 31
0.0
  0
LINE
  5
575
  8
0
 62
     4
 10
205.54800416
 20
4.95698694
 30
0.0
 11
205.54800416
 21
50.45698694
 31
0.0
  0
LINE
  5
576
  8
0
 62
     4
 10
207.54800416
 20
4.95698694
 30
0.0
 11
203.54800416
 21
4.95698694
 31
0.0
  0
LINE
  5
577
  8
0
 62
     4
 10
207.54800416
 20
50.45698694
 30
0.0
 11
203.54800416
 21
50.45698694
 31
0.0
  0
TEXT
  5
578
  8
TXT_DIM49
 10
204.04800416
 20
51.03715149
 30
0.0
 40
2.5
  1
10
 50
90.00020741
  7
ARIAL
  0
LINE
  5
579
  8
0
 62
     4
 10
204.54800416
 20
51.45698694
 30
0.0
 11
206.54800416
 21
49.45698694
 31
0.0
  0
LINE
  5
57A
  8
0
 62
     4
 10
206.29800416
 20
54.70698694
 30
0.0
 11
204.79800416
 21
56.20698694
 31
0.0
  0
LINE
  5
57B
  8
0
 62
     4
 10
205.54800416
 20
50.45698694
 30
0.0
 11
205.54800416
 21
55.45698694
 31
0.0
  0
LINE
  5
57C
  8
0
 62
     4
 10
207.54800416
 20
50.45698694
 30
0.0
 11
203.54800416
 21
50.45698694
 31
0.0
  0
LINE
  5
57D
  8
0
 62
     4
 10
207.54800416
 20
55.45698694
 30
0.0
 11
203.54800416
 21
55.45698694
 31
0.0
  0
LINE
  5
57E
  8
0
 62
     5
 10
220.81238947
 20
27.70698694
 30
0.0
 11
224.52039929
 21
33.32692251
 31
0.0
  0
TEXT
  5
57F
  8
TXT_DIM49
 10
224.52039929
 20
32.07692251
 30
0.0
 40
2.5
  1
Ø11
  7
ARIAL
  0
LINE
  5
580
  8
0
 62
     5
 10
224.56238947
 20
50.45698694
 30
0.0
 11
222.33652216
 21
45.04123946
 31
0.0
  0
TEXT
  5
581
  8
TXT_DIM49
 10
214.85270339
 20
43.79123946
 30
0.0
 40
2.5
  1
Ø6.5
  7
ARIAL
  0
LINE
  5
582
  8
0
 62
     5
 10
224.56238947
 20
4.95698694
 30
0.0
 11
227.49823709
 21
9.5032495
 31
0.0
  0
TEXT
  5
583
  8
TXT_DIM49
 10
227.49823709
 20
8.2532495
 30
0.0
 40
2.5
  1
Ø6.5
  7
ARIAL
  0
LINE
  5
584
  8
0
 62
     5
 10
345.81238947
 20
27.70698694
 30
0.0
 11
352.62893722
 21
49.11720348
 31
0.0
  0
TEXT
  5
585
  8
TXT_DIM49
 10
352.62893722
 20
47.86720348
 30
0.0
 40
2.5
  1
Slobgat 13 x 32
  7
ARIAL
  0
LINE
  5
586
  8
0
 62
     5
 10
360.81238947
 20
27.70698694
 30
0.0
 11
365.43519274
 21
43.65751064
 31
0.0
  0
TEXT
  5
587
  8
TXT_DIM49
 10
365.43519274
 20
42.40751064
 30
0.0
 40
2.5
  1
Slobgat 13 x 32
  7
ARIAL
  0
TEXT
  5
588
  8
TXT_DIM49
 10
333.10247175
 20
-41.30423462
 30
0.0
 40
2.5
  1
3
  7
ARIAL
  0
LINE
  5
589
  8
0
 62
     4
 10
334.31238947
 20
-41.80423462
 30
0.0
 11
332.31238947
 21
-43.80423462
 31
0.0
  0
LINE
  5
58A
  8
0
 62
     4
 10
334.06238947
 20
-43.55423462
 30
0.0
 11
335.56238947
 21
-42.05423462
 31
0.0
  0
LINE
  5
58B
  8
0
 62
     4
 10
333.31238947
 20
-42.80423462
 30
0.0
 11
334.81238947
 21
-42.80423462
 31
0.0
  0
LINE
  5
58C
  8
0
 62
     4
 10
333.31238947
 20
-44.80423462
 30
0.0
 11
333.31238947
 21
-40.80423462
 31
0.0
  0
LINE
  5
58D
  8
0
 62
     4
 10
334.81238947
 20
-44.80423462
 30
0.0
 11
334.81238947
 21
-40.80423462
 31
0.0
  0
TEXT
  5
58E
  8
TXT_DIM49
 10
270.43263636
 20
-31.30423462
 30
0.0
 40
2.5
  1
240
  7
ARIAL
  0
LINE
  5
58F
  8
0
 62
     4
 10
214.31238947
 20
-31.80423462
 30
0.0
 11
212.31238947
 21
-33.80423462
 31
0.0
  0
LINE
  5
590
  8
0
 62
     4
 10
332.56238947
 20
-33.55423462
 30
0.0
 11
334.06238947
 21
-32.05423462
 31
0.0
  0
LINE
  5
591
  8
0
 62
     4
 10
213.31238947
 20
-32.80423462
 30
0.0
 11
333.31238947
 21
-32.80423462
 31
0.0
  0
LINE
  5
592
  8
0
 62
     4
 10
213.31238947
 20
-34.80423462
 30
0.0
 11
213.31238947
 21
-30.80423462
 31
0.0
  0
LINE
  5
593
  8
0
 62
     4
 10
333.31238947
 20
-34.80423462
 30
0.0
 11
333.31238947
 21
-30.80423462
 31
0.0
  0
TEXT
  5
594
  8
TXT_DIM49
 10
350.14255402
 20
-31.30423462
 30
0.0
 40
2.5
  1
75
  7
ARIAL
  0
LINE
  5
595
  8
0
 62
     4
 10
334.31238947
 20
-31.80423462
 30
0.0
 11
332.31238947
 21
-33.80423462
 31
0.0
  0
LINE
  5
596
  8
0
 62
     4
 10
370.06238947
 20
-33.55423462
 30
0.0
 11
371.56238947
 21
-32.05423462
 31
0.0
  0
LINE
  5
597
  8
0
 62
     4
 10
333.31238947
 20
-32.80423462
 30
0.0
 11
370.81238947
 21
-32.80423462
 31
0.0
  0
LINE
  5
598
  8
0
 62
     4
 10
333.31238947
 20
-34.80423462
 30
0.0
 11
333.31238947
 21
-30.80423462
 31
0.0
  0
LINE
  5
599
  8
0
 62
     4
 10
370.81238947
 20
-34.80423462
 30
0.0
 11
370.81238947
 21
-30.80423462
 31
0.0
  0
LINE
  5
59A
  8
0
 62
     5
 10
167.91339619
 20
50.20698694
 30
0.0
 11
174.3882864
 21
40.47450972
 31
0.0
  0
TEXT
  5
59B
  8
TXT_DIM49
 10
174.3882864
 20
39.22450972
 30
0.0
 40
2.5
  1
Ø6.5
  7
ARIAL
  0
LINE
  5
59C
  8
0
 62
     5
 10
167.91339619
 20
5.20698694
 30
0.0
 11
171.90643136
 21
14.76396686
 31
0.0
  0
TEXT
  5
59D
  8
TXT_DIM49
 10
171.90643136
 20
13.51396686
 30
0.0
 40
2.5
  1
Ø6.5
  7
ARIAL
  0
TEXT
  5
59E
  8
TXT_DIM49
 10
149.86856074
 20
65.62459104
 30
0.0
 40
2.5
  1
14
  7
ARIAL
  0
LINE
  5
59F
  8
0
 62
     4
 10
149.41339619
 20
65.12459104
 30
0.0
 11
147.41339619
 21
63.12459104
 31
0.0
  0
LINE
  5
5A0
  8
0
 62
     4
 10
154.41339619
 20
63.37459104
 30
0.0
 11
155.91339619
 21
64.87459104
 31
0.0
  0
LINE
  5
5A1
  8
0
 62
     4
 10
148.41339619
 20
64.12459104
 30
0.0
 11
155.16339619
 21
64.12459104
 31
0.0
  0
LINE
  5
5A2
  8
0
 62
     4
 10
148.41339619
 20
62.12459104
 30
0.0
 11
148.41339619
 21
66.12459104
 31
0.0
  0
LINE
  5
5A3
  8
0
 62
     4
 10
155.16339619
 20
62.12459104
 30
0.0
 11
155.16339619
 21
66.12459104
 31
0.0
  0
TEXT
  5
5A4
  8
TXT_DIM49
 10
161.24356074
 20
65.62459104
 30
0.0
 40
2.5
  1
32
  7
ARIAL
  0
LINE
  5
5A5
  8
0
 62
     4
 10
156.16339619
 20
65.12459104
 30
0.0
 11
154.16339619
 21
63.12459104
 31
0.0
  0
LINE
  5
5A6
  8
0
 62
     4
 10
170.41339619
 20
63.37459104
 30
0.0
 11
171.91339619
 21
64.87459104
 31
0.0
  0
LINE
  5
5A7
  8
0
 62
     4
 10
155.16339619
 20
64.12459104
 30
0.0
 11
171.16339619
 21
64.12459104
 31
0.0
  0
LINE
  5
5A8
  8
0
 62
     4
 10
155.16339619
 20
62.12459104
 30
0.0
 11
155.16339619
 21
66.12459104
 31
0.0
  0
LINE
  5
5A9
  8
0
 62
     4
 10
171.16339619
 20
62.12459104
 30
0.0
 11
171.16339619
 21
66.12459104
 31
0.0
  0
TEXT
  5
5AA
  8
TXT_DIM49
 10
138.91413385
 20
45.91215149
 30
0.0
 40
2.5
  1
31
 50
90.00020741
  7
ARIAL
  0
LINE
  5
5AB
  8
0
 62
     4
 10
141.41413385
 20
54.45698694
 30
0.0
 11
139.41413385
 21
56.45698694
 31
0.0
  0
LINE
  5
5AC
  8
0
 62
     4
 10
139.66413385
 20
40.95698694
 30
0.0
 11
141.16413385
 21
39.45698694
 31
0.0
  0
LINE
  5
5AD
  8
0
 62
     4
 10
140.41413385
 20
55.45698694
 30
0.0
 11
140.41413385
 21
40.20698694
 31
0.0
  0
LINE
  5
5AE
  8
0
 62
     4
 10
142.41413385
 20
55.45698694
 30
0.0
 11
138.41413385
 21
55.45698694
 31
0.0
  0
LINE
  5
5AF
  8
0
 62
     4
 10
142.41413385
 20
40.20698694
 30
0.0
 11
138.41413385
 21
40.20698694
 31
0.0
  0
TEXT
  5
5B0
  8
TXT_DIM49
 10
138.91413385
 20
25.78715149
 30
0.0
 40
2.5
  1
50
 50
90.00020741
  7
ARIAL
  0
LINE
  5
5B1
  8
0
 62
     4
 10
141.41413385
 20
39.20698694
 30
0.0
 11
139.41413385
 21
41.20698694
 31
0.0
  0
LINE
  5
5B2
  8
0
 62
     4
 10
139.66413385
 20
15.95698694
 30
0.0
 11
141.16413385
 21
14.45698694
 31
0.0
  0
LINE
  5
5B3
  8
0
 62
     4
 10
140.41413385
 20
40.20698694
 30
0.0
 11
140.41413385
 21
15.20698694
 31
0.0
  0
LINE
  5
5B4
  8
0
 62
     4
 10
142.41413385
 20
40.20698694
 30
0.0
 11
138.41413385
 21
40.20698694
 31
0.0
  0
LINE
  5
5B5
  8
0
 62
     4
 10
142.41413385
 20
15.20698694
 30
0.0
 11
138.41413385
 21
15.20698694
 31
0.0
  0
TEXT
  5
5B6
  8
TXT_DIM49
 10
138.91413385
 20
5.66215149
 30
0.0
 40
2.5
  1
31
 50
90.00020741
  7
ARIAL
  0
LINE
  5
5B7
  8
0
 62
     4
 10
141.41413385
 20
14.20698694
 30
0.0
 11
139.41413385
 21
16.20698694
 31
0.0
  0
LINE
  5
5B8
  8
0
 62
     4
 10
139.66413385
 20
0.70698694
 30
0.0
 11
141.16413385
 21
-0.79301306
 31
0.0
  0
LINE
  5
5B9
  8
0
 62
     4
 10
140.41413385
 20
15.20698694
 30
0.0
 11
140.41413385
 21
-0.04301306
 31
0.0
  0
LINE
  5
5BA
  8
0
 62
     4
 10
142.41413385
 20
15.20698694
 30
0.0
 11
138.41413385
 21
15.20698694
 31
0.0
  0
LINE
  5
5BB
  8
0
 62
     4
 10
142.41413385
 20
-0.04301306
 30
0.0
 11
138.41413385
 21
-0.04301306
 31
0.0
  0
TEXT
  5
5BC
  8
TXT_DIM49
 10
128.73847967
 20
24.82723383
 30
0.0
 40
2.5
  1
111
 50
90.00020741
  7
ARIAL
  0
LINE
  5
5BD
  8
0
 62
     4
 10
131.23847967
 20
54.45698694
 30
0.0
 11
129.23847967
 21
56.45698694
 31
0.0
  0
LINE
  5
5BE
  8
0
 62
     4
 10
129.48847967
 20
0.70698694
 30
0.0
 11
130.98847967
 21
-0.79301306
 31
0.0
  0
LINE
  5
5BF
  8
0
 62
     4
 10
130.23847967
 20
55.45698694
 30
0.0
 11
130.23847967
 21
-0.04301306
 31
0.0
  0
LINE
  5
5C0
  8
0
 62
     4
 10
132.23847967
 20
55.45698694
 30
0.0
 11
128.23847967
 21
55.45698694
 31
0.0
  0
LINE
  5
5C1
  8
0
 62
     4
 10
132.23847967
 20
-0.04301306
 30
0.0
 11
128.23847967
 21
-0.04301306
 31
0.0
  0
TEXT
  5
5C2
  8
TXT_DIM49
 10
175.59383285
 20
50.91215149
 30
0.0
 40
2.5
  1
11
 50
90.00020741
  7
ARIAL
  0
LINE
  5
5C3
  8
0
 62
     4
 10
178.09383285
 20
54.45698694
 30
0.0
 11
176.09383285
 21
56.45698694
 31
0.0
  0
LINE
  5
5C4
  8
0
 62
     4
 10
176.34383285
 20
50.95698694
 30
0.0
 11
177.84383285
 21
49.45698694
 31
0.0
  0
LINE
  5
5C5
  8
0
 62
     4
 10
177.09383285
 20
55.45698694
 30
0.0
 11
177.09383285
 21
50.20698694
 31
0.0
  0
LINE
  5
5C6
  8
0
 62
     4
 10
177.09383285
 20
52.83198694
 30
0.0
 11
176.59383285
 21
52.83198688
 31
0.0
  0
LINE
  5
5C7
  8
0
 62
     4
 10
175.09383285
 20
55.45698694
 30
0.0
 11
179.09383285
 21
55.45698694
 31
0.0
  0
LINE
  5
5C8
  8
0
 62
     4
 10
175.09383285
 20
50.20698694
 30
0.0
 11
179.09383285
 21
50.20698694
 31
0.0
  0
TEXT
  5
5C9
  8
TXT_DIM49
 10
175.59383285
 20
43.7224803
 30
0.0
 40
2.5
  1
11
 50
90.00020741
  7
ARIAL
  0
LINE
  5
5CA
  8
0
 62
     4
 10
178.09383285
 20
49.20698694
 30
0.0
 11
176.09383285
 21
51.20698694
 31
0.0
  0
LINE
  5
5CB
  8
0
 62
     4
 10
176.34383285
 20
45.70698694
 30
0.0
 11
177.84383285
 21
44.20698694
 31
0.0
  0
LINE
  5
5CC
  8
0
 62
     4
 10
177.09383285
 20
50.20698694
 30
0.0
 11
177.09383285
 21
44.95698694
 31
0.0
  0
LINE
  5
5CD
  8
0
 62
     4
 10
177.09383285
 20
47.58198694
 30
0.0
 11
176.59383285
 21
47.97818393
 31
0.0
  0
LINE
  5
5CE
  8
0
 62
     4
 10
175.09383285
 20
50.20698694
 30
0.0
 11
179.09383285
 21
50.20698694
 31
0.0
  0
LINE
  5
5CF
  8
0
 62
     4
 10
175.09383285
 20
44.95698694
 30
0.0
 11
179.09383285
 21
44.95698694
 31
0.0
  0
TEXT
  5
5D0
  8
TXT_DIM49
 10
175.18811701
 20
3.28715149
 30
0.0
 40
2.5
  1
21
 50
90.00020741
  7
ARIAL
  0
LINE
  5
5D1
  8
0
 62
     4
 10
177.68811701
 20
9.45698694
 30
0.0
 11
175.68811701
 21
11.45698694
 31
0.0
  0
LINE
  5
5D2
  8
0
 62
     4
 10
175.93811701
 20
0.70698694
 30
0.0
 11
177.43811701
 21
-0.79301306
 31
0.0
  0
LINE
  5
5D3
  8
0
 62
     4
 10
176.68811701
 20
10.45698694
 30
0.0
 11
176.68811701
 21
-0.04301306
 31
0.0
  0
LINE
  5
5D4
  8
0
 62
     4
 10
174.68811701
 20
10.45698694
 30
0.0
 11
178.68811701
 21
10.45698694
 31
0.0
  0
LINE
  5
5D5
  8
0
 62
     4
 10
174.68811701
 20
-0.04301306
 30
0.0
 11
178.68811701
 21
-0.04301306
 31
0.0
  0
TEXT
  5
5D6
  8
TXT_DIM49
 10
168.57847847
 20
41.70698694
 30
0.0
 40
2.5
  1
7
  7
ARIAL
  0
LINE
  5
5D7
  8
0
 62
     4
 10
168.91339619
 20
41.20698694
 30
0.0
 11
166.91339619
 21
39.20698694
 31
0.0
  0
LINE
  5
5D8
  8
0
 62
     4
 10
170.41339619
 20
39.45698694
 30
0.0
 11
171.91339619
 21
40.95698694
 31
0.0
  0
LINE
  5
5D9
  8
0
 62
     4
 10
167.91339619
 20
40.20698694
 30
0.0
 11
171.16339619
 21
40.20698694
 31
0.0
  0
LINE
  5
5DA
  8
0
 62
     4
 10
167.91339619
 20
42.20698694
 30
0.0
 11
167.91339619
 21
38.20698694
 31
0.0
  0
LINE
  5
5DB
  8
0
 62
     4
 10
171.16339619
 20
42.20698694
 30
0.0
 11
171.16339619
 21
38.20698694
 31
0.0
  0
ENDSEC
  0
EOF
