  0
SECTION
  2
HEADER
  9
$ACADVER
  1
AC1006
  9
$DWGCODEPAGE
  3
ansi_1252
  9
$INSBASE
 10
0.0
 20
0.0
 30
0.0
  9
$EXTMIN
 10
-46.78648776
 20
-167.88895264
  9
$EXTMAX
 10
936.05100372
 20
305.45479736
  9
$LIMMIN
 10
-46.78648776
 20
-167.88895264
  9
$LIMMAX
 10
936.05100372
 20
305.45479736
  9
$ORTHOMODE
 70
     0
  9
$REGENMODE
 70
     1
  9
$FILLMODE
 70
     1
  9
$QTEXTMODE
 70
     0
  9
$MIRRTEXT
 70
     1
  9
$DRAGMODE
 70
     2
  9
$LTSCALE
 40
1.0
  9
$OSMODE
 70
    37
  9
$ATTMODE
 70
     1
  9
$TEXTSIZE
 40
1.0
  9
$TRACEWID
 40
0.05
  9
$TEXTSTYLE
  7
STANDARD
  9
$CLAYER
  8
0
  9
$CELTYPE
  6
BYBLOCK
  9
$CECOLOR
 62
   256
  9
$DIMSCALE
 40
1.0
  9
$DIMASZ
 40
0.18
  9
$DIMEXO
 40
0.0625
  9
$DIMDLI
 40
0.38
  9
$DIMRND
 40
0.0
  9
$DIMDLE
 40
0.0
  9
$DIMEXE
 40
0.18
  9
$DIMTP
 40
0.0
  9
$DIMTM
 40
0.0
  9
$DIMTXT
 40
0.18
  9
$DIMCEN
 40
0.09
  9
$DIMTSZ
 40
0.0
  9
$DIMTOL
 70
     0
  9
$DIMLIM
 70
     0
  9
$DIMTIH
 70
     1
  9
$DIMTOH
 70
     1
  9
$DIMSE1
 70
     0
  9
$DIMSE2
 70
     0
  9
$DIMTAD
 70
     0
  9
$DIMZIN
 70
     0
  9
$DIMBLK
  1

  9
$DIMASO
 70
     1
  9
$DIMSHO
 70
     1
  9
$DIMPOST
  1

  9
$DIMAPOST
  1

  9
$DIMALT
 70
     0
  9
$DIMALTD
 70
     2
  9
$DIMALTF
 40
25.4
  9
$DIMLFAC
 40
1.0
  9
$DIMTOFL
 70
     0
  9
$DIMTVP
 40
0.0
  9
$DIMTIX
 70
     0
  9
$DIMSOXD
 70
     0
  9
$DIMSAH
 70
     0
  9
$DIMBLK1
  1

  9
$DIMBLK2
  1

  9
$LUNITS
 70
     2
  9
$LUPREC
 70
     4
  9
$SKETCHINC
 40
0.1
  9
$FILLETRAD
 40
0.5
  9
$AUNITS
 70
     0
  9
$AUPREC
 70
     0
  9
$MENU
  1
.
  9
$ELEVATION
 40
0.0
  9
$THICKNESS
 40
0.0
  9
$LIMCHECK
 70
     0
  9
$CHAMFERA
 40
0.0
  9
$CHAMFERB
 40
0.0
  9
$SKPOLY
 70
     0
  9
$TDCREATE
 40
2447893.125
  9
$TDUPDATE
 40
2460791.511236088
  9
$TDINDWG
 40
0.0
  9
$TDUSRTIMER
 40
0.0
  9
$USRTIMER
 70
     1
  9
$ANGBASE
 50
0.0
  9
$ANGDIR
 70
     0
  9
$PDMODE
 70
     0
  9
$PDSIZE
 40
0.0
  9
$PLINEWID
 40
0.0
  9
$COORDS
 70
     1
  9
$SPLFRAME
 70
     0
  9
$SPLINETYPE
 70
     6
  9
$SPLINESEGS
 70
     8
  9
$ATTDIA
 70
     0
  9
$ATTREQ
 70
     1
  9
$HANDLING
 70
     1
  9
$HANDSEED
  5
957
  9
$SURFTAB1
 70
     6
  9
$SURFTAB2
 70
     6
  9
$SURFTYPE
 70
     6
  9
$SURFU
 70
     6
  9
$SURFV
 70
     6
  9
$UCSNAME
  2

  9
$UCSORG
 10
0.0
 20
0.0
 30
0.0
  9
$UCSXDIR
 10
1.0
 20
0.0
 30
0.0
  9
$UCSYDIR
 10
0.0
 20
1.0
 30
0.0
  9
$USERI1
 70
     0
  9
$USERI2
 70
     0
  9
$USERI3
 70
     0
  9
$USERI4
 70
     0
  9
$USERI5
 70
     0
  9
$USERR1
 40
0.0
  9
$USERR2
 40
0.0
  9
$USERR3
 40
0.0
  9
$USERR4
 40
0.0
  9
$USERR5
 40
0.0
  9
$WORLDVIEW
 70
     1
  0
ENDSEC
  0
SECTION
  2
TABLES
  0
TABLE
  2
VPORT
 70
     1
  0
VPORT
  2
*ACTIVE
 70
     0
 10
0.0
 20
0.0
 11
1.0
 21
1.0
 12
444.63225798
 22
68.78292236
 13
0.0
 23
0.0
 14
1.0
 24
1.0
 15
0.0
 25
0.0
 16
0.0
 26
0.0
 36
1.0
 17
0.0
 27
0.0
 37
0.0
 40
473.34375
 41
2.076371541
 42
50.0
 43
0.0
 44
0.0
 50
0.0
 51
0.0
 71
     0
 72
   100
 73
     1
 74
     1
 75
     0
 76
     0
 77
     0
 78
     0
  0
ENDTAB
  0
TABLE
  2
LTYPE
 70
    19
  0
LTYPE
  2
CONTINUOUS
 70
     0
  3
Solid line
 72
    65
 73
     0
 40
0.0
  0
LTYPE
  2
DOT
 70
     0
  3
..............
 72
    65
 73
     2
 40
2.0
 49
0.5
 49
-1.5
  0
LTYPE
  2
HIDDEN
 70
     0
  3
-- -- -- -- --
 72
    65
 73
     2
 40
7.0
 49
4.0
 49
-3.0
  0
LTYPE
  2
DASHDOT
 70
     0
  3
--.--.--.--.--
 72
    65
 73
     4
 40
8.5
 49
4.0
 49
-2.0
 49
0.5
 49
-2.0
  0
LTYPE
  2
STRICHPUNKT2
 70
     0
  3
--.--.--.--.--
 72
    65
 73
     4
 40
18.5
 49
10.0
 49
-4.0
 49
0.5
 49
-4.0
  0
LTYPE
  2
STRICHPUNKT3
 70
     0
  3
--.--.--.--.--
 72
    65
 73
     4
 40
35.5
 49
25.0
 49
-5.0
 49
0.5
 49
-5.0
  0
LTYPE
  2
PHANTOM
 70
     0
  3
--..--..--..--
 72
    65
 73
     6
 40
23.0
 49
10.0
 49
-4.0
 49
0.5
 49
-4.0
 49
0.5
 49
-4.0
  0
LTYPE
  2
PHANTOM2
 70
     0
  3
--..--..--..--
 72
    65
 73
     6
 40
33.0
 49
20.0
 49
-4.0
 49
0.5
 49
-4.0
 49
0.5
 49
-4.0
  0
LTYPE
  2
PHANTOM3
 70
     0
  3
--..--..--..--
 72
    65
 73
     6
 40
50.0
 49
37.0
 49
-4.0
 49
0.5
 49
-4.0
 49
0.5
 49
-4.0
  0
LTYPE
  2
STR3PKT
 70
     0
  3
--...--...--...
 72
    65
 73
     8
 40
31.5
 49
20.0
 49
-2.5
 49
0.5
 49
-2.5
 49
0.5
 49
-2.5
 49
0.5
 49
-2.5
  0
LTYPE
  2
2STRPKT
 70
     0
  3
--.--.--.--.--
 72
    65
 73
     6
 40
28.0
 49
10.0
 49
-2.5
 49
10.0
 49
-2.5
 49
0.5
 49
-2.5
  0
LTYPE
  2
GESTRICHELT2
 70
     0
  3
-- -- -- -- --
 72
    65
 73
     2
 40
25.0
 49
10.0
 49
-15.0
  0
LTYPE
  2
2STR2PKT
 70
     0
  3
--..--..--..--
 72
    65
 73
     8
 40
31.0
 49
10.0
 49
-2.5
 49
10.0
 49
-2.5
 49
0.5
 49
-2.5
 49
0.5
 49
-2.5
  0
LTYPE
  2
STR3PKT2
 70
     0
  3
--...--...--...
 72
    65
 73
     8
 40
21.0
 49
10.0
 49
-2.5
 49
0.5
 49
-2.5
 49
0.5
 49
-2.5
 49
0.5
 49
-2.0
  0
LTYPE
  2
2STR3PKT
 70
     0
  3
--...--...--...
 72
    65
 73
    10
 40
34.0
 49
10.0
 49
-2.5
 49
10.0
 49
-2.5
 49
0.5
 49
-2.5
 49
0.5
 49
-2.5
 49
0.5
 49
-2.5
  0
LTYPE
  2
STRKSTR
 70
     0
  3
-- - -- - -- -
 72
    65
 73
     4
 40
30.0
 49
20.0
 49
-2.5
 49
5.0
 49
-2.5
  0
LTYPE
  2
STRKSTR2
 70
     0
  3
-- - -- - -- -
 72
    65
 73
     6
 40
37.5
 49
20.0
 49
-2.5
 49
5.0
 49
-2.5
 49
5.0
 49
-2.5
  0
LTYPE
  2
STRKSTR3
 70
     0
  3
-- - -- - -- -
 72
    65
 73
     8
 40
45.0
 49
20.0
 49
-2.5
 49
5.0
 49
-2.5
 49
5.0
 49
-2.5
 49
5.0
 49
-2.5
  0
LTYPE
  2
PUNKT2
 70
     0
  3
..............
 72
    65
 73
     2
 40
3.5
 49
0.5
 49
-3.0
  0
ENDTAB
  0
TABLE
  2
LAYER
 70
    17
  0
LAYER
  2
0
 70
     0
 62
     7
  6
CONTINUOUS
  0
LAYER
  2
LE_GREEN
 70
     0
 62
     3
  6
CONTINUOUS
  0
LAYER
  2
LE_RED
 70
     0
 62
     1
  6
CONTINUOUS
  0
LAYER
  2
LE_ALL
 70
     0
 62
     7
  6
CONTINUOUS
  0
LAYER
  2
LE_HIDDEN1
 70
     0
 62
     3
  6
HIDDEN
  0
LAYER
  2
LE_HIDDEN
 70
     0
 62
     7
  6
CONTINUOUS
  0
LAYER
  2
LE_MIDDLE
 70
     0
 62
     7
  6
CONTINUOUS
  0
LAYER
  2
TXT_YELLOW
 70
     0
 62
     2
  6
CONTINUOUS
  0
LAYER
  2
TXT_DIM49
 70
     0
 62
     2
  6
CONTINUOUS
  0
LAYER
  2
TXT_ALL
 70
     0
 62
     7
  6
CONTINUOUS
  0
LAYER
  2
DIM49
 70
     0
 62
     4
  6
CONTINUOUS
  0
LAYER
  2
HATCH
 70
     0
 62
     3
  6
CONTINUOUS
  0
LAYER
  2
APPLE
 70
     0
 62
     7
  6
CONTINUOUS
  0
LAYER
  2
10
 70
     0
 62
     7
  6
CONTINUOUS
  0
LAYER
  2
20
 70
     0
 62
     7
  6
CONTINUOUS
  0
LAYER
  2
47
 70
     0
 62
     7
  6
CONTINUOUS
  0
LAYER
  2
49
 70
     0
 62
     7
  6
CONTINUOUS
  0
ENDTAB
  0
TABLE
  2
STYLE
 70
     5
  0
STYLE
  2
MONOTXT
 70
     0
 40
0.0
 41
1.0
 50
0.0
 71
     0
 42
1.0
  3
monotxt.shx
  4

  0
STYLE
  2
STANDARD
 70
     0
 40
0.0
 41
1.0
 50
0.0
 71
     0
 42
1.0
  3
txt
  4

  0
STYLE
  2
ARIAL
 70
     0
 40
0.0
 41
1.0
 50
0.0
 71
     0
 42
1.0
  3
arial.ttf
  4

  0
STYLE
  2
ARIAL_NARROW
 70
     0
 40
0.0
 41
1.0
 50
0.0
 71
     0
 42
1.0
  3
ArialN.ttf
  4

  0
STYLE
  2
ISOCPEUR
 70
     0
 40
0.0
 41
1.0
 50
0.0
 71
     0
 42
1.0
  3
ISOCPEUR.ttf
  4

  0
ENDTAB
  0
TABLE
  2
VIEW
 70
     0
  0
ENDTAB
  0
TABLE
  2
UCS
 70
     0
  0
ENDTAB
  0
ENDSEC
  0
SECTION
  2
BLOCKS
  0
ENDSEC
  0
SECTION
  2
ENTITIES
  0
POLYLINE
  5
16E
  8
0
 66
     1
 10
0.0
 20
0.0
 30
0.0
 70
     1
  0
VERTEX
  5
16F
  8
0
 10
169.95529755
 20
-50.40180885
 30
0.0
  0
VERTEX
  5
170
  8
0
 10
589.95529755
 20
-50.40180885
 30
0.0
  0
VERTEX
  5
171
  8
0
 10
589.95529755
 20
246.59819115
 30
0.0
  0
VERTEX
  5
172
  8
0
 10
169.95529755
 20
246.59819115
 30
0.0
  0
SEQEND
  5
173
  8
0
  0
POLYLINE
  5
174
  8
0
 66
     1
 10
0.0
 20
0.0
 30
0.0
 70
     1
  0
VERTEX
  5
175
  8
0
 10
174.95529755
 20
-45.40180885
 30
0.0
  0
VERTEX
  5
176
  8
0
 10
584.95529755
 20
-45.40180885
 30
0.0
  0
VERTEX
  5
177
  8
0
 10
584.95529755
 20
241.59819115
 30
0.0
  0
VERTEX
  5
178
  8
0
 10
174.95529755
 20
241.59819115
 30
0.0
  0
SEQEND
  5
179
  8
0
  0
LINE
  5
17A
  8
0
 10
399.95529755
 20
-45.40180885
 30
0.0
 11
399.95529755
 21
-50.40180885
 31
0.0
  0
LINE
  5
17B
  8
0
 10
399.95529755
 20
241.59819115
 30
0.0
 11
399.95529755
 21
246.59819115
 31
0.0
  0
LINE
  5
17C
  8
0
 10
189.95529755
 20
-45.40180885
 30
0.0
 11
189.95529755
 21
-50.40180885
 31
0.0
  0
LINE
  5
17D
  8
0
 10
189.95529755
 20
241.59819115
 30
0.0
 11
189.95529755
 21
246.59819115
 31
0.0
  0
TEXT
  5
17E
  8
TXT_ALL
 62
     4
 10
588.95529755
 20
-49.40180885
 30
0.0
 40
2.5
  1

 50
90.00020741
  0
POLYLINE
  5
17F
  8
0
 66
     1
 10
0.0
 20
0.0
 30
0.0
  0
VERTEX
  5
180
  8
0
 10
584.95529755
 20
231.59819115
 30
0.0
  0
VERTEX
  5
181
  8
0
 10
515.96199755
 20
231.59819115
 30
0.0
  0
VERTEX
  5
182
  8
0
 10
515.96199755
 20
241.59819115
 30
0.0
  0
SEQEND
  5
183
  8
0
  0
LINE
  5
184
  8
0
 10
517.86529755
 20
-25.90180885
 30
0.0
 11
377.97529755
 21
-25.90180885
 31
0.0
  0
LINE
  5
185
  8
0
 10
377.97529755
 20
-35.65180885
 30
0.0
 11
517.86529755
 21
-35.65180885
 31
0.0
  0
POLYLINE
  5
186
  8
0
 66
     1
 10
0.0
 20
0.0
 30
0.0
  0
VERTEX
  5
187
  8
0
 10
377.97529755
 20
-25.90180885
 30
0.0
  0
VERTEX
  5
188
  8
0
 10
377.97529755
 20
-35.65180885
 30
0.0
  0
VERTEX
  5
189
  8
0
 10
377.97529755
 20
-45.40180885
 30
0.0
  0
SEQEND
  5
18A
  8
0
  0
POLYLINE
  5
18B
  8
0
 66
     1
 10
0.0
 20
0.0
 30
0.0
  0
VERTEX
  5
18C
  8
0
 10
447.92029755
 20
-25.90180885
 30
0.0
  0
VERTEX
  5
18D
  8
0
 10
447.92029755
 20
-35.65180885
 30
0.0
  0
VERTEX
  5
18E
  8
0
 10
447.92029755
 20
-45.40180885
 30
0.0
  0
SEQEND
  5
18F
  8
0
  0
TEXT
  5
190
  8
TXT_ALL
 10
379.97529755
 20
-32.07680879999999
 30
0.0
 40
2.5999999
  1
E-mail: verkoop@jonkers-bouwmetaal.nl
  7
ARIAL
  0
TEXT
  5
191
  8
TXT_ALL
 10
379.97529755
 20
-41.8268088
 30
0.0
 40
2.5999999
  1
Telefoon: 0527-685156
  7
ARIAL
  0
TEXT
  5
192
  8
TXT_ALL
 10
449.92029755
 20
-41.8268088
 30
0.0
 40
2.5999999
  1
Website: www.jonkers-bouwmetaal.nl
  7
ARIAL
  0
TEXT
  5
193
  8
TXT_ALL
 10
449.92029755
 20
-32.07680879999999
 30
0.0
 40
2.5999999
  1
Adres: Hoornse Hop 10, 8321 WX Urk
  7
ARIAL
  0
TEXT
  5
194
  8
TXT_ALL
 10
178.3972578
 20
235.34819115
 30
0.0
 40
2.5
  1
Art. nr. 91015835
  7
ARIAL
  0
TEXT
  5
195
  8
TXT_ALL
 10
221.13529462
 20
235.34819115
 30
0.0
 40
2.5
  1
Omschrijving: T05-anker 280x45.5 111x3
  7
ARIAL
  0
LINE
  5
196
  8
0
 10
584.95529755
 20
231.59819115
 30
0.0
 11
174.95529755
 21
231.59819115
 31
0.0
  0
LINE
  5
197
  8
0
 10
217.97529755
 20
231.59819115
 30
0.0
 11
217.97529755
 21
241.59819115
 31
0.0
  0
LINE
  5
198
  8
0
 10
377.97529755
 20
231.59819115
 30
0.0
 11
377.97529755
 21
241.59819115
 31
0.0
  0
TEXT
  5
199
  8
TXT_ALL
 10
448.96899755
 20
235.34819115
 30
0.0
 40
2.5
  1
Behandeling: N.V.T.
  7
ARIAL
  0
LINE
  5
19A
  8
0
 10
517.86529755
 20
-25.90180885
 30
0.0
 11
584.95529755
 21
-25.90180885
 31
0.0
  0
LINE
  5
19B
  8
0
 10
517.86529755
 20
-45.40180885
 30
0.0
 11
517.86529755
 21
-25.90180885
 31
0.0
  0
LINE
  5
19C
  8
0
 10
517.86529755
 20
-45.40180885
 30
0.0
 11
517.86529755
 21
-25.90180885
 31
0.0
  0
TEXT
  5
19D
  8
TXT_ALL
 10
312.32049564
 20
-44.24727544
 30
0.0
 40
2.5
  1

  0
TEXT
  5
19E
  8
TXT_ALL
 10
433.45567861
 20
-34.15180885
 30
0.0
 40
2.5
  1

  0
POLYLINE
  5
19F
  8
0
 66
     1
 10
0.0
 20
0.0
 30
0.0
  0
VERTEX
  5
1A0
  8
0
 10
515.96199755
 20
231.59819115
 30
0.0
  0
VERTEX
  5
1A1
  8
0
 10
446.96899755
 20
231.59819115
 30
0.0
  0
VERTEX
  5
1A2
  8
0
 10
446.96899755
 20
241.59819115
 30
0.0
  0
SEQEND
  5
1A3
  8
0
  0
TEXT
  5
1A4
  8
TXT_ALL
 10
517.96199755
 20
235.34819115
 30
0.0
 40
2.5
  1
Verpakkingshoeveelheid: 15 st.
  7
ARIAL
  0
TEXT
  5
1A5
  8
TXT_ALL
 10
379.97529755
 20
235.34819115
 30
0.0
 40
2.5
  1
Materiaal: Sendzimir Verzinkt
  7
ARIAL
  0
TEXT
  5
1A6
  8
TXT_ALL
 10
552.73694478
 20
-48.6513187
 30
0.0
 40
1.5
  1
Onderdeel van
  7
ARIAL
  0
LINE
  5
1A7
  8
0
 10
411.21536206
 20
166.3978967
 30
0.0
 11
411.21536206
 21
169.3978967
 31
0.0
  0
POLYLINE
  5
1A8
  8
0
 66
     1
 10
0.0
 20
0.0
 30
0.0
  0
VERTEX
  5
1A9
  8
0
 10
551.21536206
 20
169.3978967
 30
0.0
  0
VERTEX
  5
1AA
  8
0
 10
551.21536206
 20
166.3978967
 30
0.0
  0
VERTEX
  5
1AB
  8
0
 10
411.21536206
 20
166.3978967
 30
0.0
  0
SEQEND
  5
1AC
  8
0
  0
POLYLINE
  5
1AD
  8
0
 66
     1
 10
0.0
 20
0.0
 30
0.0
 70
     1
  0
VERTEX
  5
1AE
  8
0
 10
540.15470189
 20
149.74104245
 30
0.0
 42
-1.0
  0
VERTEX
  5
1AF
  8
0
 10
535.55850781
 20
154.33723653
 30
0.0
  0
VERTEX
  5
1B0
  8
0
 10
542.27602224
 20
161.05475095
 30
0.0
 42
-1.0
  0
VERTEX
  5
1B1
  8
0
 10
546.87221631
 20
156.45855688
 30
0.0
  0
SEQEND
  5
1B2
  8
0
  0
POLYLINE
  5
1B3
  8
0
 66
     1
 10
0.0
 20
0.0
 30
0.0
 70
     1
  0
VERTEX
  5
1B4
  8
0
 10
525.15470189
 20
149.74104245
 30
0.0
 42
-1.0
  0
VERTEX
  5
1B5
  8
0
 10
520.55850781
 20
154.33723653
 30
0.0
  0
VERTEX
  5
1B6
  8
0
 10
527.27602224
 20
161.05475095
 30
0.0
 42
-1.0
  0
VERTEX
  5
1B7
  8
0
 10
531.87221631
 20
156.45855688
 30
0.0
  0
SEQEND
  5
1B8
  8
0
  0
CIRCLE
  5
1B9
  8
0
 10
418.71536206
 20
155.3978967
 30
0.0
 40
2.75
  0
CIRCLE
  5
1BA
  8
0
 10
508.71536206
 20
155.3978967
 30
0.0
 40
2.75
  0
LINE
  5
1BB
  8
0
 10
411.21536206
 20
145.8978967
 30
0.0
 11
411.21536206
 21
164.8978967
 31
0.0
  0
LINE
  5
1BC
  8
0
 10
551.21536206
 20
164.8978967
 30
0.0
 11
551.21536206
 21
145.8978967
 31
0.0
  0
LINE
  5
1BD
  8
0
  6
STRICHPUNKT2
 62
     1
 10
508.71536206
 20
155.3978967
 30
0.0
 11
504.59036206
 21
155.3978967
 31
0.0
  0
LINE
  5
1BE
  8
0
  6
STRICHPUNKT2
 62
     1
 10
508.71536206
 20
155.3978967
 30
0.0
 11
512.84036206
 21
155.3978967
 31
0.0
  0
LINE
  5
1BF
  8
0
  6
STRICHPUNKT2
 62
     1
 10
508.71536206
 20
155.3978967
 30
0.0
 11
508.71536206
 21
151.2728967
 31
0.0
  0
LINE
  5
1C0
  8
0
  6
STRICHPUNKT2
 62
     1
 10
508.71536206
 20
155.3978967
 30
0.0
 11
508.71536206
 21
159.5228967
 31
0.0
  0
LINE
  5
1C1
  8
0
  6
STRICHPUNKT2
 62
     1
 10
418.71536206
 20
155.3978967
 30
0.0
 11
414.59036206
 21
155.3978967
 31
0.0
  0
LINE
  5
1C2
  8
0
  6
STRICHPUNKT2
 62
     1
 10
418.71536206
 20
155.3978967
 30
0.0
 11
422.84036206
 21
155.3978967
 31
0.0
  0
LINE
  5
1C3
  8
0
  6
STRICHPUNKT2
 62
     1
 10
418.71536206
 20
155.3978967
 30
0.0
 11
418.71536206
 21
151.2728967
 31
0.0
  0
LINE
  5
1C4
  8
0
  6
STRICHPUNKT2
 62
     1
 10
418.71536206
 20
155.3978967
 30
0.0
 11
418.71536206
 21
159.5228967
 31
0.0
  0
LINE
  5
1C5
  8
0
  6
STRICHPUNKT2
 62
     1
 10
519.49784764
 20
148.68038228
 30
0.0
 11
532.93287648
 21
162.11541113
 31
0.0
  0
LINE
  5
1C6
  8
0
  6
STRICHPUNKT2
 62
     1
 10
526.21536206
 20
148.68038228
 30
0.0
 11
519.49784764
 21
155.3978967
 31
0.0
  0
LINE
  5
1C7
  8
0
  6
STRICHPUNKT2
 62
     1
 10
532.93287648
 20
155.3978967
 30
0.0
 11
526.21536206
 21
162.11541113
 31
0.0
  0
LINE
  5
1C8
  8
0
  6
STRICHPUNKT2
 62
     1
 10
534.49784764
 20
148.68038228
 30
0.0
 11
547.93287648
 21
162.11541113
 31
0.0
  0
LINE
  5
1C9
  8
0
  6
STRICHPUNKT2
 62
     1
 10
541.21536206
 20
148.68038228
 30
0.0
 11
534.49784764
 21
155.3978967
 31
0.0
  0
LINE
  5
1CA
  8
0
  6
STRICHPUNKT2
 62
     1
 10
547.93287648
 20
155.3978967
 30
0.0
 11
541.21536206
 21
162.11541113
 31
0.0
  0
LINE
  5
1CB
  8
0
 10
551.21536206
 20
166.3978967
 30
0.0
 11
551.21536206
 21
164.8978967
 31
0.0
  0
LINE
  5
1CC
  8
0
 10
411.21536206
 20
164.8978967
 30
0.0
 11
411.21536206
 21
166.3978967
 31
0.0
  0
LINE
  5
1CD
  8
0
 10
411.21536206
 20
144.3978967
 30
0.0
 11
411.21536206
 21
145.8978967
 31
0.0
  0
LINE
  5
1CE
  8
0
 10
551.21536206
 20
145.8978967
 30
0.0
 11
551.21536206
 21
144.3978967
 31
0.0
  0
LINE
  5
1CF
  8
0
 10
411.21536206
 20
141.3978967
 30
0.0
 11
411.21536206
 21
144.3978967
 31
0.0
  0
LINE
  5
1D0
  8
0
 10
551.21536206
 20
144.3978967
 30
0.0
 11
411.21536206
 21
144.3978967
 31
0.0
  0
LINE
  5
1D1
  8
0
 10
551.21536206
 20
144.3978967
 30
0.0
 11
551.21536206
 21
141.3978967
 31
0.0
  0
CIRCLE
  5
1D2
  8
0
 10
422.21536206
 20
132.6478967
 30
0.0
 40
1.625
  0
LINE
  5
1D3
  8
0
 10
467.21536206
 20
139.1478967
 30
0.0
 11
467.21536206
 21
128.6478967
 31
0.0
  0
ARC
  5
1D4
  8
0
 10
466.21536206
 20
128.6478967
 30
0.0
 40
1.0
 50
-90.0
 51
0.0
  0
POLYLINE
  5
1D5
  8
0
 66
     1
 10
0.0
 20
0.0
 30
0.0
  0
VERTEX
  5
1D6
  8
0
 10
466.21536206
 20
127.6478967
 30
0.0
  0
VERTEX
  5
1D7
  8
0
 10
411.21536206
 20
127.6478967
 30
0.0
  0
VERTEX
  5
1D8
  8
0
 10
411.21536206
 20
141.3978967
 30
0.0
  0
SEQEND
  5
1D9
  8
0
  0
POLYLINE
  5
1DA
  8
0
 66
     1
 10
0.0
 20
0.0
 30
0.0
  0
VERTEX
  5
1DB
  8
0
 10
551.21536206
 20
141.3978967
 30
0.0
  0
VERTEX
  5
1DC
  8
0
 10
551.21536206
 20
127.6478967
 30
0.0
  0
VERTEX
  5
1DD
  8
0
 10
489.21536206
 20
127.6478967
 30
0.0
  0
SEQEND
  5
1DE
  8
0
  0
POLYLINE
  5
1DF
  8
0
 66
     1
 10
0.0
 20
0.0
 30
0.0
  0
VERTEX
  5
608
  8
0
 10
489.215362068325
 20
130.8978967022883
 30
0.0
  0
VERTEX
  5
609
  8
0
 10
489.7492077919711
 20
131.2471251923826
 30
0.0
  0
VERTEX
  5
60A
  8
0
 10
490.17070550912
 20
131.6662027552039
 30
0.0
  0
VERTEX
  5
60B
  8
0
 10
490.4620203925025
 20
132.1373969674405
 30
0.0
  0
VERTEX
  5
60C
  8
0
 10
490.6108260393536
 20
132.6407701946911
 30
0.0
  0
VERTEX
  5
60D
  8
0
 10
490.610826038328
 20
133.1550232123225
 30
0.0
  0
VERTEX
  5
60E
  8
0
 10
490.4620203894692
 20
133.6583964392763
 30
0.0
  0
VERTEX
  5
60F
  8
0
 10
490.1707055042072
 20
134.129590650932
 30
0.0
  0
VERTEX
  5
610
  8
0
 10
489.7492077853868
 20
134.5486682129126
 30
0.0
  0
VERTEX
  5
611
  8
0
 10
489.2153620603477
 20
134.8978967019423
 30
0.0
  0
SEQEND
  5
908
  8
0
  0
POLYLINE
  5
1E0
  8
0
 66
     1
 10
0.0
 20
0.0
 30
0.0
  0
VERTEX
  5
1E1
  8
0
 10
489.21536206
 20
138.1478967
 30
0.0
  0
VERTEX
  5
1E2
  8
0
 10
490.21536206
 20
138.1478967
 30
0.0
 42
1.0
  0
VERTEX
  5
1E3
  8
0
 10
490.21536206
 20
140.1478967
 30
0.0
  0
VERTEX
  5
1E4
  8
0
 10
468.21536206
 20
140.1478967
 30
0.0
  0
SEQEND
  5
1E5
  8
0
  0
ARC
  5
1E6
  8
0
 10
468.21536206
 20
139.1478967
 30
0.0
 40
1.0
 50
90.0
 51
180.0
  0
LINE
  5
1E7
  8
0
  6
STRICHPUNKT2
 62
     1
 10
422.21536206
 20
132.6478967
 30
0.0
 11
419.77786206
 21
132.6478967
 31
0.0
  0
LINE
  5
1E8
  8
0
  6
STRICHPUNKT2
 62
     1
 10
422.21536206
 20
132.6478967
 30
0.0
 11
424.65286206
 21
132.6478967
 31
0.0
  0
LINE
  5
1E9
  8
0
  6
STRICHPUNKT2
 62
     1
 10
422.21536206
 20
132.6478967
 30
0.0
 11
422.21536206
 21
130.2103967
 31
0.0
  0
LINE
  5
1EA
  8
0
  6
STRICHPUNKT2
 62
     1
 10
422.21536206
 20
132.6478967
 30
0.0
 11
422.21536206
 21
135.0853967
 31
0.0
  0
CIRCLE
  5
1EB
  8
0
 10
422.21536206
 20
178.1478967
 30
0.0
 40
1.625
  0
LINE
  5
1EC
  8
0
 10
466.21536206
 20
183.1478967
 30
0.0
 11
411.21536206
 21
183.1478967
 31
0.0
  0
LINE
  5
1ED
  8
0
 10
411.21536206
 20
169.3978967
 30
0.0
 11
411.21536206
 21
183.1478967
 31
0.0
  0
LINE
  5
1EE
  8
0
 10
551.21536206
 20
183.1478967
 30
0.0
 11
551.21536206
 21
169.3978967
 31
0.0
  0
LINE
  5
1EF
  8
0
 10
551.21536206
 20
183.1478967
 30
0.0
 11
489.21536206
 21
183.1478967
 31
0.0
  0
POLYLINE
  5
1F0
  8
0
 66
     1
 10
0.0
 20
0.0
 30
0.0
  0
VERTEX
  5
612
  8
0
 10
489.215362068325
 20
175.8978967022883
 30
0.0
  0
VERTEX
  5
613
  8
0
 10
489.7492077919711
 20
176.2471251923826
 30
0.0
  0
VERTEX
  5
614
  8
0
 10
490.17070550912
 20
176.6662027552039
 30
0.0
  0
VERTEX
  5
615
  8
0
 10
490.4620203925025
 20
177.1373969674405
 30
0.0
  0
VERTEX
  5
616
  8
0
 10
490.6108260393536
 20
177.6407701946911
 30
0.0
  0
VERTEX
  5
617
  8
0
 10
490.610826038328
 20
178.1550232123225
 30
0.0
  0
VERTEX
  5
618
  8
0
 10
490.4620203894692
 20
178.6583964392763
 30
0.0
  0
VERTEX
  5
619
  8
0
 10
490.1707055042072
 20
179.129590650932
 30
0.0
  0
VERTEX
  5
61A
  8
0
 10
489.7492077853868
 20
179.5486682129126
 30
0.0
  0
VERTEX
  5
61B
  8
0
 10
489.2153620603477
 20
179.8978967019423
 30
0.0
  0
SEQEND
  5
909
  8
0
  0
LINE
  5
1F1
  8
0
 10
490.21536206
 20
172.6478967
 30
0.0
 11
489.21536206
 21
172.6478967
 31
0.0
  0
ARC
  5
1F2
  8
0
 10
490.21536206
 20
171.6478967
 30
0.0
 40
1.0
 50
0.0
 51
90.0
  0
ARC
  5
1F3
  8
0
 10
490.21536206
 20
171.6478967
 30
0.0
 40
1.0
 50
-90.0
 51
0.0
  0
LINE
  5
1F4
  8
0
 10
468.21536206
 20
170.6478967
 30
0.0
 11
490.21536206
 21
170.6478967
 31
0.0
  0
ARC
  5
1F5
  8
0
 10
468.21536206
 20
171.6478967
 30
0.0
 40
1.0
 50
180.0
 51
-90.0
  0
LINE
  5
1F6
  8
0
 10
467.21536206
 20
182.1478967
 30
0.0
 11
467.21536206
 21
171.6478967
 31
0.0
  0
ARC
  5
1F7
  8
0
 10
466.21536206
 20
182.1478967
 30
0.0
 40
1.0
 50
0.0
 51
90.0
  0
LINE
  5
1F8
  8
0
  6
STRICHPUNKT2
 62
     1
 10
422.21536206
 20
178.1478967
 30
0.0
 11
419.77786206
 21
178.1478967
 31
0.0
  0
LINE
  5
1F9
  8
0
  6
STRICHPUNKT2
 62
     1
 10
422.21536206
 20
178.1478967
 30
0.0
 11
424.65286206
 21
178.1478967
 31
0.0
  0
LINE
  5
1FA
  8
0
  6
STRICHPUNKT2
 62
     1
 10
422.21536206
 20
178.1478967
 30
0.0
 11
422.21536206
 21
175.7103967
 31
0.0
  0
LINE
  5
1FB
  8
0
  6
STRICHPUNKT2
 62
     1
 10
422.21536206
 20
178.1478967
 30
0.0
 11
422.21536206
 21
180.5853967
 31
0.0
  0
POLYLINE
  5
1FC
  8
0
 66
     1
 10
0.0
 20
0.0
 30
0.0
  0
VERTEX
  5
1FD
  8
0
 10
487.71536207
 20
179.89789671
 30
0.0
  0
VERTEX
  5
1FE
  8
0
 10
487.71889252
 20
179.94852339
 30
0.0
  0
VERTEX
  5
1FF
  8
0
 10
487.72864668
 20
179.9899303
 30
0.0
  0
VERTEX
  5
200
  8
0
 10
487.74386734
 20
180.02447412
 30
0.0
  0
VERTEX
  5
201
  8
0
 10
487.76442671
 20
180.05387936
 30
0.0
  0
VERTEX
  5
202
  8
0
 10
487.79081627
 20
180.07936255
 30
0.0
  0
VERTEX
  5
203
  8
0
 10
487.82414266
 20
180.10169743
 30
0.0
  0
VERTEX
  5
204
  8
0
 10
487.82921616
 20
180.10447332
 30
0.0
  0
VERTEX
  5
205
  8
0
 10
487.87261682
 20
180.12369481
 30
0.0
  0
VERTEX
  5
206
  8
0
 10
487.92653341
 20
180.13971947
 30
0.0
  0
VERTEX
  5
207
  8
0
 10
487.99293661
 20
180.15195445
 30
0.0
  0
VERTEX
  5
208
  8
0
 10
488.07408552
 20
180.1595953
 30
0.0
  0
VERTEX
  5
209
  8
0
 10
488.15470189
 20
180.16174299
 30
0.0
  0
VERTEX
  5
20A
  8
0
 10
488.26730703
 20
180.1582204
 30
0.0
  0
VERTEX
  5
20B
  8
0
 10
488.39020353
 20
180.14721959
 30
0.0
  0
VERTEX
  5
20C
  8
0
 10
488.5203142
 20
180.12838728
 30
0.0
  0
VERTEX
  5
20D
  8
0
 10
488.64212604
 20
180.10447332
 30
0.0
  0
VERTEX
  5
20E
  8
0
 10
488.77630573
 20
180.07104821
 30
0.0
  0
VERTEX
  5
20F
  8
0
 10
488.90330806
 20
180.03187188
 30
0.0
  0
VERTEX
  5
210
  8
0
 10
489.02348533
 20
179.98719105
 30
0.0
  0
VERTEX
  5
211
  8
0
 10
489.1371496
 20
179.93720777
 30
0.0
  0
VERTEX
  5
212
  8
0
 10
489.21536206
 20
179.89789671
 30
0.0
  0
SEQEND
  5
213
  8
0
  0
LINE
  5
214
  8
0
 10
489.21536206
 20
183.1478967
 30
0.0
 11
487.71536206
 21
183.1478967
 31
0.0
  0
POLYLINE
  5
215
  8
0
 66
     1
 10
0.0
 20
0.0
 30
0.0
  0
VERTEX
  5
216
  8
0
 10
489.21536206
 20
175.8978967
 30
0.0
  0
VERTEX
  5
217
  8
0
 10
489.11079243
 20
175.84627294
 30
0.0
  0
VERTEX
  5
218
  8
0
 10
489.00096463
 20
175.799622
 30
0.0
  0
VERTEX
  5
219
  8
0
 10
488.88578214
 20
175.75804605
 30
0.0
  0
VERTEX
  5
21A
  8
0
 10
488.76518618
 20
175.72167695
 30
0.0
  0
VERTEX
  5
21B
  8
0
 10
488.64212604
 20
175.69132009
 30
0.0
  0
VERTEX
  5
21C
  8
0
 10
488.51031872
 20
175.66571037
 30
0.0
  0
VERTEX
  5
21D
  8
0
 10
488.38104826
 20
175.64751905
 30
0.0
  0
VERTEX
  5
21E
  8
0
 10
488.25759292
 20
175.63700724
 30
0.0
  0
VERTEX
  5
21F
  8
0
 10
488.15470189
 20
175.63405042
 30
0.0
  0
VERTEX
  5
220
  8
0
 10
488.05299604
 20
175.63757301
 30
0.0
  0
VERTEX
  5
221
  8
0
 10
487.97057329
 20
175.64723396
 30
0.0
  0
VERTEX
  5
222
  8
0
 10
487.90440772
 20
175.66183319
 30
0.0
  0
VERTEX
  5
223
  8
0
 10
487.85186678
 20
175.68039075
 30
0.0
  0
VERTEX
  5
224
  8
0
 10
487.82921616
 20
175.69132009
 30
0.0
  0
VERTEX
  5
225
  8
0
 10
487.79309072
 20
175.71462745
 30
0.0
  0
VERTEX
  5
226
  8
0
 10
487.76546947
 20
175.74070581
 30
0.0
  0
VERTEX
  5
227
  8
0
 10
487.74459264
 20
175.7700424
 30
0.0
  0
VERTEX
  5
228
  8
0
 10
487.72944413
 20
175.80351841
 30
0.0
  0
VERTEX
  5
229
  8
0
 10
487.71966139
 20
175.84242408
 30
0.0
  0
VERTEX
  5
22A
  8
0
 10
487.71547132
 20
175.88848394
 30
0.0
  0
VERTEX
  5
22B
  8
0
 10
487.71536207
 20
175.8978967
 30
0.0
  0
SEQEND
  5
22C
  8
0
  0
LINE
  5
22D
  8
0
 10
487.71536206
 20
172.6478967
 30
0.0
 11
489.21536206
 21
172.6478967
 31
0.0
  0
LINE
  5
22E
  8
0
 10
487.71536206
 20
182.1478967
 30
0.0
 11
487.71536206
 21
173.6478967
 31
0.0
  0
LINE
  5
22F
  8
0
 10
486.21536206
 20
173.6478967
 30
0.0
 11
486.21536206
 21
182.1478967
 31
0.0
  0
LINE
  5
230
  8
0
 10
487.71536206
 20
183.1478967
 30
0.0
 11
487.71536206
 21
182.1478967
 31
0.0
  0
LINE
  5
231
  8
0
 10
487.71536206
 20
183.1478967
 30
0.0
 11
486.21536206
 21
183.1478967
 31
0.0
  0
LINE
  5
232
  8
0
 10
486.21536206
 20
182.1478967
 30
0.0
 11
486.21536206
 21
183.1478967
 31
0.0
  0
LINE
  5
233
  8
0
 10
486.21536206
 20
172.6478967
 30
0.0
 11
486.21536206
 21
173.6478967
 31
0.0
  0
LINE
  5
234
  8
0
 10
487.71536206
 20
172.6478967
 30
0.0
 11
486.21536206
 21
172.6478967
 31
0.0
  0
LINE
  5
235
  8
0
 10
487.71536206
 20
173.6478967
 30
0.0
 11
487.71536206
 21
172.6478967
 31
0.0
  0
LINE
  5
236
  8
0
  6
STRICHPUNKT2
 62
     1
 10
487.71536206
 20
177.8978967
 30
0.0
 11
488.52786206
 21
177.8978967
 31
0.0
  0
LINE
  5
237
  8
0
  6
STRICHPUNKT2
 62
     1
 10
485.40286206
 20
177.8978967
 30
0.0
 11
486.21536206
 21
177.8978967
 31
0.0
  0
POLYLINE
  5
238
  8
0
 66
     1
 10
0.0
 20
0.0
 30
0.0
  0
VERTEX
  5
239
  8
0
 10
487.71536207
 20
134.89789671
 30
0.0
  0
VERTEX
  5
23A
  8
0
 10
487.71889252
 20
134.94852339
 30
0.0
  0
VERTEX
  5
23B
  8
0
 10
487.72864668
 20
134.9899303
 30
0.0
  0
VERTEX
  5
23C
  8
0
 10
487.74386734
 20
135.02447412
 30
0.0
  0
VERTEX
  5
23D
  8
0
 10
487.76442671
 20
135.05387936
 30
0.0
  0
VERTEX
  5
23E
  8
0
 10
487.79081627
 20
135.07936255
 30
0.0
  0
VERTEX
  5
23F
  8
0
 10
487.82414266
 20
135.10169743
 30
0.0
  0
VERTEX
  5
240
  8
0
 10
487.82921616
 20
135.10447332
 30
0.0
  0
VERTEX
  5
241
  8
0
 10
487.87261682
 20
135.12369481
 30
0.0
  0
VERTEX
  5
242
  8
0
 10
487.92653341
 20
135.13971947
 30
0.0
  0
VERTEX
  5
243
  8
0
 10
487.99293661
 20
135.15195445
 30
0.0
  0
VERTEX
  5
244
  8
0
 10
488.07408552
 20
135.1595953
 30
0.0
  0
VERTEX
  5
245
  8
0
 10
488.15470189
 20
135.16174299
 30
0.0
  0
VERTEX
  5
246
  8
0
 10
488.26730703
 20
135.1582204
 30
0.0
  0
VERTEX
  5
247
  8
0
 10
488.39020353
 20
135.14721959
 30
0.0
  0
VERTEX
  5
248
  8
0
 10
488.5203142
 20
135.12838728
 30
0.0
  0
VERTEX
  5
249
  8
0
 10
488.64212604
 20
135.10447332
 30
0.0
  0
VERTEX
  5
24A
  8
0
 10
488.77630573
 20
135.07104821
 30
0.0
  0
VERTEX
  5
24B
  8
0
 10
488.90330806
 20
135.03187188
 30
0.0
  0
VERTEX
  5
24C
  8
0
 10
489.02348533
 20
134.98719105
 30
0.0
  0
VERTEX
  5
24D
  8
0
 10
489.1371496
 20
134.93720777
 30
0.0
  0
VERTEX
  5
24E
  8
0
 10
489.21536206
 20
134.89789671
 30
0.0
  0
SEQEND
  5
24F
  8
0
  0
LINE
  5
250
  8
0
 10
489.21536206
 20
138.1478967
 30
0.0
 11
487.71536206
 21
138.1478967
 31
0.0
  0
POLYLINE
  5
251
  8
0
 66
     1
 10
0.0
 20
0.0
 30
0.0
  0
VERTEX
  5
252
  8
0
 10
489.21536206
 20
130.8978967
 30
0.0
  0
VERTEX
  5
253
  8
0
 10
489.11079243
 20
130.84627294
 30
0.0
  0
VERTEX
  5
254
  8
0
 10
489.00096463
 20
130.799622
 30
0.0
  0
VERTEX
  5
255
  8
0
 10
488.88578214
 20
130.75804605
 30
0.0
  0
VERTEX
  5
256
  8
0
 10
488.76518618
 20
130.72167695
 30
0.0
  0
VERTEX
  5
257
  8
0
 10
488.64212604
 20
130.69132009
 30
0.0
  0
VERTEX
  5
258
  8
0
 10
488.51031872
 20
130.66571037
 30
0.0
  0
VERTEX
  5
259
  8
0
 10
488.38104826
 20
130.64751905
 30
0.0
  0
VERTEX
  5
25A
  8
0
 10
488.25759292
 20
130.63700724
 30
0.0
  0
VERTEX
  5
25B
  8
0
 10
488.15470189
 20
130.63405042
 30
0.0
  0
VERTEX
  5
25C
  8
0
 10
488.05299604
 20
130.63757301
 30
0.0
  0
VERTEX
  5
25D
  8
0
 10
487.97057329
 20
130.64723396
 30
0.0
  0
VERTEX
  5
25E
  8
0
 10
487.90440772
 20
130.66183319
 30
0.0
  0
VERTEX
  5
25F
  8
0
 10
487.85186678
 20
130.68039075
 30
0.0
  0
VERTEX
  5
260
  8
0
 10
487.82921616
 20
130.69132009
 30
0.0
  0
VERTEX
  5
261
  8
0
 10
487.79309072
 20
130.71462745
 30
0.0
  0
VERTEX
  5
262
  8
0
 10
487.76546947
 20
130.74070581
 30
0.0
  0
VERTEX
  5
263
  8
0
 10
487.74459264
 20
130.7700424
 30
0.0
  0
VERTEX
  5
264
  8
0
 10
487.72944413
 20
130.80351841
 30
0.0
  0
VERTEX
  5
265
  8
0
 10
487.71966139
 20
130.84242408
 30
0.0
  0
VERTEX
  5
266
  8
0
 10
487.71547132
 20
130.88848394
 30
0.0
  0
VERTEX
  5
267
  8
0
 10
487.71536207
 20
130.8978967
 30
0.0
  0
SEQEND
  5
268
  8
0
  0
LINE
  5
269
  8
0
 10
487.71536206
 20
127.6478967
 30
0.0
 11
489.21536206
 21
127.6478967
 31
0.0
  0
LINE
  5
26A
  8
0
 10
487.71536206
 20
137.1478967
 30
0.0
 11
487.71536206
 21
128.6478967
 31
0.0
  0
LINE
  5
26B
  8
0
 10
486.21536206
 20
128.6478967
 30
0.0
 11
486.21536206
 21
137.1478967
 31
0.0
  0
LINE
  5
26C
  8
0
 10
487.71536206
 20
138.1478967
 30
0.0
 11
487.71536206
 21
137.1478967
 31
0.0
  0
LINE
  5
26D
  8
0
 10
487.71536206
 20
138.1478967
 30
0.0
 11
486.21536206
 21
138.1478967
 31
0.0
  0
LINE
  5
26E
  8
0
 10
486.21536206
 20
137.1478967
 30
0.0
 11
486.21536206
 21
138.1478967
 31
0.0
  0
LINE
  5
26F
  8
0
 10
486.21536206
 20
127.6478967
 30
0.0
 11
486.21536206
 21
128.6478967
 31
0.0
  0
LINE
  5
270
  8
0
 10
486.21536206
 20
127.6478967
 30
0.0
 11
487.71536206
 21
127.6478967
 31
0.0
  0
LINE
  5
271
  8
0
 10
487.71536206
 20
128.6478967
 30
0.0
 11
487.71536206
 21
127.6478967
 31
0.0
  0
LINE
  5
272
  8
0
  6
STRICHPUNKT2
 62
     1
 10
487.71536206
 20
132.8978967
 30
0.0
 11
488.52786206
 21
132.8978967
 31
0.0
  0
LINE
  5
273
  8
0
  6
STRICHPUNKT2
 62
     1
 10
485.40286206
 20
132.8978967
 30
0.0
 11
486.21536206
 21
132.8978967
 31
0.0
  0
LINE
  5
274
  8
0
 10
296.11846025
 20
32.31119651
 30
0.0
 11
295.9544962
 21
32.77226653
 31
0.0
  0
LINE
  5
275
  8
0
 10
256.01554156
 20
24.02269333
 30
0.0
 11
255.85157752
 21
24.48376335
 31
0.0
  0
POLYLINE
  5
276
  8
0
 66
     1
 10
0.0
 20
0.0
 30
0.0
  0
VERTEX
  5
61C
  8
0
 10
251.5421035427081
 20
57.98959234002402
 30
0.0
  0
VERTEX
  5
61D
  8
0
 10
251.020524125502
 20
57.82911266188906
 30
0.0
  0
VERTEX
  5
61E
  8
0
 10
250.5189887129014
 20
57.5694416795515
 30
0.0
  0
VERTEX
  5
61F
  8
0
 10
250.056771029382
 20
57.22055840315135
 30
0.0
  0
VERTEX
  5
620
  8
0
 10
249.6516338411537
 20
56.79587022122908
 30
0.0
  0
VERTEX
  5
621
  8
0
 10
249.3191463430221
 20
56.31169766230732
 30
0.0
  0
VERTEX
  5
622
  8
0
 10
249.0720858429693
 20
55.78664720613789
 30
0.0
  0
VERTEX
  5
623
  8
0
 10
248.9199467373772
 20
55.24089624712568
 30
0.0
  0
VERTEX
  5
624
  8
0
 10
248.8685756467027
 20
54.695417688384
 30
0.0
  0
SEQEND
  5
90A
  8
0
  0
POLYLINE
  5
277
  8
0
 66
     1
 10
0.0
 20
0.0
 30
0.0
  0
VERTEX
  5
625
  8
0
 10
315.0541939327081
 20
7.334078290024024
 30
0.0
  0
VERTEX
  5
626
  8
0
 10
314.5326145155021
 20
7.173598611889052
 30
0.0
  0
VERTEX
  5
627
  8
0
 10
314.0310791029014
 20
6.913927629551492
 30
0.0
  0
VERTEX
  5
628
  8
0
 10
313.568861419382
 20
6.565044353151355
 30
0.0
  0
VERTEX
  5
629
  8
0
 10
313.1637242311537
 20
6.140356171229082
 30
0.0
  0
VERTEX
  5
62A
  8
0
 10
312.8312367330221
 20
5.656183612307326
 30
0.0
  0
VERTEX
  5
62B
  8
0
 10
312.5841762329693
 20
5.131133156137894
 30
0.0
  0
VERTEX
  5
62C
  8
0
 10
312.4320371273772
 20
4.585382197125684
 30
0.0
  0
VERTEX
  5
62D
  8
0
 10
312.3806660367027
 20
4.039903638384008
 30
0.0
  0
SEQEND
  5
90B
  8
0
  0
POLYLINE
  5
278
  8
0
 66
     1
 10
0.0
 20
0.0
 30
0.0
  0
VERTEX
  5
62E
  8
0
 10
315.0541939363541
 20
5.963274405012012
 30
0.0
  0
VERTEX
  5
62F
  8
0
 10
314.793404227751
 20
5.883034565944525
 30
0.0
  0
VERTEX
  5
630
  8
0
 10
314.5426365214507
 20
5.753199074775746
 30
0.0
  0
VERTEX
  5
631
  8
0
 10
314.311527679691
 20
5.578757436575677
 30
0.0
  0
VERTEX
  5
632
  8
0
 10
314.1089590855768
 20
5.366413345614541
 30
0.0
  0
VERTEX
  5
633
  8
0
 10
313.9427153365111
 20
5.124327066153663
 30
0.0
  0
VERTEX
  5
634
  8
0
 10
313.8191850864847
 20
4.861801838068947
 30
0.0
  0
VERTEX
  5
635
  8
0
 10
313.7431155336886
 20
4.588926358562842
 30
0.0
  0
VERTEX
  5
636
  8
0
 10
313.7174299883513
 20
4.316187079192003
 30
0.0
  0
SEQEND
  5
90C
  8
0
  0
LINE
  5
279
  8
0
 10
292.1667805572415
 20
1.60277677133891
 30
0.0
 11
292.5187231408713
 21
1.546909749212749
 31
0.0
  0
POLYLINE
  5
27A
  8
0
 66
     1
 10
0.0
 20
0.0
 30
0.0
  0
VERTEX
  5
637
  8
0
 10
294.5296416080342
 20
4.056496332252695
 30
0.0
  0
VERTEX
  5
638
  8
0
 10
293.9404600992098
 20
4.110362184861293
 30
0.0
  0
VERTEX
  5
639
  8
0
 10
293.336903988413
 20
4.119038363709359
 30
0.0
  0
VERTEX
  5
63A
  8
0
 10
292.7398148399657
 20
4.082225269246338
 30
0.0
  0
VERTEX
  5
63B
  8
0
 10
292.1698109057102
 20
4.001194104699925
 30
0.0
  0
VERTEX
  5
63C
  8
0
 10
291.6465751504064
 20
3.878742979803021
 30
0.0
  0
VERTEX
  5
63D
  8
0
 10
291.1881755737889
 20
3.719100288486491
 30
0.0
  0
VERTEX
  5
63E
  8
0
 10
290.810441299431
 20
3.527778697029537
 30
0.0
  0
VERTEX
  5
63F
  8
0
 10
290.5264159748659
 20
3.311384784643587
 30
0.0
  0
VERTEX
  5
640
  8
0
 10
290.3459073577567
 20
3.077390909843756
 30
0.0
  0
SEQEND
  5
90D
  8
0
  0
POLYLINE
  5
27B
  8
0
 66
     1
 10
0.0
 20
0.0
 30
0.0
  0
VERTEX
  5
27C
  8
0
 10
294.52964162
 20
4.05649633
 30
0.0
  0
VERTEX
  5
27D
  8
0
 10
303.56358179
 20
2.86322299
 30
0.0
  0
SEQEND
  5
27E
  8
0
  0
POLYLINE
  5
27F
  8
0
 66
     1
 10
0.0
 20
0.0
 30
0.0
  0
VERTEX
  5
641
  8
0
 10
305.80812255
 20
1.6084297
 30
0.0
  0
VERTEX
  5
642
  8
0
 10
305.7371442948849
 20
1.882694661890259
 30
0.0
  0
VERTEX
  5
643
  8
0
 10
305.5273097835084
 20
2.144980024744104
 30
0.0
  0
VERTEX
  5
644
  8
0
 10
305.1877843620123
 20
2.38382944554763
 30
0.0
  0
VERTEX
  5
645
  8
0
 10
304.7333981362334
 20
2.588810238070758
 30
0.0
  0
VERTEX
  5
646
  8
0
 10
304.1839982086052
 20
2.750969061399396
 30
0.0
  0
VERTEX
  5
647
  8
0
 10
303.5635817780342
 20
2.863222992252695
 30
0.0
  0
SEQEND
  5
90E
  8
0
  0
POLYLINE
  5
280
  8
0
 66
     1
 10
0.0
 20
0.0
 30
0.0
  0
VERTEX
  5
648
  8
0
 10
301.5526633108713
 20
0.3536364092127491
 30
0.0
  0
VERTEX
  5
649
  8
0
 10
302.1497060536922
 20
0.2993623022872409
 30
0.0
  0
VERTEX
  5
64A
  8
0
 10
302.761222869917
 20
0.2914808797324291
 30
0.0
  0
VERTEX
  5
64B
  8
0
 10
303.3655419138544
 20
0.3302714551647223
 30
0.0
  0
VERTEX
  5
64C
  8
0
 10
303.9412464252111
 20
0.4143593102726477
 30
0.0
  0
VERTEX
  5
64D
  8
0
 10
304.46793372821
 20
0.5407644141362944
 30
0.0
  0
VERTEX
  5
64E
  8
0
 10
304.9269382920671
 20
0.705007034011086
 30
0.0
  0
VERTEX
  5
64F
  8
0
 10
305.3019932279326
 20
0.9012664947832886
 30
0.0
  0
VERTEX
  5
650
  8
0
 10
305.5798067791774
 20
1.122587460742703
 30
0.0
  0
VERTEX
  5
651
  8
0
 10
305.7505333745045
 20
1.361126429151189
 30
0.0
  0
VERTEX
  5
652
  8
0
 10
305.80812255
 20
1.6084297
 30
0.0
  0
SEQEND
  5
90F
  8
0
  0
LINE
  5
281
  8
0
 10
301.55266331
 20
0.3536364
 30
0.0
 11
292.51872314
 21
1.54690974
 31
0.0
  0
POLYLINE
  5
282
  8
0
 66
     1
 10
0.0
 20
0.0
 30
0.0
  0
VERTEX
  5
653
  8
0
 10
305.3352904713485
 20
0.9230277578509924
 30
0.0
  0
VERTEX
  5
654
  8
0
 10
304.9935379216356
 20
1.111370253774156
 30
0.0
  0
VERTEX
  5
655
  8
0
 10
304.5752385448311
 20
1.272250344048251
 30
0.0
  0
VERTEX
  5
656
  8
0
 10
304.0935397861067
 20
1.400611453685651
 30
0.0
  0
VERTEX
  5
657
  8
0
 10
303.5635817780342
 20
1.492419102252695
 30
0.0
  0
SEQEND
  5
910
  8
0
  0
POLYLINE
  5
283
  8
0
 66
     1
 10
0.0
 20
0.0
 30
0.0
  0
VERTEX
  5
284
  8
0
 10
303.56358179
 20
1.4924191
 30
0.0
  0
VERTEX
  5
285
  8
0
 10
294.52964162
 20
2.68569244
 30
0.0
  0
SEQEND
  5
286
  8
0
  0
POLYLINE
  5
287
  8
0
 66
     1
 10
0.0
 20
0.0
 30
0.0
  0
VERTEX
  5
658
  8
0
 10
294.5296416080342
 20
2.685692442252694
 30
0.0
  0
VERTEX
  5
659
  8
0
 10
293.9516142770464
 20
2.738965447555416
 30
0.0
  0
VERTEX
  5
65A
  8
0
 10
293.3593696179173
 20
2.748729281195413
 30
0.0
  0
VERTEX
  5
65B
  8
0
 10
292.7726069949596
 20
2.714659176519248
 30
0.0
  0
VERTEX
  5
65C
  8
0
 10
292.2108434278649
 20
2.637888380393455
 30
0.0
  0
VERTEX
  5
65D
  8
0
 10
291.6927644125599
 20
2.520970458912936
 30
0.0
  0
VERTEX
  5
65E
  8
0
 10
291.2356024003765
 20
2.367794360157504
 30
0.0
  0
SEQEND
  5
911
  8
0
  0
LINE
  5
288
  8
0
 10
285.3982931332377
 20
7.023473297508555
 30
0.0
 11
285.7138563108713
 21
6.974286249212749
 31
0.0
  0
POLYLINE
  5
289
  8
0
 66
     1
 10
0.0
 20
0.0
 30
0.0
  0
VERTEX
  5
65F
  8
0
 10
287.7247747780342
 20
9.483872832252695
 30
0.0
  0
VERTEX
  5
660
  8
0
 10
287.1355932692097
 20
9.537738684861292
 30
0.0
  0
VERTEX
  5
661
  8
0
 10
286.5320371584129
 20
9.54641486370936
 30
0.0
  0
VERTEX
  5
662
  8
0
 10
285.9349480099656
 20
9.50960176924634
 30
0.0
  0
VERTEX
  5
663
  8
0
 10
285.3649440757101
 20
9.428570604699926
 30
0.0
  0
VERTEX
  5
664
  8
0
 10
284.8417083204063
 20
9.306119479803023
 30
0.0
  0
VERTEX
  5
665
  8
0
 10
284.3833087437889
 20
9.146476788486492
 30
0.0
  0
VERTEX
  5
666
  8
0
 10
284.005574469431
 20
8.955155197029537
 30
0.0
  0
VERTEX
  5
667
  8
0
 10
283.7215491448658
 20
8.738761284643587
 30
0.0
  0
VERTEX
  5
668
  8
0
 10
283.5410405277566
 20
8.504767409843756
 30
0.0
  0
SEQEND
  5
912
  8
0
  0
POLYLINE
  5
28A
  8
0
 66
     1
 10
0.0
 20
0.0
 30
0.0
  0
VERTEX
  5
28B
  8
0
 10
287.72477479
 20
9.48387283
 30
0.0
  0
VERTEX
  5
28C
  8
0
 10
296.75871496
 20
8.2905995
 30
0.0
  0
SEQEND
  5
28D
  8
0
  0
POLYLINE
  5
28E
  8
0
 66
     1
 10
0.0
 20
0.0
 30
0.0
  0
VERTEX
  5
669
  8
0
 10
299.00325572
 20
7.0358062
 30
0.0
  0
VERTEX
  5
66A
  8
0
 10
298.9322774648849
 20
7.310071161890259
 30
0.0
  0
VERTEX
  5
66B
  8
0
 10
298.7224429535084
 20
7.572356524744103
 30
0.0
  0
VERTEX
  5
66C
  8
0
 10
298.3829175320123
 20
7.81120594554763
 30
0.0
  0
VERTEX
  5
66D
  8
0
 10
297.9285313062334
 20
8.016186738070758
 30
0.0
  0
VERTEX
  5
66E
  8
0
 10
297.3791313786052
 20
8.178345561399397
 30
0.0
  0
VERTEX
  5
66F
  8
0
 10
296.7587149480343
 20
8.290599492252694
 30
0.0
  0
SEQEND
  5
913
  8
0
  0
POLYLINE
  5
28F
  8
0
 66
     1
 10
0.0
 20
0.0
 30
0.0
  0
VERTEX
  5
670
  8
0
 10
294.7477964808713
 20
5.781012909212748
 30
0.0
  0
VERTEX
  5
671
  8
0
 10
295.3448392236922
 20
5.72673880228724
 30
0.0
  0
VERTEX
  5
672
  8
0
 10
295.956356039917
 20
5.718857379732428
 30
0.0
  0
VERTEX
  5
673
  8
0
 10
296.5606750838544
 20
5.757647955164722
 30
0.0
  0
VERTEX
  5
674
  8
0
 10
297.1363795952112
 20
5.841735810272647
 30
0.0
  0
VERTEX
  5
675
  8
0
 10
297.66306689821
 20
5.968140914136294
 30
0.0
  0
VERTEX
  5
676
  8
0
 10
298.1220714620671
 20
6.132383534011086
 30
0.0
  0
VERTEX
  5
677
  8
0
 10
298.4971263979326
 20
6.328642994783288
 30
0.0
  0
VERTEX
  5
678
  8
0
 10
298.7749399491774
 20
6.549963960742703
 30
0.0
  0
VERTEX
  5
679
  8
0
 10
298.9456665445045
 20
6.788502929151188
 30
0.0
  0
VERTEX
  5
67A
  8
0
 10
299.00325572
 20
7.0358062
 30
0.0
  0
SEQEND
  5
914
  8
0
  0
LINE
  5
290
  8
0
 10
294.74779648
 20
5.78101291
 30
0.0
 11
285.71385631
 21
6.97428625
 31
0.0
  0
POLYLINE
  5
291
  8
0
 66
     1
 10
0.0
 20
0.0
 30
0.0
  0
VERTEX
  5
67B
  8
0
 10
298.5304236413485
 20
6.350404257850993
 30
0.0
  0
VERTEX
  5
67C
  8
0
 10
298.1886710916356
 20
6.538746753774157
 30
0.0
  0
VERTEX
  5
67D
  8
0
 10
297.7703717148311
 20
6.699626844048251
 30
0.0
  0
VERTEX
  5
67E
  8
0
 10
297.2886729561067
 20
6.827987953685652
 30
0.0
  0
VERTEX
  5
67F
  8
0
 10
296.7587149480343
 20
6.919795602252695
 30
0.0
  0
SEQEND
  5
915
  8
0
  0
POLYLINE
  5
292
  8
0
 66
     1
 10
0.0
 20
0.0
 30
0.0
  0
VERTEX
  5
293
  8
0
 10
296.75871496
 20
6.91979561
 30
0.0
  0
VERTEX
  5
294
  8
0
 10
287.72477479
 20
8.11306895
 30
0.0
  0
SEQEND
  5
295
  8
0
  0
POLYLINE
  5
296
  8
0
 66
     1
 10
0.0
 20
0.0
 30
0.0
  0
VERTEX
  5
680
  8
0
 10
287.7247747780342
 20
8.113068942252696
 30
0.0
  0
VERTEX
  5
681
  8
0
 10
287.1467474470463
 20
8.166341947555416
 30
0.0
  0
VERTEX
  5
682
  8
0
 10
286.5545027879173
 20
8.176105781195414
 30
0.0
  0
VERTEX
  5
683
  8
0
 10
285.9677401649595
 20
8.14203567651925
 30
0.0
  0
VERTEX
  5
684
  8
0
 10
285.4059765978649
 20
8.065264880393455
 30
0.0
  0
VERTEX
  5
685
  8
0
 10
284.8878975825598
 20
7.948346958912937
 30
0.0
  0
VERTEX
  5
686
  8
0
 10
284.4307355703765
 20
7.795170860157504
 30
0.0
  0
SEQEND
  5
916
  8
0
  0
POLYLINE
  5
297
  8
0
 66
     1
 10
0.0
 20
0.0
 30
0.0
  0
VERTEX
  5
687
  8
0
 10
239.71807337
 20
46.52864116400809
 30
0.0
  0
VERTEX
  5
688
  8
0
 10
239.7709138470856
 20
46.31081821063324
 30
0.0
  0
VERTEX
  5
689
  8
0
 10
239.9274046522884
 20
46.10136607106512
 30
0.0
  0
VERTEX
  5
68A
  8
0
 10
240.1815319317118
 20
45.90833387358352
 30
0.0
  0
VERTEX
  5
68B
  8
0
 10
240.5235297165016
 20
45.73913973730089
 30
0.0
  0
VERTEX
  5
68C
  8
0
 10
240.940255223553
 20
45.6002856980042
 30
0.0
  0
VERTEX
  5
68D
  8
0
 10
241.4156939252957
 20
45.49710783856553
 30
0.0
  0
VERTEX
  5
68E
  8
0
 10
241.9315749790094
 20
45.43357122626935
 30
0.0
  0
VERTEX
  5
68F
  8
0
 10
242.468073365064
 20
45.4121175375
 30
0.0
  0
VERTEX
  5
690
  8
0
 10
243.0045717513084
 20
45.43357122548741
 30
0.0
  0
VERTEX
  5
691
  8
0
 10
243.5204528055838
 20
45.49710783703171
 30
0.0
  0
VERTEX
  5
692
  8
0
 10
243.9958915082389
 20
45.60028569577742
 30
0.0
  0
VERTEX
  5
693
  8
0
 10
244.4126170165179
 20
45.73913973446675
 30
0.0
  0
VERTEX
  5
694
  8
0
 10
244.7546148028037
 20
45.90833387025092
 30
0.0
  0
VERTEX
  5
695
  8
0
 10
245.0087420839338
 20
46.10136606736212
 30
0.0
  0
VERTEX
  5
696
  8
0
 10
245.1652328909885
 20
46.31081820670217
 30
0.0
  0
VERTEX
  5
697
  8
0
 10
245.21807337
 20
46.52864116
 30
0.0
  0
SEQEND
  5
917
  8
0
  0
POLYLINE
  5
298
  8
0
 66
     1
 10
0.0
 20
0.0
 30
0.0
  0
VERTEX
  5
698
  8
0
 10
245.21807337
 20
46.52864116
 30
0.0
  0
VERTEX
  5
699
  8
0
 10
245.1652328912293
 20
46.74646411280644
 30
0.0
  0
VERTEX
  5
69A
  8
0
 10
245.0087420848783
 20
46.95591625171213
 30
0.0
  0
VERTEX
  5
69B
  8
0
 10
244.7546148048604
 20
47.14894844849935
 30
0.0
  0
VERTEX
  5
69C
  8
0
 10
244.4126170200082
 20
47.31814258411618
 30
0.0
  0
VERTEX
  5
69D
  8
0
 10
243.995891513369
 20
47.45699662283084
 30
0.0
  0
VERTEX
  5
69E
  8
0
 10
243.5204528124242
 20
47.56017448181792
 30
0.0
  0
VERTEX
  5
69F
  8
0
 10
243.0045717597804
 20
47.62371109382839
 30
0.0
  0
VERTEX
  5
6A0
  8
0
 10
242.468073374936
 20
47.6451647825
 30
0.0
  0
VERTEX
  5
6A1
  8
0
 10
241.9315749899019
 20
47.62371109461034
 30
0.0
  0
VERTEX
  5
6A2
  8
0
 10
241.4156939366963
 20
47.56017448335175
 30
0.0
  0
VERTEX
  5
6A3
  8
0
 10
240.9402552348392
 20
47.45699662505761
 30
0.0
  0
VERTEX
  5
6A4
  8
0
 10
240.5235297269724
 20
47.31814258695033
 30
0.0
  0
VERTEX
  5
6A5
  8
0
 10
240.1815319406242
 20
47.14894845183196
 30
0.0
  0
VERTEX
  5
6A6
  8
0
 10
239.9274046588996
 20
46.95591625541512
 30
0.0
  0
VERTEX
  5
6A7
  8
0
 10
239.7709138506967
 20
46.74646411673752
 30
0.0
  0
VERTEX
  5
6A8
  8
0
 10
239.71807337
 20
46.52864116400809
 30
0.0
  0
SEQEND
  5
918
  8
0
  0
POLYLINE
  5
299
  8
0
 66
     1
 10
0.0
 20
0.0
 30
0.0
  0
VERTEX
  5
6A9
  8
0
 10
244.6389399570983
 20
45.84323920875833
 30
0.0
  0
VERTEX
  5
6AA
  8
0
 10
244.2557186755882
 20
46.00627129997776
 30
0.0
  0
VERTEX
  5
6AB
  8
0
 10
243.7996679203033
 20
46.13473780721765
 30
0.0
  0
VERTEX
  5
6AC
  8
0
 10
243.2893674041308
 20
46.22340494719296
 30
0.0
  0
VERTEX
  5
6AD
  8
0
 10
242.7456069996162
 20
46.26866038074147
 30
0.0
  0
VERTEX
  5
6AE
  8
0
 10
242.1905397502054
 20
46.26866038114596
 30
0.0
  0
VERTEX
  5
6AF
  8
0
 10
241.6467793452906
 20
46.22340494838998
 30
0.0
  0
VERTEX
  5
6B0
  8
0
 10
241.1364788283341
 20
46.13473780915844
 30
0.0
  0
VERTEX
  5
6B1
  8
0
 10
240.6804280719134
 20
46.00627130258323
 30
0.0
  0
VERTEX
  5
6B2
  8
0
 10
240.2972067889618
 20
45.84323921192233
 30
0.0
  0
SEQEND
  5
919
  8
0
  0
POLYLINE
  5
29A
  8
0
 66
     1
 10
0.0
 20
0.0
 30
0.0
  0
VERTEX
  5
6B3
  8
0
 10
280.54727434
 20
13.96438213400809
 30
0.0
  0
VERTEX
  5
6B4
  8
0
 10
280.6001148170856
 20
13.74655918063324
 30
0.0
  0
VERTEX
  5
6B5
  8
0
 10
280.7566056222884
 20
13.53710704106511
 30
0.0
  0
VERTEX
  5
6B6
  8
0
 10
281.0107329017118
 20
13.34407484358353
 30
0.0
  0
VERTEX
  5
6B7
  8
0
 10
281.3527306865016
 20
13.17488070730089
 30
0.0
  0
VERTEX
  5
6B8
  8
0
 10
281.769456193553
 20
13.0360266680042
 30
0.0
  0
VERTEX
  5
6B9
  8
0
 10
282.2448948952957
 20
12.93284880856554
 30
0.0
  0
VERTEX
  5
6BA
  8
0
 10
282.7607759490094
 20
12.86931219626935
 30
0.0
  0
VERTEX
  5
6BB
  8
0
 10
283.2972743350641
 20
12.8478585075
 30
0.0
  0
VERTEX
  5
6BC
  8
0
 10
283.8337727213084
 20
12.86931219548741
 30
0.0
  0
VERTEX
  5
6BD
  8
0
 10
284.3496537755838
 20
12.93284880703171
 30
0.0
  0
VERTEX
  5
6BE
  8
0
 10
284.8250924782388
 20
13.03602666577743
 30
0.0
  0
VERTEX
  5
6BF
  8
0
 10
285.2418179865179
 20
13.17488070446674
 30
0.0
  0
VERTEX
  5
6C0
  8
0
 10
285.5838157728036
 20
13.34407484025092
 30
0.0
  0
VERTEX
  5
6C1
  8
0
 10
285.8379430539338
 20
13.53710703736212
 30
0.0
  0
VERTEX
  5
6C2
  8
0
 10
285.9944338609885
 20
13.74655917670217
 30
0.0
  0
VERTEX
  5
6C3
  8
0
 10
286.04727434
 20
13.96438213
 30
0.0
  0
SEQEND
  5
91A
  8
0
  0
POLYLINE
  5
29B
  8
0
 66
     1
 10
0.0
 20
0.0
 30
0.0
  0
VERTEX
  5
6C4
  8
0
 10
286.04727434
 20
13.96438213
 30
0.0
  0
VERTEX
  5
6C5
  8
0
 10
285.9944338612293
 20
14.18220508280645
 30
0.0
  0
VERTEX
  5
6C6
  8
0
 10
285.8379430548783
 20
14.39165722171213
 30
0.0
  0
VERTEX
  5
6C7
  8
0
 10
285.5838157748603
 20
14.58468941849935
 30
0.0
  0
VERTEX
  5
6C8
  8
0
 10
285.2418179900081
 20
14.75388355411618
 30
0.0
  0
VERTEX
  5
6C9
  8
0
 10
284.825092483369
 20
14.89273759283084
 30
0.0
  0
VERTEX
  5
6CA
  8
0
 10
284.3496537824242
 20
14.99591545181792
 30
0.0
  0
VERTEX
  5
6CB
  8
0
 10
283.8337727297803
 20
15.0594520638284
 30
0.0
  0
VERTEX
  5
6CC
  8
0
 10
283.2972743449359
 20
15.0809057525
 30
0.0
  0
VERTEX
  5
6CD
  8
0
 10
282.7607759599019
 20
15.05945206461034
 30
0.0
  0
VERTEX
  5
6CE
  8
0
 10
282.2448949066963
 20
14.99591545335175
 30
0.0
  0
VERTEX
  5
6CF
  8
0
 10
281.7694562048392
 20
14.89273759505762
 30
0.0
  0
VERTEX
  5
6D0
  8
0
 10
281.3527306969724
 20
14.75388355695033
 30
0.0
  0
VERTEX
  5
6D1
  8
0
 10
281.0107329106242
 20
14.58468942183196
 30
0.0
  0
VERTEX
  5
6D2
  8
0
 10
280.7566056288995
 20
14.39165722541512
 30
0.0
  0
VERTEX
  5
6D3
  8
0
 10
280.6001148206967
 20
14.18220508673752
 30
0.0
  0
VERTEX
  5
6D4
  8
0
 10
280.54727434
 20
13.96438213400809
 30
0.0
  0
SEQEND
  5
91B
  8
0
  0
POLYLINE
  5
29C
  8
0
 66
     1
 10
0.0
 20
0.0
 30
0.0
  0
VERTEX
  5
6D5
  8
0
 10
285.4681409270983
 20
13.27898017875832
 30
0.0
  0
VERTEX
  5
6D6
  8
0
 10
285.0849196455882
 20
13.44201226997776
 30
0.0
  0
VERTEX
  5
6D7
  8
0
 10
284.6288688903033
 20
13.57047877721765
 30
0.0
  0
VERTEX
  5
6D8
  8
0
 10
284.1185683741307
 20
13.65914591719296
 30
0.0
  0
VERTEX
  5
6D9
  8
0
 10
283.5748079696162
 20
13.70440135074146
 30
0.0
  0
VERTEX
  5
6DA
  8
0
 10
283.0197407202053
 20
13.70440135114596
 30
0.0
  0
VERTEX
  5
6DB
  8
0
 10
282.4759803152907
 20
13.65914591838998
 30
0.0
  0
VERTEX
  5
6DC
  8
0
 10
281.9656797983341
 20
13.57047877915844
 30
0.0
  0
VERTEX
  5
6DD
  8
0
 10
281.5096290419133
 20
13.44201227258323
 30
0.0
  0
VERTEX
  5
6DE
  8
0
 10
281.1264077589618
 20
13.27898018192233
 30
0.0
  0
SEQEND
  5
91C
  8
0
  0
LINE
  5
29D
  8
0
 10
233.82274752
 20
48.15872423
 30
0.0
 11
247.53181168
 21
50.99212453
 31
0.0
  0
LINE
  5
29E
  8
0
 10
311.04390207
 20
0.33661048
 30
0.0
 11
294.11155863
 21
-3.16297975
 31
0.0
  0
LINE
  5
29F
  8
0
 10
311.04390207
 20
-1.03419341
 30
0.0
 11
294.11155863
 21
-4.53378364
 31
0.0
  0
LINE
  5
2A0
  8
0
  6
STRICHPUNKT2
 62
     1
 10
283.29727434
 20
15.22095236
 30
0.0
 11
283.29727434
 21
12.8478585
 31
0.0
  0
LINE
  5
2A1
  8
0
  6
STRICHPUNKT2
 62
     1
 10
283.29727434
 20
13.96438213
 30
0.0
 11
281.42593596
 21
15.45691067
 31
0.0
  0
LINE
  5
2A2
  8
0
  6
STRICHPUNKT2
 62
     1
 10
283.29727434
 20
13.96438213
 30
0.0
 11
285.16861272
 21
12.47185359
 31
0.0
  0
LINE
  5
2A3
  8
0
  6
STRICHPUNKT2
 62
     1
 10
283.29727434
 20
13.96438213
 30
0.0
 11
279.62117346
 21
13.20460267
 31
0.0
  0
LINE
  5
2A4
  8
0
  6
STRICHPUNKT2
 62
     1
 10
283.29727434
 20
13.96438213
 30
0.0
 11
286.97337522
 21
14.72416159
 31
0.0
  0
LINE
  5
2A5
  8
0
  6
STRICHPUNKT2
 62
     1
 10
282.96841066
 20
12.85587095
 30
0.0
 11
282.04971542
 21
13.58859726
 31
0.0
  0
LINE
  5
2A6
  8
0
  6
STRICHPUNKT2
 62
     1
 10
242.46807337
 20
47.78521139
 30
0.0
 11
242.46807337
 21
45.41211753
 31
0.0
  0
LINE
  5
2A7
  8
0
  6
STRICHPUNKT2
 62
     1
 10
242.46807337
 20
46.52864116
 30
0.0
 11
240.596735
 21
48.0211697
 31
0.0
  0
LINE
  5
2A8
  8
0
  6
STRICHPUNKT2
 62
     1
 10
242.46807337
 20
46.52864116
 30
0.0
 11
244.33941175
 21
45.03611262
 31
0.0
  0
LINE
  5
2A9
  8
0
  6
STRICHPUNKT2
 62
     1
 10
242.46807337
 20
46.52864116
 30
0.0
 11
238.79197249
 21
45.7688617
 31
0.0
  0
LINE
  5
2AA
  8
0
  6
STRICHPUNKT2
 62
     1
 10
242.46807337
 20
46.52864116
 30
0.0
 11
246.14417425
 21
47.28842062
 31
0.0
  0
LINE
  5
2AB
  8
0
  6
STRICHPUNKT2
 62
     1
 10
242.13920969
 20
45.42012999
 30
0.0
 11
241.22051445
 21
46.1528563
 31
0.0
  0
LINE
  5
2AC
  8
0
  6
STRICHPUNKT2
 62
     1
 10
286.71931555
 20
9.59988343
 30
0.0
 11
286.71931555
 21
6.84147734
 31
0.0
  0
LINE
  5
2AD
  8
0
  6
STRICHPUNKT2
 62
     1
 10
295.75325572
 20
8.40661009
 30
0.0
 11
295.75325572
 21
5.71627828
 31
0.0
  0
LINE
  5
2AE
  8
0
  6
STRICHPUNKT2
 62
     1
 10
283.32447138
 20
8.67749706
 30
0.0
 11
300.27022581
 21
6.43916953
 31
0.0
  0
LINE
  5
2AF
  8
0
  6
STRICHPUNKT2
 62
     1
 10
285.61486228
 20
6.85074364
 30
0.0
 11
288.1888329
 21
10.0630082
 31
0.0
  0
LINE
  5
2B0
  8
0
  6
STRICHPUNKT2
 62
     1
 10
294.28373837
 20
5.20187754
 30
0.0
 11
297.22277307
 21
8.86973486
 31
0.0
  0
LINE
  5
2B1
  8
0
  6
STRICHPUNKT2
 62
     1
 10
285.38432842
 20
7.03461117
 30
0.0
 11
295.23940815
 21
5.73287531
 31
0.0
  0
LINE
  5
2B2
  8
0
  6
STRICHPUNKT2
 62
     1
 10
286.70714346
 20
6.84308513
 30
0.0
 11
287.72477479
 21
8.11306895
 31
0.0
  0
LINE
  5
2B3
  8
0
  6
STRICHPUNKT2
 62
     1
 10
295.79442773
 20
5.71638417
 30
0.0
 11
296.75871496
 21
6.91979561
 31
0.0
  0
LINE
  5
2B4
  8
0
  6
STRICHPUNKT2
 62
     1
 10
293.52418238
 20
4.17250692
 30
0.0
 11
293.52418238
 21
1.41410084
 31
0.0
  0
LINE
  5
2B5
  8
0
  6
STRICHPUNKT2
 62
     1
 10
302.55812255
 20
2.97923359
 30
0.0
 11
302.55812255
 21
0.28890178
 31
0.0
  0
LINE
  5
2B6
  8
0
  6
STRICHPUNKT2
 62
     1
 10
290.12933821
 20
3.25012055
 30
0.0
 11
307.07509264
 21
1.01179303
 31
0.0
  0
LINE
  5
2B7
  8
0
  6
STRICHPUNKT2
 62
     1
 10
292.3674731
 20
1.35815267
 30
0.0
 11
294.99369973
 21
4.6356317
 31
0.0
  0
LINE
  5
2B8
  8
0
  6
STRICHPUNKT2
 62
     1
 10
301.0886052
 20
-0.22549896
 30
0.0
 11
304.0276399
 21
3.44235836
 31
0.0
  0
LINE
  5
2B9
  8
0
  6
STRICHPUNKT2
 62
     1
 10
292.15856426
 20
1.61128065
 30
0.0
 11
302.04427497
 21
0.30549881
 31
0.0
  0
LINE
  5
2BA
  8
0
  6
STRICHPUNKT2
 62
     1
 10
293.51201029
 20
1.41570862
 30
0.0
 11
294.52964162
 21
2.68569244
 31
0.0
  0
LINE
  5
2BB
  8
0
  6
STRICHPUNKT2
 62
     1
 10
302.59929456
 20
0.28900766
 30
0.0
 11
303.56358179
 21
1.4924191
 31
0.0
  0
POLYLINE
  5
2BC
  8
0
 66
     1
 10
0.0
 20
0.0
 30
0.0
  0
VERTEX
  5
6DF
  8
0
 10
311.043902065077
 20
0.336610483216954
 30
0.0
  0
VERTEX
  5
6E0
  8
0
 10
311.3046917754835
 20
0.4168503212771913
 30
0.0
  0
VERTEX
  5
6E1
  8
0
 10
311.5554594837201
 20
0.546685812174932
 30
0.0
  0
VERTEX
  5
6E2
  8
0
 10
311.7865683273523
 20
0.7211274507872619
 30
0.0
  0
VERTEX
  5
6E3
  8
0
 10
311.9891369230902
 20
0.9334715427430385
 30
0.0
  0
VERTEX
  5
6E4
  8
0
 10
312.15538067337
 20
1.175557823639146
 30
0.0
  0
VERTEX
  5
6E5
  8
0
 10
312.2789109240729
 20
1.438083053426454
 30
0.0
  0
VERTEX
  5
6E6
  8
0
 10
312.3549804769216
 20
1.710958534709043
 30
0.0
  0
VERTEX
  5
6E7
  8
0
 10
312.3806660216487
 20
1.983697815728899
 30
0.0
  0
SEQEND
  5
91D
  8
0
  0
POLYLINE
  5
2BD
  8
0
 66
     1
 10
0.0
 20
0.0
 30
0.0
  0
VERTEX
  5
6E8
  8
0
 10
247.531811675077
 20
50.99212453321696
 30
0.0
  0
VERTEX
  5
6E9
  8
0
 10
247.7926013854836
 20
51.0723643712772
 30
0.0
  0
VERTEX
  5
6EA
  8
0
 10
248.0433690937201
 20
51.20219986217494
 30
0.0
  0
VERTEX
  5
6EB
  8
0
 10
248.2744779373522
 20
51.37664150078727
 30
0.0
  0
VERTEX
  5
6EC
  8
0
 10
248.4770465330902
 20
51.58898559274304
 30
0.0
  0
VERTEX
  5
6ED
  8
0
 10
248.64329028337
 20
51.83107187363915
 30
0.0
  0
VERTEX
  5
6EE
  8
0
 10
248.7668205340728
 20
52.09359710342646
 30
0.0
  0
VERTEX
  5
6EF
  8
0
 10
248.8428900869216
 20
52.36647258470904
 30
0.0
  0
VERTEX
  5
6F0
  8
0
 10
248.8685756316487
 20
52.6392118657289
 30
0.0
  0
SEQEND
  5
91E
  8
0
  0
POLYLINE
  5
2BE
  8
0
 66
     1
 10
0.0
 20
0.0
 30
0.0
  0
VERTEX
  5
6F1
  8
0
 10
311.043902060154
 20
-1.034193403566092
 30
0.0
  0
VERTEX
  5
6F2
  8
0
 10
311.5654814809671
 20
-0.8737137274456173
 30
0.0
  0
VERTEX
  5
6F3
  8
0
 10
312.0670168974403
 20
-0.614042745650136
 30
0.0
  0
VERTEX
  5
6F4
  8
0
 10
312.5292345847044
 20
-0.2651594684254759
 30
0.0
  0
VERTEX
  5
6F5
  8
0
 10
312.9343717761804
 20
0.1595287154860769
 30
0.0
  0
VERTEX
  5
6F6
  8
0
 10
313.2668592767399
 20
0.6437012772782915
 30
0.0
  0
VERTEX
  5
6F7
  8
0
 10
313.5139197781457
 20
1.168751736852907
 30
0.0
  0
VERTEX
  5
6F8
  8
0
 10
313.6660588838432
 20
1.714502699418085
 30
0.0
  0
VERTEX
  5
6F9
  8
0
 10
313.7174299732973
 20
2.259981261457797
 30
0.0
  0
SEQEND
  5
91F
  8
0
  0
POLYLINE
  5
2BF
  8
0
 66
     1
 10
0.0
 20
0.0
 30
0.0
  0
VERTEX
  5
6FA
  8
0
 10
293.17625269
 20
-2.964866269999999
 30
0.0
  0
VERTEX
  5
6FB
  8
0
 10
293.3776261098182
 20
-3.089581066066519
 30
0.0
  0
VERTEX
  5
6FC
  8
0
 10
293.6064609427414
 20
-3.165751099026624
 30
0.0
  0
VERTEX
  5
6FD
  8
0
 10
293.8541949194778
 20
-3.190526329287001
 30
0.0
  0
VERTEX
  5
6FE
  8
0
 10
294.111558625077
 20
-3.162979746783046
 30
0.0
  0
SEQEND
  5
920
  8
0
  0
POLYLINE
  5
2C0
  8
0
 66
     1
 10
0.0
 20
0.0
 30
0.0
  0
VERTEX
  5
6FF
  8
0
 10
292.7747946783513
 20
-2.068459300807996
 30
0.0
  0
VERTEX
  5
700
  8
0
 10
292.8011659933289
 20
-2.333950848164473
 30
0.0
  0
VERTEX
  5
701
  8
0
 10
292.879239448137
 20
-2.578066415977993
 30
0.0
  0
VERTEX
  5
702
  8
0
 10
293.0059346189661
 20
-2.791174313052589
 30
0.0
  0
VERTEX
  5
703
  8
0
 10
293.17625269
 20
-2.964866269999999
 30
0.0
  0
SEQEND
  5
921
  8
0
  0
POLYLINE
  5
2C1
  8
0
 66
     1
 10
0.0
 20
0.0
 30
0.0
  0
VERTEX
  5
704
  8
0
 10
291.4380307267027
 20
-2.344742741615992
 30
0.0
  0
VERTEX
  5
705
  8
0
 10
291.4907733570304
 20
-2.875725838146918
 30
0.0
  0
VERTEX
  5
706
  8
0
 10
291.6469202677349
 20
-3.363956975218184
 30
0.0
  0
VERTEX
  5
707
  8
0
 10
291.900310611111
 20
-3.790172770244788
 30
0.0
  0
VERTEX
  5
708
  8
0
 10
292.2409467553873
 20
-4.137556684296789
 30
0.0
  0
SEQEND
  5
922
  8
0
  0
POLYLINE
  5
2C2
  8
0
 66
     1
 10
0.0
 20
0.0
 30
0.0
  0
VERTEX
  5
709
  8
0
 10
292.24094675
 20
-4.137556679999999
 30
0.0
  0
VERTEX
  5
70A
  8
0
 10
292.6436935896364
 20
-4.386986272133038
 30
0.0
  0
VERTEX
  5
70B
  8
0
 10
293.1013632554827
 20
-4.539326338053248
 30
0.0
  0
VERTEX
  5
70C
  8
0
 10
293.5968312089556
 20
-4.588876798574002
 30
0.0
  0
VERTEX
  5
70D
  8
0
 10
294.111558620154
 20
-4.533783633566092
 30
0.0
  0
SEQEND
  5
923
  8
0
  0
LINE
  5
2C3
  8
0
 10
292.24094674
 20
-4.13755668
 30
0.0
 11
286.87798748
 21
0.13979361
 31
0.0
  0
LINE
  5
2C4
  8
0
 10
291.43803072
 20
-2.34474274
 30
0.0
 11
291.43803072
 21
-0.28853691
 31
0.0
  0
LINE
  5
2C5
  8
0
 10
292.77479467
 20
-2.0684593
 30
0.0
 11
292.77479467
 21
-0.01225347
 31
0.0
  0
POLYLINE
  5
2C6
  8
0
 66
     1
 10
0.0
 20
0.0
 30
0.0
  0
VERTEX
  5
70E
  8
0
 10
228.4597882568569
 20
52.4360745145311
 30
0.0
  0
VERTEX
  5
70F
  8
0
 10
228.0570414127988
 20
52.68550411099594
 30
0.0
  0
VERTEX
  5
710
  8
0
 10
227.5993717410265
 20
52.83784417879264
 30
0.0
  0
VERTEX
  5
711
  8
0
 10
227.1039037807859
 20
52.88739463851772
 30
0.0
  0
VERTEX
  5
712
  8
0
 10
226.5891763627081
 20
52.83230147002403
 30
0.0
  0
SEQEND
  5
924
  8
0
  0
LINE
  5
2C7
  8
0
 10
248.70244811
 20
36.29108016
 30
0.0
 11
228.45978825
 21
52.43607452
 31
0.0
  0
LINE
  5
2C8
  8
0
 10
291.97187864
 20
1.78056047
 30
0.0
 11
258.39767528
 21
28.55843094
 31
0.0
  0
LINE
  5
2C9
  8
0
 10
252.94260961
 20
32.9092428
 30
0.0
 11
252.27633945
 21
33.44064174
 31
0.0
  0
POLYLINE
  5
2CA
  8
0
 66
     1
 10
0.0
 20
0.0
 30
0.0
  0
VERTEX
  5
713
  8
0
 10
291.971878646857
 20
1.780560464531091
 30
0.0
  0
VERTEX
  5
714
  8
0
 10
291.5691318027988
 20
2.02999006099594
 30
0.0
  0
VERTEX
  5
715
  8
0
 10
291.1114621310265
 20
2.182330128792642
 30
0.0
  0
VERTEX
  5
716
  8
0
 10
290.6159941707859
 20
2.231880588517717
 30
0.0
  0
VERTEX
  5
717
  8
0
 10
290.1012667527081
 20
2.176787420024024
 30
0.0
  0
SEQEND
  5
925
  8
0
  0
POLYLINE
  5
2CB
  8
0
 66
     1
 10
0.0
 20
0.0
 30
0.0
  0
VERTEX
  5
718
  8
0
 10
291.0365727034284
 20
0.6078700572655454
 30
0.0
  0
VERTEX
  5
719
  8
0
 10
290.8351992813994
 20
0.7325848554979697
 30
0.0
  0
VERTEX
  5
71A
  8
0
 10
290.6063644455132
 20
0.8087548893963208
 30
0.0
  0
VERTEX
  5
71B
  8
0
 10
290.3586304653929
 20
0.8335301192588584
 30
0.0
  0
VERTEX
  5
71C
  8
0
 10
290.1012667563541
 20
0.8059835350120121
 30
0.0
  0
SEQEND
  5
926
  8
0
  0
POLYLINE
  5
2CC
  8
0
 66
     1
 10
0.0
 20
0.0
 30
0.0
  0
VERTEX
  5
71D
  8
0
 10
291.4380307116487
 20
-0.2885369042711011
 30
0.0
  0
VERTEX
  5
71E
  8
0
 10
291.4116593961968
 20
-0.0230453595216303
 30
0.0
  0
VERTEX
  5
71F
  8
0
 10
291.333585941863
 20
0.2210702059779932
 30
0.0
  0
VERTEX
  5
720
  8
0
 10
291.2068907723825
 20
0.4341781012963053
 30
0.0
  0
VERTEX
  5
721
  8
0
 10
291.0365727034284
 20
0.6078700572655454
 30
0.0
  0
SEQEND
  5
927
  8
0
  0
POLYLINE
  5
2CD
  8
0
 66
     1
 10
0.0
 20
0.0
 30
0.0
  0
VERTEX
  5
722
  8
0
 10
292.7747946632973
 20
-0.0122534585422023
 30
0.0
  0
VERTEX
  5
723
  8
0
 10
292.7220520323936
 20
0.5187296309567393
 30
0.0
  0
VERTEX
  5
724
  8
0
 10
292.565905123726
 20
1.006960761955986
 30
0.0
  0
VERTEX
  5
725
  8
0
 10
292.3125147847649
 20
1.433176552592611
 30
0.0
  0
VERTEX
  5
726
  8
0
 10
291.971878646857
 20
1.780560464531091
 30
0.0
  0
SEQEND
  5
928
  8
0
  0
LINE
  5
2CE
  8
0
 10
312.38066603
 20
1.98369781
 30
0.0
 11
312.38066603
 21
4.03990364
 31
0.0
  0
LINE
  5
2CF
  8
0
 10
248.86857564
 20
54.69541769
 30
0.0
 11
248.86857564
 21
52.63921186
 31
0.0
  0
LINE
  5
2D0
  8
0
 10
313.71742999
 20
2.25998125
 30
0.0
 11
313.71742999
 21
4.31618708
 31
0.0
  0
POLYLINE
  5
2D1
  8
0
 66
     1
 10
0.0
 20
0.0
 30
0.0
  0
VERTEX
  5
727
  8
0
 10
222.1566223
 20
47.24057198236842
 30
0.0
  0
VERTEX
  5
728
  8
0
 10
222.1878462182779
 20
47.11185841901055
 30
0.0
  0
VERTEX
  5
729
  8
0
 10
222.2803180577159
 20
46.98809124562938
 30
0.0
  0
VERTEX
  5
72A
  8
0
 10
222.4304841773752
 20
46.87402676529936
 30
0.0
  0
VERTEX
  5
72B
  8
0
 10
222.6325737774782
 20
46.77404841204143
 30
0.0
  0
VERTEX
  5
72C
  8
0
 10
222.8788206680086
 20
46.69199829791157
 30
0.0
  0
VERTEX
  5
72D
  8
0
 10
223.1597617190384
 20
46.63102956278873
 30
0.0
  0
VERTEX
  5
72E
  8
0
 10
223.4646005235056
 20
46.59348520097734
 30
0.0
  0
VERTEX
  5
72F
  8
0
 10
223.7816222970833
 20
46.58080802125
 30
0.0
  0
VERTEX
  5
730
  8
0
 10
224.0986440707731
 20
46.59348520051528
 30
0.0
  0
VERTEX
  5
731
  8
0
 10
224.4034828755723
 20
46.63102956188237
 30
0.0
  0
VERTEX
  5
732
  8
0
 10
224.6844239271412
 20
46.69199829659575
 30
0.0
  0
VERTEX
  5
733
  8
0
 10
224.9306708183969
 20
46.77404841036671
 30
0.0
  0
VERTEX
  5
734
  8
0
 10
225.132760419384
 20
46.87402676333009
 30
0.0
  0
VERTEX
  5
735
  8
0
 10
225.2829265400518
 20
46.98809124344125
 30
0.0
  0
VERTEX
  5
736
  8
0
 10
225.3753983805841
 20
47.11185841668765
 30
0.0
  0
VERTEX
  5
737
  8
0
 10
225.4066223
 20
47.24057198
 30
0.0
  0
SEQEND
  5
929
  8
0
  0
POLYLINE
  5
2D2
  8
0
 66
     1
 10
0.0
 20
0.0
 30
0.0
  0
VERTEX
  5
738
  8
0
 10
225.4066223
 20
47.24057198
 30
0.0
  0
VERTEX
  5
739
  8
0
 10
225.3753983807264
 20
47.36928554302199
 30
0.0
  0
VERTEX
  5
73A
  8
0
 10
225.2829265406099
 20
47.49305271601171
 30
0.0
  0
VERTEX
  5
73B
  8
0
 10
225.1327604205993
 20
47.60711719593144
 30
0.0
  0
VERTEX
  5
73C
  8
0
 10
224.9306708204594
 20
47.70709554879593
 30
0.0
  0
VERTEX
  5
73D
  8
0
 10
224.6844239301726
 20
47.78914566258186
 30
0.0
  0
VERTEX
  5
73E
  8
0
 10
224.4034828796143
 20
47.85011439743786
 30
0.0
  0
VERTEX
  5
73F
  8
0
 10
224.0986440757793
 20
47.88765875908042
 30
0.0
  0
VERTEX
  5
740
  8
0
 10
223.7816223029167
 20
47.90033593875
 30
0.0
  0
VERTEX
  5
741
  8
0
 10
223.4646005299421
 20
47.88765875954247
 30
0.0
  0
VERTEX
  5
742
  8
0
 10
223.1597617257751
 20
47.85011439834422
 30
0.0
  0
VERTEX
  5
743
  8
0
 10
222.8788206746777
 20
47.78914566389768
 30
0.0
  0
VERTEX
  5
744
  8
0
 10
222.6325737836655
 20
47.70709555047065
 30
0.0
  0
VERTEX
  5
745
  8
0
 10
222.4304841826416
 20
47.6071171979007
 30
0.0
  0
VERTEX
  5
746
  8
0
 10
222.2803180616225
 20
47.49305271819984
 30
0.0
  0
VERTEX
  5
747
  8
0
 10
222.1878462204117
 20
47.36928554534489
 30
0.0
  0
VERTEX
  5
748
  8
0
 10
222.1566223
 20
47.24057198236842
 30
0.0
  0
SEQEND
  5
92A
  8
0
  0
LINE
  5
2D3
  8
0
 10
248.35984091
 20
31.81898238
 30
0.0
 11
240.6315189
 21
30.22168663
 31
0.0
  0
POLYLINE
  5
2D4
  8
0
 66
     1
 10
0.0
 20
0.0
 30
0.0
  0
VERTEX
  5
749
  8
0
 10
239.2866851407495
 20
30.39932276971191
 30
0.0
  0
VERTEX
  5
74A
  8
0
 10
239.3923130812222
 20
30.33227333418529
 30
0.0
  0
VERTEX
  5
74B
  8
0
 10
239.5281291916402
 20
30.27487884923045
 30
0.0
  0
VERTEX
  5
74C
  8
0
 10
239.6889141350916
 20
30.22934495269798
 30
0.0
  0
VERTEX
  5
74D
  8
0
 10
239.8684890364219
 20
30.19742148668085
 30
0.0
  0
VERTEX
  5
74E
  8
0
 10
240.0599529329396
 20
30.18033525206461
 30
0.0
  0
VERTEX
  5
74F
  8
0
 10
240.2559479745389
 20
30.17874286325785
 30
0.0
  0
VERTEX
  5
750
  8
0
 10
240.4489421817515
 20
30.19270551486884
 30
0.0
  0
VERTEX
  5
751
  8
0
 10
240.6315188954905
 20
30.22168663003116
 30
0.0
  0
SEQEND
  5
92B
  8
0
  0
POLYLINE
  5
2D5
  8
0
 66
     1
 10
0.0
 20
0.0
 30
0.0
  0
VERTEX
  5
2D6
  8
0
 10
239.28668514
 20
30.39932277
 30
0.0
  0
VERTEX
  5
2D7
  8
0
 10
214.33550677
 20
50.29970329
 30
0.0
  0
VERTEX
  5
2D8
  8
0
 10
226.58917637
 20
52.83230148
 30
0.0
  0
SEQEND
  5
2D9
  8
0
  0
POLYLINE
  5
2DA
  8
0
 66
     1
 10
0.0
 20
0.0
 30
0.0
  0
VERTEX
  5
2DB
  8
0
 10
290.10126676
 20
2.17678743
 30
0.0
  0
VERTEX
  5
2DC
  8
0
 10
277.84759716
 20
-0.35581076
 30
0.0
  0
VERTEX
  5
2DD
  8
0
 10
249.72081427
 20
22.07734546
 30
0.0
  0
SEQEND
  5
2DE
  8
0
  0
POLYLINE
  5
2DF
  8
0
 66
     1
 10
0.0
 20
0.0
 30
0.0
  0
VERTEX
  5
752
  8
0
 10
252.6171361695536
 20
22.67595957458996
 30
0.0
  0
VERTEX
  5
753
  8
0
 10
253.1705434788735
 20
22.54712482460356
 30
0.0
  0
VERTEX
  5
754
  8
0
 10
253.7352310555829
 20
22.47180583131046
 30
0.0
  0
VERTEX
  5
755
  8
0
 10
254.2873052817998
 20
22.45318956626668
 30
0.0
  0
VERTEX
  5
756
  8
0
 10
254.8034062481729
 20
22.49206373924606
 30
0.0
  0
VERTEX
  5
757
  8
0
 10
255.2616961814135
 20
22.58678346788717
 30
0.0
  0
VERTEX
  5
758
  8
0
 10
255.6427834657049
 20
22.73334087757865
 30
0.0
  0
VERTEX
  5
759
  8
0
 10
255.930543159883
 20
22.92553468660407
 30
0.0
  0
VERTEX
  5
75A
  8
0
 10
256.1127992918561
 20
23.15523260089224
 30
0.0
  0
VERTEX
  5
75B
  8
0
 10
256.1818400603491
 20
23.41271541566752
 30
0.0
  0
SEQEND
  5
92C
  8
0
  0
POLYLINE
  5
2E0
  8
0
 66
     1
 10
0.0
 20
0.0
 30
0.0
  0
VERTEX
  5
2E1
  8
0
 10
259.07816197
 20
24.01132954
 30
0.0
  0
VERTEX
  5
2E2
  8
0
 10
259.53181975
 20
23.64950444
 30
0.0
  0
SEQEND
  5
2E3
  8
0
  0
POLYLINE
  5
2E4
  8
0
 66
     1
 10
0.0
 20
0.0
 30
0.0
  0
VERTEX
  5
75C
  8
0
 10
259.5318197607495
 20
23.64950442971191
 30
0.0
  0
VERTEX
  5
75D
  8
0
 10
259.6340050030664
 20
23.58423963970853
 30
0.0
  0
VERTEX
  5
75E
  8
0
 10
259.7648160301697
 20
23.52802541155108
 30
0.0
  0
VERTEX
  5
75F
  8
0
 10
259.9195068188403
 20
23.48290128302148
 30
0.0
  0
VERTEX
  5
760
  8
0
 10
260.0924649517536
 20
23.45050442620281
 30
0.0
  0
VERTEX
  5
761
  8
0
 10
260.2774152445241
 20
23.43201024838363
 30
0.0
  0
VERTEX
  5
762
  8
0
 10
260.4676474189494
 20
23.42808974649203
 30
0.0
  0
VERTEX
  5
763
  8
0
 10
260.6562595621188
 20
23.43888516230546
 30
0.0
  0
VERTEX
  5
764
  8
0
 10
260.8364085383222
 20
23.46400482170254
 30
0.0
  0
VERTEX
  5
765
  8
0
 10
261.0015582684319
 20
23.50253734519647
 30
0.0
  0
VERTEX
  5
766
  8
0
 10
261.1457168688044
 20
23.55308471417035
 30
0.0
  0
VERTEX
  5
767
  8
0
 10
261.2636540459412
 20
23.61381299312107
 30
0.0
  0
VERTEX
  5
768
  8
0
 10
261.3510908595003
 20
23.68251886763141
 30
0.0
  0
VERTEX
  5
769
  8
0
 10
261.404854968766
 20
23.75670958397166
 30
0.0
  0
VERTEX
  5
76A
  8
0
 10
261.42299573
 20
23.83369339
 30
0.0
  0
SEQEND
  5
92D
  8
0
  0
POLYLINE
  5
2E5
  8
0
 66
     1
 10
0.0
 20
0.0
 30
0.0
  0
VERTEX
  5
76B
  8
0
 10
261.42299573
 20
23.83369339
 30
0.0
  0
VERTEX
  5
76C
  8
0
 10
261.3954092151386
 20
23.92840050831114
 30
0.0
  0
VERTEX
  5
76D
  8
0
 10
261.3141717021586
 20
24.01788234796872
 30
0.0
  0
SEQEND
  5
92E
  8
0
  0
LINE
  5
2E6
  8
0
 10
261.3141717
 20
24.01788235
 30
0.0
 11
258.39767528
 21
26.34400049
 31
0.0
  0
LINE
  5
2E7
  8
0
 10
240.6315189
 20
28.85088274
 30
0.0
 11
248.35984091
 21
30.44817849
 31
0.0
  0
POLYLINE
  5
2E8
  8
0
 66
     1
 10
0.0
 20
0.0
 30
0.0
  0
VERTEX
  5
76E
  8
0
 10
239.2866851407495
 20
29.02851887971191
 30
0.0
  0
VERTEX
  5
76F
  8
0
 10
239.3923130812222
 20
28.96146944418529
 30
0.0
  0
VERTEX
  5
770
  8
0
 10
239.5281291916402
 20
28.90407495923045
 30
0.0
  0
VERTEX
  5
771
  8
0
 10
239.6889141350916
 20
28.85854106269798
 30
0.0
  0
VERTEX
  5
772
  8
0
 10
239.8684890364219
 20
28.82661759668085
 30
0.0
  0
VERTEX
  5
773
  8
0
 10
240.0599529329396
 20
28.80953136206461
 30
0.0
  0
VERTEX
  5
774
  8
0
 10
240.2559479745389
 20
28.80793897325784
 30
0.0
  0
VERTEX
  5
775
  8
0
 10
240.4489421817515
 20
28.82190162486884
 30
0.0
  0
VERTEX
  5
776
  8
0
 10
240.6315188954905
 20
28.85088274003116
 30
0.0
  0
SEQEND
  5
92F
  8
0
  0
LINE
  5
2E9
  8
0
 10
239.28668514
 20
29.02851888
 30
0.0
 11
214.33550677
 21
48.9288994
 31
0.0
  0
LINE
  5
2EA
  8
0
 10
214.33550677
 20
50.29970329
 30
0.0
 11
214.33550677
 21
48.9288994
 31
0.0
  0
LINE
  5
2EB
  8
0
 10
258.58838968
 20
24.82108799
 30
0.0
 11
260.33339682
 21
23.4293178
 31
0.0
  0
LINE
  5
2EC
  8
0
 10
277.84759716
 20
-1.72661465
 30
0.0
 11
249.72081427
 21
20.70654157
 31
0.0
  0
LINE
  5
2ED
  8
0
 10
277.84759716
 20
-0.35581076
 30
0.0
 11
277.84759716
 21
-1.72661465
 31
0.0
  0
LINE
  5
2EE
  8
0
 10
290.10126676
 20
0.80598354
 30
0.0
 11
277.84759716
 21
-1.72661465
 31
0.0
  0
LINE
  5
2EF
  8
0
  6
STRICHPUNKT2
 62
     1
 10
223.7816223
 20
47.98309075
 30
0.0
 11
223.7816223
 21
46.58080802
 31
0.0
  0
LINE
  5
2F0
  8
0
  6
STRICHPUNKT2
 62
     1
 10
223.7816223
 20
47.24057198
 30
0.0
 11
222.67583144
 21
48.12252066
 31
0.0
  0
LINE
  5
2F1
  8
0
  6
STRICHPUNKT2
 62
     1
 10
223.7816223
 20
47.24057198
 30
0.0
 11
224.88741316
 21
46.3586233
 31
0.0
  0
LINE
  5
2F2
  8
0
  6
STRICHPUNKT2
 62
     1
 10
223.7816223
 20
47.24057198
 30
0.0
 11
221.60938087
 21
46.79161139
 31
0.0
  0
LINE
  5
2F3
  8
0
  6
STRICHPUNKT2
 62
     1
 10
223.7816223
 20
47.24057198
 30
0.0
 11
225.95386373
 21
47.68953257
 31
0.0
  0
POLYLINE
  5
2F4
  8
0
 66
     1
 10
0.0
 20
0.0
 30
0.0
  0
VERTEX
  5
777
  8
0
 10
262.70512897
 20
55.62116964236841
 30
0.0
  0
VERTEX
  5
778
  8
0
 10
262.7363528882778
 20
55.49245607901055
 30
0.0
  0
VERTEX
  5
779
  8
0
 10
262.8288247277158
 20
55.36868890562938
 30
0.0
  0
VERTEX
  5
77A
  8
0
 10
262.9789908473751
 20
55.25462442529935
 30
0.0
  0
VERTEX
  5
77B
  8
0
 10
263.1810804474782
 20
55.15464607204143
 30
0.0
  0
VERTEX
  5
77C
  8
0
 10
263.4273273380085
 20
55.07259595791157
 30
0.0
  0
VERTEX
  5
77D
  8
0
 10
263.7082683890383
 20
55.01162722278873
 30
0.0
  0
VERTEX
  5
77E
  8
0
 10
264.0131071935055
 20
54.97408286097734
 30
0.0
  0
VERTEX
  5
77F
  8
0
 10
264.3301289670833
 20
54.96140568125
 30
0.0
  0
VERTEX
  5
780
  8
0
 10
264.6471507407731
 20
54.97408286051528
 30
0.0
  0
VERTEX
  5
781
  8
0
 10
264.9519895455722
 20
55.01162722188237
 30
0.0
  0
VERTEX
  5
782
  8
0
 10
265.2329305971411
 20
55.07259595659575
 30
0.0
  0
VERTEX
  5
783
  8
0
 10
265.4791774883969
 20
55.15464607036671
 30
0.0
  0
VERTEX
  5
784
  8
0
 10
265.6812670893839
 20
55.25462442333009
 30
0.0
  0
VERTEX
  5
785
  8
0
 10
265.8314332100518
 20
55.36868890344125
 30
0.0
  0
VERTEX
  5
786
  8
0
 10
265.9239050505841
 20
55.49245607668765
 30
0.0
  0
VERTEX
  5
787
  8
0
 10
265.95512897
 20
55.62116964
 30
0.0
  0
SEQEND
  5
930
  8
0
  0
POLYLINE
  5
2F5
  8
0
 66
     1
 10
0.0
 20
0.0
 30
0.0
  0
VERTEX
  5
788
  8
0
 10
265.95512897
 20
55.62116964
 30
0.0
  0
VERTEX
  5
789
  8
0
 10
265.9239050507264
 20
55.74988320302199
 30
0.0
  0
VERTEX
  5
78A
  8
0
 10
265.8314332106099
 20
55.87365037601171
 30
0.0
  0
VERTEX
  5
78B
  8
0
 10
265.6812670905992
 20
55.98771485593144
 30
0.0
  0
VERTEX
  5
78C
  8
0
 10
265.4791774904593
 20
56.08769320879593
 30
0.0
  0
VERTEX
  5
78D
  8
0
 10
265.2329306001726
 20
56.16974332258186
 30
0.0
  0
VERTEX
  5
78E
  8
0
 10
264.9519895496143
 20
56.23071205743786
 30
0.0
  0
VERTEX
  5
78F
  8
0
 10
264.6471507457792
 20
56.26825641908042
 30
0.0
  0
VERTEX
  5
790
  8
0
 10
264.3301289729167
 20
56.28093359875
 30
0.0
  0
VERTEX
  5
791
  8
0
 10
264.013107199942
 20
56.26825641954247
 30
0.0
  0
VERTEX
  5
792
  8
0
 10
263.7082683957751
 20
56.23071205834422
 30
0.0
  0
VERTEX
  5
793
  8
0
 10
263.4273273446777
 20
56.16974332389768
 30
0.0
  0
VERTEX
  5
794
  8
0
 10
263.1810804536655
 20
56.08769321047065
 30
0.0
  0
VERTEX
  5
795
  8
0
 10
262.9789908526416
 20
55.9877148579007
 30
0.0
  0
VERTEX
  5
796
  8
0
 10
262.8288247316224
 20
55.87365037819984
 30
0.0
  0
VERTEX
  5
797
  8
0
 10
262.7363528904116
 20
55.74988320534489
 30
0.0
  0
VERTEX
  5
798
  8
0
 10
262.70512897
 20
55.62116964236841
 30
0.0
  0
SEQEND
  5
931
  8
0
  0
LINE
  5
2F6
  8
0
 10
288.46275959
 20
40.84847376
 30
0.0
 11
263.79577315
 21
60.52219054
 31
0.0
  0
LINE
  5
2F7
  8
0
 10
251.54210355
 20
57.98959235
 30
0.0
 11
263.79577315
 21
60.52219054
 31
0.0
  0
LINE
  5
2F8
  8
0
 10
327.30786354
 20
9.86667649
 30
0.0
 11
315.05419394
 21
7.3340783
 31
0.0
  0
LINE
  5
2F9
  8
0
 10
327.30786354
 20
9.86667649
 30
0.0
 11
299.18108065
 21
32.29983272
 31
0.0
  0
POLYLINE
  5
2FA
  8
0
 66
     1
 10
0.0
 20
0.0
 30
0.0
  0
VERTEX
  5
799
  8
0
 10
292.7200548595536
 20
30.96446275458995
 30
0.0
  0
VERTEX
  5
79A
  8
0
 10
293.2734621688736
 20
30.83562800460356
 30
0.0
  0
VERTEX
  5
79B
  8
0
 10
293.8381497455829
 20
30.76030901131046
 30
0.0
  0
VERTEX
  5
79C
  8
0
 10
294.3902239717999
 20
30.74169274626668
 30
0.0
  0
VERTEX
  5
79D
  8
0
 10
294.9063249381729
 20
30.78056691924606
 30
0.0
  0
VERTEX
  5
79E
  8
0
 10
295.3646148714135
 20
30.87528664788717
 30
0.0
  0
VERTEX
  5
79F
  8
0
 10
295.7457021557049
 20
31.02184405757865
 30
0.0
  0
VERTEX
  5
7A0
  8
0
 10
296.033461849883
 20
31.21403786660407
 30
0.0
  0
VERTEX
  5
7A1
  8
0
 10
296.2157179818561
 20
31.44373578089224
 30
0.0
  0
VERTEX
  5
7A2
  8
0
 10
296.2847587503492
 20
31.70121859566752
 30
0.0
  0
SEQEND
  5
932
  8
0
  0
LINE
  5
2FB
  8
0
 10
290.27739075
 20
30.00402354
 30
0.0
 11
289.82373296
 21
30.36584864
 31
0.0
  0
POLYLINE
  5
2FC
  8
0
 66
     1
 10
0.0
 20
0.0
 30
0.0
  0
VERTEX
  5
7A3
  8
0
 10
290.38621478
 20
29.81983458
 30
0.0
  0
VERTEX
  5
7A4
  8
0
 10
290.3586282651385
 20
29.91454169831113
 30
0.0
  0
VERTEX
  5
7A5
  8
0
 10
290.2773907521586
 20
30.00402353796872
 30
0.0
  0
SEQEND
  5
933
  8
0
  0
POLYLINE
  5
2FD
  8
0
 66
     1
 10
0.0
 20
0.0
 30
0.0
  0
VERTEX
  5
7A6
  8
0
 10
289.8398725654905
 20
29.45800948003116
 30
0.0
  0
VERTEX
  5
7A7
  8
0
 10
289.9947293286952
 20
29.49764942028355
 30
0.0
  0
VERTEX
  5
7A8
  8
0
 10
290.1291930231691
 20
29.5480867097862
 30
0.0
  0
VERTEX
  5
7A9
  8
0
 10
290.2387573846511
 20
29.60763105023217
 30
0.0
  0
VERTEX
  5
7AA
  8
0
 10
290.31975059698
 20
29.67428693990361
 30
0.0
  0
VERTEX
  5
7AB
  8
0
 10
290.3694583451912
 20
29.74582054866073
 30
0.0
  0
VERTEX
  5
7AC
  8
0
 10
290.38621478
 20
29.81983458
 30
0.0
  0
SEQEND
  5
934
  8
0
  0
POLYLINE
  5
2FE
  8
0
 66
     1
 10
0.0
 20
0.0
 30
0.0
  0
VERTEX
  5
7AD
  8
0
 10
288.4950388107495
 20
29.63564561971191
 30
0.0
  0
VERTEX
  5
7AE
  8
0
 10
288.6006667512222
 20
29.56859618418529
 30
0.0
  0
VERTEX
  5
7AF
  8
0
 10
288.7364828616402
 20
29.51120169923044
 30
0.0
  0
VERTEX
  5
7B0
  8
0
 10
288.8972678050915
 20
29.46566780269798
 30
0.0
  0
VERTEX
  5
7B1
  8
0
 10
289.0768427064219
 20
29.43374433668085
 30
0.0
  0
VERTEX
  5
7B2
  8
0
 10
289.2683066029396
 20
29.41665810206461
 30
0.0
  0
VERTEX
  5
7B3
  8
0
 10
289.4643016445389
 20
29.41506571325784
 30
0.0
  0
VERTEX
  5
7B4
  8
0
 10
289.6572958517515
 20
29.42902836486884
 30
0.0
  0
VERTEX
  5
7B5
  8
0
 10
289.8398725654905
 20
29.45800948003116
 30
0.0
  0
SEQEND
  5
935
  8
0
  0
LINE
  5
2FF
  8
0
 10
278.51456746
 20
37.59579783
 30
0.0
 11
288.49503881
 21
29.63564562
 31
0.0
  0
POLYLINE
  5
300
  8
0
 66
     1
 10
0.0
 20
0.0
 30
0.0
  0
VERTEX
  5
7B6
  8
0
 10
278.40574343
 20
37.77998679145749
 30
0.0
  0
VERTEX
  5
7B7
  8
0
 10
278.4333299451904
 20
37.68527967113211
 30
0.0
  0
VERTEX
  5
7B8
  8
0
 10
278.5145674607494
 20
37.59579782971191
 30
0.0
  0
SEQEND
  5
936
  8
0
  0
POLYLINE
  5
301
  8
0
 66
     1
 10
0.0
 20
0.0
 30
0.0
  0
VERTEX
  5
7B9
  8
0
 10
278.9520856413103
 20
38.14181188930764
 30
0.0
  0
VERTEX
  5
7BA
  8
0
 10
278.7972288794057
 20
38.10217194912519
 30
0.0
  0
VERTEX
  5
7BB
  8
0
 10
278.66276518603
 20
38.05173465985283
 30
0.0
  0
VERTEX
  5
7BC
  8
0
 10
278.5532008253489
 20
37.99219031976783
 30
0.0
  0
VERTEX
  5
7BD
  8
0
 10
278.4722076134489
 20
37.92553443054993
 30
0.0
  0
VERTEX
  5
7BE
  8
0
 10
278.422499865245
 20
37.85400082229464
 30
0.0
  0
VERTEX
  5
7BF
  8
0
 10
278.40574343
 20
37.77998679145749
 30
0.0
  0
SEQEND
  5
937
  8
0
  0
LINE
  5
302
  8
0
 10
288.30943333
 20
40.07579596
 30
0.0
 11
278.95208564
 21
38.14181189
 31
0.0
  0
LINE
  5
303
  8
0
 10
288.3094333354905
 20
40.07579596003116
 30
0.0
 11
288.4627595974948
 21
40.11496034320181
 31
0.0
  0
LINE
  5
304
  8
0
 10
288.3094333354905
 20
38.70499207003116
 30
0.0
 11
288.4627595974948
 21
38.74415645320181
 31
0.0
  0
LINE
  5
305
  8
0
 10
279.42590745
 20
36.86893787
 30
0.0
 11
288.30943333
 21
38.70499207
 31
0.0
  0
POLYLINE
  5
306
  8
0
 66
     1
 10
0.0
 20
0.0
 30
0.0
  0
VERTEX
  5
307
  8
0
 10
327.30786354
 20
9.86667649
 30
0.0
  0
VERTEX
  5
308
  8
0
 10
327.30786354
 20
8.4958726
 30
0.0
  0
VERTEX
  5
309
  8
0
 10
315.05419394
 20
5.96327441
 30
0.0
  0
SEQEND
  5
30A
  8
0
  0
LINE
  5
30B
  8
0
  6
STRICHPUNKT2
 62
     1
 10
264.33012897
 20
56.36368841
 30
0.0
 11
264.33012897
 21
54.96140568
 31
0.0
  0
LINE
  5
30C
  8
0
  6
STRICHPUNKT2
 62
     1
 10
264.33012897
 20
55.62116964
 30
0.0
 11
263.22433811
 21
56.50311832
 31
0.0
  0
LINE
  5
30D
  8
0
  6
STRICHPUNKT2
 62
     1
 10
264.33012897
 20
55.62116964
 30
0.0
 11
265.43591983
 21
54.73922096
 31
0.0
  0
LINE
  5
30E
  8
0
  6
STRICHPUNKT2
 62
     1
 10
264.33012897
 20
55.62116964
 30
0.0
 11
262.15788754
 21
55.17220905
 31
0.0
  0
LINE
  5
30F
  8
0
  6
STRICHPUNKT2
 62
     1
 10
264.33012897
 20
55.62116964
 30
0.0
 11
266.5023704
 21
56.07013023
 31
0.0
  0
POLYLINE
  5
310
  8
0
 66
     1
 10
0.0
 20
0.0
 30
0.0
  0
VERTEX
  5
311
  8
0
 10
295.60427207
 20
33.61476014
 30
0.0
  0
VERTEX
  5
312
  8
0
 10
295.65882984
 20
33.51391384
 30
0.0
  0
VERTEX
  5
313
  8
0
 10
295.71531673
 20
33.39532894
 30
0.0
  0
VERTEX
  5
314
  8
0
 10
295.77602059
 20
33.25251001
 30
0.0
  0
VERTEX
  5
315
  8
0
 10
295.84001898
 20
33.08775122
 30
0.0
  0
VERTEX
  5
316
  8
0
 10
295.93709768
 20
32.82159641
 30
0.0
  0
VERTEX
  5
317
  8
0
 10
295.9544962
 20
32.77226653
 30
0.0
  0
SEQEND
  5
318
  8
0
  0
POLYLINE
  5
319
  8
0
 66
     1
 10
0.0
 20
0.0
 30
0.0
  0
VERTEX
  5
31A
  8
0
 10
296.11846025
 20
32.31119651
 30
0.0
  0
VERTEX
  5
31B
  8
0
 10
296.20880187
 20
32.05072667
 30
0.0
  0
VERTEX
  5
31C
  8
0
 10
296.22350188
 20
32.00529336
 30
0.0
  0
VERTEX
  5
31D
  8
0
 10
296.24585456
 20
31.93158926
 30
0.0
  0
VERTEX
  5
31E
  8
0
 10
296.26095251
 20
31.87550017
 30
0.0
  0
VERTEX
  5
31F
  8
0
 10
296.27145214
 20
31.82961494
 30
0.0
  0
VERTEX
  5
320
  8
0
 10
296.2785149
 20
31.79081971
 30
0.0
  0
VERTEX
  5
321
  8
0
 10
296.28487343
 20
31.72605053
 30
0.0
  0
VERTEX
  5
322
  8
0
 10
296.28475875
 20
31.7012186
 30
0.0
  0
SEQEND
  5
323
  8
0
  0
POLYLINE
  5
324
  8
0
 66
     1
 10
0.0
 20
0.0
 30
0.0
  0
VERTEX
  5
7C0
  8
0
 10
298.5005939611484
 20
34.21337426293856
 30
0.0
  0
VERTEX
  5
7C1
  8
0
 10
298.5136693221565
 20
33.93551513816103
 30
0.0
  0
VERTEX
  5
7C2
  8
0
 10
298.5523929263094
 20
33.64747688005045
 30
0.0
  0
VERTEX
  5
7C3
  8
0
 10
298.6152766472098
 20
33.36032863737734
 30
0.0
  0
VERTEX
  5
7C4
  8
0
 10
298.6999038987194
 20
33.0851053561179
 30
0.0
  0
VERTEX
  5
7C5
  8
0
 10
298.8030225030088
 20
32.83238371266697
 30
0.0
  0
VERTEX
  5
7C6
  8
0
 10
298.9206696699288
 20
32.61187565809394
 30
0.0
  0
VERTEX
  5
7C7
  8
0
 10
299.0483242848134
 20
32.43205519330819
 30
0.0
  0
VERTEX
  5
7C8
  8
0
 10
299.1810806523824
 20
32.29983271795506
 30
0.0
  0
SEQEND
  5
938
  8
0
  0
POLYLINE
  5
325
  8
0
 66
     1
 10
0.0
 20
0.0
 30
0.0
  0
VERTEX
  5
7C9
  8
0
 10
288.4627595867584
 20
32.82212783958746
 30
0.0
  0
VERTEX
  5
7CA
  8
0
 10
288.4855853644127
 20
32.30391148490925
 30
0.0
  0
VERTEX
  5
7CB
  8
0
 10
288.5532970482453
 20
31.76666738447797
 30
0.0
  0
VERTEX
  5
7CC
  8
0
 10
288.6636233639233
 20
31.22841648633134
 30
0.0
  0
VERTEX
  5
7CD
  8
0
 10
288.8128636010983
 20
30.70721350983984
 30
0.0
  0
VERTEX
  5
7CE
  8
0
 10
288.9960117474994
 20
30.22054133056956
 30
0.0
  0
VERTEX
  5
7CF
  8
0
 10
289.206924407179
 20
29.78472454668172
 30
0.0
  0
VERTEX
  5
7D0
  8
0
 10
289.4385268703774
 20
29.41438189779597
 30
0.0
  0
SEQEND
  5
939
  8
0
  0
POLYLINE
  5
326
  8
0
 66
     1
 10
0.0
 20
0.0
 30
0.0
  0
VERTEX
  5
7D1
  8
0
 10
289.1432462711484
 20
32.27939018293856
 30
0.0
  0
VERTEX
  5
7D2
  8
0
 10
289.1563216321565
 20
32.00153105816103
 30
0.0
  0
VERTEX
  5
7D3
  8
0
 10
289.1950452363093
 20
31.71349280005046
 30
0.0
  0
VERTEX
  5
7D4
  8
0
 10
289.2579289572098
 20
31.42634455737733
 30
0.0
  0
VERTEX
  5
7D5
  8
0
 10
289.3425562087194
 20
31.15112127611789
 30
0.0
  0
VERTEX
  5
7D6
  8
0
 10
289.4456748130088
 20
30.89839963266697
 30
0.0
  0
VERTEX
  5
7D7
  8
0
 10
289.5633219799288
 20
30.67789157809394
 30
0.0
  0
VERTEX
  5
7D8
  8
0
 10
289.6909765948134
 20
30.49807111330819
 30
0.0
  0
VERTEX
  5
7D9
  8
0
 10
289.8237329623823
 20
30.36584863795506
 30
0.0
  0
SEQEND
  5
93A
  8
0
  0
POLYLINE
  5
327
  8
0
 66
     1
 10
0.0
 20
0.0
 30
0.0
  0
VERTEX
  5
328
  8
0
 10
292.72005486
 20
30.96446276
 30
0.0
  0
VERTEX
  5
329
  8
0
 10
292.64052856
 20
30.99076443
 30
0.0
  0
VERTEX
  5
32A
  8
0
 10
292.56535734
 20
31.02293716
 30
0.0
  0
VERTEX
  5
32B
  8
0
 10
292.49413497
 20
31.06098414
 30
0.0
  0
VERTEX
  5
32C
  8
0
 10
292.42650674
 20
31.10500978
 30
0.0
  0
VERTEX
  5
32D
  8
0
 10
292.36217329
 20
31.15521839
 30
0.0
  0
VERTEX
  5
32E
  8
0
 10
292.30089361
 20
31.21191168
 30
0.0
  0
VERTEX
  5
32F
  8
0
 10
292.27590576
 20
31.23787257
 30
0.0
  0
VERTEX
  5
330
  8
0
 10
292.21863596
 20
31.30455761
 30
0.0
  0
VERTEX
  5
331
  8
0
 10
292.16476382
 20
31.3780951
 30
0.0
  0
VERTEX
  5
332
  8
0
 10
292.11465828
 20
31.45842351
 30
0.0
  0
VERTEX
  5
333
  8
0
 10
292.06870828
 20
31.54543097
 30
0.0
  0
VERTEX
  5
334
  8
0
 10
292.02731292
 20
31.63895134
 30
0.0
  0
VERTEX
  5
335
  8
0
 10
292.00374465
 20
31.70113782
 30
0.0
  0
VERTEX
  5
336
  8
0
 10
291.97113474
 20
31.80321828
 30
0.0
  0
VERTEX
  5
337
  8
0
 10
291.94494927
 20
31.90808304
 30
0.0
  0
VERTEX
  5
338
  8
0
 10
291.92546854
 20
32.01488197
 30
0.0
  0
VERTEX
  5
339
  8
0
 10
291.91289774
 20
32.12269915
 30
0.0
  0
VERTEX
  5
33A
  8
0
 10
291.90735392
 20
32.23058508
 30
0.0
  0
VERTEX
  5
33B
  8
0
 10
291.90712287
 20
32.27489711
 30
0.0
  0
VERTEX
  5
33C
  8
0
 10
291.91155398
 20
32.38128867
 30
0.0
  0
VERTEX
  5
33D
  8
0
 10
291.92292954
 20
32.48477015
 30
0.0
  0
VERTEX
  5
33E
  8
0
 10
291.94107695
 20
32.58520492
 30
0.0
  0
VERTEX
  5
33F
  8
0
 10
291.96584304
 20
32.68251242
 30
0.0
  0
VERTEX
  5
340
  8
0
 10
291.99710388
 20
32.77665509
 30
0.0
  0
VERTEX
  5
341
  8
0
 10
292.03477212
 20
32.86762589
 30
0.0
  0
VERTEX
  5
342
  8
0
 10
292.03956818
 20
32.8780043
 30
0.0
  0
SEQEND
  5
343
  8
0
  0
POLYLINE
  5
344
  8
0
 66
     1
 10
0.0
 20
0.0
 30
0.0
  0
VERTEX
  5
7DA
  8
0
 10
292.80867202
 20
40.88619289
 30
0.0
  0
VERTEX
  5
7DB
  8
0
 10
293.0299912912431
 20
40.74961349220285
 30
0.0
  0
VERTEX
  5
7DC
  8
0
 10
293.2817439431871
 20
40.66710408495084
 30
0.0
  0
VERTEX
  5
7DD
  8
0
 10
293.5542552626245
 20
40.64183545848564
 30
0.0
  0
VERTEX
  5
7DE
  8
0
 10
293.8370527923991
 20
40.67477867194928
 30
0.0
  0
VERTEX
  5
7DF
  8
0
 10
294.1192687820613
 20
40.76466773612602
 30
0.0
  0
VERTEX
  5
7E0
  8
0
 10
294.3900578294217
 20
40.90804826469776
 30
0.0
  0
VERTEX
  5
7E1
  8
0
 10
294.6390136632739
 20
41.09941022437278
 30
0.0
  0
VERTEX
  5
7E2
  8
0
 10
294.856569050561
 20
41.33139968237455
 30
0.0
  0
VERTEX
  5
7E3
  8
0
 10
295.034363459775
 20
41.59510141395354
 30
0.0
  0
VERTEX
  5
7E4
  8
0
 10
295.1655643514937
 20
41.8803815094739
 30
0.0
  0
VERTEX
  5
7E5
  8
0
 10
295.245129749038
 20
42.17627681487668
 30
0.0
  0
VERTEX
  5
7E6
  8
0
 10
295.2700019988083
 20
42.47141623954114
 30
0.0
  0
VERTEX
  5
7E7
  8
0
 10
295.2392252741963
 20
42.75445774091938
 30
0.0
  0
VERTEX
  5
7E8
  8
0
 10
295.1539823074664
 20
43.01452419286971
 30
0.0
  0
VERTEX
  5
7E9
  8
0
 10
295.017548938018
 20
43.24162138751336
 30
0.0
  0
VERTEX
  5
7EA
  8
0
 10
294.8351682237142
 20
43.42702210703768
 30
0.0
  0
SEQEND
  5
93B
  8
0
  0
POLYLINE
  5
345
  8
0
 66
     1
 10
0.0
 20
0.0
 30
0.0
  0
VERTEX
  5
7EB
  8
0
 10
294.8351682237142
 20
43.42702210703768
 30
0.0
  0
VERTEX
  5
7EC
  8
0
 10
294.6138489523516
 20
43.5636015061324
 30
0.0
  0
VERTEX
  5
7ED
  8
0
 10
294.3620962999568
 20
43.64611091440284
 30
0.0
  0
VERTEX
  5
7EE
  8
0
 10
294.0895849798161
 20
43.67137954154808
 30
0.0
  0
VERTEX
  5
7EF
  8
0
 10
293.806787449179
 20
43.63843632839379
 30
0.0
  0
VERTEX
  5
7F0
  8
0
 10
293.5245714585974
 20
43.54854726415186
 30
0.0
  0
VERTEX
  5
7F1
  8
0
 10
293.253782410365
 20
43.4051667351648
 30
0.0
  0
VERTEX
  5
7F2
  8
0
 10
293.0048265757873
 20
43.21380477477526
 30
0.0
  0
VERTEX
  5
7F3
  8
0
 10
292.7872711880102
 20
42.98181531583391
 30
0.0
  0
VERTEX
  5
7F4
  8
0
 10
292.6094767786133
 20
42.71811358318294
 30
0.0
  0
VERTEX
  5
7F5
  8
0
 10
292.4782758870693
 20
42.43283348656371
 30
0.0
  0
VERTEX
  5
7F6
  8
0
 10
292.3987104900826
 20
42.13693818014698
 30
0.0
  0
VERTEX
  5
7F7
  8
0
 10
292.373838241251
 20
41.84179875466459
 30
0.0
  0
VERTEX
  5
7F8
  8
0
 10
292.4046149671523
 20
41.55875725276788
 30
0.0
  0
VERTEX
  5
7F9
  8
0
 10
292.4898579354653
 20
41.29869080068747
 30
0.0
  0
VERTEX
  5
7FA
  8
0
 10
292.6262913067091
 20
41.07159360637053
 30
0.0
  0
VERTEX
  5
7FB
  8
0
 10
292.8086720229181
 20
40.88619288767257
 30
0.0
  0
SEQEND
  5
93C
  8
0
  0
POLYLINE
  5
346
  8
0
 66
     1
 10
0.0
 20
0.0
 30
0.0
  0
VERTEX
  5
7FC
  8
0
 10
292.5247830087753
 20
41.22821901507569
 30
0.0
  0
VERTEX
  5
7FD
  8
0
 10
292.7834974550773
 20
41.18640510382495
 30
0.0
  0
VERTEX
  5
7FE
  8
0
 10
293.0551093729963
 20
41.19910681024281
 30
0.0
  0
VERTEX
  5
7FF
  8
0
 10
293.3298317974052
 20
41.26586645500976
 30
0.0
  0
VERTEX
  5
800
  8
0
 10
293.5977656826068
 20
41.38427849450956
 30
0.0
  0
VERTEX
  5
801
  8
0
 10
293.8492565936598
 20
41.55007619954229
 30
0.0
  0
VERTEX
  5
802
  8
0
 10
294.0752425836687
 20
41.75728539795174
 30
0.0
  0
VERTEX
  5
803
  8
0
 10
294.2675807220128
 20
41.99843974137437
 30
0.0
  0
VERTEX
  5
804
  8
0
 10
294.4193405077513
 20
42.26484973942461
 30
0.0
  0
VERTEX
  5
805
  8
0
 10
294.5250535956727
 20
42.54691586723464
 30
0.0
  0
VERTEX
  5
806
  8
0
 10
294.5809108366318
 20
42.83447446417571
 30
0.0
  0
VERTEX
  5
807
  8
0
 10
294.5848995322406
 20
43.11716396002711
 30
0.0
  0
VERTEX
  5
808
  8
0
 10
294.5368759582283
 20
43.38479823240171
 30
0.0
  0
VERTEX
  5
809
  8
0
 10
294.4385705432438
 20
43.62773364227712
 30
0.0
  0
SEQEND
  5
93D
  8
0
  0
LINE
  5
347
  8
0
 10
297.609418
 20
45.90948567
 30
0.0
 11
290.03442225
 21
44.34387952
 31
0.0
  0
LINE
  5
348
  8
0
 10
289.35393556
 20
44.88661717
 30
0.0
 11
296.92893132
 21
46.45222332
 31
0.0
  0
POLYLINE
  5
349
  8
0
 66
     1
 10
0.0
 20
0.0
 30
0.0
  0
VERTEX
  5
80A
  8
0
 10
298.2329552922857
 20
45.77741001817703
 30
0.0
  0
VERTEX
  5
80B
  8
0
 10
298.098706343806
 20
45.86055321641363
 30
0.0
  0
VERTEX
  5
80C
  8
0
 10
297.9461497862302
 20
45.91133323832467
 30
0.0
  0
VERTEX
  5
80D
  8
0
 10
297.7809937993188
 20
45.92785005746808
 30
0.0
  0
VERTEX
  5
80E
  8
0
 10
297.6094179932884
 20
45.90948566715675
 30
0.0
  0
SEQEND
  5
93E
  8
0
  0
POLYLINE
  5
34A
  8
0
 66
     1
 10
0.0
 20
0.0
 30
0.0
  0
VERTEX
  5
80F
  8
0
 10
298.500593967373
 20
45.17980537809108
 30
0.0
  0
VERTEX
  5
810
  8
0
 10
298.4830130895668
 20
45.35679974126841
 30
0.0
  0
VERTEX
  5
811
  8
0
 10
298.4309641192211
 20
45.51954345144352
 30
0.0
  0
VERTEX
  5
812
  8
0
 10
298.3465006721906
 20
45.66161538133502
 30
0.0
  0
VERTEX
  5
813
  8
0
 10
298.2329552922857
 20
45.77741001817703
 30
0.0
  0
SEQEND
  5
93F
  8
0
  0
LINE
  5
34B
  8
0
 10
298.50059397
 20
34.21337426
 30
0.0
 11
298.50059397
 21
45.17980537
 31
0.0
  0
POLYLINE
  5
34C
  8
0
 66
     1
 10
0.0
 20
0.0
 30
0.0
  0
VERTEX
  5
814
  8
0
 10
295.6042720557605
 20
33.61476013124312
 30
0.0
  0
VERTEX
  5
815
  8
0
 10
295.2930480208342
 20
34.03830129651219
 30
0.0
  0
VERTEX
  5
816
  8
0
 10
294.919576170524
 20
34.34630564440273
 30
0.0
  0
VERTEX
  5
817
  8
0
 10
294.4996592142854
 20
34.5257405910217
 30
0.0
  0
VERTEX
  5
818
  8
0
 10
294.0510650927264
 20
34.56901370784931
 30
0.0
  0
VERTEX
  5
819
  8
0
 10
293.5927751629714
 20
34.47429398006633
 30
0.0
  0
VERTEX
  5
81A
  8
0
 10
293.1441810407483
 20
34.24558928225997
 30
0.0
  0
VERTEX
  5
81B
  8
0
 10
292.7242640832094
 20
33.89257679327949
 30
0.0
  0
VERTEX
  5
81C
  8
0
 10
292.3507922310177
 20
33.43019352589574
 30
0.0
  0
VERTEX
  5
81D
  8
0
 10
292.0395681937084
 20
32.87800429717761
 30
0.0
  0
SEQEND
  5
940
  8
0
  0
LINE
  5
34D
  8
0
 10
289.14324628
 20
43.2458213
 30
0.0
 11
289.14324628
 21
32.27939018
 31
0.0
  0
POLYLINE
  5
34E
  8
0
 66
     1
 10
0.0
 20
0.0
 30
0.0
  0
VERTEX
  5
81E
  8
0
 10
290.0344222432884
 20
44.34387951715676
 30
0.0
  0
VERTEX
  5
81F
  8
0
 10
289.8605624377119
 20
44.29038629026912
 30
0.0
  0
VERTEX
  5
820
  8
0
 10
289.6933839671623
 20
44.2038292953278
 30
0.0
  0
VERTEX
  5
821
  8
0
 10
289.5393114064527
 20
44.087534869078
 30
0.0
  0
VERTEX
  5
822
  8
0
 10
289.4042656776351
 20
43.94597214106329
 30
0.0
  0
VERTEX
  5
823
  8
0
 10
289.2934365122888
 20
43.78458128748506
 30
0.0
  0
VERTEX
  5
824
  8
0
 10
289.2110830130476
 20
43.60956446828381
 30
0.0
  0
VERTEX
  5
825
  8
0
 10
289.1603699786757
 20
43.42764748161288
 30
0.0
  0
VERTEX
  5
826
  8
0
 10
289.1432462826269
 20
43.24582129518951
 30
0.0
  0
SEQEND
  5
941
  8
0
  0
POLYLINE
  5
34F
  8
0
 66
     1
 10
0.0
 20
0.0
 30
0.0
  0
VERTEX
  5
350
  8
0
 10
288.46275959
 20
32.82212783
 30
0.0
  0
VERTEX
  5
351
  8
0
 10
288.46275959
 20
43.78855895
 30
0.0
  0
SEQEND
  5
352
  8
0
  0
POLYLINE
  5
353
  8
0
 66
     1
 10
0.0
 20
0.0
 30
0.0
  0
VERTEX
  5
827
  8
0
 10
289.3539355532885
 20
44.88661716715676
 30
0.0
  0
VERTEX
  5
828
  8
0
 10
289.180075747712
 20
44.83312394026912
 30
0.0
  0
VERTEX
  5
829
  8
0
 10
289.0128972771623
 20
44.7465669453278
 30
0.0
  0
VERTEX
  5
82A
  8
0
 10
288.8588247164527
 20
44.630272519078
 30
0.0
  0
VERTEX
  5
82B
  8
0
 10
288.7237789876352
 20
44.48870979106329
 30
0.0
  0
VERTEX
  5
82C
  8
0
 10
288.6129498222888
 20
44.32731893748506
 30
0.0
  0
VERTEX
  5
82D
  8
0
 10
288.5305963230477
 20
44.15230211828381
 30
0.0
  0
VERTEX
  5
82E
  8
0
 10
288.4798832886758
 20
43.97038513161288
 30
0.0
  0
VERTEX
  5
82F
  8
0
 10
288.4627595926269
 20
43.78855894518951
 30
0.0
  0
SEQEND
  5
942
  8
0
  0
LINE
  5
354
  8
0
 10
298.23295529
 20
45.77741002
 30
0.0
 11
297.55246861
 21
46.32014767
 31
0.0
  0
POLYLINE
  5
355
  8
0
 66
     1
 10
0.0
 20
0.0
 30
0.0
  0
VERTEX
  5
830
  8
0
 10
297.5524686122857
 20
46.32014766817704
 30
0.0
  0
VERTEX
  5
831
  8
0
 10
297.418219663806
 20
46.40329086641363
 30
0.0
  0
VERTEX
  5
832
  8
0
 10
297.2656631062302
 20
46.45407088832468
 30
0.0
  0
VERTEX
  5
833
  8
0
 10
297.1005071193188
 20
46.47058770746808
 30
0.0
  0
VERTEX
  5
834
  8
0
 10
296.9289313132884
 20
46.45222331715676
 30
0.0
  0
SEQEND
  5
943
  8
0
  0
LINE
  5
356
  8
0
  6
STRICHPUNKT2
 62
     1
 10
292.78727118
 20
42.98181532
 30
0.0
 11
294.19051708
 21
41.86262461
 31
0.0
  0
LINE
  5
357
  8
0
  6
STRICHPUNKT2
 62
     1
 10
293.14143344
 20
42.69934515
 30
0.0
 11
293.14143344
 21
41.2143076
 31
0.0
  0
LINE
  5
358
  8
0
  6
STRICHPUNKT2
 62
     1
 10
293.14143344
 20
42.69934515
 30
0.0
 11
293.14143344
 21
43.32683807
 31
0.0
  0
LINE
  5
359
  8
0
  6
STRICHPUNKT2
 62
     1
 10
293.14143344
 20
42.69934515
 30
0.0
 11
292.53620398
 21
42.57425584
 31
0.0
  0
LINE
  5
35A
  8
0
  6
STRICHPUNKT2
 62
     1
 10
293.14143344
 20
42.69934515
 30
0.0
 11
294.58959439
 21
42.99865221
 31
0.0
  0
LINE
  5
35B
  8
0
  6
STRICHPUNKT2
 62
     1
 10
293.82192012
 20
42.1566075
 30
0.0
 11
293.82192012
 21
39.92905118
 31
0.0
  0
LINE
  5
35C
  8
0
  6
STRICHPUNKT2
 62
     1
 10
293.82192012
 20
42.1566075
 30
0.0
 11
293.82192012
 21
44.38416382
 31
0.0
  0
LINE
  5
35D
  8
0
  6
STRICHPUNKT2
 62
     1
 10
293.82192012
 20
42.1566075
 30
0.0
 11
291.64967869
 21
41.70764691
 31
0.0
  0
LINE
  5
35E
  8
0
  6
STRICHPUNKT2
 62
     1
 10
293.82192012
 20
42.1566075
 30
0.0
 11
295.99416155
 21
42.60556809
 31
0.0
  0
POLYLINE
  5
35F
  8
0
 66
     1
 10
0.0
 20
0.0
 30
0.0
  0
VERTEX
  5
360
  8
0
 10
255.50135339
 20
25.32625696
 30
0.0
  0
VERTEX
  5
361
  8
0
 10
255.55591116
 20
25.22541066
 30
0.0
  0
VERTEX
  5
362
  8
0
 10
255.61239805
 20
25.10682576
 30
0.0
  0
VERTEX
  5
363
  8
0
 10
255.6731019
 20
24.96400683
 30
0.0
  0
VERTEX
  5
364
  8
0
 10
255.73710029
 20
24.79924804
 30
0.0
  0
VERTEX
  5
365
  8
0
 10
255.83417899
 20
24.53309323
 30
0.0
  0
VERTEX
  5
366
  8
0
 10
255.85157752
 20
24.48376335
 30
0.0
  0
SEQEND
  5
367
  8
0
  0
POLYLINE
  5
368
  8
0
 66
     1
 10
0.0
 20
0.0
 30
0.0
  0
VERTEX
  5
369
  8
0
 10
256.01554156
 20
24.02269333
 30
0.0
  0
VERTEX
  5
36A
  8
0
 10
256.10588319
 20
23.76222349
 30
0.0
  0
VERTEX
  5
36B
  8
0
 10
256.1205832
 20
23.71679018
 30
0.0
  0
VERTEX
  5
36C
  8
0
 10
256.14293587
 20
23.64308608
 30
0.0
  0
VERTEX
  5
36D
  8
0
 10
256.15803382
 20
23.58699699
 30
0.0
  0
VERTEX
  5
36E
  8
0
 10
256.16853346
 20
23.54111176
 30
0.0
  0
VERTEX
  5
36F
  8
0
 10
256.17559621
 20
23.50231653
 30
0.0
  0
VERTEX
  5
370
  8
0
 10
256.18195474
 20
23.43754735
 30
0.0
  0
VERTEX
  5
371
  8
0
 10
256.18184007
 20
23.41271542
 30
0.0
  0
SEQEND
  5
372
  8
0
  0
POLYLINE
  5
373
  8
0
 66
     1
 10
0.0
 20
0.0
 30
0.0
  0
VERTEX
  5
835
  8
0
 10
258.3976752811484
 20
25.92487108293856
 30
0.0
  0
VERTEX
  5
836
  8
0
 10
258.4107506421565
 20
25.64701195816103
 30
0.0
  0
VERTEX
  5
837
  8
0
 10
258.4494742463094
 20
25.35897370005046
 30
0.0
  0
VERTEX
  5
838
  8
0
 10
258.5123579672098
 20
25.07182545737733
 30
0.0
  0
VERTEX
  5
839
  8
0
 10
258.5969852187194
 20
24.79660217611789
 30
0.0
  0
VERTEX
  5
83A
  8
0
 10
258.7001038230088
 20
24.54388053266696
 30
0.0
  0
VERTEX
  5
83B
  8
0
 10
258.8177509899288
 20
24.32337247809394
 30
0.0
  0
VERTEX
  5
83C
  8
0
 10
258.9454056048134
 20
24.14355201330819
 30
0.0
  0
VERTEX
  5
83D
  8
0
 10
259.0781619723824
 20
24.01132953795506
 30
0.0
  0
SEQEND
  5
944
  8
0
  0
POLYLINE
  5
374
  8
0
 66
     1
 10
0.0
 20
0.0
 30
0.0
  0
VERTEX
  5
83E
  8
0
 10
249.0403275811484
 20
23.99088700293856
 30
0.0
  0
VERTEX
  5
83F
  8
0
 10
249.0534029421565
 20
23.71302787816103
 30
0.0
  0
VERTEX
  5
840
  8
0
 10
249.0921265463094
 20
23.42498962005046
 30
0.0
  0
VERTEX
  5
841
  8
0
 10
249.1550102672098
 20
23.13784137737733
 30
0.0
  0
VERTEX
  5
842
  8
0
 10
249.2396375187193
 20
22.8626180961179
 30
0.0
  0
VERTEX
  5
843
  8
0
 10
249.3427561230088
 20
22.60989645266697
 30
0.0
  0
VERTEX
  5
844
  8
0
 10
249.4604032899288
 20
22.38938839809394
 30
0.0
  0
VERTEX
  5
845
  8
0
 10
249.5880579048135
 20
22.20956793330819
 30
0.0
  0
VERTEX
  5
846
  8
0
 10
249.7208142723824
 20
22.07734545795506
 30
0.0
  0
SEQEND
  5
945
  8
0
  0
POLYLINE
  5
375
  8
0
 66
     1
 10
0.0
 20
0.0
 30
0.0
  0
VERTEX
  5
376
  8
0
 10
252.61713617
 20
22.67595958
 30
0.0
  0
VERTEX
  5
377
  8
0
 10
252.53760987
 20
22.70226125
 30
0.0
  0
VERTEX
  5
378
  8
0
 10
252.46243865
 20
22.73443398
 30
0.0
  0
VERTEX
  5
379
  8
0
 10
252.39121629
 20
22.77248096
 30
0.0
  0
VERTEX
  5
37A
  8
0
 10
252.32358806
 20
22.8165066
 30
0.0
  0
VERTEX
  5
37B
  8
0
 10
252.25925461
 20
22.86671521
 30
0.0
  0
VERTEX
  5
37C
  8
0
 10
252.19797492
 20
22.9234085
 30
0.0
  0
VERTEX
  5
37D
  8
0
 10
252.17298708
 20
22.94936939
 30
0.0
  0
VERTEX
  5
37E
  8
0
 10
252.11571727
 20
23.01605443
 30
0.0
  0
VERTEX
  5
37F
  8
0
 10
252.06184513
 20
23.08959192
 30
0.0
  0
VERTEX
  5
380
  8
0
 10
252.0117396
 20
23.16992033
 30
0.0
  0
VERTEX
  5
381
  8
0
 10
251.96578959
 20
23.25692779
 30
0.0
  0
VERTEX
  5
382
  8
0
 10
251.92439423
 20
23.35044816
 30
0.0
  0
VERTEX
  5
383
  8
0
 10
251.90082596
 20
23.41263464
 30
0.0
  0
VERTEX
  5
384
  8
0
 10
251.86821605
 20
23.5147151
 30
0.0
  0
VERTEX
  5
385
  8
0
 10
251.84203059
 20
23.61957986
 30
0.0
  0
VERTEX
  5
386
  8
0
 10
251.82254986
 20
23.72637879
 30
0.0
  0
VERTEX
  5
387
  8
0
 10
251.80997906
 20
23.83419597
 30
0.0
  0
VERTEX
  5
388
  8
0
 10
251.80443523
 20
23.9420819
 30
0.0
  0
VERTEX
  5
389
  8
0
 10
251.80420418
 20
23.98639393
 30
0.0
  0
VERTEX
  5
38A
  8
0
 10
251.80863529
 20
24.09278549
 30
0.0
  0
VERTEX
  5
38B
  8
0
 10
251.82001086
 20
24.19626697
 30
0.0
  0
VERTEX
  5
38C
  8
0
 10
251.83815826
 20
24.29670174
 30
0.0
  0
VERTEX
  5
38D
  8
0
 10
251.86292435
 20
24.39400924
 30
0.0
  0
VERTEX
  5
38E
  8
0
 10
251.8941852
 20
24.48815191
 30
0.0
  0
VERTEX
  5
38F
  8
0
 10
251.93185343
 20
24.57912271
 30
0.0
  0
VERTEX
  5
390
  8
0
 10
251.93664949
 20
24.58950111
 30
0.0
  0
SEQEND
  5
391
  8
0
  0
POLYLINE
  5
392
  8
0
 66
     1
 10
0.0
 20
0.0
 30
0.0
  0
VERTEX
  5
847
  8
0
 10
248.3598408967585
 20
24.53362465958746
 30
0.0
  0
VERTEX
  5
848
  8
0
 10
248.3859916169429
 20
23.97790641032196
 30
0.0
  0
VERTEX
  5
849
  8
0
 10
248.4634388233159
 20
23.40182989423666
 30
0.0
  0
VERTEX
  5
84A
  8
0
 10
248.5892062631572
 20
22.82753340886734
 30
0.0
  0
VERTEX
  5
84B
  8
0
 10
248.7584607642652
 20
22.27708684616733
 30
0.0
  0
VERTEX
  5
84C
  8
0
 10
248.9646979710551
 20
21.77164355893325
 30
0.0
  0
VERTEX
  5
84D
  8
0
 10
249.1999923032967
 20
21.33062744931667
 30
0.0
  0
VERTEX
  5
84E
  8
0
 10
249.4553015317198
 20
20.97098651915438
 30
0.0
  0
VERTEX
  5
84F
  8
0
 10
249.7208142658152
 20
20.70654156775982
 30
0.0
  0
SEQEND
  5
946
  8
0
  0
POLYLINE
  5
393
  8
0
 66
     1
 10
0.0
 20
0.0
 30
0.0
  0
VERTEX
  5
850
  8
0
 10
252.70575334
 20
32.59768971
 30
0.0
  0
VERTEX
  5
851
  8
0
 10
252.927072611243
 20
32.46111031220286
 30
0.0
  0
VERTEX
  5
852
  8
0
 10
253.178825263187
 20
32.37860090495084
 30
0.0
  0
VERTEX
  5
853
  8
0
 10
253.4513365826244
 20
32.35333227848565
 30
0.0
  0
VERTEX
  5
854
  8
0
 10
253.7341341123991
 20
32.38627549194928
 30
0.0
  0
VERTEX
  5
855
  8
0
 10
254.0163501020613
 20
32.47616455612602
 30
0.0
  0
VERTEX
  5
856
  8
0
 10
254.2871391494216
 20
32.61954508469776
 30
0.0
  0
VERTEX
  5
857
  8
0
 10
254.5360949832739
 20
32.81090704437278
 30
0.0
  0
VERTEX
  5
858
  8
0
 10
254.753650370561
 20
33.04289650237455
 30
0.0
  0
VERTEX
  5
859
  8
0
 10
254.931444779775
 20
33.30659823395354
 30
0.0
  0
VERTEX
  5
85A
  8
0
 10
255.0626456714937
 20
33.5918783294739
 30
0.0
  0
VERTEX
  5
85B
  8
0
 10
255.142211069038
 20
33.88777363487668
 30
0.0
  0
VERTEX
  5
85C
  8
0
 10
255.1670833188082
 20
34.18291305954114
 30
0.0
  0
VERTEX
  5
85D
  8
0
 10
255.1363065941962
 20
34.46595456091939
 30
0.0
  0
VERTEX
  5
85E
  8
0
 10
255.0510636274664
 20
34.72602101286971
 30
0.0
  0
VERTEX
  5
85F
  8
0
 10
254.914630258018
 20
34.95311820751336
 30
0.0
  0
VERTEX
  5
860
  8
0
 10
254.7322495437142
 20
35.13851892703768
 30
0.0
  0
SEQEND
  5
947
  8
0
  0
POLYLINE
  5
394
  8
0
 66
     1
 10
0.0
 20
0.0
 30
0.0
  0
VERTEX
  5
861
  8
0
 10
254.7322495437142
 20
35.13851892703768
 30
0.0
  0
VERTEX
  5
862
  8
0
 10
254.5109302723516
 20
35.2750983261324
 30
0.0
  0
VERTEX
  5
863
  8
0
 10
254.2591776199568
 20
35.35760773440284
 30
0.0
  0
VERTEX
  5
864
  8
0
 10
253.9866662998161
 20
35.38287636154809
 30
0.0
  0
VERTEX
  5
865
  8
0
 10
253.703868769179
 20
35.34993314839379
 30
0.0
  0
VERTEX
  5
866
  8
0
 10
253.4216527785974
 20
35.26004408415186
 30
0.0
  0
VERTEX
  5
867
  8
0
 10
253.150863730365
 20
35.11666355516479
 30
0.0
  0
VERTEX
  5
868
  8
0
 10
252.9019078957873
 20
34.92530159477526
 30
0.0
  0
VERTEX
  5
869
  8
0
 10
252.6843525080101
 20
34.69331213583391
 30
0.0
  0
VERTEX
  5
86A
  8
0
 10
252.5065580986133
 20
34.42961040318294
 30
0.0
  0
VERTEX
  5
86B
  8
0
 10
252.3753572070694
 20
34.14433030656371
 30
0.0
  0
VERTEX
  5
86C
  8
0
 10
252.2957918100826
 20
33.84843500014698
 30
0.0
  0
VERTEX
  5
86D
  8
0
 10
252.270919561251
 20
33.5532955746646
 30
0.0
  0
VERTEX
  5
86E
  8
0
 10
252.3016962871523
 20
33.27025407276788
 30
0.0
  0
VERTEX
  5
86F
  8
0
 10
252.3869392554653
 20
33.01018762068747
 30
0.0
  0
VERTEX
  5
870
  8
0
 10
252.5233726267091
 20
32.78309042637053
 30
0.0
  0
VERTEX
  5
871
  8
0
 10
252.7057533429181
 20
32.59768970767257
 30
0.0
  0
SEQEND
  5
948
  8
0
  0
POLYLINE
  5
395
  8
0
 66
     1
 10
0.0
 20
0.0
 30
0.0
  0
VERTEX
  5
872
  8
0
 10
252.4218643187752
 20
32.9397158350757
 30
0.0
  0
VERTEX
  5
873
  8
0
 10
252.6805787650772
 20
32.89790192382495
 30
0.0
  0
VERTEX
  5
874
  8
0
 10
252.9521906829963
 20
32.91060363024281
 30
0.0
  0
VERTEX
  5
875
  8
0
 10
253.2269131074052
 20
32.97736327500976
 30
0.0
  0
VERTEX
  5
876
  8
0
 10
253.4948469926068
 20
33.09577531450956
 30
0.0
  0
VERTEX
  5
877
  8
0
 10
253.7463379036597
 20
33.26157301954229
 30
0.0
  0
VERTEX
  5
878
  8
0
 10
253.9723238936687
 20
33.46878221795174
 30
0.0
  0
VERTEX
  5
879
  8
0
 10
254.1646620320128
 20
33.70993656137437
 30
0.0
  0
VERTEX
  5
87A
  8
0
 10
254.3164218177512
 20
33.97634655942461
 30
0.0
  0
VERTEX
  5
87B
  8
0
 10
254.4221349056727
 20
34.25841268723464
 30
0.0
  0
VERTEX
  5
87C
  8
0
 10
254.4779921466318
 20
34.54597128417571
 30
0.0
  0
VERTEX
  5
87D
  8
0
 10
254.4819808422406
 20
34.82866078002711
 30
0.0
  0
VERTEX
  5
87E
  8
0
 10
254.4339572682283
 20
35.09629505240171
 30
0.0
  0
VERTEX
  5
87F
  8
0
 10
254.3356518532439
 20
35.33923046227712
 30
0.0
  0
SEQEND
  5
949
  8
0
  0
LINE
  5
396
  8
0
 10
257.50649931
 20
37.62098249
 30
0.0
 11
249.93150356
 21
36.05537634
 31
0.0
  0
LINE
  5
397
  8
0
 10
249.25101688
 20
36.59811399
 30
0.0
 11
256.82601263
 21
38.16372014
 31
0.0
  0
POLYLINE
  5
398
  8
0
 66
     1
 10
0.0
 20
0.0
 30
0.0
  0
VERTEX
  5
880
  8
0
 10
258.1300366022857
 20
37.48890683817703
 30
0.0
  0
VERTEX
  5
881
  8
0
 10
257.995787653806
 20
37.57205003641363
 30
0.0
  0
VERTEX
  5
882
  8
0
 10
257.8432310962302
 20
37.62283005832467
 30
0.0
  0
VERTEX
  5
883
  8
0
 10
257.6780751093188
 20
37.63934687746808
 30
0.0
  0
VERTEX
  5
884
  8
0
 10
257.5064993032884
 20
37.62098248715675
 30
0.0
  0
SEQEND
  5
94A
  8
0
  0
POLYLINE
  5
399
  8
0
 66
     1
 10
0.0
 20
0.0
 30
0.0
  0
VERTEX
  5
885
  8
0
 10
258.397675277373
 20
36.89130219809108
 30
0.0
  0
VERTEX
  5
886
  8
0
 10
258.3800943995668
 20
37.06829656126841
 30
0.0
  0
VERTEX
  5
887
  8
0
 10
258.3280454292211
 20
37.23104027144353
 30
0.0
  0
VERTEX
  5
888
  8
0
 10
258.2435819821906
 20
37.37311220133502
 30
0.0
  0
VERTEX
  5
889
  8
0
 10
258.1300366022857
 20
37.48890683817703
 30
0.0
  0
SEQEND
  5
94B
  8
0
  0
LINE
  5
39A
  8
0
 10
258.39767528
 20
25.92487108
 30
0.0
 11
258.39767528
 21
36.89130219
 31
0.0
  0
POLYLINE
  5
39B
  8
0
 66
     1
 10
0.0
 20
0.0
 30
0.0
  0
VERTEX
  5
88A
  8
0
 10
255.5013533757605
 20
25.32625695124312
 30
0.0
  0
VERTEX
  5
88B
  8
0
 10
255.1901293408342
 20
25.7497981165122
 30
0.0
  0
VERTEX
  5
88C
  8
0
 10
254.8166574905239
 20
26.05780246440273
 30
0.0
  0
VERTEX
  5
88D
  8
0
 10
254.3967405342854
 20
26.2372374110217
 30
0.0
  0
VERTEX
  5
88E
  8
0
 10
253.9481464127265
 20
26.28051052784931
 30
0.0
  0
VERTEX
  5
88F
  8
0
 10
253.4898564829714
 20
26.18579080006633
 30
0.0
  0
VERTEX
  5
890
  8
0
 10
253.0412623607483
 20
25.95708610225997
 30
0.0
  0
VERTEX
  5
891
  8
0
 10
252.6213454032094
 20
25.60407361327949
 30
0.0
  0
VERTEX
  5
892
  8
0
 10
252.2478735510176
 20
25.14169034589574
 30
0.0
  0
VERTEX
  5
893
  8
0
 10
251.9366495137084
 20
24.5895011171776
 30
0.0
  0
SEQEND
  5
94C
  8
0
  0
LINE
  5
39C
  8
0
 10
249.04032759
 20
34.95731812
 30
0.0
 11
249.04032759
 21
23.990887
 31
0.0
  0
POLYLINE
  5
39D
  8
0
 66
     1
 10
0.0
 20
0.0
 30
0.0
  0
VERTEX
  5
894
  8
0
 10
249.9315035532884
 20
36.05537633715675
 30
0.0
  0
VERTEX
  5
895
  8
0
 10
249.7576437477119
 20
36.00188311026911
 30
0.0
  0
VERTEX
  5
896
  8
0
 10
249.5904652771623
 20
35.91532611532779
 30
0.0
  0
VERTEX
  5
897
  8
0
 10
249.4363927164527
 20
35.79903168907799
 30
0.0
  0
VERTEX
  5
898
  8
0
 10
249.3013469876352
 20
35.65746896106328
 30
0.0
  0
VERTEX
  5
899
  8
0
 10
249.1905178222889
 20
35.49607810748505
 30
0.0
  0
VERTEX
  5
89A
  8
0
 10
249.1081643230477
 20
35.3210612882838
 30
0.0
  0
VERTEX
  5
89B
  8
0
 10
249.0574512886757
 20
35.13914430161287
 30
0.0
  0
VERTEX
  5
89C
  8
0
 10
249.0403275926269
 20
34.95731811518951
 30
0.0
  0
SEQEND
  5
94D
  8
0
  0
POLYLINE
  5
39E
  8
0
 66
     1
 10
0.0
 20
0.0
 30
0.0
  0
VERTEX
  5
39F
  8
0
 10
248.35984091
 20
24.53362465
 30
0.0
  0
VERTEX
  5
3A0
  8
0
 10
248.35984091
 20
35.50005577
 30
0.0
  0
SEQEND
  5
3A1
  8
0
  0
POLYLINE
  5
3A2
  8
0
 66
     1
 10
0.0
 20
0.0
 30
0.0
  0
VERTEX
  5
89D
  8
0
 10
249.2510168732884
 20
36.59811398715676
 30
0.0
  0
VERTEX
  5
89E
  8
0
 10
249.0771570677119
 20
36.54462076026912
 30
0.0
  0
VERTEX
  5
89F
  8
0
 10
248.9099785971623
 20
36.4580637653278
 30
0.0
  0
VERTEX
  5
8A0
  8
0
 10
248.7559060364527
 20
36.341769339078
 30
0.0
  0
VERTEX
  5
8A1
  8
0
 10
248.6208603076352
 20
36.20020661106329
 30
0.0
  0
VERTEX
  5
8A2
  8
0
 10
248.5100311422889
 20
36.03881575748506
 30
0.0
  0
VERTEX
  5
8A3
  8
0
 10
248.4276776430477
 20
35.86379893828381
 30
0.0
  0
VERTEX
  5
8A4
  8
0
 10
248.3769646086757
 20
35.68188195161288
 30
0.0
  0
VERTEX
  5
8A5
  8
0
 10
248.3598409126269
 20
35.50005576518952
 30
0.0
  0
SEQEND
  5
94E
  8
0
  0
LINE
  5
3A3
  8
0
 10
258.13003661
 20
37.48890684
 30
0.0
 11
257.44954992
 21
38.03164449
 31
0.0
  0
POLYLINE
  5
3A4
  8
0
 66
     1
 10
0.0
 20
0.0
 30
0.0
  0
VERTEX
  5
8A6
  8
0
 10
257.4495499222857
 20
38.03164448817703
 30
0.0
  0
VERTEX
  5
8A7
  8
0
 10
257.315300973806
 20
38.11478768641363
 30
0.0
  0
VERTEX
  5
8A8
  8
0
 10
257.1627444162302
 20
38.16556770832467
 30
0.0
  0
VERTEX
  5
8A9
  8
0
 10
256.9975884293188
 20
38.18208452746808
 30
0.0
  0
VERTEX
  5
8AA
  8
0
 10
256.8260126232884
 20
38.16372013715675
 30
0.0
  0
SEQEND
  5
94F
  8
0
  0
LINE
  5
3A5
  8
0
  6
STRICHPUNKT2
 62
     1
 10
252.6843525
 20
34.69331214
 30
0.0
 11
254.08759839
 21
33.57412143
 31
0.0
  0
LINE
  5
3A6
  8
0
  6
STRICHPUNKT2
 62
     1
 10
253.03851475
 20
34.41084197
 30
0.0
 11
253.03851475
 21
32.92580442
 31
0.0
  0
LINE
  5
3A7
  8
0
  6
STRICHPUNKT2
 62
     1
 10
253.03851475
 20
34.41084197
 30
0.0
 11
253.03851475
 21
35.03833489
 31
0.0
  0
LINE
  5
3A8
  8
0
  6
STRICHPUNKT2
 62
     1
 10
253.03851475
 20
34.41084197
 30
0.0
 11
252.43328529
 21
34.28575266
 31
0.0
  0
LINE
  5
3A9
  8
0
  6
STRICHPUNKT2
 62
     1
 10
253.03851475
 20
34.41084197
 30
0.0
 11
254.48667571
 21
34.71014903
 31
0.0
  0
LINE
  5
3AA
  8
0
  6
STRICHPUNKT2
 62
     1
 10
253.71900144
 20
33.86810432
 30
0.0
 11
253.71900144
 21
31.640548
 31
0.0
  0
LINE
  5
3AB
  8
0
  6
STRICHPUNKT2
 62
     1
 10
253.71900144
 20
33.86810432
 30
0.0
 11
253.71900144
 21
36.09566064
 31
0.0
  0
LINE
  5
3AC
  8
0
  6
STRICHPUNKT2
 62
     1
 10
253.71900144
 20
33.86810432
 30
0.0
 11
251.54676001
 21
33.41914373
 31
0.0
  0
LINE
  5
3AD
  8
0
  6
STRICHPUNKT2
 62
     1
 10
253.71900144
 20
33.86810432
 30
0.0
 11
255.89124287
 21
34.31706491
 31
0.0
  0
POLYLINE
  5
3AE
  8
0
 66
     1
 10
0.0
 20
0.0
 30
0.0
  0
VERTEX
  5
3AF
  8
0
 10
355.96224462
 20
175.3978967
 30
0.0
  0
VERTEX
  5
3B0
  8
0
 10
355.71450921
 20
175.40103553
 30
0.0
  0
VERTEX
  5
3B1
  8
0
 10
355.41055064
 20
175.41087023
 30
0.0
  0
VERTEX
  5
3B2
  8
0
 10
355.16762197
 20
175.42073363
 30
0.0
  0
SEQEND
  5
3B3
  8
0
  0
POLYLINE
  5
3B4
  8
0
 66
     1
 10
0.0
 20
0.0
 30
0.0
  0
VERTEX
  5
3B5
  8
0
 10
356.66762197
 20
175.43680335
 30
0.0
  0
VERTEX
  5
3B6
  8
0
 10
356.49995166
 20
175.41902104
 30
0.0
  0
VERTEX
  5
3B7
  8
0
 10
356.31784207
 20
175.40651308
 30
0.0
  0
VERTEX
  5
3B8
  8
0
 10
356.11774727
 20
175.3994898
 30
0.0
  0
VERTEX
  5
3B9
  8
0
 10
355.96224462
 20
175.3978967
 30
0.0
  0
SEQEND
  5
3BA
  8
0
  0
POLYLINE
  5
3BB
  8
0
 66
     1
 10
0.0
 20
0.0
 30
0.0
  0
VERTEX
  5
3BC
  8
0
 10
356.66762197
 20
176.99957576
 30
0.0
  0
VERTEX
  5
3BD
  8
0
 10
356.56712679
 20
176.9686522
 30
0.0
  0
VERTEX
  5
3BE
  8
0
 10
356.45890569
 20
176.94298649
 30
0.0
  0
VERTEX
  5
3BF
  8
0
 10
356.43360716
 20
176.93799304
 30
0.0
  0
VERTEX
  5
3C0
  8
0
 10
356.31799923
 20
176.9194325
 30
0.0
  0
VERTEX
  5
3C1
  8
0
 10
356.19419464
 20
176.90646225
 30
0.0
  0
VERTEX
  5
3C2
  8
0
 10
356.06053343
 20
176.89928198
 30
0.0
  0
VERTEX
  5
3C3
  8
0
 10
355.96213014
 20
176.8978967
 30
0.0
  0
VERTEX
  5
3C4
  8
0
 10
355.80567028
 20
176.90116413
 30
0.0
  0
VERTEX
  5
3C5
  8
0
 10
355.62861468
 20
176.91147112
 30
0.0
  0
VERTEX
  5
3C6
  8
0
 10
355.41226335
 20
176.93060779
 30
0.0
  0
VERTEX
  5
3C7
  8
0
 10
355.16762197
 20
176.95643775
 30
0.0
  0
SEQEND
  5
3C8
  8
0
  0
POLYLINE
  5
3C9
  8
0
 66
     1
 10
0.0
 20
0.0
 30
0.0
  0
VERTEX
  5
3CA
  8
0
 10
355.96213014
 20
178.8978967
 30
0.0
  0
VERTEX
  5
3CB
  8
0
 10
356.11727369
 20
178.89425364
 30
0.0
  0
VERTEX
  5
3CC
  8
0
 10
356.25621362
 20
178.88365996
 30
0.0
  0
VERTEX
  5
3CD
  8
0
 10
356.38309506
 20
178.86673931
 30
0.0
  0
VERTEX
  5
3CE
  8
0
 10
356.43360716
 20
178.85780037
 30
0.0
  0
VERTEX
  5
3CF
  8
0
 10
356.5427795
 20
178.83355913
 30
0.0
  0
VERTEX
  5
3D0
  8
0
 10
356.64368643
 20
178.80426819
 30
0.0
  0
VERTEX
  5
3D1
  8
0
 10
356.66762197
 20
178.79621765
 30
0.0
  0
SEQEND
  5
3D2
  8
0
  0
POLYLINE
  5
3D3
  8
0
 66
     1
 10
0.0
 20
0.0
 30
0.0
  0
VERTEX
  5
8AB
  8
0
 10
356.6676219771333
 20
176.9995757623309
 30
0.0
  0
VERTEX
  5
8AC
  8
0
 10
356.9108756148654
 20
177.1065333783271
 30
0.0
  0
VERTEX
  5
8AD
  8
0
 10
357.1186591556261
 20
177.2459575434569
 30
0.0
  0
VERTEX
  5
8AE
  8
0
 10
357.2824480515238
 20
177.4121282282679
 30
0.0
  0
VERTEX
  5
8AF
  8
0
 10
357.3955226832755
 20
177.5982280979717
 30
0.0
  0
VERTEX
  5
8B0
  8
0
 10
357.4532440399656
 20
177.7966222010891
 30
0.0
  0
VERTEX
  5
8B1
  8
0
 10
357.4532440395616
 20
177.9991712017167
 30
0.0
  0
VERTEX
  5
8B2
  8
0
 10
357.3955226820803
 20
178.197565304719
 30
0.0
  0
VERTEX
  5
8B3
  8
0
 10
357.2824480495863
 20
178.3836651741974
 30
0.0
  0
VERTEX
  5
8B4
  8
0
 10
357.1186591530257
 20
178.5498358586817
 30
0.0
  0
VERTEX
  5
8B5
  8
0
 10
356.9108756117089
 20
178.6892600233972
 30
0.0
  0
VERTEX
  5
8B6
  8
0
 10
356.6676219735502
 20
178.7962176389082
 30
0.0
  0
SEQEND
  5
950
  8
0
  0
POLYLINE
  5
3D4
  8
0
 66
     1
 10
0.0
 20
0.0
 30
0.0
  0
VERTEX
  5
8B7
  8
0
 10
356.6676219598832
 20
175.436803341777
 30
0.0
  0
VERTEX
  5
8B8
  8
0
 10
357.3439565356426
 20
175.5723761412517
 30
0.0
  0
VERTEX
  5
8B9
  8
0
 10
357.968988228653
 20
175.799888568155
 30
0.0
  0
VERTEX
  5
8BA
  8
0
 10
358.5180063646656
 20
176.1103459018484
 30
0.0
  0
VERTEX
  5
8BB
  8
0
 10
358.9693054710337
 20
176.4914741886641
 30
0.0
  0
VERTEX
  5
8BC
  8
0
 10
359.3050434041816
 20
176.9282054935708
 30
0.0
  0
VERTEX
  5
8BD
  8
0
 10
359.5119467400702
 20
177.4032736121018
 30
0.0
  0
VERTEX
  5
8BE
  8
0
 10
359.58183554
 20
177.8978966910255
 30
0.0
  0
VERTEX
  5
8BF
  8
0
 10
359.5119467450924
 20
178.3925197703041
 30
0.0
  0
VERTEX
  5
8C0
  8
0
 10
359.3050434140274
 20
178.8675878898854
 30
0.0
  0
VERTEX
  5
8C1
  8
0
 10
358.9693054853138
 20
179.3043191964966
 30
0.0
  0
VERTEX
  5
8C2
  8
0
 10
358.5180063828154
 20
179.6854474856033
 30
0.0
  0
VERTEX
  5
8C3
  8
0
 10
357.9689882499551
 20
179.995904822084
 30
0.0
  0
VERTEX
  5
8C4
  8
0
 10
357.3439565592547
 20
180.2234172521605
 30
0.0
  0
VERTEX
  5
8C5
  8
0
 10
356.6676219848719
 20
180.3589900550687
 30
0.0
  0
SEQEND
  5
951
  8
0
  0
POLYLINE
  5
3D5
  8
0
 66
     1
 10
0.0
 20
0.0
 30
0.0
  0
VERTEX
  5
3D6
  8
0
 10
355.96224462
 20
180.3978967
 30
0.0
  0
VERTEX
  5
3D7
  8
0
 10
356.08598302
 20
180.39686638
 30
0.0
  0
VERTEX
  5
3D8
  8
0
 10
356.31327704
 20
180.38951361
 30
0.0
  0
VERTEX
  5
3D9
  8
0
 10
356.51195565
 20
180.37571241
 30
0.0
  0
VERTEX
  5
3DA
  8
0
 10
356.66762197
 20
180.35899006
 30
0.0
  0
SEQEND
  5
3DB
  8
0
  0
POLYLINE
  5
3DC
  8
0
 66
     1
 10
0.0
 20
0.0
 30
0.0
  0
VERTEX
  5
3DD
  8
0
 10
355.16762197
 20
180.37505977
 30
0.0
  0
VERTEX
  5
3DE
  8
0
 10
355.26725562
 20
180.37914558
 30
0.0
  0
VERTEX
  5
3DF
  8
0
 10
355.35440514
 20
180.38269783
 30
0.0
  0
VERTEX
  5
3E0
  8
0
 10
355.4305116
 20
180.38569567
 30
0.0
  0
VERTEX
  5
3E1
  8
0
 10
355.56313673
 20
180.39046113
 30
0.0
  0
VERTEX
  5
3E2
  8
0
 10
355.66269761
 20
180.39345531
 30
0.0
  0
VERTEX
  5
3E3
  8
0
 10
355.96224462
 20
180.3978967
 30
0.0
  0
SEQEND
  5
3E4
  8
0
  0
POLYLINE
  5
3E5
  8
0
 66
     1
 10
0.0
 20
0.0
 30
0.0
  0
VERTEX
  5
3E6
  8
0
 10
355.16762197
 20
178.83935566
 30
0.0
  0
VERTEX
  5
3E7
  8
0
 10
355.41226335
 20
178.86518562
 30
0.0
  0
VERTEX
  5
3E8
  8
0
 10
355.55951256
 20
178.87884172
 30
0.0
  0
VERTEX
  5
3E9
  8
0
 10
355.67426885
 20
178.88753621
 30
0.0
  0
VERTEX
  5
3EA
  8
0
 10
355.77435815
 20
178.8932581
 30
0.0
  0
VERTEX
  5
3EB
  8
0
 10
355.8684197
 20
178.8967029
 30
0.0
  0
VERTEX
  5
3EC
  8
0
 10
355.96213014
 20
178.8978967
 30
0.0
  0
SEQEND
  5
3ED
  8
0
  0
POLYLINE
  5
3EE
  8
0
 66
     1
 10
0.0
 20
0.0
 30
0.0
  0
VERTEX
  5
3EF
  8
0
 10
355.96224462
 20
130.3978967
 30
0.0
  0
VERTEX
  5
3F0
  8
0
 10
355.71450921
 20
130.40103553
 30
0.0
  0
VERTEX
  5
3F1
  8
0
 10
355.41055064
 20
130.41087023
 30
0.0
  0
VERTEX
  5
3F2
  8
0
 10
355.16762197
 20
130.42073363
 30
0.0
  0
SEQEND
  5
3F3
  8
0
  0
POLYLINE
  5
3F4
  8
0
 66
     1
 10
0.0
 20
0.0
 30
0.0
  0
VERTEX
  5
3F5
  8
0
 10
356.66762197
 20
130.43680335
 30
0.0
  0
VERTEX
  5
3F6
  8
0
 10
356.49995166
 20
130.41902104
 30
0.0
  0
VERTEX
  5
3F7
  8
0
 10
356.31784207
 20
130.40651308
 30
0.0
  0
VERTEX
  5
3F8
  8
0
 10
356.11774727
 20
130.3994898
 30
0.0
  0
VERTEX
  5
3F9
  8
0
 10
355.96224462
 20
130.3978967
 30
0.0
  0
SEQEND
  5
3FA
  8
0
  0
POLYLINE
  5
3FB
  8
0
 66
     1
 10
0.0
 20
0.0
 30
0.0
  0
VERTEX
  5
3FC
  8
0
 10
356.66762197
 20
131.99957576
 30
0.0
  0
VERTEX
  5
3FD
  8
0
 10
356.56712679
 20
131.9686522
 30
0.0
  0
VERTEX
  5
3FE
  8
0
 10
356.45890569
 20
131.94298649
 30
0.0
  0
VERTEX
  5
3FF
  8
0
 10
356.43360716
 20
131.93799304
 30
0.0
  0
VERTEX
  5
400
  8
0
 10
356.31799923
 20
131.9194325
 30
0.0
  0
VERTEX
  5
401
  8
0
 10
356.19419464
 20
131.90646225
 30
0.0
  0
VERTEX
  5
402
  8
0
 10
356.06053343
 20
131.89928198
 30
0.0
  0
VERTEX
  5
403
  8
0
 10
355.96213014
 20
131.8978967
 30
0.0
  0
VERTEX
  5
404
  8
0
 10
355.80567028
 20
131.90116413
 30
0.0
  0
VERTEX
  5
405
  8
0
 10
355.62861468
 20
131.91147112
 30
0.0
  0
VERTEX
  5
406
  8
0
 10
355.41226335
 20
131.93060779
 30
0.0
  0
VERTEX
  5
407
  8
0
 10
355.16762197
 20
131.95643775
 30
0.0
  0
SEQEND
  5
408
  8
0
  0
POLYLINE
  5
409
  8
0
 66
     1
 10
0.0
 20
0.0
 30
0.0
  0
VERTEX
  5
40A
  8
0
 10
355.96213014
 20
133.8978967
 30
0.0
  0
VERTEX
  5
40B
  8
0
 10
356.11727369
 20
133.89425364
 30
0.0
  0
VERTEX
  5
40C
  8
0
 10
356.25621362
 20
133.88365996
 30
0.0
  0
VERTEX
  5
40D
  8
0
 10
356.38309506
 20
133.86673931
 30
0.0
  0
VERTEX
  5
40E
  8
0
 10
356.43360716
 20
133.85780037
 30
0.0
  0
VERTEX
  5
40F
  8
0
 10
356.5427795
 20
133.83355913
 30
0.0
  0
VERTEX
  5
410
  8
0
 10
356.64368643
 20
133.80426819
 30
0.0
  0
VERTEX
  5
411
  8
0
 10
356.66762197
 20
133.79621765
 30
0.0
  0
SEQEND
  5
412
  8
0
  0
POLYLINE
  5
413
  8
0
 66
     1
 10
0.0
 20
0.0
 30
0.0
  0
VERTEX
  5
8C6
  8
0
 10
356.6676219771333
 20
131.9995757623309
 30
0.0
  0
VERTEX
  5
8C7
  8
0
 10
356.9108756148654
 20
132.1065333783271
 30
0.0
  0
VERTEX
  5
8C8
  8
0
 10
357.1186591556261
 20
132.2459575434569
 30
0.0
  0
VERTEX
  5
8C9
  8
0
 10
357.2824480515238
 20
132.4121282282679
 30
0.0
  0
VERTEX
  5
8CA
  8
0
 10
357.3955226832755
 20
132.5982280979717
 30
0.0
  0
VERTEX
  5
8CB
  8
0
 10
357.4532440399656
 20
132.7966222010891
 30
0.0
  0
VERTEX
  5
8CC
  8
0
 10
357.4532440395616
 20
132.9991712017167
 30
0.0
  0
VERTEX
  5
8CD
  8
0
 10
357.3955226820803
 20
133.197565304719
 30
0.0
  0
VERTEX
  5
8CE
  8
0
 10
357.2824480495863
 20
133.3836651741974
 30
0.0
  0
VERTEX
  5
8CF
  8
0
 10
357.1186591530257
 20
133.5498358586817
 30
0.0
  0
VERTEX
  5
8D0
  8
0
 10
356.9108756117089
 20
133.6892600233972
 30
0.0
  0
VERTEX
  5
8D1
  8
0
 10
356.6676219735502
 20
133.7962176389082
 30
0.0
  0
SEQEND
  5
952
  8
0
  0
POLYLINE
  5
414
  8
0
 66
     1
 10
0.0
 20
0.0
 30
0.0
  0
VERTEX
  5
8D2
  8
0
 10
356.6676219598832
 20
130.436803341777
 30
0.0
  0
VERTEX
  5
8D3
  8
0
 10
357.3439565356426
 20
130.5723761412517
 30
0.0
  0
VERTEX
  5
8D4
  8
0
 10
357.968988228653
 20
130.799888568155
 30
0.0
  0
VERTEX
  5
8D5
  8
0
 10
358.5180063646656
 20
131.1103459018484
 30
0.0
  0
VERTEX
  5
8D6
  8
0
 10
358.9693054710337
 20
131.4914741886641
 30
0.0
  0
VERTEX
  5
8D7
  8
0
 10
359.3050434041816
 20
131.9282054935708
 30
0.0
  0
VERTEX
  5
8D8
  8
0
 10
359.5119467400702
 20
132.4032736121018
 30
0.0
  0
VERTEX
  5
8D9
  8
0
 10
359.58183554
 20
132.8978966910255
 30
0.0
  0
VERTEX
  5
8DA
  8
0
 10
359.5119467450924
 20
133.3925197703041
 30
0.0
  0
VERTEX
  5
8DB
  8
0
 10
359.3050434140274
 20
133.8675878898854
 30
0.0
  0
VERTEX
  5
8DC
  8
0
 10
358.9693054853138
 20
134.3043191964966
 30
0.0
  0
VERTEX
  5
8DD
  8
0
 10
358.5180063828154
 20
134.6854474856033
 30
0.0
  0
VERTEX
  5
8DE
  8
0
 10
357.9689882499551
 20
134.995904822084
 30
0.0
  0
VERTEX
  5
8DF
  8
0
 10
357.3439565592547
 20
135.2234172521605
 30
0.0
  0
VERTEX
  5
8E0
  8
0
 10
356.6676219848719
 20
135.3589900550687
 30
0.0
  0
SEQEND
  5
953
  8
0
  0
POLYLINE
  5
415
  8
0
 66
     1
 10
0.0
 20
0.0
 30
0.0
  0
VERTEX
  5
416
  8
0
 10
355.96224462
 20
135.3978967
 30
0.0
  0
VERTEX
  5
417
  8
0
 10
356.08598302
 20
135.39686638
 30
0.0
  0
VERTEX
  5
418
  8
0
 10
356.31327704
 20
135.38951361
 30
0.0
  0
VERTEX
  5
419
  8
0
 10
356.51195565
 20
135.37571241
 30
0.0
  0
VERTEX
  5
41A
  8
0
 10
356.66762197
 20
135.35899006
 30
0.0
  0
SEQEND
  5
41B
  8
0
  0
POLYLINE
  5
41C
  8
0
 66
     1
 10
0.0
 20
0.0
 30
0.0
  0
VERTEX
  5
41D
  8
0
 10
355.16762197
 20
135.37505977
 30
0.0
  0
VERTEX
  5
41E
  8
0
 10
355.26725562
 20
135.37914558
 30
0.0
  0
VERTEX
  5
41F
  8
0
 10
355.35440514
 20
135.38269783
 30
0.0
  0
VERTEX
  5
420
  8
0
 10
355.4305116
 20
135.38569567
 30
0.0
  0
VERTEX
  5
421
  8
0
 10
355.56313673
 20
135.39046113
 30
0.0
  0
VERTEX
  5
422
  8
0
 10
355.66269761
 20
135.39345531
 30
0.0
  0
VERTEX
  5
423
  8
0
 10
355.96224462
 20
135.3978967
 30
0.0
  0
SEQEND
  5
424
  8
0
  0
POLYLINE
  5
425
  8
0
 66
     1
 10
0.0
 20
0.0
 30
0.0
  0
VERTEX
  5
426
  8
0
 10
355.16762197
 20
133.83935566
 30
0.0
  0
VERTEX
  5
427
  8
0
 10
355.41226335
 20
133.86518562
 30
0.0
  0
VERTEX
  5
428
  8
0
 10
355.55951256
 20
133.87884172
 30
0.0
  0
VERTEX
  5
429
  8
0
 10
355.67426885
 20
133.88753621
 30
0.0
  0
VERTEX
  5
42A
  8
0
 10
355.77435815
 20
133.8932581
 30
0.0
  0
VERTEX
  5
42B
  8
0
 10
355.8684197
 20
133.8967029
 30
0.0
  0
VERTEX
  5
42C
  8
0
 10
355.96213014
 20
133.8978967
 30
0.0
  0
SEQEND
  5
42D
  8
0
  0
ARC
  5
42E
  8
0
 10
352.16762197
 20
169.3978967
 30
0.0
 40
3.0
 50
-90.0
 51
0.0
  0
ARC
  5
42F
  8
0
 10
352.16762197
 20
169.3978967
 30
0.0
 40
1.5
 50
-90.0
 51
0.0
  0
LINE
  5
430
  8
0
 10
348.41762197
 20
145.8978967
 30
0.0
 11
348.41762197
 21
164.8978967
 31
0.0
  0
LINE
  5
431
  8
0
 10
346.91762197
 20
145.8978967
 30
0.0
 11
346.91762197
 21
164.8978967
 31
0.0
  0
LINE
  5
432
  8
0
  6
STRICHPUNKT2
 62
     1
 10
346.91762197
 20
152.03913949
 30
0.0
 11
345.41762197
 21
152.03913949
 31
0.0
  0
LINE
  5
433
  8
0
  6
STRICHPUNKT2
 62
     1
 10
349.91762197
 20
152.03913949
 30
0.0
 11
348.41762197
 21
152.03913949
 31
0.0
  0
LINE
  5
434
  8
0
  6
STRICHPUNKT2
 62
     1
 10
346.91762197
 20
158.75665391
 30
0.0
 11
345.41762197
 21
158.75665391
 31
0.0
  0
LINE
  5
435
  8
0
  6
STRICHPUNKT2
 62
     1
 10
349.91762197
 20
158.75665391
 30
0.0
 11
348.41762197
 21
158.75665391
 31
0.0
  0
LINE
  5
436
  8
0
  6
STRICHPUNKT2
 62
     1
 10
346.91762197
 20
155.3978967
 30
0.0
 11
345.54262197
 21
155.3978967
 31
0.0
  0
LINE
  5
437
  8
0
  6
STRICHPUNKT2
 62
     1
 10
349.79262197
 20
155.3978967
 30
0.0
 11
348.41762197
 21
155.3978967
 31
0.0
  0
ARC
  5
438
  8
0
 10
349.91762197
 20
164.8978967
 30
0.0
 40
1.5
 50
90.0
 51
180.0
  0
ARC
  5
439
  8
0
 10
349.91762197
 20
164.8978967
 30
0.0
 40
3.0
 50
90.0
 51
180.0
  0
ARC
  5
43A
  8
0
 10
349.91762197
 20
145.8978967
 30
0.0
 40
1.5
 50
180.0
 51
-90.0
  0
ARC
  5
43B
  8
0
 10
349.91762197
 20
145.8978967
 30
0.0
 40
3.0
 50
180.0
 51
-90.0
  0
LINE
  5
43C
  8
0
 10
352.16762197
 20
144.3978967
 30
0.0
 11
349.91762197
 21
144.3978967
 31
0.0
  0
LINE
  5
43D
  8
0
 10
352.16762197
 20
142.8978967
 30
0.0
 11
349.91762197
 21
142.8978967
 31
0.0
  0
ARC
  5
43E
  8
0
 10
352.16762197
 20
141.3978967
 30
0.0
 40
3.0
 50
0.0
 51
90.0
  0
ARC
  5
43F
  8
0
 10
352.16762197
 20
141.3978967
 30
0.0
 40
1.5
 50
0.0
 51
90.0
  0
LINE
  5
440
  8
0
 10
352.16762197
 20
166.3978967
 30
0.0
 11
349.91762197
 21
166.3978967
 31
0.0
  0
LINE
  5
441
  8
0
 10
352.16762197
 20
167.8978967
 30
0.0
 11
349.91762197
 21
167.8978967
 31
0.0
  0
LINE
  5
442
  8
0
 10
355.16762197
 20
127.6478967
 30
0.0
 11
355.16762197
 21
141.3978967
 31
0.0
  0
LINE
  5
443
  8
0
 10
353.66762197
 20
127.6478967
 30
0.0
 11
353.66762197
 21
141.3978967
 31
0.0
  0
LINE
  5
444
  8
0
 10
355.16762197
 20
127.6478967
 30
0.0
 11
353.66762197
 21
127.6478967
 31
0.0
  0
LINE
  5
445
  8
0
  6
STRICHPUNKT2
 62
     1
 10
353.66762197
 20
132.6478967
 30
0.0
 11
352.85512197
 21
132.6478967
 31
0.0
  0
LINE
  5
446
  8
0
  6
STRICHPUNKT2
 62
     1
 10
355.98012197
 20
132.6478967
 30
0.0
 11
355.16762197
 21
132.6478967
 31
0.0
  0
POLYLINE
  5
447
  8
0
 66
     1
 10
0.0
 20
0.0
 30
0.0
  0
VERTEX
  5
448
  8
0
 10
355.16762197
 20
169.3978967
 30
0.0
  0
VERTEX
  5
449
  8
0
 10
355.16762197
 20
183.1478967
 30
0.0
  0
VERTEX
  5
44A
  8
0
 10
353.66762197
 20
183.1478967
 30
0.0
  0
SEQEND
  5
44B
  8
0
  0
LINE
  5
44C
  8
0
 10
353.66762197
 20
169.3978967
 30
0.0
 11
353.66762197
 21
183.1478967
 31
0.0
  0
LINE
  5
44D
  8
0
  6
STRICHPUNKT2
 62
     1
 10
353.66762197
 20
178.1478967
 30
0.0
 11
352.85512197
 21
178.1478967
 31
0.0
  0
LINE
  5
44E
  8
0
  6
STRICHPUNKT2
 62
     1
 10
355.98012197
 20
178.1478967
 30
0.0
 11
355.16762197
 21
178.1478967
 31
0.0
  0
LINE
  5
44F
  8
0
 10
355.16762197
 20
183.1478967
 30
0.0
 11
356.66762197
 21
183.1478967
 31
0.0
  0
POLYLINE
  5
450
  8
0
 66
     1
 10
0.0
 20
0.0
 30
0.0
  0
VERTEX
  5
451
  8
0
 10
355.96224468
 20
180.3978967
 30
0.0
  0
VERTEX
  5
452
  8
0
 10
355.71450925
 20
180.3947579
 30
0.0
  0
VERTEX
  5
453
  8
0
 10
355.41055152
 20
180.38492321
 30
0.0
  0
VERTEX
  5
454
  8
0
 10
355.16762197
 20
180.37505978
 30
0.0
  0
SEQEND
  5
455
  8
0
  0
POLYLINE
  5
456
  8
0
 66
     1
 10
0.0
 20
0.0
 30
0.0
  0
VERTEX
  5
457
  8
0
 10
356.66762197
 20
180.35899006
 30
0.0
  0
VERTEX
  5
458
  8
0
 10
356.49995034
 20
180.37677239
 30
0.0
  0
VERTEX
  5
459
  8
0
 10
356.31783955
 20
180.38928035
 30
0.0
  0
VERTEX
  5
45A
  8
0
 10
356.11774366
 20
180.3963036
 30
0.0
  0
VERTEX
  5
45B
  8
0
 10
355.96224468
 20
180.3978967
 30
0.0
  0
SEQEND
  5
45C
  8
0
  0
POLYLINE
  5
45D
  8
0
 66
     1
 10
0.0
 20
0.0
 30
0.0
  0
VERTEX
  5
45E
  8
0
 10
355.16762197
 20
175.42073363
 30
0.0
  0
VERTEX
  5
45F
  8
0
 10
355.26725528
 20
175.41664784
 30
0.0
  0
VERTEX
  5
460
  8
0
 10
355.35440491
 20
175.41309558
 30
0.0
  0
VERTEX
  5
461
  8
0
 10
355.43051182
 20
175.41009774
 30
0.0
  0
VERTEX
  5
462
  8
0
 10
355.56313791
 20
175.40533223
 30
0.0
  0
VERTEX
  5
463
  8
0
 10
355.66269867
 20
175.40233806
 30
0.0
  0
VERTEX
  5
464
  8
0
 10
355.96224468
 20
175.3978967
 30
0.0
  0
VERTEX
  5
465
  8
0
 10
356.08598291
 20
175.39892709
 30
0.0
  0
VERTEX
  5
466
  8
0
 10
356.31327706
 20
175.40627991
 30
0.0
  0
VERTEX
  5
467
  8
0
 10
356.51195637
 20
175.42008115
 30
0.0
  0
VERTEX
  5
468
  8
0
 10
356.66762197
 20
175.43680335
 30
0.0
  0
SEQEND
  5
469
  8
0
  0
LINE
  5
46A
  8
0
 10
356.66762197
 20
172.6478967
 30
0.0
 11
355.16762197
 21
172.6478967
 31
0.0
  0
CIRCLE
  5
46B
  8
0
 10
366.41762197
 20
177.8978967
 30
0.0
 40
1.625
  0
POLYLINE
  5
46C
  8
0
 66
     1
 10
0.0
 20
0.0
 30
0.0
  0
VERTEX
  5
46D
  8
0
 10
369.66762197
 20
173.6478967
 30
0.0
  0
VERTEX
  5
46E
  8
0
 10
369.66762197
 20
182.1478967
 30
0.0
 42
0.414213562
  0
VERTEX
  5
46F
  8
0
 10
368.66762197
 20
183.1478967
 30
0.0
  0
VERTEX
  5
470
  8
0
 10
356.66762197
 20
183.1478967
 30
0.0
  0
SEQEND
  5
471
  8
0
  0
POLYLINE
  5
472
  8
0
 66
     1
 10
0.0
 20
0.0
 30
0.0
  0
VERTEX
  5
8E1
  8
0
 10
356.6676219598832
 20
175.436803341777
 30
0.0
  0
VERTEX
  5
8E2
  8
0
 10
357.3439565356426
 20
175.5723761412517
 30
0.0
  0
VERTEX
  5
8E3
  8
0
 10
357.968988228653
 20
175.799888568155
 30
0.0
  0
VERTEX
  5
8E4
  8
0
 10
358.5180063646656
 20
176.1103459018484
 30
0.0
  0
VERTEX
  5
8E5
  8
0
 10
358.9693054710337
 20
176.4914741886641
 30
0.0
  0
VERTEX
  5
8E6
  8
0
 10
359.3050434041816
 20
176.9282054935708
 30
0.0
  0
VERTEX
  5
8E7
  8
0
 10
359.5119467400702
 20
177.4032736121018
 30
0.0
  0
VERTEX
  5
8E8
  8
0
 10
359.58183554
 20
177.8978966910255
 30
0.0
  0
VERTEX
  5
8E9
  8
0
 10
359.5119467450924
 20
178.3925197703041
 30
0.0
  0
VERTEX
  5
8EA
  8
0
 10
359.3050434140274
 20
178.8675878898854
 30
0.0
  0
VERTEX
  5
8EB
  8
0
 10
358.9693054853138
 20
179.3043191964966
 30
0.0
  0
VERTEX
  5
8EC
  8
0
 10
358.5180063828154
 20
179.6854474856033
 30
0.0
  0
VERTEX
  5
8ED
  8
0
 10
357.9689882499551
 20
179.995904822084
 30
0.0
  0
VERTEX
  5
8EE
  8
0
 10
357.3439565592547
 20
180.2234172521605
 30
0.0
  0
VERTEX
  5
8EF
  8
0
 10
356.6676219848719
 20
180.3589900550687
 30
0.0
  0
SEQEND
  5
954
  8
0
  0
POLYLINE
  5
473
  8
0
 66
     1
 10
0.0
 20
0.0
 30
0.0
  0
VERTEX
  5
474
  8
0
 10
356.66762197
 20
172.6478967
 30
0.0
  0
VERTEX
  5
475
  8
0
 10
368.66762197
 20
172.6478967
 30
0.0
 42
0.414213562
  0
VERTEX
  5
476
  8
0
 10
369.66762197
 20
173.6478967
 30
0.0
  0
SEQEND
  5
477
  8
0
  0
LINE
  5
478
  8
0
  6
STRICHPUNKT2
 62
     1
 10
366.41762197
 20
177.8978967
 30
0.0
 11
363.98012197
 21
177.8978967
 31
0.0
  0
LINE
  5
479
  8
0
  6
STRICHPUNKT2
 62
     1
 10
366.41762197
 20
177.8978967
 30
0.0
 11
368.85512197
 21
177.8978967
 31
0.0
  0
LINE
  5
47A
  8
0
  6
STRICHPUNKT2
 62
     1
 10
366.41762197
 20
177.8978967
 30
0.0
 11
366.41762197
 21
175.4603967
 31
0.0
  0
LINE
  5
47B
  8
0
  6
STRICHPUNKT2
 62
     1
 10
366.41762197
 20
177.8978967
 30
0.0
 11
366.41762197
 21
180.3353967
 31
0.0
  0
LINE
  5
47C
  8
0
 10
355.16762197
 20
138.1478967
 30
0.0
 11
356.66762197
 21
138.1478967
 31
0.0
  0
POLYLINE
  5
47D
  8
0
 66
     1
 10
0.0
 20
0.0
 30
0.0
  0
VERTEX
  5
47E
  8
0
 10
355.16762197
 20
135.37505977
 30
0.0
  0
VERTEX
  5
47F
  8
0
 10
355.26725562
 20
135.37914558
 30
0.0
  0
VERTEX
  5
480
  8
0
 10
355.35440514
 20
135.38269783
 30
0.0
  0
VERTEX
  5
481
  8
0
 10
355.4305116
 20
135.38569567
 30
0.0
  0
VERTEX
  5
482
  8
0
 10
355.56313673
 20
135.39046113
 30
0.0
  0
VERTEX
  5
483
  8
0
 10
355.66269761
 20
135.39345531
 30
0.0
  0
VERTEX
  5
484
  8
0
 10
355.96224462
 20
135.3978967
 30
0.0
  0
VERTEX
  5
485
  8
0
 10
356.08598302
 20
135.39686638
 30
0.0
  0
VERTEX
  5
486
  8
0
 10
356.31327704
 20
135.38951361
 30
0.0
  0
VERTEX
  5
487
  8
0
 10
356.51195565
 20
135.37571241
 30
0.0
  0
VERTEX
  5
488
  8
0
 10
356.66762197
 20
135.35899006
 30
0.0
  0
SEQEND
  5
489
  8
0
  0
POLYLINE
  5
48A
  8
0
 66
     1
 10
0.0
 20
0.0
 30
0.0
  0
VERTEX
  5
48B
  8
0
 10
355.96224462
 20
130.3978967
 30
0.0
  0
VERTEX
  5
48C
  8
0
 10
355.71450921
 20
130.40103553
 30
0.0
  0
VERTEX
  5
48D
  8
0
 10
355.41055064
 20
130.41087023
 30
0.0
  0
VERTEX
  5
48E
  8
0
 10
355.16762197
 20
130.42073363
 30
0.0
  0
SEQEND
  5
48F
  8
0
  0
POLYLINE
  5
490
  8
0
 66
     1
 10
0.0
 20
0.0
 30
0.0
  0
VERTEX
  5
491
  8
0
 10
356.66762197
 20
130.43680335
 30
0.0
  0
VERTEX
  5
492
  8
0
 10
356.49995166
 20
130.41902104
 30
0.0
  0
VERTEX
  5
493
  8
0
 10
356.31784207
 20
130.40651308
 30
0.0
  0
VERTEX
  5
494
  8
0
 10
356.11774727
 20
130.3994898
 30
0.0
  0
VERTEX
  5
495
  8
0
 10
355.96224462
 20
130.3978967
 30
0.0
  0
SEQEND
  5
496
  8
0
  0
LINE
  5
497
  8
0
 10
356.66762197
 20
127.6478967
 30
0.0
 11
355.16762197
 21
127.6478967
 31
0.0
  0
CIRCLE
  5
498
  8
0
 10
366.41762197
 20
132.8978967
 30
0.0
 40
1.625
  0
POLYLINE
  5
499
  8
0
 66
     1
 10
0.0
 20
0.0
 30
0.0
  0
VERTEX
  5
49A
  8
0
 10
369.66762197
 20
128.6478967
 30
0.0
  0
VERTEX
  5
49B
  8
0
 10
369.66762197
 20
137.1478967
 30
0.0
 42
0.414213562
  0
VERTEX
  5
49C
  8
0
 10
368.66762197
 20
138.1478967
 30
0.0
  0
VERTEX
  5
49D
  8
0
 10
356.66762197
 20
138.1478967
 30
0.0
  0
SEQEND
  5
49E
  8
0
  0
POLYLINE
  5
49F
  8
0
 66
     1
 10
0.0
 20
0.0
 30
0.0
  0
VERTEX
  5
8F0
  8
0
 10
356.6676219598832
 20
130.436803341777
 30
0.0
  0
VERTEX
  5
8F1
  8
0
 10
357.3439565356426
 20
130.5723761412517
 30
0.0
  0
VERTEX
  5
8F2
  8
0
 10
357.968988228653
 20
130.799888568155
 30
0.0
  0
VERTEX
  5
8F3
  8
0
 10
358.5180063646656
 20
131.1103459018484
 30
0.0
  0
VERTEX
  5
8F4
  8
0
 10
358.9693054710337
 20
131.4914741886641
 30
0.0
  0
VERTEX
  5
8F5
  8
0
 10
359.3050434041816
 20
131.9282054935708
 30
0.0
  0
VERTEX
  5
8F6
  8
0
 10
359.5119467400702
 20
132.4032736121018
 30
0.0
  0
VERTEX
  5
8F7
  8
0
 10
359.58183554
 20
132.8978966910255
 30
0.0
  0
VERTEX
  5
8F8
  8
0
 10
359.5119467450924
 20
133.3925197703041
 30
0.0
  0
VERTEX
  5
8F9
  8
0
 10
359.3050434140274
 20
133.8675878898854
 30
0.0
  0
VERTEX
  5
8FA
  8
0
 10
358.9693054853138
 20
134.3043191964966
 30
0.0
  0
VERTEX
  5
8FB
  8
0
 10
358.5180063828154
 20
134.6854474856033
 30
0.0
  0
VERTEX
  5
8FC
  8
0
 10
357.9689882499551
 20
134.995904822084
 30
0.0
  0
VERTEX
  5
8FD
  8
0
 10
357.3439565592547
 20
135.2234172521605
 30
0.0
  0
VERTEX
  5
8FE
  8
0
 10
356.6676219848719
 20
135.3589900550687
 30
0.0
  0
SEQEND
  5
955
  8
0
  0
POLYLINE
  5
4A0
  8
0
 66
     1
 10
0.0
 20
0.0
 30
0.0
  0
VERTEX
  5
4A1
  8
0
 10
356.66762197
 20
127.6478967
 30
0.0
  0
VERTEX
  5
4A2
  8
0
 10
368.66762197
 20
127.6478967
 30
0.0
 42
0.414213562
  0
VERTEX
  5
4A3
  8
0
 10
369.66762197
 20
128.6478967
 30
0.0
  0
SEQEND
  5
4A4
  8
0
  0
LINE
  5
4A5
  8
0
  6
STRICHPUNKT2
 62
     1
 10
366.41762197
 20
132.8978967
 30
0.0
 11
363.98012197
 21
132.8978967
 31
0.0
  0
LINE
  5
4A6
  8
0
  6
STRICHPUNKT2
 62
     1
 10
366.41762197
 20
132.8978967
 30
0.0
 11
368.85512197
 21
132.8978967
 31
0.0
  0
LINE
  5
4A7
  8
0
  6
STRICHPUNKT2
 62
     1
 10
366.41762197
 20
132.8978967
 30
0.0
 11
366.41762197
 21
130.4603967
 31
0.0
  0
LINE
  5
4A8
  8
0
  6
STRICHPUNKT2
 62
     1
 10
366.41762197
 20
132.8978967
 30
0.0
 11
366.41762197
 21
135.3353967
 31
0.0
  0
LINE
  5
4A9
  8
0
 10
490.62957563
 20
63.70899519
 30
0.0
 11
487.71536206
 21
66.62320876
 31
0.0
  0
LINE
  5
4AA
  8
0
  6
STRICHPUNKT2
 62
     1
 10
508.71536206
 20
55.45899519
 30
0.0
 11
508.71536206
 21
54.08399519
 31
0.0
  0
LINE
  5
4AB
  8
0
  6
STRICHPUNKT2
 62
     1
 10
522.85660485
 20
55.45899519
 30
0.0
 11
522.85660485
 21
53.95899519
 31
0.0
  0
LINE
  5
4AC
  8
0
  6
STRICHPUNKT2
 62
     1
 10
529.57411927
 20
55.45899519
 30
0.0
 11
529.57411927
 21
53.95899519
 31
0.0
  0
LINE
  5
4AD
  8
0
  6
STRICHPUNKT2
 62
     1
 10
418.71536206
 20
55.45899519
 30
0.0
 11
418.71536206
 21
54.08399519
 31
0.0
  0
LINE
  5
4AE
  8
0
  6
STRICHPUNKT2
 62
     1
 10
537.85660485
 20
55.45899519
 30
0.0
 11
537.85660485
 21
53.95899519
 31
0.0
  0
LINE
  5
4AF
  8
0
  6
STRICHPUNKT2
 62
     1
 10
544.57411927
 20
55.45899519
 30
0.0
 11
544.57411927
 21
53.95899519
 31
0.0
  0
LINE
  5
4B0
  8
0
 10
551.21536206
 20
55.45899519
 30
0.0
 11
411.21536206
 21
55.45899519
 31
0.0
  0
LINE
  5
4B1
  8
0
 10
411.21536206
 20
58.45899519
 30
0.0
 11
411.21536206
 21
55.45899519
 31
0.0
  0
LINE
  5
4B2
  8
0
 10
551.21536206
 20
55.45899519
 30
0.0
 11
551.21536206
 21
58.45899519
 31
0.0
  0
LINE
  5
4B3
  8
0
 10
411.21536206
 20
60.70899519
 30
0.0
 11
411.21536206
 21
58.45899519
 31
0.0
  0
LINE
  5
4B4
  8
0
 10
551.21536206
 20
58.45899519
 30
0.0
 11
551.21536206
 21
60.70899519
 31
0.0
  0
LINE
  5
4B5
  8
0
 10
411.21536206
 20
62.20899519
 30
0.0
 11
411.21536206
 21
60.70899519
 31
0.0
  0
POLYLINE
  5
4B6
  8
0
 66
     1
 10
0.0
 20
0.0
 30
0.0
  0
VERTEX
  5
4B7
  8
0
 10
551.21536206
 20
60.70899519
 30
0.0
  0
VERTEX
  5
4B8
  8
0
 10
551.21536206
 20
62.20899519
 30
0.0
  0
VERTEX
  5
4B9
  8
0
 10
467.21536206
 20
62.20899519
 30
0.0
  0
SEQEND
  5
4BA
  8
0
  0
LINE
  5
4BB
  8
0
 10
468.21536206
 20
62.20899519
 30
0.0
 11
489.21536206
 21
62.20899519
 31
0.0
  0
LINE
  5
4BC
  8
0
 10
486.61727601
 20
63.70899519
 30
0.0
 11
468.21536206
 21
63.70899519
 31
0.0
  0
LINE
  5
4BD
  8
0
 10
468.21536206
 20
62.20899519
 30
0.0
 11
467.21536206
 21
62.20899519
 31
0.0
  0
LINE
  5
4BE
  8
0
 10
467.21536206
 20
63.70899519
 30
0.0
 11
468.21536206
 21
63.70899519
 31
0.0
  0
POLYLINE
  5
4BF
  8
0
 66
     1
 10
0.0
 20
0.0
 30
0.0
  0
VERTEX
  5
4C0
  8
0
 10
466.21536206
 20
63.70899519
 30
0.0
  0
VERTEX
  5
4C1
  8
0
 10
411.21536206
 20
63.70899519
 30
0.0
  0
VERTEX
  5
4C2
  8
0
 10
411.21536206
 20
62.20899519
 30
0.0
  0
SEQEND
  5
4C3
  8
0
  0
LINE
  5
4C4
  8
0
 10
466.21536206
 20
62.20899519
 30
0.0
 11
411.21536206
 21
62.20899519
 31
0.0
  0
LINE
  5
4C5
  8
0
 10
466.21536206
 20
63.70899519
 30
0.0
 11
467.21536206
 21
63.70899519
 31
0.0
  0
LINE
  5
4C6
  8
0
 10
467.21536206
 20
62.20899519
 30
0.0
 11
467.21536206
 21
63.70899519
 31
0.0
  0
LINE
  5
4C7
  8
0
 10
467.21536206
 20
62.20899519
 30
0.0
 11
466.21536206
 21
62.20899519
 31
0.0
  0
LINE
  5
4C8
  8
0
 10
551.21536206
 20
62.20899519
 30
0.0
 11
489.21536206
 21
62.20899519
 31
0.0
  0
LINE
  5
4C9
  8
0
 10
551.21536206
 20
63.70899519
 30
0.0
 11
489.21536206
 21
63.70899519
 31
0.0
  0
LINE
  5
4CA
  8
0
 10
551.21536206
 20
63.70899519
 30
0.0
 11
551.21536206
 21
62.20899519
 31
0.0
  0
LINE
  5
4CB
  8
0
  6
STRICHPUNKT2
 62
     1
 10
422.21536206
 20
62.20899519
 30
0.0
 11
422.21536206
 21
61.39649519
 31
0.0
  0
LINE
  5
4CC
  8
0
  6
STRICHPUNKT2
 62
     1
 10
422.21536206
 20
64.52149519
 30
0.0
 11
422.21536206
 21
63.70899519
 31
0.0
  0
ARC
  5
4CD
  8
0
 10
489.21536206
 20
65.20899519
 30
0.0
 40
3.0
 50
180.0
 51
-90.0
  0
ARC
  5
4CE
  8
0
 10
489.21536206
 20
65.20899519
 30
0.0
 40
1.5
 50
180.0
 51
-90.0
  0
LINE
  5
4CF
  8
0
 10
486.21536206
 20
65.20899519
 30
0.0
 11
486.21536206
 21
77.20899519
 31
0.0
  0
LINE
  5
4D0
  8
0
 10
487.71536206
 20
77.20899519
 30
0.0
 11
487.71536206
 21
65.20899519
 31
0.0
  0
LINE
  5
4D1
  8
0
 10
487.71536206
 20
78.20899519
 30
0.0
 11
487.71536206
 21
77.20899519
 31
0.0
  0
LINE
  5
4D2
  8
0
 10
486.21536206
 20
78.20899519
 30
0.0
 11
487.71536206
 21
78.20899519
 31
0.0
  0
LINE
  5
4D3
  8
0
 10
486.21536206
 20
77.20899519
 30
0.0
 11
486.21536206
 21
78.20899519
 31
0.0
  0
LINE
  5
4D4
  8
0
  6
STRICHPUNKT2
 62
     1
 10
487.71536206
 20
74.95899519
 30
0.0
 11
488.52786206
 21
74.95899519
 31
0.0
  0
LINE
  5
4D5
  8
0
  6
STRICHPUNKT2
 62
     1
 10
485.40286206
 20
74.95899519
 30
0.0
 11
486.21536206
 21
74.95899519
 31
0.0
  0
TEXT
  5
4D6
  8
TXT_DIM49
 10
478.33560895
 20
113.49363719
 30
0.0
 40
2.5
  1
280
  7
ARIAL
  0
LINE
  5
4D7
  8
0
 62
     4
 10
550.21536206
 20
110.99363719
 30
0.0
 11
552.21536206
 21
112.99363719
 31
0.0
  0
LINE
  5
4D8
  8
0
 62
     4
 10
411.96536206
 20
112.74363719
 30
0.0
 11
410.46536206
 21
111.24363719
 31
0.0
  0
LINE
  5
4D9
  8
0
 62
     4
 10
551.21536206
 20
111.99363719
 30
0.0
 11
411.21536206
 21
111.99363719
 31
0.0
  0
LINE
  5
4DA
  8
0
 62
     4
 10
551.21536206
 20
113.99363719
 30
0.0
 11
551.21536206
 21
109.99363719
 31
0.0
  0
LINE
  5
4DB
  8
0
 62
     4
 10
411.21536206
 20
113.99363719
 30
0.0
 11
411.21536206
 21
109.99363719
 31
0.0
  0
TEXT
  5
4DC
  8
TXT_DIM49
 10
436.33560895
 20
193.09032493
 30
0.0
 40
2.5
  1
112
  7
ARIAL
  0
LINE
  5
4DD
  8
0
 62
     4
 10
412.21536206
 20
192.59032493
 30
0.0
 11
410.21536206
 21
190.59032493
 31
0.0
  0
LINE
  5
4DE
  8
0
 62
     4
 10
466.46536206
 20
190.84032493
 30
0.0
 11
467.96536206
 21
192.34032493
 31
0.0
  0
LINE
  5
4DF
  8
0
 62
     4
 10
411.21536206
 20
191.59032493
 30
0.0
 11
467.21536206
 21
191.59032493
 31
0.0
  0
LINE
  5
4E0
  8
0
 62
     4
 10
411.21536206
 20
189.59032493
 30
0.0
 11
411.21536206
 21
193.59032493
 31
0.0
  0
LINE
  5
4E1
  8
0
 62
     4
 10
467.21536206
 20
189.59032493
 30
0.0
 11
467.21536206
 21
193.59032493
 31
0.0
  0
TEXT
  5
4E2
  8
TXT_DIM49
 10
474.79552662
 20
193.09032493
 30
0.0
 40
2.5
  1
38
  7
ARIAL
  0
LINE
  5
4E3
  8
0
 62
     4
 10
468.21536206
 20
192.59032493
 30
0.0
 11
466.21536206
 21
190.59032493
 31
0.0
  0
LINE
  5
4E4
  8
0
 62
     4
 10
485.46536206
 20
190.84032493
 30
0.0
 11
486.96536206
 21
192.34032493
 31
0.0
  0
LINE
  5
4E5
  8
0
 62
     4
 10
467.21536206
 20
191.59032493
 30
0.0
 11
486.21536206
 21
191.59032493
 31
0.0
  0
LINE
  5
4E6
  8
0
 62
     4
 10
467.21536206
 20
189.59032493
 30
0.0
 11
467.21536206
 21
193.59032493
 31
0.0
  0
LINE
  5
4E7
  8
0
 62
     4
 10
486.21536206
 20
189.59032493
 30
0.0
 11
486.21536206
 21
193.59032493
 31
0.0
  0
TEXT
  5
4E8
  8
TXT_DIM49
 10
515.83560895
 20
193.09032493
 30
0.0
 40
2.5
  1
130
  7
ARIAL
  0
LINE
  5
4E9
  8
0
 62
     4
 10
487.21536206
 20
192.59032493
 30
0.0
 11
485.21536206
 21
190.59032493
 31
0.0
  0
LINE
  5
4EA
  8
0
 62
     4
 10
550.46536206
 20
190.84032493
 30
0.0
 11
551.96536206
 21
192.34032493
 31
0.0
  0
LINE
  5
4EB
  8
0
 62
     4
 10
486.21536206
 20
191.59032493
 30
0.0
 11
551.21536206
 21
191.59032493
 31
0.0
  0
LINE
  5
4EC
  8
0
 62
     4
 10
486.21536206
 20
189.59032493
 30
0.0
 11
486.21536206
 21
193.59032493
 31
0.0
  0
LINE
  5
4ED
  8
0
 62
     4
 10
551.21536206
 20
189.59032493
 30
0.0
 11
551.21536206
 21
193.59032493
 31
0.0
  0
TEXT
  5
4EE
  8
TXT_DIM49
 10
471.70433721
 20
174.97806126
 30
0.0
 40
2.5
  1
25
 50
90.00020741
  7
ARIAL
  0
LINE
  5
4EF
  8
0
 62
     4
 10
474.20433721
 20
182.1478967
 30
0.0
 11
472.20433721
 21
184.1478967
 31
0.0
  0
LINE
  5
4F0
  8
0
 62
     4
 10
472.45433721
 20
171.3978967
 30
0.0
 11
473.95433721
 21
169.8978967
 31
0.0
  0
LINE
  5
4F1
  8
0
 62
     4
 10
473.20433721
 20
183.1478967
 30
0.0
 11
473.20433721
 21
170.6478967
 31
0.0
  0
LINE
  5
4F2
  8
0
 62
     4
 10
471.20433721
 20
183.1478967
 30
0.0
 11
475.20433721
 21
183.1478967
 31
0.0
  0
LINE
  5
4F3
  8
0
 62
     4
 10
471.97310761
 20
170.6478967
 30
0.0
 11
475.20433721
 21
170.6478967
 31
0.0
  0
TEXT
  5
4F4
  8
TXT_DIM49
 10
471.70433721
 20
153.47806126
 30
0.0
 40
2.5
  1
61
 50
90.00020741
  7
ARIAL
  0
LINE
  5
4F5
  8
0
 62
     4
 10
474.20433721
 20
169.6478967
 30
0.0
 11
472.20433721
 21
171.6478967
 31
0.0
  0
LINE
  5
4F6
  8
0
 62
     4
 10
472.45433721
 20
140.8978967
 30
0.0
 11
473.95433721
 21
139.3978967
 31
0.0
  0
LINE
  5
4F7
  8
0
 62
     4
 10
473.20433721
 20
170.6478967
 30
0.0
 11
473.20433721
 21
140.1478967
 31
0.0
  0
LINE
  5
4F8
  8
0
 62
     4
 10
471.97310761
 20
170.6478967
 30
0.0
 11
475.20433721
 21
170.6478967
 31
0.0
  0
LINE
  5
4F9
  8
0
 62
     4
 10
473.10146623
 20
140.1478967
 30
0.0
 11
475.20433721
 21
140.1478967
 31
0.0
  0
TEXT
  5
4FA
  8
TXT_DIM49
 10
471.70433721
 20
131.97806126
 30
0.0
 40
2.5
  1
25
 50
90.00020741
  7
ARIAL
  0
LINE
  5
4FB
  8
0
 62
     4
 10
474.20433721
 20
139.1478967
 30
0.0
 11
472.20433721
 21
141.1478967
 31
0.0
  0
LINE
  5
4FC
  8
0
 62
     4
 10
472.45433721
 20
128.3978967
 30
0.0
 11
473.95433721
 21
126.8978967
 31
0.0
  0
LINE
  5
4FD
  8
0
 62
     4
 10
473.20433721
 20
140.1478967
 30
0.0
 11
473.20433721
 21
127.6478967
 31
0.0
  0
LINE
  5
4FE
  8
0
 62
     4
 10
473.10146623
 20
140.1478967
 30
0.0
 11
475.20433721
 21
140.1478967
 31
0.0
  0
LINE
  5
4FF
  8
0
 62
     4
 10
471.20433721
 20
127.6478967
 30
0.0
 11
475.20433721
 21
127.6478967
 31
0.0
  0
TEXT
  5
500
  8
TXT_DIM49
 10
544.29552662
 20
143.38563437
 30
0.0
 40
2.5
  1
20
  7
ARIAL
  0
LINE
  5
501
  8
0
 62
     4
 10
550.21536206
 20
140.88563437
 30
0.0
 11
552.21536206
 21
142.88563437
 31
0.0
  0
LINE
  5
502
  8
0
 62
     4
 10
541.96536206
 20
142.63563437
 30
0.0
 11
540.46536206
 21
141.13563437
 31
0.0
  0
LINE
  5
503
  8
0
 62
     4
 10
551.21536206
 20
141.88563437
 30
0.0
 11
541.21536206
 21
141.88563437
 31
0.0
  0
LINE
  5
504
  8
0
 62
     4
 10
551.21536206
 20
145.8978967
 30
0.0
 11
551.21536206
 21
139.88563437
 31
0.0
  0
LINE
  5
505
  8
0
 62
     4
 10
541.21536206
 20
155.3978967
 30
0.0
 11
541.21536206
 21
139.88563437
 31
0.0
  0
TEXT
  5
506
  8
TXT_DIM49
 10
531.79552662
 20
143.38563437
 30
0.0
 40
2.5
  1
30
  7
ARIAL
  0
LINE
  5
507
  8
0
 62
     4
 10
540.21536206
 20
140.88563437
 30
0.0
 11
542.21536206
 21
142.88563437
 31
0.0
  0
LINE
  5
508
  8
0
 62
     4
 10
526.96536206
 20
142.63563437
 30
0.0
 11
525.46536206
 21
141.13563437
 31
0.0
  0
LINE
  5
509
  8
0
 62
     4
 10
541.21536206
 20
141.88563437
 30
0.0
 11
526.21536206
 21
141.88563437
 31
0.0
  0
LINE
  5
50A
  8
0
 62
     4
 10
541.21536206
 20
155.3978967
 30
0.0
 11
541.21536206
 21
139.88563437
 31
0.0
  0
LINE
  5
50B
  8
0
 62
     4
 10
526.21536206
 20
155.3978967
 30
0.0
 11
526.21536206
 21
139.88563437
 31
0.0
  0
TEXT
  5
50C
  8
TXT_DIM49
 10
515.54552662
 20
143.38563437
 30
0.0
 40
2.5
  1
35
  7
ARIAL
  0
LINE
  5
50D
  8
0
 62
     4
 10
525.21536206
 20
140.88563437
 30
0.0
 11
527.21536206
 21
142.88563437
 31
0.0
  0
LINE
  5
50E
  8
0
 62
     4
 10
509.46536206
 20
142.63563437
 30
0.0
 11
507.96536206
 21
141.13563437
 31
0.0
  0
LINE
  5
50F
  8
0
 62
     4
 10
526.21536206
 20
141.88563437
 30
0.0
 11
508.71536206
 21
141.88563437
 31
0.0
  0
LINE
  5
510
  8
0
 62
     4
 10
526.21536206
 20
155.3978967
 30
0.0
 11
526.21536206
 21
139.88563437
 31
0.0
  0
LINE
  5
511
  8
0
 62
     4
 10
508.71536206
 20
151.2728967
 30
0.0
 11
508.71536206
 21
139.88563437
 31
0.0
  0
TEXT
  5
512
  8
TXT_DIM49
 10
460.83560895
 20
143.38563437
 30
0.0
 40
2.5
  1
180
  7
ARIAL
  0
LINE
  5
513
  8
0
 62
     4
 10
507.71536206
 20
140.88563437
 30
0.0
 11
509.71536206
 21
142.88563437
 31
0.0
  0
LINE
  5
514
  8
0
 62
     4
 10
419.46536206
 20
142.63563437
 30
0.0
 11
417.96536206
 21
141.13563437
 31
0.0
  0
LINE
  5
515
  8
0
 62
     4
 10
508.71536206
 20
141.88563437
 30
0.0
 11
418.71536206
 21
141.88563437
 31
0.0
  0
LINE
  5
516
  8
0
 62
     4
 10
508.71536206
 20
151.2728967
 30
0.0
 11
508.71536206
 21
139.88563437
 31
0.0
  0
LINE
  5
517
  8
0
 62
     4
 10
418.71536206
 20
151.2728967
 30
0.0
 11
418.71536206
 21
139.88563437
 31
0.0
  0
TEXT
  5
518
  8
TXT_DIM49
 10
413.04552662
 20
143.38563437
 30
0.0
 40
2.5
  1
15
  7
ARIAL
  0
LINE
  5
519
  8
0
 62
     4
 10
417.71536206
 20
140.88563437
 30
0.0
 11
419.71536206
 21
142.88563437
 31
0.0
  0
LINE
  5
51A
  8
0
 62
     4
 10
411.96536206
 20
142.63563437
 30
0.0
 11
410.46536206
 21
141.13563437
 31
0.0
  0
LINE
  5
51B
  8
0
 62
     4
 10
418.71536206
 20
141.88563437
 30
0.0
 11
411.21536206
 21
141.88563437
 31
0.0
  0
LINE
  5
51C
  8
0
 62
     4
 10
418.71536206
 20
151.2728967
 30
0.0
 11
418.71536206
 21
139.88563437
 31
0.0
  0
LINE
  5
51D
  8
0
 62
     4
 10
411.21536206
 20
145.8978967
 30
0.0
 11
411.21536206
 21
139.88563437
 31
0.0
  0
TEXT
  5
51E
  8
TXT_DIM49
 10
497.93603462
 20
167.35306126
 30
0.0
 40
2.5
  1
56
 50
90.00020741
  7
ARIAL
  0
LINE
  5
51F
  8
0
 62
     4
 10
500.43603462
 20
182.1478967
 30
0.0
 11
498.43603462
 21
184.1478967
 31
0.0
  0
LINE
  5
520
  8
0
 62
     4
 10
498.68603462
 20
156.1478967
 30
0.0
 11
500.18603462
 21
154.6478967
 31
0.0
  0
LINE
  5
521
  8
0
 62
     4
 10
499.43603462
 20
183.1478967
 30
0.0
 11
499.43603462
 21
155.3978967
 31
0.0
  0
LINE
  5
522
  8
0
 62
     4
 10
501.43603462
 20
183.1478967
 30
0.0
 11
497.43603462
 21
183.1478967
 31
0.0
  0
LINE
  5
523
  8
0
 62
     4
 10
501.43603462
 20
155.3978967
 30
0.0
 11
497.43603462
 21
155.3978967
 31
0.0
  0
TEXT
  5
524
  8
TXT_DIM49
 10
497.93603462
 20
139.60306126
 30
0.0
 40
2.5
  1
56
 50
90.00020741
  7
ARIAL
  0
LINE
  5
525
  8
0
 62
     4
 10
500.43603462
 20
154.3978967
 30
0.0
 11
498.43603462
 21
156.3978967
 31
0.0
  0
LINE
  5
526
  8
0
 62
     4
 10
498.68603462
 20
128.3978967
 30
0.0
 11
500.18603462
 21
126.8978967
 31
0.0
  0
LINE
  5
527
  8
0
 62
     4
 10
499.43603462
 20
155.3978967
 30
0.0
 11
499.43603462
 21
127.6478967
 31
0.0
  0
LINE
  5
528
  8
0
 62
     4
 10
501.43603462
 20
155.3978967
 30
0.0
 11
497.43603462
 21
155.3978967
 31
0.0
  0
LINE
  5
529
  8
0
 62
     4
 10
499.88380158
 20
127.6478967
 30
0.0
 11
497.43603462
 21
127.6478967
 31
0.0
  0
TEXT
  5
52A
  8
TXT_DIM49
 10
523.15621343
 20
163.39952168
 30
0.0
 40
2.5
  1
45
 50
292.4998427350001
  7
ARIAL
  0
TEXT
  5
52B
  8
TXT_DIM49
 10
524.62559187
 20
159.85212832
 30
0.0
 40
2.5
  1
°
 50
292.4998427350001
  7
ARIAL
  0
LINE
  5
52C
  8
0
 62
     4
 10
526.21299234
 20
153.92812708
 30
0.0
 11
526.10453965
 21
156.75447419
 31
0.0
  0
LINE
  5
52D
  8
0
 62
     4
 10
522.35718027
 20
167.1185873
 30
0.0
 11
520.80076764
 21
165.67720611
 31
0.0
  0
POLYLINE
  5
52E
  8
0
 62
     4
 66
     1
 10
0.0
 20
0.0
 30
0.0
  0
VERTEX
  5
8FF
  8
0
 62
     4
 10
522.7160793509892
 20
172.2517356664582
 30
0.0
  0
VERTEX
  5
900
  8
0
 62
     4
 10
521.859228474021
 20
169.3450631336016
 30
0.0
  0
VERTEX
  5
901
  8
0
 62
     4
 10
521.5791316742294
 20
166.3276993094
 30
0.0
  0
VERTEX
  5
902
  8
0
 62
     4
 10
521.8863089806553
 20
163.3129719972481
 30
0.0
  0
VERTEX
  5
903
  8
0
 62
     4
 10
522.769223259755
 20
160.4141099769766
 30
0.0
  0
VERTEX
  5
904
  8
0
 62
     4
 10
524.1947135333813
 20
157.739990296314
 30
0.0
  0
VERTEX
  5
905
  8
0
 62
     4
 10
526.1092404569669
 20
155.3910490070856
 30
0.0
  0
VERTEX
  5
906
  8
0
 62
     4
 10
528.4408971795541
 20
153.4555089329615
 30
0.0
  0
VERTEX
  5
907
  8
0
 62
     4
 10
531.1021100606956
 20
152.0060661483175
 30
0.0
  0
SEQEND
  5
956
  8
0
 62
     4
  0
LINE
  5
52F
  8
0
 62
     3
 10
508.71536206
 20
155.3978967
 30
0.0
 11
504.47289554
 21
162.02014216
 31
0.0
  0
TEXT
  5
530
  8
TXT_DIM49
 10
496.94815174
 20
160.77014216
 30
0.0
 40
2.5
  1
Ø11
  7
ARIAL
  0
POLYLINE
  5
531
  8
0
 62
     3
 66
     1
 10
0.0
 20
0.0
 30
0.0
 70
     1
  0
VERTEX
  5
532
  8
0
 62
     3
 10
495.94815174
 20
163.52014216
 30
0.0
  0
VERTEX
  5
533
  8
0
 62
     3
 10
504.47289554
 20
163.52014216
 30
0.0
  0
VERTEX
  5
534
  8
0
 62
     3
 10
504.47289554
 20
160.52014216
 30
0.0
  0
VERTEX
  5
535
  8
0
 62
     3
 10
495.94815174
 20
160.52014216
 30
0.0
  0
SEQEND
  5
536
  8
0
  0
LINE
  5
537
  8
0
 62
     5
 10
422.21536206
 20
178.1478967
 30
0.0
 11
425.34538819
 21
172.68734765
 31
0.0
  0
TEXT
  5
538
  8
TXT_DIM49
 10
425.34538819
 20
171.43734765
 30
0.0
 40
2.5
  1
Ø6.5
  7
ARIAL
  0
LINE
  5
539
  8
0
 62
     5
 10
418.71536206
 20
155.3978967
 30
0.0
 11
422.67030897
 21
160.84976984
 31
0.0
  0
TEXT
  5
53A
  8
TXT_DIM49
 10
422.67030897
 20
159.59976984
 30
0.0
 40
2.5
  1
Ø11
  7
ARIAL
  0
LINE
  5
53B
  8
0
 62
     4
 10
422.21536206
 20
132.6478967
 30
0.0
 11
424.93376012
 21
137.07296525
 31
0.0
  0
TEXT
  5
53C
  8
TXT_DIM49
 10
424.93376012
 20
135.82296525
 30
0.0
 40
2.5
  1
Ø6.5
  7
ARIAL
  0
LINE
  5
53D
  8
0
 62
     5
 10
529.57411927
 20
158.75665391
 30
0.0
 11
534.612524
 21
174.94908788
 31
0.0
  0
TEXT
  5
53E
  8
TXT_DIM49
 10
534.612524
 20
173.69908788
 30
0.0
 40
2.5
  1
Slobgat 13 x 32
  7
ARIAL
  0
LINE
  5
53F
  8
0
 62
     5
 10
542.29590259
 20
156.47843723
 30
0.0
 11
545.64697419
 21
169.3978967
 31
0.0
  0
TEXT
  5
540
  8
TXT_DIM49
 10
545.64697419
 20
168.1478967
 30
0.0
 40
2.5
  1
Slobgat 13 x 32
  7
ARIAL
  0
TEXT
  5
541
  8
TXT_DIM49
 10
348.37278652
 20
190.65199549
 30
0.0
 40
2.5
  1
14
  7
ARIAL
  0
LINE
  5
542
  8
0
 62
     4
 10
347.91762197
 20
190.15199549
 30
0.0
 11
345.91762197
 21
188.15199549
 31
0.0
  0
LINE
  5
543
  8
0
 62
     4
 10
352.91762197
 20
188.40199549
 30
0.0
 11
354.41762197
 21
189.90199549
 31
0.0
  0
LINE
  5
544
  8
0
 62
     4
 10
346.91762197
 20
189.15199549
 30
0.0
 11
353.66762197
 21
189.15199549
 31
0.0
  0
LINE
  5
545
  8
0
 62
     4
 10
346.91762197
 20
187.15199549
 30
0.0
 11
346.91762197
 21
191.15199549
 31
0.0
  0
LINE
  5
546
  8
0
 62
     4
 10
353.66762197
 20
187.15199549
 30
0.0
 11
353.66762197
 21
191.15199549
 31
0.0
  0
TEXT
  5
547
  8
TXT_DIM49
 10
359.74778652
 20
190.65199549
 30
0.0
 40
2.5
  1
32
  7
ARIAL
  0
LINE
  5
548
  8
0
 62
     4
 10
354.66762197
 20
190.15199549
 30
0.0
 11
352.66762197
 21
188.15199549
 31
0.0
  0
LINE
  5
549
  8
0
 62
     4
 10
368.91762197
 20
188.40199549
 30
0.0
 11
370.41762197
 21
189.90199549
 31
0.0
  0
LINE
  5
54A
  8
0
 62
     4
 10
353.66762197
 20
189.15199549
 30
0.0
 11
369.66762197
 21
189.15199549
 31
0.0
  0
LINE
  5
54B
  8
0
 62
     4
 10
353.66762197
 20
187.15199549
 30
0.0
 11
353.66762197
 21
191.15199549
 31
0.0
  0
LINE
  5
54C
  8
0
 62
     4
 10
369.66762197
 20
187.15199549
 30
0.0
 11
369.66762197
 21
191.15199549
 31
0.0
  0
TEXT
  5
54D
  8
TXT_DIM49
 10
337.67473843
 20
173.60306126
 30
0.0
 40
2.5
  1
31
 50
90.00020741
  7
ARIAL
  0
LINE
  5
54E
  8
0
 62
     4
 10
340.17473843
 20
182.1478967
 30
0.0
 11
338.17473843
 21
184.1478967
 31
0.0
  0
LINE
  5
54F
  8
0
 62
     4
 10
338.42473843
 20
168.6478967
 30
0.0
 11
339.92473843
 21
167.1478967
 31
0.0
  0
LINE
  5
550
  8
0
 62
     4
 10
339.17473843
 20
183.1478967
 30
0.0
 11
339.17473843
 21
167.8978967
 31
0.0
  0
LINE
  5
551
  8
0
 62
     4
 10
341.17473843
 20
183.1478967
 30
0.0
 11
337.17473843
 21
183.1478967
 31
0.0
  0
LINE
  5
552
  8
0
 62
     4
 10
341.17473843
 20
167.8978967
 30
0.0
 11
337.17473843
 21
167.8978967
 31
0.0
  0
TEXT
  5
553
  8
TXT_DIM49
 10
337.67473843
 20
153.47806126
 30
0.0
 40
2.5
  1
50
 50
90.00020741
  7
ARIAL
  0
LINE
  5
554
  8
0
 62
     4
 10
340.17473843
 20
166.8978967
 30
0.0
 11
338.17473843
 21
168.8978967
 31
0.0
  0
LINE
  5
555
  8
0
 62
     4
 10
338.42473843
 20
143.6478967
 30
0.0
 11
339.92473843
 21
142.1478967
 31
0.0
  0
LINE
  5
556
  8
0
 62
     4
 10
339.17473843
 20
167.8978967
 30
0.0
 11
339.17473843
 21
142.8978967
 31
0.0
  0
LINE
  5
557
  8
0
 62
     4
 10
341.17473843
 20
167.8978967
 30
0.0
 11
337.17473843
 21
167.8978967
 31
0.0
  0
LINE
  5
558
  8
0
 62
     4
 10
341.17473843
 20
142.8978967
 30
0.0
 11
337.17473843
 21
142.8978967
 31
0.0
  0
TEXT
  5
559
  8
TXT_DIM49
 10
337.67473843
 20
133.35306126
 30
0.0
 40
2.5
  1
31
 50
90.00020741
  7
ARIAL
  0
LINE
  5
55A
  8
0
 62
     4
 10
340.17473843
 20
141.8978967
 30
0.0
 11
338.17473843
 21
143.8978967
 31
0.0
  0
LINE
  5
55B
  8
0
 62
     4
 10
338.42473843
 20
128.3978967
 30
0.0
 11
339.92473843
 21
126.8978967
 31
0.0
  0
LINE
  5
55C
  8
0
 62
     4
 10
339.17473843
 20
142.8978967
 30
0.0
 11
339.17473843
 21
127.6478967
 31
0.0
  0
LINE
  5
55D
  8
0
 62
     4
 10
341.17473843
 20
142.8978967
 30
0.0
 11
337.17473843
 21
142.8978967
 31
0.0
  0
LINE
  5
55E
  8
0
 62
     4
 10
341.17473843
 20
127.6478967
 30
0.0
 11
337.17473843
 21
127.6478967
 31
0.0
  0
TEXT
  5
55F
  8
TXT_DIM49
 10
328.15269431
 20
152.51814359
 30
0.0
 40
2.5
  1
111
 50
90.00020741
  7
ARIAL
  0
LINE
  5
560
  8
0
 62
     4
 10
328.65269431
 20
128.6478967
 30
0.0
 11
330.65269431
 21
126.6478967
 31
0.0
  0
LINE
  5
561
  8
0
 62
     4
 10
330.40269431
 20
182.3978967
 30
0.0
 11
328.90269431
 21
183.8978967
 31
0.0
  0
LINE
  5
562
  8
0
 62
     4
 10
329.65269431
 20
127.6478967
 30
0.0
 11
329.65269431
 21
183.1478967
 31
0.0
  0
LINE
  5
563
  8
0
 62
     4
 10
331.65269431
 20
127.6478967
 30
0.0
 11
327.65269431
 21
127.6478967
 31
0.0
  0
LINE
  5
564
  8
0
 62
     4
 10
331.65269431
 20
183.1478967
 30
0.0
 11
327.65269431
 21
183.1478967
 31
0.0
  0
TEXT
  5
565
  8
TXT_DIM49
 10
374.36496459
 20
178.60306126
 30
0.0
 40
2.5
  1
11
 50
90.00020741
  7
ARIAL
  0
LINE
  5
566
  8
0
 62
     4
 10
376.86496459
 20
182.1478967
 30
0.0
 11
374.86496459
 21
184.1478967
 31
0.0
  0
LINE
  5
567
  8
0
 62
     4
 10
375.11496459
 20
178.6478967
 30
0.0
 11
376.61496459
 21
177.1478967
 31
0.0
  0
LINE
  5
568
  8
0
 62
     4
 10
375.86496459
 20
183.1478967
 30
0.0
 11
375.86496459
 21
177.8978967
 31
0.0
  0
LINE
  5
569
  8
0
 62
     4
 10
375.86496459
 20
180.5228967
 30
0.0
 11
375.36496437
 21
180.52289664
 31
0.0
  0
LINE
  5
56A
  8
0
 62
     4
 10
373.86496459
 20
183.1478967
 30
0.0
 11
377.86496459
 21
183.1478967
 31
0.0
  0
LINE
  5
56B
  8
0
 62
     4
 10
373.86496459
 20
177.8978967
 30
0.0
 11
377.86496459
 21
177.8978967
 31
0.0
  0
TEXT
  5
56C
  8
TXT_DIM49
 10
374.36496459
 20
171.41339007
 30
0.0
 40
2.5
  1
11
 50
90.00020741
  7
ARIAL
  0
LINE
  5
56D
  8
0
 62
     4
 10
376.86496459
 20
176.8978967
 30
0.0
 11
374.86496459
 21
178.8978967
 31
0.0
  0
LINE
  5
56E
  8
0
 62
     4
 10
375.11496459
 20
173.3978967
 30
0.0
 11
376.61496459
 21
171.8978967
 31
0.0
  0
LINE
  5
56F
  8
0
 62
     4
 10
375.86496459
 20
177.8978967
 30
0.0
 11
375.86496459
 21
172.6478967
 31
0.0
  0
LINE
  5
570
  8
0
 62
     4
 10
375.86496459
 20
175.2728967
 30
0.0
 11
375.36496437
 21
175.66909369
 31
0.0
  0
LINE
  5
571
  8
0
 62
     4
 10
373.86496459
 20
177.8978967
 30
0.0
 11
377.86496459
 21
177.8978967
 31
0.0
  0
LINE
  5
572
  8
0
 62
     4
 10
373.86496459
 20
172.6478967
 30
0.0
 11
377.86496459
 21
172.6478967
 31
0.0
  0
TEXT
  5
573
  8
TXT_DIM49
 10
373.45924673
 20
130.97806126
 30
0.0
 40
2.5
  1
21
 50
90.00020741
  7
ARIAL
  0
LINE
  5
574
  8
0
 62
     4
 10
375.95924673
 20
137.1478967
 30
0.0
 11
373.95924673
 21
139.1478967
 31
0.0
  0
LINE
  5
575
  8
0
 62
     4
 10
374.20924673
 20
128.3978967
 30
0.0
 11
375.70924673
 21
126.8978967
 31
0.0
  0
LINE
  5
576
  8
0
 62
     4
 10
374.95924673
 20
138.1478967
 30
0.0
 11
374.95924673
 21
127.6478967
 31
0.0
  0
LINE
  5
577
  8
0
 62
     4
 10
372.95924673
 20
138.1478967
 30
0.0
 11
376.95924673
 21
138.1478967
 31
0.0
  0
LINE
  5
578
  8
0
 62
     4
 10
372.95924673
 20
127.6478967
 30
0.0
 11
376.95924673
 21
127.6478967
 31
0.0
  0
TEXT
  5
579
  8
TXT_DIM49
 10
367.08270425
 20
169.3978967
 30
0.0
 40
2.5
  1
7
  7
ARIAL
  0
LINE
  5
57A
  8
0
 62
     4
 10
367.41762197
 20
168.8978967
 30
0.0
 11
365.41762197
 21
166.8978967
 31
0.0
  0
LINE
  5
57B
  8
0
 62
     4
 10
368.91762197
 20
167.1478967
 30
0.0
 11
370.41762197
 21
168.6478967
 31
0.0
  0
LINE
  5
57C
  8
0
 62
     4
 10
366.41762197
 20
167.8978967
 30
0.0
 11
369.66762197
 21
167.8978967
 31
0.0
  0
LINE
  5
57D
  8
0
 62
     4
 10
366.41762197
 20
169.8978967
 30
0.0
 11
366.41762197
 21
165.8978967
 31
0.0
  0
LINE
  5
57E
  8
0
 62
     4
 10
369.66762197
 20
169.8978967
 30
0.0
 11
369.66762197
 21
165.8978967
 31
0.0
  0
LINE
  5
57F
  8
0
 62
     5
 10
366.41762197
 20
132.8978967
 30
0.0
 11
371.94897523
 21
143.99465725
 31
0.0
  0
TEXT
  5
580
  8
TXT_DIM49
 10
371.94897523
 20
142.74465725
 30
0.0
 40
2.5
  1
Ø6.5
  7
ARIAL
  0
LINE
  5
581
  8
0
 62
     5
 10
366.41762197
 20
177.8978967
 30
0.0
 11
372.87488678
 21
187.53564761
 31
0.0
  0
TEXT
  5
582
  8
TXT_DIM49
 10
372.87488678
 20
186.28564761
 30
0.0
 40
2.5
  1
Ø6.5
  7
ARIAL
  0
TEXT
  5
583
  8
TXT_DIM49
 10
486.00544434
 20
84.96478083
 30
0.0
 40
2.5
  1
3
  7
ARIAL
  0
LINE
  5
584
  8
0
 62
     4
 10
487.21536206
 20
84.46478083
 30
0.0
 11
485.21536206
 21
82.46478083
 31
0.0
  0
LINE
  5
585
  8
0
 62
     4
 10
486.96536206
 20
82.71478083
 30
0.0
 11
488.46536206
 21
84.21478083
 31
0.0
  0
LINE
  5
586
  8
0
 62
     4
 10
486.21536206
 20
83.46478083
 30
0.0
 11
487.71536206
 21
83.46478083
 31
0.0
  0
LINE
  5
587
  8
0
 62
     4
 10
486.21536206
 20
81.46478083
 30
0.0
 11
486.21536206
 21
85.46478083
 31
0.0
  0
LINE
  5
588
  8
0
 62
     4
 10
487.71536206
 20
81.46478083
 30
0.0
 11
487.71536206
 21
85.46478083
 31
0.0
  0
TEXT
  5
589
  8
TXT_DIM49
 10
445.83560895
 20
94.96478083
 30
0.0
 40
2.5
  1
150
  7
ARIAL
  0
LINE
  5
58A
  8
0
 62
     4
 10
412.21536206
 20
94.46478083
 30
0.0
 11
410.21536206
 21
92.46478083
 31
0.0
  0
LINE
  5
58B
  8
0
 62
     4
 10
485.46536206
 20
92.71478083
 30
0.0
 11
486.96536206
 21
94.21478083
 31
0.0
  0
LINE
  5
58C
  8
0
 62
     4
 10
411.21536206
 20
93.46478083
 30
0.0
 11
486.21536206
 21
93.46478083
 31
0.0
  0
LINE
  5
58D
  8
0
 62
     4
 10
411.21536206
 20
91.46478083
 30
0.0
 11
411.21536206
 21
95.46478083
 31
0.0
  0
LINE
  5
58E
  8
0
 62
     4
 10
486.21536206
 20
91.46478083
 30
0.0
 11
486.21536206
 21
95.46478083
 31
0.0
  0
TEXT
  5
58F
  8
TXT_DIM49
 10
515.83560895
 20
94.96478083
 30
0.0
 40
2.5
  1
130
  7
ARIAL
  0
LINE
  5
590
  8
0
 62
     4
 10
487.21536206
 20
94.46478083
 30
0.0
 11
485.21536206
 21
92.46478083
 31
0.0
  0
LINE
  5
591
  8
0
 62
     4
 10
550.46536206
 20
92.71478083
 30
0.0
 11
551.96536206
 21
94.21478083
 31
0.0
  0
LINE
  5
592
  8
0
 62
     4
 10
486.21536206
 20
93.46478083
 30
0.0
 11
551.21536206
 21
93.46478083
 31
0.0
  0
LINE
  5
593
  8
0
 62
     4
 10
486.21536206
 20
91.46478083
 30
0.0
 11
486.21536206
 21
95.46478083
 31
0.0
  0
LINE
  5
594
  8
0
 62
     4
 10
551.21536206
 20
91.46478083
 30
0.0
 11
551.21536206
 21
95.46478083
 31
0.0
  0
ENDSEC
  0
EOF
