  0
SECTION
  2
HEADER
  9
$ACADVER
  1
AC1006
  9
$DWGCODEPAGE
  3
ansi_1252
  9
$INSBASE
 10
0.0
 20
0.0
 30
0.0
  9
$EXTMIN
 10
-180.62896598
 20
197.24913914
  9
$EXTMAX
 10
605.64102721
 20
575.92413914
  9
$LIMMIN
 10
-180.62896598
 20
197.24913914
  9
$LIMMAX
 10
605.64102721
 20
575.92413914
  9
$ORTHOMODE
 70
     0
  9
$REGENMODE
 70
     1
  9
$FILLMODE
 70
     1
  9
$QTEXTMODE
 70
     0
  9
$MIRRTEXT
 70
     1
  9
$DRAGMODE
 70
     2
  9
$LTSCALE
 40
1.0
  9
$OSMODE
 70
    37
  9
$ATTMODE
 70
     1
  9
$TEXTSIZE
 40
1.0
  9
$TRACEWID
 40
0.05
  9
$TEXTSTYLE
  7
STANDARD
  9
$CLAYER
  8
0
  9
$CELTYPE
  6
BYBLOCK
  9
$CECOLOR
 62
   256
  9
$DIMSCALE
 40
1.0
  9
$DIMASZ
 40
0.18
  9
$DIMEXO
 40
0.0625
  9
$DIMDLI
 40
0.38
  9
$DIMRND
 40
0.0
  9
$DIMDLE
 40
0.0
  9
$DIMEXE
 40
0.18
  9
$DIMTP
 40
0.0
  9
$DIMTM
 40
0.0
  9
$DIMTXT
 40
0.18
  9
$DIMCEN
 40
0.09
  9
$DIMTSZ
 40
0.0
  9
$DIMTOL
 70
     0
  9
$DIMLIM
 70
     0
  9
$DIMTIH
 70
     1
  9
$DIMTOH
 70
     1
  9
$DIMSE1
 70
     0
  9
$DIMSE2
 70
     0
  9
$DIMTAD
 70
     0
  9
$DIMZIN
 70
     0
  9
$DIMBLK
  1

  9
$DIMASO
 70
     1
  9
$DIMSHO
 70
     1
  9
$DIMPOST
  1

  9
$DIMAPOST
  1

  9
$DIMALT
 70
     0
  9
$DIMALTD
 70
     2
  9
$DIMALTF
 40
25.4
  9
$DIMLFAC
 40
1.0
  9
$DIMTOFL
 70
     0
  9
$DIMTVP
 40
0.0
  9
$DIMTIX
 70
     0
  9
$DIMSOXD
 70
     0
  9
$DIMSAH
 70
     0
  9
$DIMBLK1
  1

  9
$DIMBLK2
  1

  9
$LUNITS
 70
     2
  9
$LUPREC
 70
     4
  9
$SKETCHINC
 40
0.1
  9
$FILLETRAD
 40
0.5
  9
$AUNITS
 70
     0
  9
$AUPREC
 70
     0
  9
$MENU
  1
.
  9
$ELEVATION
 40
0.0
  9
$THICKNESS
 40
0.0
  9
$LIMCHECK
 70
     0
  9
$CHAMFERA
 40
0.0
  9
$CHAMFERB
 40
0.0
  9
$SKPOLY
 70
     0
  9
$TDCREATE
 40
2447893.125
  9
$TDUPDATE
 40
2460791.511067512
  9
$TDINDWG
 40
0.0
  9
$TDUSRTIMER
 40
0.0
  9
$USRTIMER
 70
     1
  9
$ANGBASE
 50
0.0
  9
$ANGDIR
 70
     0
  9
$PDMODE
 70
     0
  9
$PDSIZE
 40
0.0
  9
$PLINEWID
 40
0.0
  9
$COORDS
 70
     1
  9
$SPLFRAME
 70
     0
  9
$SPLINETYPE
 70
     6
  9
$SPLINESEGS
 70
     8
  9
$ATTDIA
 70
     0
  9
$ATTREQ
 70
     1
  9
$HANDLING
 70
     1
  9
$HANDSEED
  5
9CA
  9
$SURFTAB1
 70
     6
  9
$SURFTAB2
 70
     6
  9
$SURFTYPE
 70
     6
  9
$SURFU
 70
     6
  9
$SURFV
 70
     6
  9
$UCSNAME
  2

  9
$UCSORG
 10
0.0
 20
0.0
 30
0.0
  9
$UCSXDIR
 10
1.0
 20
0.0
 30
0.0
  9
$UCSYDIR
 10
0.0
 20
1.0
 30
0.0
  9
$USERI1
 70
     0
  9
$USERI2
 70
     0
  9
$USERI3
 70
     0
  9
$USERI4
 70
     0
  9
$USERI5
 70
     0
  9
$USERR1
 40
0.0
  9
$USERR2
 40
0.0
  9
$USERR3
 40
0.0
  9
$USERR4
 40
0.0
  9
$USERR5
 40
0.0
  9
$WORLDVIEW
 70
     1
  0
ENDSEC
  0
SECTION
  2
TABLES
  0
TABLE
  2
VPORT
 70
     1
  0
VPORT
  2
*ACTIVE
 70
     0
 10
0.0
 20
0.0
 11
1.0
 21
1.0
 12
212.50603062
 22
386.58663914
 13
0.0
 23
0.0
 14
1.0
 24
1.0
 15
0.0
 25
0.0
 16
0.0
 26
0.0
 36
1.0
 17
0.0
 27
0.0
 37
0.0
 40
378.675
 41
2.076371541
 42
50.0
 43
0.0
 44
0.0
 50
0.0
 51
0.0
 71
     0
 72
   100
 73
     1
 74
     1
 75
     0
 76
     0
 77
     0
 78
     0
  0
ENDTAB
  0
TABLE
  2
LTYPE
 70
    19
  0
LTYPE
  2
CONTINUOUS
 70
     0
  3
Solid line
 72
    65
 73
     0
 40
0.0
  0
LTYPE
  2
DOT
 70
     0
  3
..............
 72
    65
 73
     2
 40
2.0
 49
0.5
 49
-1.5
  0
LTYPE
  2
HIDDEN
 70
     0
  3
-- -- -- -- --
 72
    65
 73
     2
 40
7.0
 49
4.0
 49
-3.0
  0
LTYPE
  2
DASHDOT
 70
     0
  3
--.--.--.--.--
 72
    65
 73
     4
 40
8.5
 49
4.0
 49
-2.0
 49
0.5
 49
-2.0
  0
LTYPE
  2
STRICHPUNKT2
 70
     0
  3
--.--.--.--.--
 72
    65
 73
     4
 40
18.5
 49
10.0
 49
-4.0
 49
0.5
 49
-4.0
  0
LTYPE
  2
STRICHPUNKT3
 70
     0
  3
--.--.--.--.--
 72
    65
 73
     4
 40
35.5
 49
25.0
 49
-5.0
 49
0.5
 49
-5.0
  0
LTYPE
  2
PHANTOM
 70
     0
  3
--..--..--..--
 72
    65
 73
     6
 40
23.0
 49
10.0
 49
-4.0
 49
0.5
 49
-4.0
 49
0.5
 49
-4.0
  0
LTYPE
  2
PHANTOM2
 70
     0
  3
--..--..--..--
 72
    65
 73
     6
 40
33.0
 49
20.0
 49
-4.0
 49
0.5
 49
-4.0
 49
0.5
 49
-4.0
  0
LTYPE
  2
PHANTOM3
 70
     0
  3
--..--..--..--
 72
    65
 73
     6
 40
50.0
 49
37.0
 49
-4.0
 49
0.5
 49
-4.0
 49
0.5
 49
-4.0
  0
LTYPE
  2
STR3PKT
 70
     0
  3
--...--...--...
 72
    65
 73
     8
 40
31.5
 49
20.0
 49
-2.5
 49
0.5
 49
-2.5
 49
0.5
 49
-2.5
 49
0.5
 49
-2.5
  0
LTYPE
  2
2STRPKT
 70
     0
  3
--.--.--.--.--
 72
    65
 73
     6
 40
28.0
 49
10.0
 49
-2.5
 49
10.0
 49
-2.5
 49
0.5
 49
-2.5
  0
LTYPE
  2
GESTRICHELT2
 70
     0
  3
-- -- -- -- --
 72
    65
 73
     2
 40
25.0
 49
10.0
 49
-15.0
  0
LTYPE
  2
2STR2PKT
 70
     0
  3
--..--..--..--
 72
    65
 73
     8
 40
31.0
 49
10.0
 49
-2.5
 49
10.0
 49
-2.5
 49
0.5
 49
-2.5
 49
0.5
 49
-2.5
  0
LTYPE
  2
STR3PKT2
 70
     0
  3
--...--...--...
 72
    65
 73
     8
 40
21.0
 49
10.0
 49
-2.5
 49
0.5
 49
-2.5
 49
0.5
 49
-2.5
 49
0.5
 49
-2.0
  0
LTYPE
  2
2STR3PKT
 70
     0
  3
--...--...--...
 72
    65
 73
    10
 40
34.0
 49
10.0
 49
-2.5
 49
10.0
 49
-2.5
 49
0.5
 49
-2.5
 49
0.5
 49
-2.5
 49
0.5
 49
-2.5
  0
LTYPE
  2
STRKSTR
 70
     0
  3
-- - -- - -- -
 72
    65
 73
     4
 40
30.0
 49
20.0
 49
-2.5
 49
5.0
 49
-2.5
  0
LTYPE
  2
STRKSTR2
 70
     0
  3
-- - -- - -- -
 72
    65
 73
     6
 40
37.5
 49
20.0
 49
-2.5
 49
5.0
 49
-2.5
 49
5.0
 49
-2.5
  0
LTYPE
  2
STRKSTR3
 70
     0
  3
-- - -- - -- -
 72
    65
 73
     8
 40
45.0
 49
20.0
 49
-2.5
 49
5.0
 49
-2.5
 49
5.0
 49
-2.5
 49
5.0
 49
-2.5
  0
LTYPE
  2
PUNKT2
 70
     0
  3
..............
 72
    65
 73
     2
 40
3.5
 49
0.5
 49
-3.0
  0
ENDTAB
  0
TABLE
  2
LAYER
 70
    17
  0
LAYER
  2
0
 70
     0
 62
     7
  6
CONTINUOUS
  0
LAYER
  2
LE_GREEN
 70
     0
 62
     3
  6
CONTINUOUS
  0
LAYER
  2
LE_RED
 70
     0
 62
     1
  6
CONTINUOUS
  0
LAYER
  2
LE_ALL
 70
     0
 62
     7
  6
CONTINUOUS
  0
LAYER
  2
LE_HIDDEN1
 70
     0
 62
     3
  6
HIDDEN
  0
LAYER
  2
LE_HIDDEN
 70
     0
 62
     7
  6
CONTINUOUS
  0
LAYER
  2
LE_MIDDLE
 70
     0
 62
     7
  6
CONTINUOUS
  0
LAYER
  2
TXT_YELLOW
 70
     0
 62
     2
  6
CONTINUOUS
  0
LAYER
  2
TXT_DIM49
 70
     0
 62
     2
  6
CONTINUOUS
  0
LAYER
  2
TXT_ALL
 70
     0
 62
     7
  6
CONTINUOUS
  0
LAYER
  2
DIM49
 70
     0
 62
     4
  6
CONTINUOUS
  0
LAYER
  2
HATCH
 70
     0
 62
     3
  6
CONTINUOUS
  0
LAYER
  2
APPLE
 70
     0
 62
     7
  6
CONTINUOUS
  0
LAYER
  2
10
 70
     0
 62
     7
  6
CONTINUOUS
  0
LAYER
  2
20
 70
     0
 62
     7
  6
CONTINUOUS
  0
LAYER
  2
47
 70
     0
 62
     7
  6
CONTINUOUS
  0
LAYER
  2
49
 70
     0
 62
     7
  6
CONTINUOUS
  0
ENDTAB
  0
TABLE
  2
STYLE
 70
     5
  0
STYLE
  2
MONOTXT
 70
     0
 40
0.0
 41
1.0
 50
0.0
 71
     0
 42
1.0
  3
monotxt.shx
  4

  0
STYLE
  2
STANDARD
 70
     0
 40
0.0
 41
1.0
 50
0.0
 71
     0
 42
1.0
  3
txt
  4

  0
STYLE
  2
ARIAL
 70
     0
 40
0.0
 41
1.0
 50
0.0
 71
     0
 42
1.0
  3
arial.ttf
  4

  0
STYLE
  2
ARIAL_NARROW
 70
     0
 40
0.0
 41
1.0
 50
0.0
 71
     0
 42
1.0
  3
ArialN.ttf
  4

  0
STYLE
  2
ISOCPEUR
 70
     0
 40
0.0
 41
1.0
 50
0.0
 71
     0
 42
1.0
  3
ISOCPEUR.ttf
  4

  0
ENDTAB
  0
TABLE
  2
VIEW
 70
     0
  0
ENDTAB
  0
TABLE
  2
UCS
 70
     0
  0
ENDTAB
  0
ENDSEC
  0
SECTION
  2
BLOCKS
  0
ENDSEC
  0
SECTION
  2
ENTITIES
  0
POLYLINE
  5
16E
  8
0
 66
     1
 10
0.0
 20
0.0
 30
0.0
 70
     1
  0
VERTEX
  5
16F
  8
0
 10
-37.85910516
 20
254.96994443
 30
0.0
  0
VERTEX
  5
170
  8
0
 10
382.14089484
 20
254.96994443
 30
0.0
  0
VERTEX
  5
171
  8
0
 10
382.14089484
 20
551.96994443
 30
0.0
  0
VERTEX
  5
172
  8
0
 10
-37.85910516
 20
551.96994443
 30
0.0
  0
SEQEND
  5
173
  8
0
  0
POLYLINE
  5
174
  8
0
 66
     1
 10
0.0
 20
0.0
 30
0.0
 70
     1
  0
VERTEX
  5
175
  8
0
 10
-32.85910516
 20
259.96994443
 30
0.0
  0
VERTEX
  5
176
  8
0
 10
377.14089484
 20
259.96994443
 30
0.0
  0
VERTEX
  5
177
  8
0
 10
377.14089484
 20
546.96994443
 30
0.0
  0
VERTEX
  5
178
  8
0
 10
-32.85910516
 20
546.96994443
 30
0.0
  0
SEQEND
  5
179
  8
0
  0
LINE
  5
17A
  8
0
 10
192.14089484
 20
259.96994443
 30
0.0
 11
192.14089484
 21
254.96994443
 31
0.0
  0
LINE
  5
17B
  8
0
 10
192.14089484
 20
546.96994443
 30
0.0
 11
192.14089484
 21
551.96994443
 31
0.0
  0
LINE
  5
17C
  8
0
 10
-17.85910516
 20
259.96994443
 30
0.0
 11
-17.85910516
 21
254.96994443
 31
0.0
  0
LINE
  5
17D
  8
0
 10
-17.85910516
 20
546.96994443
 30
0.0
 11
-17.85910516
 21
551.96994443
 31
0.0
  0
TEXT
  5
17E
  8
TXT_ALL
 62
     4
 10
381.14089484
 20
255.96994443
 30
0.0
 40
2.5
  1

 50
90.00020741
  0
POLYLINE
  5
17F
  8
0
 66
     1
 10
0.0
 20
0.0
 30
0.0
  0
VERTEX
  5
180
  8
0
 10
377.14089484
 20
536.96994443
 30
0.0
  0
VERTEX
  5
181
  8
0
 10
308.14759484
 20
536.96994443
 30
0.0
  0
VERTEX
  5
182
  8
0
 10
308.14759484
 20
546.96994443
 30
0.0
  0
SEQEND
  5
183
  8
0
  0
LINE
  5
184
  8
0
 10
310.05089484
 20
279.46994443
 30
0.0
 11
170.16089484
 21
279.46994443
 31
0.0
  0
LINE
  5
185
  8
0
 10
170.16089484
 20
269.71994443
 30
0.0
 11
310.05089484
 21
269.71994443
 31
0.0
  0
POLYLINE
  5
186
  8
0
 66
     1
 10
0.0
 20
0.0
 30
0.0
  0
VERTEX
  5
187
  8
0
 10
170.16089484
 20
279.46994443
 30
0.0
  0
VERTEX
  5
188
  8
0
 10
170.16089484
 20
269.71994443
 30
0.0
  0
VERTEX
  5
189
  8
0
 10
170.16089484
 20
259.96994443
 30
0.0
  0
SEQEND
  5
18A
  8
0
  0
POLYLINE
  5
18B
  8
0
 66
     1
 10
0.0
 20
0.0
 30
0.0
  0
VERTEX
  5
18C
  8
0
 10
240.10589484
 20
279.46994443
 30
0.0
  0
VERTEX
  5
18D
  8
0
 10
240.10589484
 20
269.71994443
 30
0.0
  0
VERTEX
  5
18E
  8
0
 10
240.10589484
 20
259.96994443
 30
0.0
  0
SEQEND
  5
18F
  8
0
  0
TEXT
  5
190
  8
TXT_ALL
 10
172.16089484
 20
273.29494448
 30
0.0
 40
2.5999999
  1
E-mail: verkoop@jonkers-bouwmetaal.nl
  7
ARIAL
  0
TEXT
  5
191
  8
TXT_ALL
 10
172.16089484
 20
263.54494448
 30
0.0
 40
2.5999999
  1
Telefoon: 0527-685156
  7
ARIAL
  0
TEXT
  5
192
  8
TXT_ALL
 10
242.10589484
 20
263.54494448
 30
0.0
 40
2.5999999
  1
Website: www.jonkers-bouwmetaal.nl
  7
ARIAL
  0
TEXT
  5
193
  8
TXT_ALL
 10
242.10589484
 20
273.29494448
 30
0.0
 40
2.5999999
  1
Adres: Hoornse Hop 10, 8321 WX Urk
  7
ARIAL
  0
TEXT
  5
194
  8
TXT_ALL
 10
-29.41714491
 20
540.71994443
 30
0.0
 40
2.5
  1
Art. nr. 91015834
  7
ARIAL
  0
TEXT
  5
195
  8
TXT_ALL
 10
13.32089191
 20
540.71994443
 30
0.0
 40
2.5
  1
Omschrijving: T04-anker 265x45.5 111x3
  7
ARIAL
  0
LINE
  5
196
  8
0
 10
377.14089484
 20
536.96994443
 30
0.0
 11
-32.85910516
 21
536.96994443
 31
0.0
  0
LINE
  5
197
  8
0
 10
10.16089484
 20
536.96994443
 30
0.0
 11
10.16089484
 21
546.96994443
 31
0.0
  0
LINE
  5
198
  8
0
 10
170.16089484
 20
536.96994443
 30
0.0
 11
170.16089484
 21
546.96994443
 31
0.0
  0
TEXT
  5
199
  8
TXT_ALL
 10
241.15459484
 20
540.71994443
 30
0.0
 40
2.5
  1
Behandeling: N.V.T.
  7
ARIAL
  0
LINE
  5
19A
  8
0
 10
310.05089484
 20
279.46994443
 30
0.0
 11
377.14089484
 21
279.46994443
 31
0.0
  0
LINE
  5
19B
  8
0
 10
310.05089484
 20
259.96994443
 30
0.0
 11
310.05089484
 21
279.46994443
 31
0.0
  0
LINE
  5
19C
  8
0
 10
310.05089484
 20
259.96994443
 30
0.0
 11
310.05089484
 21
279.46994443
 31
0.0
  0
TEXT
  5
19D
  8
TXT_ALL
 10
104.50609293
 20
261.12447784
 30
0.0
 40
2.5
  1

  0
TEXT
  5
19E
  8
TXT_ALL
 10
225.6412759
 20
271.21994443
 30
0.0
 40
2.5
  1

  0
POLYLINE
  5
19F
  8
0
 66
     1
 10
0.0
 20
0.0
 30
0.0
  0
VERTEX
  5
1A0
  8
0
 10
308.14759484
 20
536.96994443
 30
0.0
  0
VERTEX
  5
1A1
  8
0
 10
239.15459484
 20
536.96994443
 30
0.0
  0
VERTEX
  5
1A2
  8
0
 10
239.15459484
 20
546.96994443
 30
0.0
  0
SEQEND
  5
1A3
  8
0
  0
TEXT
  5
1A4
  8
TXT_ALL
 10
310.14759484
 20
540.71994443
 30
0.0
 40
2.5
  1
Verpakkingshoeveelheid: 15 st.
  7
ARIAL
  0
TEXT
  5
1A5
  8
TXT_ALL
 10
172.16089484
 20
540.71994443
 30
0.0
 40
2.5
  1
Materiaal: Sendzimir Verzinkt
  7
ARIAL
  0
TEXT
  5
1A6
  8
TXT_ALL
 10
344.92254207
 20
256.72043458
 30
0.0
 40
1.5
  1
Onderdeel van
  7
ARIAL
  0
LINE
  5
1A7
  8
0
 10
207.81699045
 20
479.30690401
 30
0.0
 11
207.81699045
 21
482.30690401
 31
0.0
  0
POLYLINE
  5
1A8
  8
0
 66
     1
 10
0.0
 20
0.0
 30
0.0
  0
VERTEX
  5
1A9
  8
0
 10
340.31699045
 20
482.30690401
 30
0.0
  0
VERTEX
  5
1AA
  8
0
 10
340.31699045
 20
479.30690401
 30
0.0
  0
VERTEX
  5
1AB
  8
0
 10
207.81699045
 20
479.30690401
 30
0.0
  0
SEQEND
  5
1AC
  8
0
  0
POLYLINE
  5
1AD
  8
0
 66
     1
 10
0.0
 20
0.0
 30
0.0
 70
     1
  0
VERTEX
  5
1AE
  8
0
 10
329.25633028
 20
462.65004976
 30
0.0
 42
-1.0
  0
VERTEX
  5
1AF
  8
0
 10
324.6601362
 20
467.24624384
 30
0.0
  0
VERTEX
  5
1B0
  8
0
 10
331.37765062
 20
473.96375826
 30
0.0
 42
-1.0
  0
VERTEX
  5
1B1
  8
0
 10
335.9738447
 20
469.36756418
 30
0.0
  0
SEQEND
  5
1B2
  8
0
  0
POLYLINE
  5
1B3
  8
0
 66
     1
 10
0.0
 20
0.0
 30
0.0
 70
     1
  0
VERTEX
  5
1B4
  8
0
 10
314.25633028
 20
462.65004976
 30
0.0
 42
-1.0
  0
VERTEX
  5
1B5
  8
0
 10
309.6601362
 20
467.24624384
 30
0.0
  0
VERTEX
  5
1B6
  8
0
 10
316.37765062
 20
473.96375826
 30
0.0
 42
-1.0
  0
VERTEX
  5
1B7
  8
0
 10
320.9738447
 20
469.36756418
 30
0.0
  0
SEQEND
  5
1B8
  8
0
  0
CIRCLE
  5
1B9
  8
0
 10
217.81699045
 20
468.30690401
 30
0.0
 40
2.75
  0
CIRCLE
  5
1BA
  8
0
 10
297.81699045
 20
468.30690401
 30
0.0
 40
2.75
  0
LINE
  5
1BB
  8
0
 10
207.81699045
 20
458.80690401
 30
0.0
 11
207.81699045
 21
477.80690401
 31
0.0
  0
LINE
  5
1BC
  8
0
 10
340.31699045
 20
477.80690401
 30
0.0
 11
340.31699045
 21
458.80690401
 31
0.0
  0
LINE
  5
1BD
  8
0
  6
STRICHPUNKT2
 62
     1
 10
297.81699045
 20
468.30690401
 30
0.0
 11
293.69199045
 21
468.30690401
 31
0.0
  0
LINE
  5
1BE
  8
0
  6
STRICHPUNKT2
 62
     1
 10
297.81699045
 20
468.30690401
 30
0.0
 11
301.94199045
 21
468.30690401
 31
0.0
  0
LINE
  5
1BF
  8
0
  6
STRICHPUNKT2
 62
     1
 10
297.81699045
 20
468.30690401
 30
0.0
 11
297.81699045
 21
464.18190401
 31
0.0
  0
LINE
  5
1C0
  8
0
  6
STRICHPUNKT2
 62
     1
 10
297.81699045
 20
468.30690401
 30
0.0
 11
297.81699045
 21
472.43190401
 31
0.0
  0
LINE
  5
1C1
  8
0
  6
STRICHPUNKT2
 62
     1
 10
217.81699045
 20
468.30690401
 30
0.0
 11
213.69199045
 21
468.30690401
 31
0.0
  0
LINE
  5
1C2
  8
0
  6
STRICHPUNKT2
 62
     1
 10
217.81699045
 20
468.30690401
 30
0.0
 11
221.94199045
 21
468.30690401
 31
0.0
  0
LINE
  5
1C3
  8
0
  6
STRICHPUNKT2
 62
     1
 10
217.81699045
 20
468.30690401
 30
0.0
 11
217.81699045
 21
464.18190401
 31
0.0
  0
LINE
  5
1C4
  8
0
  6
STRICHPUNKT2
 62
     1
 10
217.81699045
 20
468.30690401
 30
0.0
 11
217.81699045
 21
472.43190401
 31
0.0
  0
LINE
  5
1C5
  8
0
  6
STRICHPUNKT2
 62
     1
 10
308.59947603
 20
461.58938959
 30
0.0
 11
322.03450487
 21
475.02441843
 31
0.0
  0
LINE
  5
1C6
  8
0
  6
STRICHPUNKT2
 62
     1
 10
315.31699045
 20
461.58938959
 30
0.0
 11
308.59947603
 21
468.30690401
 31
0.0
  0
LINE
  5
1C7
  8
0
  6
STRICHPUNKT2
 62
     1
 10
322.03450487
 20
468.30690401
 30
0.0
 11
315.31699045
 21
475.02441843
 31
0.0
  0
LINE
  5
1C8
  8
0
  6
STRICHPUNKT2
 62
     1
 10
323.59947603
 20
461.58938959
 30
0.0
 11
337.03450487
 21
475.02441843
 31
0.0
  0
LINE
  5
1C9
  8
0
  6
STRICHPUNKT2
 62
     1
 10
330.31699045
 20
461.58938959
 30
0.0
 11
323.59947603
 21
468.30690401
 31
0.0
  0
LINE
  5
1CA
  8
0
  6
STRICHPUNKT2
 62
     1
 10
337.03450487
 20
468.30690401
 30
0.0
 11
330.31699045
 21
475.02441843
 31
0.0
  0
LINE
  5
1CB
  8
0
 10
340.31699045
 20
479.30690401
 30
0.0
 11
340.31699045
 21
477.80690401
 31
0.0
  0
LINE
  5
1CC
  8
0
 10
207.81699045
 20
477.80690401
 30
0.0
 11
207.81699045
 21
479.30690401
 31
0.0
  0
LINE
  5
1CD
  8
0
 10
207.81699045
 20
457.30690401
 30
0.0
 11
207.81699045
 21
458.80690401
 31
0.0
  0
LINE
  5
1CE
  8
0
 10
340.31699045
 20
458.80690401
 30
0.0
 11
340.31699045
 21
457.30690401
 31
0.0
  0
LINE
  5
1CF
  8
0
 10
207.81699045
 20
454.30690401
 30
0.0
 11
207.81699045
 21
457.30690401
 31
0.0
  0
LINE
  5
1D0
  8
0
 10
340.31699045
 20
457.30690401
 30
0.0
 11
207.81699045
 21
457.30690401
 31
0.0
  0
LINE
  5
1D1
  8
0
 10
340.31699045
 20
457.30690401
 30
0.0
 11
340.31699045
 21
454.30690401
 31
0.0
  0
CIRCLE
  5
1D2
  8
0
 10
218.81699045
 20
445.55690401
 30
0.0
 40
1.625
  0
LINE
  5
1D3
  8
0
 10
283.81699045
 20
452.05690401
 30
0.0
 11
283.81699045
 21
441.55690401
 31
0.0
  0
ARC
  5
1D4
  8
0
 10
282.81699045
 20
441.55690401
 30
0.0
 40
1.0
 50
-90.0
 51
0.0
  0
POLYLINE
  5
1D5
  8
0
 66
     1
 10
0.0
 20
0.0
 30
0.0
  0
VERTEX
  5
1D6
  8
0
 10
282.81699045
 20
440.55690401
 30
0.0
  0
VERTEX
  5
1D7
  8
0
 10
207.81699045
 20
440.55690401
 30
0.0
  0
VERTEX
  5
1D8
  8
0
 10
207.81699045
 20
454.30690401
 30
0.0
  0
SEQEND
  5
1D9
  8
0
  0
POLYLINE
  5
1DA
  8
0
 66
     1
 10
0.0
 20
0.0
 30
0.0
  0
VERTEX
  5
1DB
  8
0
 10
340.31699045
 20
454.30690401
 30
0.0
  0
VERTEX
  5
1DC
  8
0
 10
340.31699045
 20
440.55690401
 30
0.0
  0
VERTEX
  5
1DD
  8
0
 10
305.81699045
 20
440.55690401
 30
0.0
  0
SEQEND
  5
1DE
  8
0
  0
POLYLINE
  5
1DF
  8
0
 66
     1
 10
0.0
 20
0.0
 30
0.0
  0
VERTEX
  5
654
  8
0
 10
305.816990458325
 20
443.8069040122883
 30
0.0
  0
VERTEX
  5
655
  8
0
 10
306.3508361819711
 20
444.1561325023827
 30
0.0
  0
VERTEX
  5
656
  8
0
 10
306.77233389912
 20
444.5752100652039
 30
0.0
  0
VERTEX
  5
657
  8
0
 10
307.0636487825025
 20
445.0464042774405
 30
0.0
  0
VERTEX
  5
658
  8
0
 10
307.2124544293536
 20
445.5497775046911
 30
0.0
  0
VERTEX
  5
659
  8
0
 10
307.212454428328
 20
446.0640305223225
 30
0.0
  0
VERTEX
  5
65A
  8
0
 10
307.0636487794691
 20
446.5674037492764
 30
0.0
  0
VERTEX
  5
65B
  8
0
 10
306.7723338942072
 20
447.038597960932
 30
0.0
  0
VERTEX
  5
65C
  8
0
 10
306.3508361753867
 20
447.4576755229126
 30
0.0
  0
VERTEX
  5
65D
  8
0
 10
305.8169904503477
 20
447.8069040119423
 30
0.0
  0
SEQEND
  5
974
  8
0
  0
POLYLINE
  5
1E0
  8
0
 66
     1
 10
0.0
 20
0.0
 30
0.0
  0
VERTEX
  5
1E1
  8
0
 10
305.81699045
 20
451.05690401
 30
0.0
  0
VERTEX
  5
1E2
  8
0
 10
306.81699045
 20
451.05690401
 30
0.0
 42
1.0
  0
VERTEX
  5
1E3
  8
0
 10
306.81699045
 20
453.05690401
 30
0.0
  0
VERTEX
  5
1E4
  8
0
 10
284.81699045
 20
453.05690401
 30
0.0
  0
SEQEND
  5
1E5
  8
0
  0
ARC
  5
1E6
  8
0
 10
284.81699045
 20
452.05690401
 30
0.0
 40
1.0
 50
90.0
 51
180.0
  0
LINE
  5
1E7
  8
0
  6
STRICHPUNKT2
 62
     1
 10
218.81699045
 20
445.55690401
 30
0.0
 11
216.37949045
 21
445.55690401
 31
0.0
  0
LINE
  5
1E8
  8
0
  6
STRICHPUNKT2
 62
     1
 10
218.81699045
 20
445.55690401
 30
0.0
 11
221.25449045
 21
445.55690401
 31
0.0
  0
LINE
  5
1E9
  8
0
  6
STRICHPUNKT2
 62
     1
 10
218.81699045
 20
445.55690401
 30
0.0
 11
218.81699045
 21
443.11940401
 31
0.0
  0
LINE
  5
1EA
  8
0
  6
STRICHPUNKT2
 62
     1
 10
218.81699045
 20
445.55690401
 30
0.0
 11
218.81699045
 21
447.99440401
 31
0.0
  0
CIRCLE
  5
1EB
  8
0
 10
218.81699045
 20
491.05690401
 30
0.0
 40
1.625
  0
LINE
  5
1EC
  8
0
 10
282.81699045
 20
496.05690401
 30
0.0
 11
207.81699045
 21
496.05690401
 31
0.0
  0
LINE
  5
1ED
  8
0
 10
207.81699045
 20
482.30690401
 30
0.0
 11
207.81699045
 21
496.05690401
 31
0.0
  0
LINE
  5
1EE
  8
0
 10
340.31699045
 20
496.05690401
 30
0.0
 11
340.31699045
 21
482.30690401
 31
0.0
  0
LINE
  5
1EF
  8
0
 10
340.31699045
 20
496.05690401
 30
0.0
 11
305.81699045
 21
496.05690401
 31
0.0
  0
POLYLINE
  5
1F0
  8
0
 66
     1
 10
0.0
 20
0.0
 30
0.0
  0
VERTEX
  5
65E
  8
0
 10
305.816990458325
 20
488.8069040122883
 30
0.0
  0
VERTEX
  5
65F
  8
0
 10
306.3508361819711
 20
489.1561325023827
 30
0.0
  0
VERTEX
  5
660
  8
0
 10
306.77233389912
 20
489.5752100652039
 30
0.0
  0
VERTEX
  5
661
  8
0
 10
307.0636487825025
 20
490.0464042774405
 30
0.0
  0
VERTEX
  5
662
  8
0
 10
307.2124544293536
 20
490.5497775046911
 30
0.0
  0
VERTEX
  5
663
  8
0
 10
307.212454428328
 20
491.0640305223225
 30
0.0
  0
VERTEX
  5
664
  8
0
 10
307.0636487794691
 20
491.5674037492764
 30
0.0
  0
VERTEX
  5
665
  8
0
 10
306.7723338942072
 20
492.038597960932
 30
0.0
  0
VERTEX
  5
666
  8
0
 10
306.3508361753867
 20
492.4576755229126
 30
0.0
  0
VERTEX
  5
667
  8
0
 10
305.8169904503477
 20
492.8069040119423
 30
0.0
  0
SEQEND
  5
975
  8
0
  0
LINE
  5
1F1
  8
0
 10
306.81699045
 20
485.55690401
 30
0.0
 11
305.81699045
 21
485.55690401
 31
0.0
  0
ARC
  5
1F2
  8
0
 10
306.81699045
 20
484.55690401
 30
0.0
 40
1.0
 50
0.0
 51
90.0
  0
ARC
  5
1F3
  8
0
 10
306.81699045
 20
484.55690401
 30
0.0
 40
1.0
 50
-90.0
 51
0.0
  0
LINE
  5
1F4
  8
0
 10
284.81699045
 20
483.55690401
 30
0.0
 11
306.81699045
 21
483.55690401
 31
0.0
  0
ARC
  5
1F5
  8
0
 10
284.81699045
 20
484.55690401
 30
0.0
 40
1.0
 50
180.0
 51
-90.0
  0
LINE
  5
1F6
  8
0
 10
283.81699045
 20
495.05690401
 30
0.0
 11
283.81699045
 21
484.55690401
 31
0.0
  0
ARC
  5
1F7
  8
0
 10
282.81699045
 20
495.05690401
 30
0.0
 40
1.0
 50
0.0
 51
90.0
  0
LINE
  5
1F8
  8
0
  6
STRICHPUNKT2
 62
     1
 10
218.81699045
 20
491.05690401
 30
0.0
 11
216.37949045
 21
491.05690401
 31
0.0
  0
LINE
  5
1F9
  8
0
  6
STRICHPUNKT2
 62
     1
 10
218.81699045
 20
491.05690401
 30
0.0
 11
221.25449045
 21
491.05690401
 31
0.0
  0
LINE
  5
1FA
  8
0
  6
STRICHPUNKT2
 62
     1
 10
218.81699045
 20
491.05690401
 30
0.0
 11
218.81699045
 21
488.61940401
 31
0.0
  0
LINE
  5
1FB
  8
0
  6
STRICHPUNKT2
 62
     1
 10
218.81699045
 20
491.05690401
 30
0.0
 11
218.81699045
 21
493.49440401
 31
0.0
  0
POLYLINE
  5
1FC
  8
0
 66
     1
 10
0.0
 20
0.0
 30
0.0
  0
VERTEX
  5
1FD
  8
0
 10
305.81699045
 20
488.806904
 30
0.0
  0
VERTEX
  5
1FE
  8
0
 10
305.71242081
 20
488.75528024
 30
0.0
  0
VERTEX
  5
1FF
  8
0
 10
305.60259302
 20
488.7086293
 30
0.0
  0
VERTEX
  5
200
  8
0
 10
305.48741052
 20
488.66705336
 30
0.0
  0
VERTEX
  5
201
  8
0
 10
305.36681457
 20
488.63068426
 30
0.0
  0
VERTEX
  5
202
  8
0
 10
305.24375442
 20
488.6003274
 30
0.0
  0
VERTEX
  5
203
  8
0
 10
305.11194711
 20
488.57471768
 30
0.0
  0
VERTEX
  5
204
  8
0
 10
304.98267665
 20
488.55652635
 30
0.0
  0
VERTEX
  5
205
  8
0
 10
304.8592213
 20
488.54601454
 30
0.0
  0
VERTEX
  5
206
  8
0
 10
304.75633028
 20
488.54305773
 30
0.0
  0
VERTEX
  5
207
  8
0
 10
304.65462442
 20
488.54658031
 30
0.0
  0
VERTEX
  5
208
  8
0
 10
304.57220167
 20
488.55624126
 30
0.0
  0
VERTEX
  5
209
  8
0
 10
304.50603611
 20
488.57084049
 30
0.0
  0
VERTEX
  5
20A
  8
0
 10
304.45349517
 20
488.58939806
 30
0.0
  0
VERTEX
  5
20B
  8
0
 10
304.43084455
 20
488.6003274
 30
0.0
  0
VERTEX
  5
20C
  8
0
 10
304.39471911
 20
488.62363476
 30
0.0
  0
VERTEX
  5
20D
  8
0
 10
304.36709786
 20
488.64971311
 30
0.0
  0
VERTEX
  5
20E
  8
0
 10
304.34622103
 20
488.6790497
 30
0.0
  0
VERTEX
  5
20F
  8
0
 10
304.33107252
 20
488.71252572
 30
0.0
  0
VERTEX
  5
210
  8
0
 10
304.32128978
 20
488.75143139
 30
0.0
  0
VERTEX
  5
211
  8
0
 10
304.31709971
 20
488.79749125
 30
0.0
  0
VERTEX
  5
212
  8
0
 10
304.31699046
 20
488.806904
 30
0.0
  0
SEQEND
  5
213
  8
0
  0
LINE
  5
214
  8
0
 10
304.31699045
 20
485.55690401
 30
0.0
 11
305.81699045
 21
485.55690401
 31
0.0
  0
POLYLINE
  5
215
  8
0
 66
     1
 10
0.0
 20
0.0
 30
0.0
  0
VERTEX
  5
216
  8
0
 10
304.31699046
 20
492.80690402
 30
0.0
  0
VERTEX
  5
217
  8
0
 10
304.3205209
 20
492.8575307
 30
0.0
  0
VERTEX
  5
218
  8
0
 10
304.33027507
 20
492.8989376
 30
0.0
  0
VERTEX
  5
219
  8
0
 10
304.34549573
 20
492.93348143
 30
0.0
  0
VERTEX
  5
21A
  8
0
 10
304.36605509
 20
492.96288667
 30
0.0
  0
VERTEX
  5
21B
  8
0
 10
304.39244466
 20
492.98836986
 30
0.0
  0
VERTEX
  5
21C
  8
0
 10
304.42577104
 20
493.01070473
 30
0.0
  0
VERTEX
  5
21D
  8
0
 10
304.43084455
 20
493.01348062
 30
0.0
  0
VERTEX
  5
21E
  8
0
 10
304.4742452
 20
493.03270211
 30
0.0
  0
VERTEX
  5
21F
  8
0
 10
304.52816179
 20
493.04872678
 30
0.0
  0
VERTEX
  5
220
  8
0
 10
304.594565
 20
493.06096176
 30
0.0
  0
VERTEX
  5
221
  8
0
 10
304.6757139
 20
493.0686026
 30
0.0
  0
VERTEX
  5
222
  8
0
 10
304.75633028
 20
493.07075029
 30
0.0
  0
VERTEX
  5
223
  8
0
 10
304.86893542
 20
493.06722771
 30
0.0
  0
VERTEX
  5
224
  8
0
 10
304.99183191
 20
493.05622689
 30
0.0
  0
VERTEX
  5
225
  8
0
 10
305.12194258
 20
493.03739458
 30
0.0
  0
VERTEX
  5
226
  8
0
 10
305.24375442
 20
493.01348062
 30
0.0
  0
VERTEX
  5
227
  8
0
 10
305.37793411
 20
492.98005551
 30
0.0
  0
VERTEX
  5
228
  8
0
 10
305.50493644
 20
492.94087919
 30
0.0
  0
VERTEX
  5
229
  8
0
 10
305.62511372
 20
492.89619836
 30
0.0
  0
VERTEX
  5
22A
  8
0
 10
305.73877799
 20
492.84621507
 30
0.0
  0
VERTEX
  5
22B
  8
0
 10
305.81699045
 20
492.80690402
 30
0.0
  0
SEQEND
  5
22C
  8
0
  0
LINE
  5
22D
  8
0
 10
305.81699045
 20
496.05690401
 30
0.0
 11
304.31699045
 21
496.05690401
 31
0.0
  0
LINE
  5
22E
  8
0
 10
304.31699045
 20
495.05690401
 30
0.0
 11
304.31699045
 21
486.55690401
 31
0.0
  0
LINE
  5
22F
  8
0
 10
302.81699045
 20
486.55690401
 30
0.0
 11
302.81699045
 21
495.05690401
 31
0.0
  0
LINE
  5
230
  8
0
 10
304.31699045
 20
496.05690401
 30
0.0
 11
304.31699045
 21
495.05690401
 31
0.0
  0
LINE
  5
231
  8
0
 10
304.31699045
 20
496.05690401
 30
0.0
 11
302.81699045
 21
496.05690401
 31
0.0
  0
LINE
  5
232
  8
0
 10
302.81699045
 20
495.05690401
 30
0.0
 11
302.81699045
 21
496.05690401
 31
0.0
  0
LINE
  5
233
  8
0
 10
302.81699045
 20
485.55690401
 30
0.0
 11
302.81699045
 21
486.55690401
 31
0.0
  0
LINE
  5
234
  8
0
 10
304.31699045
 20
485.55690401
 30
0.0
 11
302.81699045
 21
485.55690401
 31
0.0
  0
LINE
  5
235
  8
0
 10
304.31699045
 20
486.55690401
 30
0.0
 11
304.31699045
 21
485.55690401
 31
0.0
  0
LINE
  5
236
  8
0
  6
STRICHPUNKT2
 62
     1
 10
304.31699045
 20
490.80690401
 30
0.0
 11
305.12949045
 21
490.80690401
 31
0.0
  0
LINE
  5
237
  8
0
  6
STRICHPUNKT2
 62
     1
 10
302.00449045
 20
490.80690401
 30
0.0
 11
302.81699045
 21
490.80690401
 31
0.0
  0
POLYLINE
  5
238
  8
0
 66
     1
 10
0.0
 20
0.0
 30
0.0
  0
VERTEX
  5
239
  8
0
 10
304.31699046
 20
447.80690402
 30
0.0
  0
VERTEX
  5
23A
  8
0
 10
304.3205209
 20
447.8575307
 30
0.0
  0
VERTEX
  5
23B
  8
0
 10
304.33027507
 20
447.8989376
 30
0.0
  0
VERTEX
  5
23C
  8
0
 10
304.34549573
 20
447.93348143
 30
0.0
  0
VERTEX
  5
23D
  8
0
 10
304.36605509
 20
447.96288667
 30
0.0
  0
VERTEX
  5
23E
  8
0
 10
304.39244466
 20
447.98836986
 30
0.0
  0
VERTEX
  5
23F
  8
0
 10
304.42577104
 20
448.01070473
 30
0.0
  0
VERTEX
  5
240
  8
0
 10
304.43084455
 20
448.01348062
 30
0.0
  0
VERTEX
  5
241
  8
0
 10
304.4742452
 20
448.03270211
 30
0.0
  0
VERTEX
  5
242
  8
0
 10
304.52816179
 20
448.04872678
 30
0.0
  0
VERTEX
  5
243
  8
0
 10
304.594565
 20
448.06096176
 30
0.0
  0
VERTEX
  5
244
  8
0
 10
304.6757139
 20
448.0686026
 30
0.0
  0
VERTEX
  5
245
  8
0
 10
304.75633028
 20
448.07075029
 30
0.0
  0
VERTEX
  5
246
  8
0
 10
304.86893542
 20
448.06722771
 30
0.0
  0
VERTEX
  5
247
  8
0
 10
304.99183191
 20
448.05622689
 30
0.0
  0
VERTEX
  5
248
  8
0
 10
305.12194258
 20
448.03739458
 30
0.0
  0
VERTEX
  5
249
  8
0
 10
305.24375442
 20
448.01348062
 30
0.0
  0
VERTEX
  5
24A
  8
0
 10
305.37793411
 20
447.98005551
 30
0.0
  0
VERTEX
  5
24B
  8
0
 10
305.50493644
 20
447.94087919
 30
0.0
  0
VERTEX
  5
24C
  8
0
 10
305.62511372
 20
447.89619836
 30
0.0
  0
VERTEX
  5
24D
  8
0
 10
305.73877799
 20
447.84621507
 30
0.0
  0
VERTEX
  5
24E
  8
0
 10
305.81699045
 20
447.80690402
 30
0.0
  0
SEQEND
  5
24F
  8
0
  0
LINE
  5
250
  8
0
 10
305.81699045
 20
451.05690401
 30
0.0
 11
304.31699045
 21
451.05690401
 31
0.0
  0
POLYLINE
  5
251
  8
0
 66
     1
 10
0.0
 20
0.0
 30
0.0
  0
VERTEX
  5
252
  8
0
 10
305.81699045
 20
443.806904
 30
0.0
  0
VERTEX
  5
253
  8
0
 10
305.71242081
 20
443.75528024
 30
0.0
  0
VERTEX
  5
254
  8
0
 10
305.60259302
 20
443.7086293
 30
0.0
  0
VERTEX
  5
255
  8
0
 10
305.48741052
 20
443.66705336
 30
0.0
  0
VERTEX
  5
256
  8
0
 10
305.36681457
 20
443.63068426
 30
0.0
  0
VERTEX
  5
257
  8
0
 10
305.24375442
 20
443.6003274
 30
0.0
  0
VERTEX
  5
258
  8
0
 10
305.11194711
 20
443.57471768
 30
0.0
  0
VERTEX
  5
259
  8
0
 10
304.98267665
 20
443.55652635
 30
0.0
  0
VERTEX
  5
25A
  8
0
 10
304.8592213
 20
443.54601454
 30
0.0
  0
VERTEX
  5
25B
  8
0
 10
304.75633028
 20
443.54305773
 30
0.0
  0
VERTEX
  5
25C
  8
0
 10
304.65462442
 20
443.54658031
 30
0.0
  0
VERTEX
  5
25D
  8
0
 10
304.57220167
 20
443.55624126
 30
0.0
  0
VERTEX
  5
25E
  8
0
 10
304.50603611
 20
443.57084049
 30
0.0
  0
VERTEX
  5
25F
  8
0
 10
304.45349517
 20
443.58939806
 30
0.0
  0
VERTEX
  5
260
  8
0
 10
304.43084455
 20
443.6003274
 30
0.0
  0
VERTEX
  5
261
  8
0
 10
304.39471911
 20
443.62363476
 30
0.0
  0
VERTEX
  5
262
  8
0
 10
304.36709786
 20
443.64971311
 30
0.0
  0
VERTEX
  5
263
  8
0
 10
304.34622103
 20
443.6790497
 30
0.0
  0
VERTEX
  5
264
  8
0
 10
304.33107252
 20
443.71252572
 30
0.0
  0
VERTEX
  5
265
  8
0
 10
304.32128978
 20
443.75143139
 30
0.0
  0
VERTEX
  5
266
  8
0
 10
304.31709971
 20
443.79749125
 30
0.0
  0
VERTEX
  5
267
  8
0
 10
304.31699046
 20
443.806904
 30
0.0
  0
SEQEND
  5
268
  8
0
  0
LINE
  5
269
  8
0
 10
304.31699045
 20
440.55690401
 30
0.0
 11
305.81699045
 21
440.55690401
 31
0.0
  0
LINE
  5
26A
  8
0
 10
304.31699045
 20
450.05690401
 30
0.0
 11
304.31699045
 21
441.55690401
 31
0.0
  0
LINE
  5
26B
  8
0
 10
302.81699045
 20
441.55690401
 30
0.0
 11
302.81699045
 21
450.05690401
 31
0.0
  0
LINE
  5
26C
  8
0
 10
304.31699045
 20
451.05690401
 30
0.0
 11
304.31699045
 21
450.05690401
 31
0.0
  0
LINE
  5
26D
  8
0
 10
304.31699045
 20
451.05690401
 30
0.0
 11
302.81699045
 21
451.05690401
 31
0.0
  0
LINE
  5
26E
  8
0
 10
302.81699045
 20
450.05690401
 30
0.0
 11
302.81699045
 21
451.05690401
 31
0.0
  0
LINE
  5
26F
  8
0
 10
302.81699045
 20
440.55690401
 30
0.0
 11
302.81699045
 21
441.55690401
 31
0.0
  0
LINE
  5
270
  8
0
 10
302.81699045
 20
440.55690401
 30
0.0
 11
304.31699045
 21
440.55690401
 31
0.0
  0
LINE
  5
271
  8
0
 10
304.31699045
 20
441.55690401
 30
0.0
 11
304.31699045
 21
440.55690401
 31
0.0
  0
LINE
  5
272
  8
0
  6
STRICHPUNKT2
 62
     1
 10
304.31699045
 20
445.80690401
 30
0.0
 11
305.12949045
 21
445.80690401
 31
0.0
  0
LINE
  5
273
  8
0
  6
STRICHPUNKT2
 62
     1
 10
302.00449045
 20
445.80690401
 30
0.0
 11
302.81699045
 21
445.80690401
 31
0.0
  0
LINE
  5
274
  8
0
 10
103.09654886
 20
346.15908273
 30
0.0
 11
102.36578485
 21
347.76730071
 31
0.0
  0
LINE
  5
275
  8
0
 10
66.31362784
 20
336.09357457
 30
0.0
 11
65.58286383
 21
337.70179255
 31
0.0
  0
POLYLINE
  5
276
  8
0
 66
     1
 10
0.0
 20
0.0
 30
0.0
  0
VERTEX
  5
668
  8
0
 10
38.10449785456507
 20
376.2039618690194
 30
0.0
  0
VERTEX
  5
669
  8
0
 10
37.62558644139961
 20
376.02021655431
 30
0.0
  0
VERTEX
  5
66A
  8
0
 10
37.16405542002165
 20
375.7378662669898
 30
0.0
  0
VERTEX
  5
66B
  8
0
 10
36.73764116882531
 20
375.3677615703007
 30
0.0
  0
VERTEX
  5
66C
  8
0
 10
36.36273054841485
 20
374.9241253802372
 30
0.0
  0
VERTEX
  5
66D
  8
0
 10
36.05373116373897
 20
374.4240063868588
 30
0.0
  0
VERTEX
  5
66E
  8
0
 10
35.82251768791021
 20
373.8866238826892
 30
0.0
  0
VERTEX
  5
66F
  8
0
 10
35.67797552517479
 20
373.3326291760802
 30
0.0
  0
VERTEX
  5
670
  8
0
 10
35.62565934980906
 20
372.7833119730094
 30
0.0
  0
SEQEND
  5
976
  8
0
  0
POLYLINE
  5
277
  8
0
 66
     1
 10
0.0
 20
0.0
 30
0.0
  0
VERTEX
  5
671
  8
0
 10
114.4250996745651
 20
332.2736611390194
 30
0.0
  0
VERTEX
  5
672
  8
0
 10
113.9461882613996
 20
332.08991582431
 30
0.0
  0
VERTEX
  5
673
  8
0
 10
113.4846572400216
 20
331.8075655369898
 30
0.0
  0
VERTEX
  5
674
  8
0
 10
113.0582429888253
 20
331.4374608403007
 30
0.0
  0
VERTEX
  5
675
  8
0
 10
112.6833323684149
 20
330.9938246502372
 30
0.0
  0
VERTEX
  5
676
  8
0
 10
112.374332983739
 20
330.4937056568588
 30
0.0
  0
VERTEX
  5
677
  8
0
 10
112.1431195079102
 20
329.9563231526892
 30
0.0
  0
VERTEX
  5
678
  8
0
 10
111.9985773451748
 20
329.4023284460802
 30
0.0
  0
VERTEX
  5
679
  8
0
 10
111.946261169809
 20
328.8530112430094
 30
0.0
  0
SEQEND
  5
977
  8
0
  0
POLYLINE
  5
278
  8
0
 66
     1
 10
0.0
 20
0.0
 30
0.0
  0
VERTEX
  5
67A
  8
0
 10
114.4117777872825
 20
330.8988531295097
 30
0.0
  0
VERTEX
  5
67B
  8
0
 10
114.1723220806998
 20
330.806980472155
 30
0.0
  0
VERTEX
  5
67C
  8
0
 10
113.9415565700108
 20
330.6658053284949
 30
0.0
  0
VERTEX
  5
67D
  8
0
 10
113.7283494444127
 20
330.4807529801503
 30
0.0
  0
VERTEX
  5
67E
  8
0
 10
113.5408941342074
 20
330.2589348851186
 30
0.0
  0
VERTEX
  5
67F
  8
0
 10
113.3863944418695
 20
330.0088753884294
 30
0.0
  0
VERTEX
  5
680
  8
0
 10
113.2707877039551
 20
329.7401841363446
 30
0.0
  0
VERTEX
  5
681
  8
0
 10
113.1985166225874
 20
329.4631867830401
 30
0.0
  0
VERTEX
  5
682
  8
0
 10
113.1723585349045
 20
329.1885281815046
 30
0.0
  0
SEQEND
  5
978
  8
0
  0
POLYLINE
  5
279
  8
0
 66
     1
 10
0.0
 20
0.0
 30
0.0
  0
VERTEX
  5
683
  8
0
 10
93.03617484279509
 20
327.9093086092913
 30
0.0
  0
VERTEX
  5
684
  8
0
 10
92.3922556936738
 20
327.9331342561102
 30
0.0
  0
VERTEX
  5
685
  8
0
 10
91.75185554967317
 20
327.9056666281119
 30
0.0
  0
VERTEX
  5
686
  8
0
 10
91.14024631460785
 20
327.8279896714187
 30
0.0
  0
VERTEX
  5
687
  8
0
 10
90.58156372596248
 20
327.7031687266563
 30
0.0
  0
VERTEX
  5
688
  8
0
 10
90.09785489408736
 20
327.5361295624081
 30
0.0
  0
SEQEND
  5
979
  8
0
  0
POLYLINE
  5
27A
  8
0
 66
     1
 10
0.0
 20
0.0
 30
0.0
  0
VERTEX
  5
27B
  8
0
 10
93.03617485
 20
327.90930861
 30
0.0
  0
VERTEX
  5
27C
  8
0
 10
102.39637816
 20
327.18468039
 30
0.0
  0
SEQEND
  5
27D
  8
0
  0
POLYLINE
  5
27E
  8
0
 66
     1
 10
0.0
 20
0.0
 30
0.0
  0
VERTEX
  5
689
  8
0
 10
105.09147944
 20
325.87722295
 30
0.0
  0
VERTEX
  5
68A
  8
0
 10
105.0289166595026
 20
326.1365829546065
 30
0.0
  0
VERTEX
  5
68B
  8
0
 10
104.838719462904
 20
326.3868179733554
 30
0.0
  0
VERTEX
  5
68C
  8
0
 10
104.5285042732103
 20
326.6179073761438
 30
0.0
  0
VERTEX
  5
68D
  8
0
 10
104.1106936189863
 20
326.8205972166706
 30
0.0
  0
VERTEX
  5
68E
  8
0
 10
103.6020186757488
 20
326.9867708055623
 30
0.0
  0
VERTEX
  5
68F
  8
0
 10
103.0228492681307
 20
327.1097737421857
 30
0.0
  0
VERTEX
  5
690
  8
0
 10
102.3963781627951
 20
327.1846803892913
 30
0.0
  0
SEQEND
  5
97A
  8
0
  0
POLYLINE
  5
27F
  8
0
 66
     1
 10
0.0
 20
0.0
 30
0.0
  0
VERTEX
  5
691
  8
0
 10
101.2868858457098
 20
324.6327475115986
 30
0.0
  0
VERTEX
  5
692
  8
0
 10
101.911902767462
 20
324.6088902653647
 30
0.0
  0
VERTEX
  5
693
  8
0
 10
102.5343059148047
 20
324.6333809522777
 30
0.0
  0
VERTEX
  5
694
  8
0
 10
103.1309445280509
 20
324.705308622562
 30
0.0
  0
VERTEX
  5
695
  8
0
 10
103.6796261790069
 20
324.8219978716722
 30
0.0
  0
VERTEX
  5
696
  8
0
 10
104.1599422352612
 20
324.9791083540047
 30
0.0
  0
VERTEX
  5
697
  8
0
 10
104.5540269748304
 20
325.1707962253627
 30
0.0
  0
VERTEX
  5
698
  8
0
 10
104.847222115312
 20
325.389931509197
 30
0.0
  0
VERTEX
  5
699
  8
0
 10
105.0286220398762
 20
325.6283633015209
 30
0.0
  0
VERTEX
  5
69A
  8
0
 10
105.09147944
 20
325.87722295
 30
0.0
  0
SEQEND
  5
97B
  8
0
  0
LINE
  5
280
  8
0
 10
101.28688586
 20
324.63274751
 30
0.0
 11
93.6438967
 21
325.22443612
 31
0.0
  0
POLYLINE
  5
281
  8
0
 66
     1
 10
0.0
 20
0.0
 30
0.0
  0
VERTEX
  5
69B
  8
0
 10
104.5928647942474
 20
325.1945859686049
 30
0.0
  0
VERTEX
  5
69C
  8
0
 10
104.1727687077811
 20
325.4147864362223
 30
0.0
  0
VERTEX
  5
69D
  8
0
 10
103.6482607969606
 20
325.5957563793509
 30
0.0
  0
VERTEX
  5
69E
  8
0
 10
103.0427003262131
 20
325.7294361964715
 30
0.0
  0
VERTEX
  5
69F
  8
0
 10
102.3830562827951
 20
325.8098723792913
 30
0.0
  0
SEQEND
  5
97C
  8
0
  0
POLYLINE
  5
282
  8
0
 66
     1
 10
0.0
 20
0.0
 30
0.0
  0
VERTEX
  5
283
  8
0
 10
102.38305628
 20
325.80987238
 30
0.0
  0
VERTEX
  5
284
  8
0
 10
93.02285297
 20
326.5345006
 30
0.0
  0
SEQEND
  5
285
  8
0
  0
POLYLINE
  5
286
  8
0
 66
     1
 10
0.0
 20
0.0
 30
0.0
  0
VERTEX
  5
6A0
  8
0
 10
93.02285296279508
 20
326.5345005992913
 30
0.0
  0
VERTEX
  5
6A1
  8
0
 10
92.42658490119427
 20
326.5583215684478
 30
0.0
  0
VERTEX
  5
6A2
  8
0
 10
91.83172342926814
 20
326.5381111430808
 30
0.0
  0
SEQEND
  5
97D
  8
0
  0
POLYLINE
  5
287
  8
0
 66
     1
 10
0.0
 20
0.0
 30
0.0
  0
VERTEX
  5
6A3
  8
0
 10
84.39610671279509
 20
332.8825502092913
 30
0.0
  0
VERTEX
  5
6A4
  8
0
 10
83.7521875636738
 20
332.9063758561102
 30
0.0
  0
VERTEX
  5
6A5
  8
0
 10
83.11178741967316
 20
332.8789082281119
 30
0.0
  0
VERTEX
  5
6A6
  8
0
 10
82.50017818460785
 20
332.8012312714187
 30
0.0
  0
VERTEX
  5
6A7
  8
0
 10
81.94149559596248
 20
332.6764103266563
 30
0.0
  0
VERTEX
  5
6A8
  8
0
 10
81.45778676408736
 20
332.5093711624081
 30
0.0
  0
SEQEND
  5
97E
  8
0
  0
POLYLINE
  5
288
  8
0
 66
     1
 10
0.0
 20
0.0
 30
0.0
  0
VERTEX
  5
289
  8
0
 10
84.39610672
 20
332.88255021
 30
0.0
  0
VERTEX
  5
28A
  8
0
 10
93.75631003
 20
332.15792198
 30
0.0
  0
SEQEND
  5
28B
  8
0
  0
POLYLINE
  5
28C
  8
0
 66
     1
 10
0.0
 20
0.0
 30
0.0
  0
VERTEX
  5
6A9
  8
0
 10
96.45141131
 20
330.85046454
 30
0.0
  0
VERTEX
  5
6AA
  8
0
 10
96.38884852950261
 20
331.1098245446065
 30
0.0
  0
VERTEX
  5
6AB
  8
0
 10
96.19865133290395
 20
331.3600595633554
 30
0.0
  0
VERTEX
  5
6AC
  8
0
 10
95.88843614321028
 20
331.5911489661438
 30
0.0
  0
VERTEX
  5
6AD
  8
0
 10
95.47062548898631
 20
331.7938388066706
 30
0.0
  0
VERTEX
  5
6AE
  8
0
 10
94.9619505457488
 20
331.9600123955623
 30
0.0
  0
VERTEX
  5
6AF
  8
0
 10
94.38278113813067
 20
332.0830153321857
 30
0.0
  0
VERTEX
  5
6B0
  8
0
 10
93.75631003279508
 20
332.1579219792912
 30
0.0
  0
SEQEND
  5
97F
  8
0
  0
POLYLINE
  5
28D
  8
0
 66
     1
 10
0.0
 20
0.0
 30
0.0
  0
VERTEX
  5
6B1
  8
0
 10
92.64681771570976
 20
329.6059891015986
 30
0.0
  0
VERTEX
  5
6B2
  8
0
 10
93.27183463746204
 20
329.5821318553647
 30
0.0
  0
VERTEX
  5
6B3
  8
0
 10
93.89423778480467
 20
329.6066225422776
 30
0.0
  0
VERTEX
  5
6B4
  8
0
 10
94.49087639805093
 20
329.678550212562
 30
0.0
  0
VERTEX
  5
6B5
  8
0
 10
95.03955804900689
 20
329.7952394616722
 30
0.0
  0
VERTEX
  5
6B6
  8
0
 10
95.51987410526117
 20
329.9523499440047
 30
0.0
  0
VERTEX
  5
6B7
  8
0
 10
95.9139588448304
 20
330.1440378153627
 30
0.0
  0
VERTEX
  5
6B8
  8
0
 10
96.207153985312
 20
330.363173099197
 30
0.0
  0
VERTEX
  5
6B9
  8
0
 10
96.3885539098762
 20
330.6016048915209
 30
0.0
  0
VERTEX
  5
6BA
  8
0
 10
96.45141131
 20
330.85046454
 30
0.0
  0
SEQEND
  5
980
  8
0
  0
LINE
  5
28E
  8
0
 10
92.64681772
 20
329.6059891
 30
0.0
 11
85.54696726
 21
330.15563016
 31
0.0
  0
POLYLINE
  5
28F
  8
0
 66
     1
 10
0.0
 20
0.0
 30
0.0
  0
VERTEX
  5
6BB
  8
0
 10
95.95279666424743
 20
330.1678275586049
 30
0.0
  0
VERTEX
  5
6BC
  8
0
 10
95.5327005777811
 20
330.3880280262223
 30
0.0
  0
VERTEX
  5
6BD
  8
0
 10
95.0081926669606
 20
330.5689979693509
 30
0.0
  0
VERTEX
  5
6BE
  8
0
 10
94.4026321962131
 20
330.7026777864715
 30
0.0
  0
VERTEX
  5
6BF
  8
0
 10
93.74298815279509
 20
330.7831139692913
 30
0.0
  0
SEQEND
  5
981
  8
0
  0
POLYLINE
  5
290
  8
0
 66
     1
 10
0.0
 20
0.0
 30
0.0
  0
VERTEX
  5
291
  8
0
 10
93.74298815
 20
330.78311397
 30
0.0
  0
VERTEX
  5
292
  8
0
 10
84.38278484
 20
331.5077422
 30
0.0
  0
SEQEND
  5
293
  8
0
  0
POLYLINE
  5
294
  8
0
 66
     1
 10
0.0
 20
0.0
 30
0.0
  0
VERTEX
  5
6C0
  8
0
 10
84.3827848327951
 20
331.5077421992913
 30
0.0
  0
VERTEX
  5
6C1
  8
0
 10
83.78651677119429
 20
331.5315631684477
 30
0.0
  0
VERTEX
  5
6C2
  8
0
 10
83.19165529926815
 20
331.5113527430807
 30
0.0
  0
SEQEND
  5
982
  8
0
  0
POLYLINE
  5
295
  8
0
 66
     1
 10
0.0
 20
0.0
 30
0.0
  0
VERTEX
  5
6C3
  8
0
 10
29.61114847003825
 20
363.5969862339471
 30
0.0
  0
VERTEX
  5
6C4
  8
0
 10
29.66190789088325
 20
363.381966793042
 30
0.0
  0
VERTEX
  5
6C5
  8
0
 10
29.81639265242784
 20
363.174186428856
 30
0.0
  0
VERTEX
  5
6C6
  8
0
 10
30.06866599190838
 20
362.9816300242783
 30
0.0
  0
VERTEX
  5
6C7
  8
0
 10
30.40903318634307
 20
362.8116974139666
 30
0.0
  0
VERTEX
  5
6C8
  8
0
 10
30.82441411530012
 20
362.6709190128511
 30
0.0
  0
VERTEX
  5
6C9
  8
0
 10
31.29884592259164
 20
362.5647048559492
 30
0.0
  0
VERTEX
  5
6CA
  8
0
 10
31.81409645988633
 20
362.4971366937546
 30
0.0
  0
VERTEX
  5
6CB
  8
0
 10
32.35036493794665
 20
362.4708111328536
 30
0.0
  0
VERTEX
  5
6CC
  8
0
 10
32.88704285985665
 20
362.4867398497904
 30
0.0
  0
VERTEX
  5
6CD
  8
0
 10
33.40350599400278
 20
362.5443107129047
 30
0.0
  0
VERTEX
  5
6CE
  8
0
 10
33.87990695173045
 20
362.6413113062079
 30
0.0
  0
VERTEX
  5
6CF
  8
0
 10
34.29793791136123
 20
362.7740139512897
 30
0.0
  0
VERTEX
  5
6D0
  8
0
 10
34.64153417751436
 20
362.9373189599083
 30
0.0
  0
VERTEX
  5
6D1
  8
0
 10
34.89749153834251
 20
363.1249506121508
 30
0.0
  0
VERTEX
  5
6D2
  8
0
 10
35.0559736959892
 20
363.32969832883
 30
0.0
  0
VERTEX
  5
6D3
  8
0
 10
35.11089027
 20
363.54369377
 30
0.0
  0
SEQEND
  5
983
  8
0
  0
POLYLINE
  5
296
  8
0
 66
     1
 10
0.0
 20
0.0
 30
0.0
  0
VERTEX
  5
6D4
  8
0
 10
35.11089027
 20
363.54369377
 30
0.0
  0
VERTEX
  5
6D5
  8
0
 10
35.06013084746448
 20
363.7587132103616
 30
0.0
  0
VERTEX
  5
6D6
  8
0
 10
34.90564608476543
 20
363.9664935739063
 30
0.0
  0
VERTEX
  5
6D7
  8
0
 10
34.65337274468381
 20
364.1590499778061
 30
0.0
  0
VERTEX
  5
6D8
  8
0
 10
34.31300555018036
 20
364.3289825874627
 30
0.0
  0
VERTEX
  5
6D9
  8
0
 10
33.89762462162992
 20
364.4697609880011
 30
0.0
  0
VERTEX
  5
6DA
  8
0
 10
33.423192815132
 20
364.5759751444505
 30
0.0
  0
VERTEX
  5
6DB
  8
0
 10
32.90794227890439
 20
364.6435433063534
 30
0.0
  0
VERTEX
  5
6DC
  8
0
 10
32.37167380205335
 20
364.6698688671464
 30
0.0
  0
VERTEX
  5
6DD
  8
0
 10
31.83499588135451
 20
364.6539401502941
 30
0.0
  0
VERTEX
  5
6DE
  8
0
 10
31.3185327482809
 20
364.5963692874508
 30
0.0
  0
VERTEX
  5
6DF
  8
0
 10
30.84213179135546
 20
364.4993686945845
 30
0.0
  0
VERTEX
  5
6E0
  8
0
 10
30.42410083214239
 20
364.366666050072
 30
0.0
  0
VERTEX
  5
6E1
  8
0
 10
30.0805045659332
 20
364.2033610421096
 30
0.0
  0
VERTEX
  5
6E2
  8
0
 10
29.82454720451722
 20
364.0157293905567
 30
0.0
  0
VERTEX
  5
6E3
  8
0
 10
29.66606504572872
 20
363.810981674541
 30
0.0
  0
VERTEX
  5
6E4
  8
0
 10
29.61114847003825
 20
363.5969862339471
 30
0.0
  0
SEQEND
  5
984
  8
0
  0
POLYLINE
  5
297
  8
0
 66
     1
 10
0.0
 20
0.0
 30
0.0
  0
VERTEX
  5
6E5
  8
0
 10
34.50057821874925
 20
362.8621391425648
 30
0.0
  0
VERTEX
  5
6E6
  8
0
 10
34.11990511712018
 20
363.0219150509428
 30
0.0
  0
VERTEX
  5
6E7
  8
0
 10
33.66929246604398
 20
363.1490780430526
 30
0.0
  0
VERTEX
  5
6E8
  8
0
 10
33.16652353499155
 20
363.2386096762251
 30
0.0
  0
VERTEX
  5
6E9
  8
0
 10
32.63143992264224
 20
363.2869766161097
 30
0.0
  0
VERTEX
  5
6EA
  8
0
 10
32.08515851518455
 20
363.2922700784691
 30
0.0
  0
VERTEX
  5
6EB
  8
0
 10
31.54923811584457
 20
363.254281158677
 30
0.0
  0
VERTEX
  5
6EC
  8
0
 10
31.04482863431451
 20
363.1745090760648
 30
0.0
  0
VERTEX
  5
6ED
  8
0
 10
30.59183641302014
 20
363.0561020077598
 30
0.0
  0
VERTEX
  5
6EE
  8
0
 10
30.20813863033242
 20
362.903732846984
 30
0.0
  0
SEQEND
  5
985
  8
0
  0
POLYLINE
  5
298
  8
0
 66
     1
 10
0.0
 20
0.0
 30
0.0
  0
VERTEX
  5
6EF
  8
0
 10
75.69151183003824
 20
337.073031073947
 30
0.0
  0
VERTEX
  5
6F0
  8
0
 10
75.74227125097597
 20
336.858011632851
 30
0.0
  0
VERTEX
  5
6F1
  8
0
 10
75.89675601279538
 20
336.6502312684943
 30
0.0
  0
VERTEX
  5
6F2
  8
0
 10
76.14902935271161
 20
336.457674863787
 30
0.0
  0
VERTEX
  5
6F3
  8
0
 10
76.48939654770881
 20
336.2877422534052
 30
0.0
  0
VERTEX
  5
6F4
  8
0
 10
76.90477747731012
 20
336.1469638522931
 30
0.0
  0
VERTEX
  5
6F5
  8
0
 10
77.37920928527436
 20
336.0407496954782
 30
0.0
  0
VERTEX
  5
6F6
  8
0
 10
77.89445982321172
 20
335.9731815334576
 30
0.0
  0
VERTEX
  5
6F7
  8
0
 10
78.43072830182454
 20
335.946855972816
 30
0.0
  0
VERTEX
  5
6F8
  8
0
 10
78.96740622413874
 20
335.9627846900893
 30
0.0
  0
VERTEX
  5
6F9
  8
0
 10
79.48386935848835
 20
336.0203555536029
 30
0.0
  0
VERTEX
  5
6FA
  8
0
 10
79.9602703161754
 20
336.1173561473495
 30
0.0
  0
VERTEX
  5
6FB
  8
0
 10
80.37830127549029
 20
336.2500587928944
 30
0.0
  0
VERTEX
  5
6FC
  8
0
 10
80.72189754103563
 20
336.4133638019694
 30
0.0
  0
VERTEX
  5
6FD
  8
0
 10
80.97785490096382
 20
336.6009954546325
 30
0.0
  0
VERTEX
  5
6FE
  8
0
 10
81.13633705743536
 20
336.8057431716677
 30
0.0
  0
VERTEX
  5
6FF
  8
0
 10
81.19125363003006
 20
337.0197386131011
 30
0.0
  0
SEQEND
  5
986
  8
0
  0
POLYLINE
  5
299
  8
0
 66
     1
 10
0.0
 20
0.0
 30
0.0
  0
VERTEX
  5
700
  8
0
 10
81.19125363
 20
337.01973861
 30
0.0
  0
VERTEX
  5
701
  8
0
 10
81.14049420746449
 20
337.2347580503616
 30
0.0
  0
VERTEX
  5
702
  8
0
 10
80.98600944476543
 20
337.4425384139063
 30
0.0
  0
VERTEX
  5
703
  8
0
 10
80.73373610468383
 20
337.6350948178061
 30
0.0
  0
VERTEX
  5
704
  8
0
 10
80.39336891018036
 20
337.8050274274627
 30
0.0
  0
VERTEX
  5
705
  8
0
 10
79.97798798162992
 20
337.9458058280011
 30
0.0
  0
VERTEX
  5
706
  8
0
 10
79.503556175132
 20
338.0520199844505
 30
0.0
  0
VERTEX
  5
707
  8
0
 10
78.98830563890438
 20
338.1195881463534
 30
0.0
  0
VERTEX
  5
708
  8
0
 10
78.45203716205334
 20
338.1459137071463
 30
0.0
  0
VERTEX
  5
709
  8
0
 10
77.91535924135451
 20
338.1299849902941
 30
0.0
  0
VERTEX
  5
70A
  8
0
 10
77.3988961082809
 20
338.0724141274508
 30
0.0
  0
VERTEX
  5
70B
  8
0
 10
76.92249515135545
 20
337.9754135345845
 30
0.0
  0
VERTEX
  5
70C
  8
0
 10
76.50446419214238
 20
337.8427108900719
 30
0.0
  0
VERTEX
  5
70D
  8
0
 10
76.16086792593319
 20
337.6794058821096
 30
0.0
  0
VERTEX
  5
70E
  8
0
 10
75.90491056451722
 20
337.4917742305567
 30
0.0
  0
VERTEX
  5
70F
  8
0
 10
75.74642840572871
 20
337.287026514541
 30
0.0
  0
VERTEX
  5
710
  8
0
 10
75.69151183003824
 20
337.073031073947
 30
0.0
  0
SEQEND
  5
987
  8
0
  0
POLYLINE
  5
29A
  8
0
 66
     1
 10
0.0
 20
0.0
 30
0.0
  0
VERTEX
  5
711
  8
0
 10
80.58094157874925
 20
336.3381839825648
 30
0.0
  0
VERTEX
  5
712
  8
0
 10
80.20026847712018
 20
336.4979598909428
 30
0.0
  0
VERTEX
  5
713
  8
0
 10
79.74965582604398
 20
336.6251228830525
 30
0.0
  0
VERTEX
  5
714
  8
0
 10
79.24688689499155
 20
336.714654516225
 30
0.0
  0
VERTEX
  5
715
  8
0
 10
78.71180328264224
 20
336.7630214561096
 30
0.0
  0
VERTEX
  5
716
  8
0
 10
78.16552187518454
 20
336.7683149184691
 30
0.0
  0
VERTEX
  5
717
  8
0
 10
77.62960147584457
 20
336.730325998677
 30
0.0
  0
VERTEX
  5
718
  8
0
 10
77.1251919943145
 20
336.6505539160648
 30
0.0
  0
VERTEX
  5
719
  8
0
 10
76.67219977302014
 20
336.5321468477598
 30
0.0
  0
VERTEX
  5
71A
  8
0
 10
76.2885019903324
 20
336.379777686984
 30
0.0
  0
SEQEND
  5
988
  8
0
  0
LINE
  5
29B
  8
0
 10
23.30303989
 20
365.98336713
 30
0.0
 11
34.36625728
 21
369.01077501
 31
0.0
  0
LINE
  5
29C
  8
0
 10
110.6868591
 20
325.08047428
 30
0.0
 11
95.15629244
 21
320.83059305
 31
0.0
  0
LINE
  5
29D
  8
0
 10
110.67353722
 20
323.70566627
 30
0.0
 11
95.14297056
 21
319.45578504
 31
0.0
  0
LINE
  5
29E
  8
0
  6
STRICHPUNKT2
 62
     1
 10
78.45359446
 20
338.30662552
 30
0.0
 11
78.43072831
 21
335.94685598
 31
0.0
  0
LINE
  5
29F
  8
0
  6
STRICHPUNKT2
 62
     1
 10
78.44138273
 20
337.04638484
 30
0.0
 11
76.065364
 21
338.41402628
 31
0.0
  0
LINE
  5
2A0
  8
0
  6
STRICHPUNKT2
 62
     1
 10
78.44138273
 20
337.04638484
 30
0.0
 11
80.81740147
 21
335.67874341
 31
0.0
  0
LINE
  5
2A1
  8
0
  6
STRICHPUNKT2
 62
     1
 10
78.44138273
 20
337.04638484
 30
0.0
 11
75.14344868
 21
336.14391758
 31
0.0
  0
LINE
  5
2A2
  8
0
  6
STRICHPUNKT2
 62
     1
 10
78.44138273
 20
337.04638484
 30
0.0
 11
81.81315049
 21
337.96905643
 31
0.0
  0
LINE
  5
2A3
  8
0
  6
STRICHPUNKT2
 62
     1
 10
77.90582548
 20
335.97217663
 30
0.0
 11
76.84404836
 21
336.58333779
 31
0.0
  0
LINE
  5
2A4
  8
0
  6
STRICHPUNKT2
 62
     1
 10
32.37323109
 20
364.83058068
 30
0.0
 11
32.35036494
 21
362.47081114
 31
0.0
  0
LINE
  5
2A5
  8
0
  6
STRICHPUNKT2
 62
     1
 10
32.36101937
 20
363.57034
 30
0.0
 11
29.98500063
 21
364.93798144
 31
0.0
  0
LINE
  5
2A6
  8
0
  6
STRICHPUNKT2
 62
     1
 10
32.36101937
 20
363.57034
 30
0.0
 11
34.73703811
 21
362.20269857
 31
0.0
  0
LINE
  5
2A7
  8
0
  6
STRICHPUNKT2
 62
     1
 10
32.36101937
 20
363.57034
 30
0.0
 11
29.06308532
 21
362.66787274
 31
0.0
  0
LINE
  5
2A8
  8
0
  6
STRICHPUNKT2
 62
     1
 10
32.36101937
 20
363.57034
 30
0.0
 11
35.73278713
 21
364.49301159
 31
0.0
  0
LINE
  5
2A9
  8
0
  6
STRICHPUNKT2
 62
     1
 10
31.82546211
 20
362.49613179
 30
0.0
 11
30.763685
 21
363.10729295
 31
0.0
  0
LINE
  5
2AA
  8
0
  6
STRICHPUNKT2
 62
     1
 10
83.85468244
 20
332.98139178
 30
0.0
 11
83.83683921
 21
331.1399835
 31
0.0
  0
LINE
  5
2AB
  8
0
  6
STRICHPUNKT2
 62
     1
 10
93.21488576
 20
332.25676355
 30
0.0
 11
93.18897228
 21
329.58251233
 31
0.0
  0
LINE
  5
2AC
  8
0
  6
STRICHPUNKT2
 62
     1
 10
82.8995386
 20
331.67949573
 30
0.0
 11
97.88166554
 21
330.51964143
 31
0.0
  0
LINE
  5
2AD
  8
0
  6
STRICHPUNKT2
 62
     1
 10
83.67819892
 20
331.23129719
 30
0.0
 11
84.6521434
 21
333.47145779
 31
0.0
  0
LINE
  5
2AE
  8
0
  6
STRICHPUNKT2
 62
     1
 10
92.39078104
 20
329.01708151
 30
0.0
 11
94.01234672
 21
332.74682957
 31
0.0
  0
LINE
  5
2AF
  8
0
  6
STRICHPUNKT2
 62
     1
 10
84.14562245
 20
330.96224721
 30
0.0
 11
84.38278484
 21
331.5077422
 31
0.0
  0
LINE
  5
2B0
  8
0
  6
STRICHPUNKT2
 62
     1
 10
93.22090077
 20
329.58226566
 30
0.0
 11
93.74298815
 21
330.78311397
 31
0.0
  0
LINE
  5
2B1
  8
0
  6
STRICHPUNKT2
 62
     1
 10
92.49475057
 20
328.00815018
 30
0.0
 11
92.47690734
 21
326.16674191
 31
0.0
  0
LINE
  5
2B2
  8
0
  6
STRICHPUNKT2
 62
     1
 10
101.85495389
 20
327.28352196
 30
0.0
 11
101.82904041
 21
324.60927074
 31
0.0
  0
LINE
  5
2B3
  8
0
  6
STRICHPUNKT2
 62
     1
 10
91.53960673
 20
326.70625413
 30
0.0
 11
106.52173367
 21
325.54639984
 31
0.0
  0
LINE
  5
2B4
  8
0
  6
STRICHPUNKT2
 62
     1
 10
92.31826705
 20
326.2580556
 30
0.0
 11
93.29221153
 21
328.4982162
 31
0.0
  0
LINE
  5
2B5
  8
0
  6
STRICHPUNKT2
 62
     1
 10
101.03084917
 20
324.04383992
 30
0.0
 11
102.65241485
 21
327.77358798
 31
0.0
  0
LINE
  5
2B6
  8
0
  6
STRICHPUNKT2
 62
     1
 10
92.78569058
 20
325.98900562
 30
0.0
 11
93.02285297
 21
326.5345006
 31
0.0
  0
LINE
  5
2B7
  8
0
  6
STRICHPUNKT2
 62
     1
 10
101.8609689
 20
324.60902407
 30
0.0
 11
102.38305628
 21
325.80987238
 31
0.0
  0
POLYLINE
  5
2B8
  8
0
 66
     1
 10
0.0
 20
0.0
 30
0.0
  0
VERTEX
  5
71B
  8
0
 10
110.6868590971189
 20
325.0804742816948
 30
0.0
  0
VERTEX
  5
71C
  8
0
 10
110.9263148036264
 20
325.1723469399892
 30
0.0
  0
VERTEX
  5
71D
  8
0
 10
111.1570803140739
 20
325.3135220845065
 30
0.0
  0
VERTEX
  5
71E
  8
0
 10
111.3702874392736
 20
325.498574433593
 30
0.0
  0
VERTEX
  5
71F
  8
0
 10
111.5577427489387
 20
325.7203925292229
 30
0.0
  0
VERTEX
  5
720
  8
0
 10
111.7122424406156
 20
325.9704520263433
 30
0.0
  0
VERTEX
  5
721
  8
0
 10
111.8278491777734
 20
326.2391432786759
 30
0.0
  0
VERTEX
  5
722
  8
0
 10
111.9001202583182
 20
326.5161406320353
 30
0.0
  0
VERTEX
  5
723
  8
0
 10
111.9262783451433
 20
326.7907992334306
 30
0.0
  0
SEQEND
  5
989
  8
0
  0
POLYLINE
  5
2B9
  8
0
 66
     1
 10
0.0
 20
0.0
 30
0.0
  0
VERTEX
  5
724
  8
0
 10
34.3662572771189
 20
369.0107750116948
 30
0.0
  0
VERTEX
  5
725
  8
0
 10
34.6057129836264
 20
369.1026476699892
 30
0.0
  0
VERTEX
  5
726
  8
0
 10
34.83647849407387
 20
369.2438228145065
 30
0.0
  0
VERTEX
  5
727
  8
0
 10
35.04968561927358
 20
369.428875163593
 30
0.0
  0
VERTEX
  5
728
  8
0
 10
35.23714092893867
 20
369.6506932592229
 30
0.0
  0
VERTEX
  5
729
  8
0
 10
35.39164062061559
 20
369.9007527563433
 30
0.0
  0
VERTEX
  5
72A
  8
0
 10
35.50724735777344
 20
370.1694440086759
 30
0.0
  0
VERTEX
  5
72B
  8
0
 10
35.57951843831819
 20
370.4464413620353
 30
0.0
  0
VERTEX
  5
72C
  8
0
 10
35.60567652514329
 20
370.7210999634306
 30
0.0
  0
SEQEND
  5
98A
  8
0
  0
POLYLINE
  5
2BA
  8
0
 66
     1
 10
0.0
 20
0.0
 30
0.0
  0
VERTEX
  5
72D
  8
0
 10
110.6735372142378
 20
323.7056662733895
 30
0.0
  0
VERTEX
  5
72E
  8
0
 10
111.1524486272528
 20
323.8894115899782
 30
0.0
  0
VERTEX
  5
72F
  8
0
 10
111.6139796481477
 20
324.171761879013
 30
0.0
  0
VERTEX
  5
730
  8
0
 10
112.0403938985472
 20
324.541866577186
 30
0.0
  0
VERTEX
  5
731
  8
0
 10
112.4153045178773
 20
324.9855027684457
 30
0.0
  0
VERTEX
  5
732
  8
0
 10
112.7243039012312
 20
325.4856217626865
 30
0.0
  0
VERTEX
  5
733
  8
0
 10
112.9555173755469
 20
326.0230042673518
 30
0.0
  0
VERTEX
  5
734
  8
0
 10
113.1000595366364
 20
326.5769989740706
 30
0.0
  0
VERTEX
  5
735
  8
0
 10
113.1523757102866
 20
327.1263161768612
 30
0.0
  0
SEQEND
  5
98B
  8
0
  0
POLYLINE
  5
2BB
  8
0
 66
     1
 10
0.0
 20
0.0
 30
0.0
  0
VERTEX
  5
736
  8
0
 10
94.42131943
 20
320.90538
 30
0.0
  0
VERTEX
  5
737
  8
0
 10
94.64598416301277
 20
320.8159765047968
 30
0.0
  0
VERTEX
  5
738
  8
0
 10
94.89480060165438
 20
320.7906582659581
 30
0.0
  0
VERTEX
  5
739
  8
0
 10
95.1562924371189
 20
320.8305930516947
 30
0.0
  0
SEQEND
  5
98C
  8
0
  0
POLYLINE
  5
2BC
  8
0
 66
     1
 10
0.0
 20
0.0
 30
0.0
  0
VERTEX
  5
73A
  8
0
 10
93.94351695490452
 20
321.8698841215046
 30
0.0
  0
VERTEX
  5
73B
  8
0
 10
93.96199928644353
 20
321.6226511980951
 30
0.0
  0
VERTEX
  5
73C
  8
0
 10
94.02171756013252
 20
321.395317198536
 30
0.0
  0
VERTEX
  5
73D
  8
0
 10
94.12063260023197
 20
321.1956448049687
 30
0.0
  0
VERTEX
  5
73E
  8
0
 10
94.2553667948722
 20
321.0304521498618
 30
0.0
  0
VERTEX
  5
73F
  8
0
 10
94.42131943
 20
320.90538
 30
0.0
  0
SEQEND
  5
98D
  8
0
  0
POLYLINE
  5
2BD
  8
0
 66
     1
 10
0.0
 20
0.0
 30
0.0
  0
VERTEX
  5
740
  8
0
 10
92.71741958980904
 20
321.5343671830094
 30
0.0
  0
VERTEX
  5
741
  8
0
 10
92.75438425288705
 20
321.0399013361902
 30
0.0
  0
VERTEX
  5
742
  8
0
 10
92.87382080026505
 20
320.585233337072
 30
0.0
  0
VERTEX
  5
743
  8
0
 10
93.07165088046393
 20
320.1858885499373
 30
0.0
  0
VERTEX
  5
744
  8
0
 10
93.34111926974442
 20
319.8555032397237
 30
0.0
  0
VERTEX
  5
745
  8
0
 10
93.67302454
 20
319.60535894
 30
0.0
  0
SEQEND
  5
98E
  8
0
  0
POLYLINE
  5
2BE
  8
0
 66
     1
 10
0.0
 20
0.0
 30
0.0
  0
VERTEX
  5
746
  8
0
 10
93.6730245454793
 20
319.6053589368461
 30
0.0
  0
VERTEX
  5
747
  8
0
 10
94.12235401019502
 20
319.4265519485833
 30
0.0
  0
VERTEX
  5
748
  8
0
 10
94.61998688555565
 20
319.3759154719806
 30
0.0
  0
VERTEX
  5
749
  8
0
 10
95.14297055423779
 20
319.4557850433895
 30
0.0
  0
SEQEND
  5
98F
  8
0
  0
LINE
  5
2BF
  8
0
 10
93.67302455
 20
319.60535894
 30
0.0
 11
87.05727765
 21
323.41339693
 31
0.0
  0
LINE
  5
2C0
  8
0
 10
58.74064882
 20
339.7125087
 30
0.0
 11
54.51302102
 21
342.14594026
 31
0.0
  0
LINE
  5
2C1
  8
0
 10
92.71741959
 20
321.53436719
 30
0.0
 11
92.73740241
 21
323.5965792
 31
0.0
  0
LINE
  5
2C2
  8
0
 10
93.94351696
 20
321.86988413
 30
0.0
 11
93.96349978
 21
323.93209614
 31
0.0
  0
POLYLINE
  5
2C3
  8
0
 66
     1
 10
0.0
 20
0.0
 30
0.0
  0
VERTEX
  5
74A
  8
0
 10
16.68729300697399
 20
369.7914051159858
 30
0.0
  0
VERTEX
  5
74B
  8
0
 10
16.23796354193474
 20
369.9702121084777
 30
0.0
  0
VERTEX
  5
74C
  8
0
 10
15.74033066527066
 20
370.0208485883295
 30
0.0
  0
VERTEX
  5
74D
  8
0
 10
15.21734699456506
 20
369.9409790190194
 30
0.0
  0
SEQEND
  5
990
  8
0
  0
LINE
  5
2C4
  8
0
 10
58.79724149
 20
345.55282921
 30
0.0
 11
16.687293
 21
369.79140512
 31
0.0
  0
LINE
  5
2C5
  8
0
 10
93.00789482
 20
325.86110439
 30
0.0
 11
68.17369293
 21
340.15572381
 31
0.0
  0
POLYLINE
  5
2C6
  8
0
 66
     1
 10
0.0
 20
0.0
 30
0.0
  0
VERTEX
  5
74E
  8
0
 10
93.00789482697398
 20
325.8611043759858
 30
0.0
  0
VERTEX
  5
74F
  8
0
 10
92.55856536193474
 20
326.0399113684777
 30
0.0
  0
VERTEX
  5
750
  8
0
 10
92.06093248527065
 20
326.0905478483295
 30
0.0
  0
VERTEX
  5
751
  8
0
 10
91.53794881456506
 20
326.0106782790194
 30
0.0
  0
SEQEND
  5
991
  8
0
  0
POLYLINE
  5
2C7
  8
0
 66
     1
 10
0.0
 20
0.0
 30
0.0
  0
VERTEX
  5
752
  8
0
 10
92.25959993348698
 20
324.5610833179929
 30
0.0
  0
VERTEX
  5
753
  8
0
 10
92.03493520096737
 20
324.6504868142389
 30
0.0
  0
VERTEX
  5
754
  8
0
 10
91.78611876263533
 20
324.6758050541647
 30
0.0
  0
VERTEX
  5
755
  8
0
 10
91.52462692728253
 20
324.6358702695097
 30
0.0
  0
SEQEND
  5
992
  8
0
  0
POLYLINE
  5
2C8
  8
0
 66
     1
 10
0.0
 20
0.0
 30
0.0
  0
VERTEX
  5
756
  8
0
 10
92.7374024051433
 20
323.5965792034306
 30
0.0
  0
VERTEX
  5
757
  8
0
 10
92.71892007309876
 20
323.8438121246826
 30
0.0
  0
VERTEX
  5
758
  8
0
 10
92.65920179955798
 20
324.0711461222971
 30
0.0
  0
VERTEX
  5
759
  8
0
 10
92.56028676022387
 20
324.2708185143195
 30
0.0
  0
VERTEX
  5
75A
  8
0
 10
92.4255525668877
 20
324.4360111684392
 30
0.0
  0
VERTEX
  5
75B
  8
0
 10
92.25959993348698
 20
324.5610833179929
 30
0.0
  0
SEQEND
  5
993
  8
0
  0
POLYLINE
  5
2C9
  8
0
 66
     1
 10
0.0
 20
0.0
 30
0.0
  0
VERTEX
  5
75C
  8
0
 10
93.96349977028659
 20
323.9320961468612
 30
0.0
  0
VERTEX
  5
75D
  8
0
 10
93.92653510619752
 20
324.426561989365
 30
0.0
  0
VERTEX
  5
75E
  8
0
 10
93.80709855911596
 20
324.8812299845942
 30
0.0
  0
VERTEX
  5
75F
  8
0
 10
93.60926848044775
 20
325.280574768639
 30
0.0
  0
VERTEX
  5
760
  8
0
 10
93.33980009377541
 20
325.6109600768784
 30
0.0
  0
VERTEX
  5
761
  8
0
 10
93.00789482697398
 20
325.8611043759858
 30
0.0
  0
SEQEND
  5
994
  8
0
  0
LINE
  5
2CA
  8
0
 10
111.92627835
 20
326.79079923
 30
0.0
 11
111.94626117
 21
328.85301124
 31
0.0
  0
LINE
  5
2CB
  8
0
 10
35.62565934
 20
372.78331197
 30
0.0
 11
35.60567652
 21
370.72109996
 31
0.0
  0
LINE
  5
2CC
  8
0
 10
113.15237571
 20
327.12631616
 30
0.0
 11
113.17235853
 21
329.18852818
 31
0.0
  0
POLYLINE
  5
2CD
  8
0
 66
     1
 10
0.0
 20
0.0
 30
0.0
  0
VERTEX
  5
762
  8
0
 10
12.7762385900226
 20
364.3524985423323
 30
0.0
  0
VERTEX
  5
763
  8
0
 10
12.80623279314386
 20
364.2254416002544
 30
0.0
  0
VERTEX
  5
764
  8
0
 10
12.89751924290646
 20
364.1026622943913
 30
0.0
  0
VERTEX
  5
765
  8
0
 10
13.04658985223205
 20
363.9888789646229
 30
0.0
  0
VERTEX
  5
766
  8
0
 10
13.24771592119096
 20
363.8884642405117
 30
0.0
  0
VERTEX
  5
767
  8
0
 10
13.4931682877283
 20
363.8052770036008
 30
0.0
  0
VERTEX
  5
768
  8
0
 10
13.77351435502781
 20
363.74251409276
 30
0.0
  0
VERTEX
  5
769
  8
0
 10
14.07798058091853
 20
363.7025874514607
 30
0.0
  0
VERTEX
  5
76A
  8
0
 10
14.39486649905945
 20
363.6870314381403
 30
0.0
  0
VERTEX
  5
76B
  8
0
 10
14.71199436130034
 20
363.6964438616681
 30
0.0
  0
VERTEX
  5
76C
  8
0
 10
15.01717712171488
 20
363.7304630078858
 30
0.0
  0
VERTEX
  5
76D
  8
0
 10
15.29868677794207
 20
363.7877815400793
 30
0.0
  0
VERTEX
  5
76E
  8
0
 10
15.54570507174091
 20
363.8661967391961
 30
0.0
  0
VERTEX
  5
76F
  8
0
 10
15.74873922858853
 20
363.962695153103
 30
0.0
  0
VERTEX
  5
770
  8
0
 10
15.89998675968237
 20
364.073568401862
 30
0.0
  0
VERTEX
  5
771
  8
0
 10
15.99363530720985
 20
364.194555688692
 30
0.0
  0
VERTEX
  5
772
  8
0
 10
16.02608601
 20
364.32100754
 30
0.0
  0
SEQEND
  5
995
  8
0
  0
POLYLINE
  5
2CE
  8
0
 66
     1
 10
0.0
 20
0.0
 30
0.0
  0
VERTEX
  5
773
  8
0
 10
16.02608601
 20
364.32100754
 30
0.0
  0
VERTEX
  5
774
  8
0
 10
15.99609180587979
 20
364.4480644817569
 30
0.0
  0
VERTEX
  5
775
  8
0
 10
15.90480535543502
 20
364.5708437872411
 30
0.0
  0
VERTEX
  5
776
  8
0
 10
15.75573474575425
 20
364.6846271166088
 30
0.0
  0
VERTEX
  5
777
  8
0
 10
15.5546086767547
 20
364.785041840333
 30
0.0
  0
VERTEX
  5
778
  8
0
 10
15.30915631045763
 20
364.8682290769028
 30
0.0
  0
VERTEX
  5
779
  8
0
 10
15.02881024362707
 20
364.9309919874762
 30
0.0
  0
VERTEX
  5
77A
  8
0
 10
14.72434401836688
 20
364.9709186286032
 30
0.0
  0
VERTEX
  5
77B
  8
0
 10
14.40745810094054
 20
364.9864746418598
 30
0.0
  0
VERTEX
  5
77C
  8
0
 10
14.09033023941534
 20
364.9770622183819
 30
0.0
  0
VERTEX
  5
77D
  8
0
 10
13.78514747963456
 20
364.9430430723243
 30
0.0
  0
VERTEX
  5
77E
  8
0
 10
13.50363782388141
 20
364.885724540389
 30
0.0
  0
VERTEX
  5
77F
  8
0
 10
13.25661953032941
 20
364.8073093416086
 30
0.0
  0
VERTEX
  5
780
  8
0
 10
13.05358537344866
 20
364.7108109280895
 30
0.0
  0
VERTEX
  5
781
  8
0
 10
12.90233784200747
 20
364.599937679738
 30
0.0
  0
VERTEX
  5
782
  8
0
 10
12.80868929380528
 20
364.4789503933
 30
0.0
  0
VERTEX
  5
783
  8
0
 10
12.7762385900226
 20
364.3524985423323
 30
0.0
  0
SEQEND
  5
996
  8
0
  0
LINE
  5
2CF
  8
0
 10
57.15454612
 20
344.23994621
 30
0.0
 11
48.57186455
 21
341.89132764
 31
0.0
  0
POLYLINE
  5
2D0
  8
0
 66
     1
 10
0.0
 20
0.0
 30
0.0
  0
VERTEX
  5
784
  8
0
 10
47.17846176095246
 20
341.9991991217075
 30
0.0
  0
VERTEX
  5
785
  8
0
 10
47.30654075144369
 20
341.9388149434546
 30
0.0
  0
VERTEX
  5
786
  8
0
 10
47.46110989457429
 20
341.8893471138497
 30
0.0
  0
VERTEX
  5
787
  8
0
 10
47.63622918483298
 20
341.8526966538503
 30
0.0
  0
VERTEX
  5
788
  8
0
 10
47.82516888607577
 20
341.8302720200861
 30
0.0
  0
VERTEX
  5
789
  8
0
 10
48.02066815151296
 20
341.8229349786604
 30
0.0
  0
VERTEX
  5
78A
  8
0
 10
48.2152140539805
 20
341.8309674879615
 30
0.0
  0
VERTEX
  5
78B
  8
0
 10
48.40133030351874
 20
341.8540608631604
 30
0.0
  0
VERTEX
  5
78C
  8
0
 10
48.57186455700403
 20
341.8913276387958
 30
0.0
  0
SEQEND
  5
997
  8
0
  0
POLYLINE
  5
2D1
  8
0
 66
     1
 10
0.0
 20
0.0
 30
0.0
  0
VERTEX
  5
2D2
  8
0
 10
47.17846176
 20
341.99919912
 30
0.0
  0
VERTEX
  5
2D3
  8
0
 10
3.97812111
 20
366.86540708
 30
0.0
  0
VERTEX
  5
2D4
  8
0
 10
15.21734698
 20
369.94097902
 30
0.0
  0
SEQEND
  5
2D5
  8
0
  0
POLYLINE
  5
2D6
  8
0
 66
     1
 10
0.0
 20
0.0
 30
0.0
  0
VERTEX
  5
2D7
  8
0
 10
91.5379488
 20
326.01067828
 30
0.0
  0
VERTEX
  5
2D8
  8
0
 10
80.29872293
 20
322.93510635
 30
0.0
  0
VERTEX
  5
2D9
  8
0
 10
60.42656623
 20
334.37356201
 30
0.0
  0
SEQEND
  5
2DA
  8
0
  0
POLYLINE
  5
2DB
  8
0
 66
     1
 10
0.0
 20
0.0
 30
0.0
  0
VERTEX
  5
78D
  8
0
 10
63.08311053163131
 20
335.1005153788098
 30
0.0
  0
VERTEX
  5
78E
  8
0
 10
63.67606684882129
 20
335.0016338454363
 30
0.0
  0
VERTEX
  5
78F
  8
0
 10
64.26140471324197
 20
334.9556249286726
 30
0.0
  0
VERTEX
  5
790
  8
0
 10
64.81435673166358
 20
334.9644354031983
 30
0.0
  0
VERTEX
  5
791
  8
0
 10
65.31152585272494
 20
335.0276924715225
 30
0.0
  0
VERTEX
  5
792
  8
0
 10
65.731875366055
 20
335.1427195381593
 30
0.0
  0
VERTEX
  5
793
  8
0
 10
66.05761902831729
 20
335.3046494643763
 30
0.0
  0
VERTEX
  5
794
  8
0
 10
66.27497365228656
 20
335.5066305113708
 30
0.0
  0
VERTEX
  5
795
  8
0
 10
66.37474231466534
 20
335.7401162578022
 30
0.0
  0
VERTEX
  5
796
  8
0
 10
66.35270350537654
 20
335.9952272244043
 30
0.0
  0
SEQEND
  5
998
  8
0
  0
POLYLINE
  5
2DC
  8
0
 66
     1
 10
0.0
 20
0.0
 30
0.0
  0
VERTEX
  5
2DD
  8
0
 10
69.0092478
 20
336.72218058
 30
0.0
  0
VERTEX
  5
2DE
  8
0
 10
69.58525235
 20
336.39063114
 30
0.0
  0
SEQEND
  5
2DF
  8
0
  0
POLYLINE
  5
2E0
  8
0
 66
     1
 10
0.0
 20
0.0
 30
0.0
  0
VERTEX
  5
797
  8
0
 10
69.58525234095245
 20
336.3906311417075
 30
0.0
  0
VERTEX
  5
798
  8
0
 10
69.7117345221463
 20
336.3308689117915
 30
0.0
  0
VERTEX
  5
799
  8
0
 10
69.86417665305494
 20
336.2817564458272
 30
0.0
  0
VERTEX
  5
79A
  8
0
 10
70.03685099012607
 20
336.2451390578925
 30
0.0
  0
VERTEX
  5
79B
  8
0
 10
70.22326960043131
 20
336.2223925816
 30
0.0
  0
VERTEX
  5
79C
  8
0
 10
70.41642813427524
 20
336.2143716755807
 30
0.0
  0
VERTEX
  5
79D
  8
0
 10
70.60906900125164
 20
336.2213777111974
 30
0.0
  0
VERTEX
  5
79E
  8
0
 10
70.79395406137156
 20
336.2431474490483
 30
0.0
  0
VERTEX
  5
79F
  8
0
 10
70.96413658537655
 20
336.2788629297224
 30
0.0
  0
VERTEX
  5
7A0
  8
0
 10
71.1132222658086
 20
336.3271822071783
 30
0.0
  0
VERTEX
  5
7A1
  8
0
 10
71.23560947180798
 20
336.3862897699936
 30
0.0
  0
VERTEX
  5
7A2
  8
0
 10
71.32669972048895
 20
336.4539647559972
 30
0.0
  0
VERTEX
  5
7A3
  8
0
 10
71.38307045680429
 20
336.5276643972391
 30
0.0
  0
VERTEX
  5
7A4
  8
0
 10
71.40260364999999
 20
336.60461956
 30
0.0
  0
SEQEND
  5
999
  8
0
  0
POLYLINE
  5
2E1
  8
0
 66
     1
 10
0.0
 20
0.0
 30
0.0
  0
VERTEX
  5
7A5
  8
0
 10
71.40260364999999
 20
336.60461956
 30
0.0
  0
VERTEX
  5
7A6
  8
0
 10
71.38227179371101
 20
336.6865730572612
 30
0.0
  0
VERTEX
  5
7A7
  8
0
 10
71.32055095449002
 20
336.7654734032816
 30
0.0
  0
VERTEX
  5
7A8
  8
0
 10
71.2200488369798
 20
336.8379870594827
 30
0.0
  0
SEQEND
  5
99A
  8
0
  0
LINE
  5
2E2
  8
0
 10
58.78216801
 20
343.99725771
 30
0.0
 11
58.54794891
 21
344.13207473
 31
0.0
  0
LINE
  5
2E3
  8
0
 10
71.22004884
 20
336.83798706
 30
0.0
 11
68.15861946
 21
338.60015232
 31
0.0
  0
POLYLINE
  5
2E4
  8
0
 66
     1
 10
0.0
 20
0.0
 30
0.0
  0
VERTEX
  5
7A9
  8
0
 10
58.54794891697981
 20
344.1320747294827
 30
0.0
  0
VERTEX
  5
7AA
  8
0
 10
58.41986992686136
 20
344.1924589072041
 30
0.0
  0
VERTEX
  5
7AB
  8
0
 10
58.26530078450487
 20
344.2419267363908
 30
0.0
  0
VERTEX
  5
7AC
  8
0
 10
58.0901814953165
 20
344.2785771961255
 30
0.0
  0
VERTEX
  5
7AD
  8
0
 10
57.90124179531369
 20
344.3010018298064
 30
0.0
  0
VERTEX
  5
7AE
  8
0
 10
57.70574253114633
 20
344.3083388713444
 30
0.0
  0
VERTEX
  5
7AF
  8
0
 10
57.51119662983432
 20
344.3003063623505
 30
0.0
  0
VERTEX
  5
7B0
  8
0
 10
57.32508038119802
 20
344.2772129876378
 30
0.0
  0
VERTEX
  5
7B1
  8
0
 10
57.15454612823566
 20
344.2399462126381
 30
0.0
  0
SEQEND
  5
99B
  8
0
  0
LINE
  5
2E5
  8
0
 10
48.55854267
 20
340.51651963
 30
0.0
 11
57.14122424
 21
342.8651382
 31
0.0
  0
POLYLINE
  5
2E6
  8
0
 66
     1
 10
0.0
 20
0.0
 30
0.0
  0
VERTEX
  5
7B2
  8
0
 10
47.16513988095246
 20
340.6243911117075
 30
0.0
  0
VERTEX
  5
7B3
  8
0
 10
47.29321887144369
 20
340.5640069334547
 30
0.0
  0
VERTEX
  5
7B4
  8
0
 10
47.44778801457429
 20
340.5145391038497
 30
0.0
  0
VERTEX
  5
7B5
  8
0
 10
47.62290730483299
 20
340.4778886438503
 30
0.0
  0
VERTEX
  5
7B6
  8
0
 10
47.81184700607577
 20
340.4554640100861
 30
0.0
  0
VERTEX
  5
7B7
  8
0
 10
48.00734627151297
 20
340.4481269686604
 30
0.0
  0
VERTEX
  5
7B8
  8
0
 10
48.2018921739805
 20
340.4561594779615
 30
0.0
  0
VERTEX
  5
7B9
  8
0
 10
48.38800842351874
 20
340.4792528531605
 30
0.0
  0
VERTEX
  5
7BA
  8
0
 10
48.55854267700403
 20
340.5165196287958
 30
0.0
  0
SEQEND
  5
99C
  8
0
  0
LINE
  5
2E7
  8
0
 10
47.16513988
 20
340.62439111
 30
0.0
 11
3.96479923
 21
365.49059907
 31
0.0
  0
LINE
  5
2E8
  8
0
 10
3.97812111
 20
366.86540708
 30
0.0
 11
3.96479923
 21
365.49059907
 31
0.0
  0
POLYLINE
  5
2E9
  8
0
 66
     1
 10
0.0
 20
0.0
 30
0.0
  0
VERTEX
  5
7BB
  8
0
 10
58.53462703697981
 20
342.7572667194827
 30
0.0
  0
VERTEX
  5
7BC
  8
0
 10
58.40654804686136
 20
342.8176508972041
 30
0.0
  0
VERTEX
  5
7BD
  8
0
 10
58.25197890450487
 20
342.8671187263908
 30
0.0
  0
VERTEX
  5
7BE
  8
0
 10
58.0768596153165
 20
342.9037691861254
 30
0.0
  0
VERTEX
  5
7BF
  8
0
 10
57.88791991531369
 20
342.9261938198063
 30
0.0
  0
VERTEX
  5
7C0
  8
0
 10
57.69242065114633
 20
342.9335308613444
 30
0.0
  0
VERTEX
  5
7C1
  8
0
 10
57.49787474983432
 20
342.9254983523504
 30
0.0
  0
VERTEX
  5
7C2
  8
0
 10
57.31175850119802
 20
342.9024049776378
 30
0.0
  0
VERTEX
  5
7C3
  8
0
 10
57.14122424823566
 20
342.865138202638
 30
0.0
  0
SEQEND
  5
99D
  8
0
  0
LINE
  5
2EA
  8
0
 10
58.53462703
 20
342.75726672
 30
0.0
 11
58.76884613
 21
342.6224497
 31
0.0
  0
LINE
  5
2EB
  8
0
 10
68.92975443
 20
336.77380928
 30
0.0
 11
69.6669295
 21
336.34948974
 31
0.0
  0
LINE
  5
2EC
  8
0
 10
80.28540105
 20
321.56029834
 30
0.0
 11
60.41324435
 21
332.998754
 31
0.0
  0
LINE
  5
2ED
  8
0
 10
80.29872293
 20
322.93510635
 30
0.0
 11
80.28540105
 21
321.56029834
 31
0.0
  0
LINE
  5
2EE
  8
0
 10
91.52462692
 20
324.63587027
 30
0.0
 11
80.28540105
 21
321.56029834
 31
0.0
  0
LINE
  5
2EF
  8
0
  6
STRICHPUNKT2
 62
     1
 10
14.40837832
 20
365.08144071
 30
0.0
 11
14.3948665
 21
363.68703144
 31
0.0
  0
LINE
  5
2F0
  8
0
  6
STRICHPUNKT2
 62
     1
 10
14.4011623
 20
364.33675304
 30
0.0
 11
12.99715123
 21
365.1449048
 31
0.0
  0
LINE
  5
2F1
  8
0
  6
STRICHPUNKT2
 62
     1
 10
14.4011623
 20
364.33675304
 30
0.0
 11
15.80517337
 21
363.52860128
 31
0.0
  0
LINE
  5
2F2
  8
0
  6
STRICHPUNKT2
 62
     1
 10
14.4011623
 20
364.33675304
 30
0.0
 11
12.40875408
 21
363.79153802
 31
0.0
  0
LINE
  5
2F3
  8
0
  6
STRICHPUNKT2
 62
     1
 10
14.4011623
 20
364.33675304
 30
0.0
 11
16.39357052
 21
364.88196807
 31
0.0
  0
POLYLINE
  5
2F4
  8
0
 66
     1
 10
0.0
 20
0.0
 30
0.0
  0
VERTEX
  5
7C4
  8
0
 10
49.96785873002261
 20
374.5298456823323
 30
0.0
  0
VERTEX
  5
7C5
  8
0
 10
49.99785293314387
 20
374.4027887402544
 30
0.0
  0
VERTEX
  5
7C6
  8
0
 10
50.08913938290646
 20
374.2800094343913
 30
0.0
  0
VERTEX
  5
7C7
  8
0
 10
50.23820999223205
 20
374.1662261046229
 30
0.0
  0
VERTEX
  5
7C8
  8
0
 10
50.43933606119096
 20
374.0658113805117
 30
0.0
  0
VERTEX
  5
7C9
  8
0
 10
50.6847884277283
 20
373.9826241436008
 30
0.0
  0
VERTEX
  5
7CA
  8
0
 10
50.96513449502781
 20
373.91986123276
 30
0.0
  0
VERTEX
  5
7CB
  8
0
 10
51.26960072091854
 20
373.8799345914607
 30
0.0
  0
VERTEX
  5
7CC
  8
0
 10
51.58648663905945
 20
373.8643785781402
 30
0.0
  0
VERTEX
  5
7CD
  8
0
 10
51.90361450130035
 20
373.8737910016681
 30
0.0
  0
VERTEX
  5
7CE
  8
0
 10
52.20879726171488
 20
373.9078101478858
 30
0.0
  0
VERTEX
  5
7CF
  8
0
 10
52.49030691794207
 20
373.9651286800793
 30
0.0
  0
VERTEX
  5
7D0
  8
0
 10
52.73732521174091
 20
374.0435438791961
 30
0.0
  0
VERTEX
  5
7D1
  8
0
 10
52.94035936858853
 20
374.140042293103
 30
0.0
  0
VERTEX
  5
7D2
  8
0
 10
53.09160689968237
 20
374.250915541862
 30
0.0
  0
VERTEX
  5
7D3
  8
0
 10
53.18525544720985
 20
374.371902828692
 30
0.0
  0
VERTEX
  5
7D4
  8
0
 10
53.21770615
 20
374.49835468
 30
0.0
  0
SEQEND
  5
99E
  8
0
  0
POLYLINE
  5
2F5
  8
0
 66
     1
 10
0.0
 20
0.0
 30
0.0
  0
VERTEX
  5
7D5
  8
0
 10
53.21770615
 20
374.49835468
 30
0.0
  0
VERTEX
  5
7D6
  8
0
 10
53.18771194587979
 20
374.6254116217569
 30
0.0
  0
VERTEX
  5
7D7
  8
0
 10
53.09642549543502
 20
374.7481909272411
 30
0.0
  0
VERTEX
  5
7D8
  8
0
 10
52.94735488575425
 20
374.8619742566088
 30
0.0
  0
VERTEX
  5
7D9
  8
0
 10
52.7462288167547
 20
374.9623889803329
 30
0.0
  0
VERTEX
  5
7DA
  8
0
 10
52.50077645045763
 20
375.0455762169028
 30
0.0
  0
VERTEX
  5
7DB
  8
0
 10
52.22043038362707
 20
375.1083391274762
 30
0.0
  0
VERTEX
  5
7DC
  8
0
 10
51.91596415836688
 20
375.1482657686032
 30
0.0
  0
VERTEX
  5
7DD
  8
0
 10
51.59907824094055
 20
375.1638217818598
 30
0.0
  0
VERTEX
  5
7DE
  8
0
 10
51.28195037941533
 20
375.1544093583819
 30
0.0
  0
VERTEX
  5
7DF
  8
0
 10
50.97676761963456
 20
375.1203902123243
 30
0.0
  0
VERTEX
  5
7E0
  8
0
 10
50.69525796388141
 20
375.063071680389
 30
0.0
  0
VERTEX
  5
7E1
  8
0
 10
50.44823967032941
 20
374.9846564816086
 30
0.0
  0
VERTEX
  5
7E2
  8
0
 10
50.24520551344867
 20
374.8881580680895
 30
0.0
  0
VERTEX
  5
7E3
  8
0
 10
50.09395798200747
 20
374.777284819738
 30
0.0
  0
VERTEX
  5
7E4
  8
0
 10
50.00030943380528
 20
374.6562975333
 30
0.0
  0
VERTEX
  5
7E5
  8
0
 10
49.96785873002261
 20
374.5298456823323
 30
0.0
  0
SEQEND
  5
99F
  8
0
  0
LINE
  5
2F6
  8
0
 10
92.54406436
 20
354.41332585
 30
0.0
 11
49.34372371
 21
379.27953381
 31
0.0
  0
LINE
  5
2F7
  8
0
 10
38.10449784
 20
376.20396187
 30
0.0
 11
49.34372371
 21
379.27953381
 31
0.0
  0
LINE
  5
2F8
  8
0
 10
125.66432553
 20
335.34923308
 30
0.0
 11
114.42509966
 21
332.27366114
 31
0.0
  0
LINE
  5
2F9
  8
0
 10
125.66432553
 20
335.34923308
 30
0.0
 11
105.79216883
 21
346.78768874
 31
0.0
  0
POLYLINE
  5
2FA
  8
0
 66
     1
 10
0.0
 20
0.0
 30
0.0
  0
VERTEX
  5
7E6
  8
0
 10
99.86603156163132
 20
345.1660235288098
 30
0.0
  0
VERTEX
  5
7E7
  8
0
 10
100.4589878788213
 20
345.0671419954363
 30
0.0
  0
VERTEX
  5
7E8
  8
0
 10
101.044325743242
 20
345.0211330786726
 30
0.0
  0
VERTEX
  5
7E9
  8
0
 10
101.5972777616636
 20
345.0299435531982
 30
0.0
  0
VERTEX
  5
7EA
  8
0
 10
102.0944468827249
 20
345.0932006215225
 30
0.0
  0
VERTEX
  5
7EB
  8
0
 10
102.514796396055
 20
345.2082276881593
 30
0.0
  0
VERTEX
  5
7EC
  8
0
 10
102.8405400583173
 20
345.3701576143763
 30
0.0
  0
VERTEX
  5
7ED
  8
0
 10
103.0578946822866
 20
345.5721386613707
 30
0.0
  0
VERTEX
  5
7EE
  8
0
 10
103.1576633446653
 20
345.8056244078022
 30
0.0
  0
VERTEX
  5
7EF
  8
0
 10
103.1356245353765
 20
346.0607353744043
 30
0.0
  0
SEQEND
  5
9A0
  8
0
  0
LINE
  5
2FB
  8
0
 10
97.7854918
 20
344.10752073
 30
0.0
 11
97.20948725
 21
344.43907017
 31
0.0
  0
POLYLINE
  5
2FC
  8
0
 66
     1
 10
0.0
 20
0.0
 30
0.0
  0
VERTEX
  5
7F0
  8
0
 10
97.96804661
 20
343.87415323
 30
0.0
  0
VERTEX
  5
7F1
  8
0
 10
97.94771475371103
 20
343.9561067272612
 30
0.0
  0
VERTEX
  5
7F2
  8
0
 10
97.88599391449003
 20
344.0350070732816
 30
0.0
  0
VERTEX
  5
7F3
  8
0
 10
97.78549179697981
 20
344.1075207294827
 30
0.0
  0
SEQEND
  5
9A1
  8
0
  0
POLYLINE
  5
2FD
  8
0
 66
     1
 10
0.0
 20
0.0
 30
0.0
  0
VERTEX
  5
7F4
  8
0
 10
97.54409809700404
 20
343.5522933287958
 30
0.0
  0
VERTEX
  5
7F5
  8
0
 10
97.6885301328838
 20
343.600676275348
 30
0.0
  0
VERTEX
  5
7F6
  8
0
 10
97.8068656665085
 20
343.6593164121119
 30
0.0
  0
VERTEX
  5
7F7
  8
0
 10
97.89481820883327
 20
343.7260896070023
 30
0.0
  0
VERTEX
  5
7F8
  8
0
 10
97.94920183930148
 20
343.7985771227249
 30
0.0
  0
VERTEX
  5
7F9
  8
0
 10
97.96804661001093
 20
343.8741532311277
 30
0.0
  0
SEQEND
  5
9A2
  8
0
  0
POLYLINE
  5
2FE
  8
0
 66
     1
 10
0.0
 20
0.0
 30
0.0
  0
VERTEX
  5
7FA
  8
0
 10
96.15069530095246
 20
343.6601648117075
 30
0.0
  0
VERTEX
  5
7FB
  8
0
 10
96.27877429144368
 20
343.5997806334547
 30
0.0
  0
VERTEX
  5
7FC
  8
0
 10
96.4333434345743
 20
343.5503128038497
 30
0.0
  0
VERTEX
  5
7FD
  8
0
 10
96.60846272483299
 20
343.5136623438503
 30
0.0
  0
VERTEX
  5
7FE
  8
0
 10
96.79740242607578
 20
343.4912377100861
 30
0.0
  0
VERTEX
  5
7FF
  8
0
 10
96.99290169151297
 20
343.4839006686604
 30
0.0
  0
VERTEX
  5
800
  8
0
 10
97.1874475939805
 20
343.4919331779615
 30
0.0
  0
VERTEX
  5
801
  8
0
 10
97.37356384351874
 20
343.5150265531605
 30
0.0
  0
VERTEX
  5
802
  8
0
 10
97.54409809700404
 20
343.5522933287958
 30
0.0
  0
SEQEND
  5
9A3
  8
0
  0
LINE
  5
2FF
  8
0
 10
83.47859538
 20
350.95425248
 30
0.0
 11
96.15069531
 21
343.66016481
 31
0.0
  0
POLYLINE
  5
300
  8
0
 66
     1
 10
0.0
 20
0.0
 30
0.0
  0
VERTEX
  5
803
  8
0
 10
83.29604057001391
 20
351.1876199814353
 30
0.0
  0
VERTEX
  5
804
  8
0
 10
83.31637242556866
 20
351.1056664841509
 30
0.0
  0
VERTEX
  5
805
  8
0
 10
83.37809326408586
 20
351.0267661380477
 30
0.0
  0
VERTEX
  5
806
  8
0
 10
83.47859538095246
 20
350.9542524817075
 30
0.0
  0
SEQEND
  5
9A4
  8
0
  0
POLYLINE
  5
301
  8
0
 66
     1
 10
0.0
 20
0.0
 30
0.0
  0
VERTEX
  5
807
  8
0
 10
83.71998908823565
 20
351.5094798826381
 30
0.0
  0
VERTEX
  5
808
  8
0
 10
83.57555705156146
 20
351.4610969364626
 30
0.0
  0
VERTEX
  5
809
  8
0
 10
83.45722151698128
 20
351.4024568000097
 30
0.0
  0
VERTEX
  5
80A
  8
0
 10
83.36926897357466
 20
351.3356836053536
 30
0.0
  0
VERTEX
  5
80B
  8
0
 10
83.31488534193733
 20
351.2631960897799
 30
0.0
  0
VERTEX
  5
80C
  8
0
 10
83.29604057001391
 20
351.1876199814353
 30
0.0
  0
SEQEND
  5
9A5
  8
0
  0
LINE
  5
302
  8
0
 10
92.30267066
 20
353.85809845
 30
0.0
 11
83.71998908
 21
351.50947988
 31
0.0
  0
POLYLINE
  5
303
  8
0
 66
     1
 10
0.0
 20
0.0
 30
0.0
  0
VERTEX
  5
80D
  8
0
 10
92.30267065700403
 20
353.8580984487958
 30
0.0
  0
VERTEX
  5
80E
  8
0
 10
92.44710269249262
 20
353.9064813951886
 30
0.0
  0
VERTEX
  5
80F
  8
0
 10
92.56543822589431
 20
353.9651215317385
 30
0.0
  0
VERTEX
  5
810
  8
0
 10
92.65339076819758
 20
354.0318947263804
 30
0.0
  0
VERTEX
  5
811
  8
0
 10
92.70777439886542
 20
354.1043822418432
 30
0.0
  0
VERTEX
  5
812
  8
0
 10
92.72661916999999
 20
354.17995835
 30
0.0
  0
SEQEND
  5
9A6
  8
0
  0
POLYLINE
  5
304
  8
0
 66
     1
 10
0.0
 20
0.0
 30
0.0
  0
VERTEX
  5
813
  8
0
 10
92.72661916999999
 20
354.17995835
 30
0.0
  0
VERTEX
  5
814
  8
0
 10
92.70628731371102
 20
354.2619118472612
 30
0.0
  0
VERTEX
  5
815
  8
0
 10
92.64456647449002
 20
354.3408121932816
 30
0.0
  0
VERTEX
  5
816
  8
0
 10
92.5440643569798
 20
354.4133258494827
 30
0.0
  0
SEQEND
  5
9A7
  8
0
  0
POLYLINE
  5
305
  8
0
 66
     1
 10
0.0
 20
0.0
 30
0.0
  0
VERTEX
  5
306
  8
0
 10
92.72661917
 20
354.17995835
 30
0.0
  0
VERTEX
  5
307
  8
0
 10
92.71329729
 20
352.80515034
 30
0.0
  0
SEQEND
  5
308
  8
0
  0
POLYLINE
  5
309
  8
0
 66
     1
 10
0.0
 20
0.0
 30
0.0
  0
VERTEX
  5
817
  8
0
 10
92.28934878700403
 20
352.4832904387958
 30
0.0
  0
VERTEX
  5
818
  8
0
 10
92.43378082249262
 20
352.5316733851886
 30
0.0
  0
VERTEX
  5
819
  8
0
 10
92.55211635589431
 20
352.5903135217386
 30
0.0
  0
VERTEX
  5
81A
  8
0
 10
92.64006889819758
 20
352.6570867163804
 30
0.0
  0
VERTEX
  5
81B
  8
0
 10
92.69445252886543
 20
352.7295742318432
 30
0.0
  0
VERTEX
  5
81C
  8
0
 10
92.7132973
 20
352.80515034
 30
0.0
  0
SEQEND
  5
9A8
  8
0
  0
LINE
  5
30A
  8
0
 10
84.51715093
 20
350.35645769
 30
0.0
 11
92.28934878
 21
352.48329044
 31
0.0
  0
POLYLINE
  5
30B
  8
0
 66
     1
 10
0.0
 20
0.0
 30
0.0
  0
VERTEX
  5
30C
  8
0
 10
125.66432553
 20
335.34923308
 30
0.0
  0
VERTEX
  5
30D
  8
0
 10
125.65100365
 20
333.97442507
 30
0.0
  0
VERTEX
  5
30E
  8
0
 10
114.41177778
 20
330.89885313
 30
0.0
  0
SEQEND
  5
30F
  8
0
  0
LINE
  5
310
  8
0
  6
STRICHPUNKT2
 62
     1
 10
51.59999846
 20
375.25878785
 30
0.0
 11
51.58648665
 21
373.86437857
 31
0.0
  0
LINE
  5
311
  8
0
  6
STRICHPUNKT2
 62
     1
 10
51.59278244
 20
374.51410018
 30
0.0
 11
50.18877137
 21
375.32225194
 31
0.0
  0
LINE
  5
312
  8
0
  6
STRICHPUNKT2
 62
     1
 10
51.59278244
 20
374.51410018
 30
0.0
 11
52.99679351
 21
373.70594842
 31
0.0
  0
LINE
  5
313
  8
0
  6
STRICHPUNKT2
 62
     1
 10
51.59278244
 20
374.51410018
 30
0.0
 11
49.60037422
 21
373.96888515
 31
0.0
  0
LINE
  5
314
  8
0
  6
STRICHPUNKT2
 62
     1
 10
51.59278244
 20
374.51410018
 30
0.0
 11
53.58519067
 21
375.0593152
 31
0.0
  0
POLYLINE
  5
315
  8
0
 66
     1
 10
0.0
 20
0.0
 30
0.0
  0
VERTEX
  5
316
  8
0
 10
102.28493961
 20
347.93286754
 30
0.0
  0
VERTEX
  5
317
  8
0
 10
102.34223394
 20
347.8183342
 30
0.0
  0
VERTEX
  5
318
  8
0
 10
102.36578485
 20
347.76730071
 30
0.0
  0
SEQEND
  5
319
  8
0
  0
POLYLINE
  5
31A
  8
0
 66
     1
 10
0.0
 20
0.0
 30
0.0
  0
VERTEX
  5
31B
  8
0
 10
103.09654886
 20
346.15908273
 30
0.0
  0
VERTEX
  5
31C
  8
0
 10
103.11670319
 20
346.11260233
 30
0.0
  0
VERTEX
  5
31D
  8
0
 10
103.13562454
 20
346.06073538
 30
0.0
  0
SEQEND
  5
31E
  8
0
  0
POLYLINE
  5
31F
  8
0
 66
     1
 10
0.0
 20
0.0
 30
0.0
  0
VERTEX
  5
81D
  8
0
 10
104.9414838993714
 20
348.6598209104839
 30
0.0
  0
VERTEX
  5
81E
  8
0
 10
104.9554865786379
 20
348.3820532274386
 30
0.0
  0
VERTEX
  5
81F
  8
0
 10
105.0021544401177
 20
348.0958481120597
 30
0.0
  0
VERTEX
  5
820
  8
0
 10
105.0796940640585
 20
347.8122042664702
 30
0.0
  0
VERTEX
  5
821
  8
0
 10
105.1851256461848
 20
347.5420219646313
 30
0.0
  0
VERTEX
  5
822
  8
0
 10
105.3143975099057
 20
347.2956841609248
 30
0.0
  0
VERTEX
  5
823
  8
0
 10
105.4625418099749
 20
347.0826574790379
 30
0.0
  0
VERTEX
  5
824
  8
0
 10
105.6238654439976
 20
346.911128414922
 30
0.0
  0
VERTEX
  5
825
  8
0
 10
105.7921688351646
 20
346.7876887343433
 30
0.0
  0
SEQEND
  5
9A9
  8
0
  0
POLYLINE
  5
320
  8
0
 66
     1
 10
0.0
 20
0.0
 30
0.0
  0
VERTEX
  5
826
  8
0
 10
96.35880231937142
 20
346.3112023404839
 30
0.0
  0
VERTEX
  5
827
  8
0
 10
96.3728049986379
 20
346.0334346574386
 30
0.0
  0
VERTEX
  5
828
  8
0
 10
96.41947286011768
 20
345.7472295420597
 30
0.0
  0
VERTEX
  5
829
  8
0
 10
96.49701248405846
 20
345.4635856964702
 30
0.0
  0
VERTEX
  5
82A
  8
0
 10
96.60244406618476
 20
345.1934033946313
 30
0.0
  0
VERTEX
  5
82B
  8
0
 10
96.73171592990575
 20
344.9470655909248
 30
0.0
  0
VERTEX
  5
82C
  8
0
 10
96.87986022997485
 20
344.7340389090379
 30
0.0
  0
VERTEX
  5
82D
  8
0
 10
97.0411838639976
 20
344.562509844922
 30
0.0
  0
VERTEX
  5
82E
  8
0
 10
97.20948725516459
 20
344.4390701643433
 30
0.0
  0
SEQEND
  5
9AA
  8
0
  0
POLYLINE
  5
321
  8
0
 66
     1
 10
0.0
 20
0.0
 30
0.0
  0
VERTEX
  5
322
  8
0
 10
99.86603154
 20
345.16602354
 30
0.0
  0
VERTEX
  5
323
  8
0
 10
99.77840898
 20
345.18806914
 30
0.0
  0
VERTEX
  5
324
  8
0
 10
99.69490647
 20
345.21624052
 30
0.0
  0
VERTEX
  5
325
  8
0
 10
99.6152309
 20
345.25046282
 30
0.0
  0
VERTEX
  5
326
  8
0
 10
99.5391205
 20
345.29073739
 30
0.0
  0
VERTEX
  5
327
  8
0
 10
99.46635018
 20
345.33714069
 30
0.0
  0
VERTEX
  5
328
  8
0
 10
99.39673634
 20
345.38982179
 30
0.0
  0
VERTEX
  5
329
  8
0
 10
99.3680008
 20
345.41422467
 30
0.0
  0
VERTEX
  5
32A
  8
0
 10
99.30263039
 20
345.47629708
 30
0.0
  0
VERTEX
  5
32B
  8
0
 10
99.24074494
 20
345.54476165
 30
0.0
  0
VERTEX
  5
32C
  8
0
 10
99.18270917
 20
345.61947314
 30
0.0
  0
VERTEX
  5
32D
  8
0
 10
99.12889177
 20
345.70025321
 30
0.0
  0
VERTEX
  5
32E
  8
0
 10
99.07965857
 20
345.78689122
 30
0.0
  0
VERTEX
  5
32F
  8
0
 10
99.04332087
 20
345.86134017
 30
0.0
  0
VERTEX
  5
330
  8
0
 10
99.00386197
 20
345.95657612
 30
0.0
  0
VERTEX
  5
331
  8
0
 10
98.97072261
 20
346.05472722
 30
0.0
  0
VERTEX
  5
332
  8
0
 10
98.94416887
 20
346.15513349
 30
0.0
  0
VERTEX
  5
333
  8
0
 10
98.9244177
 20
346.25707199
 30
0.0
  0
VERTEX
  5
334
  8
0
 10
98.9116239
 20
346.35977543
 30
0.0
  0
VERTEX
  5
335
  8
0
 10
98.90698068
 20
346.42880782
 30
0.0
  0
VERTEX
  5
336
  8
0
 10
98.90598846
 20
346.53107677
 30
0.0
  0
VERTEX
  5
337
  8
0
 10
98.9120532
 20
346.63158324
 30
0.0
  0
VERTEX
  5
338
  8
0
 10
98.9250594
 20
346.73013476
 30
0.0
  0
VERTEX
  5
339
  8
0
 10
98.94490298
 20
346.82658293
 30
0.0
  0
VERTEX
  5
33A
  8
0
 10
98.97149977
 20
346.92081563
 30
0.0
  0
VERTEX
  5
33B
  8
0
 10
99.00479216
 20
347.01274875
 30
0.0
  0
VERTEX
  5
33C
  8
0
 10
99.01534661
 20
347.0381557
 30
0.0
  0
SEQEND
  5
33D
  8
0
  0
POLYLINE
  5
33E
  8
0
 66
     1
 10
0.0
 20
0.0
 30
0.0
  0
VERTEX
  5
82F
  8
0
 10
95.49479551342354
 20
346.8085264962496
 30
0.0
  0
VERTEX
  5
830
  8
0
 10
95.52704326268586
 20
346.214887312189
 30
0.0
  0
VERTEX
  5
831
  8
0
 10
95.63345925057858
 20
345.6037090671164
 30
0.0
  0
VERTEX
  5
832
  8
0
 10
95.8093891279747
 20
345.0017230538355
 30
0.0
  0
VERTEX
  5
833
  8
0
 10
96.04713819516334
 20
344.4352585216525
 30
0.0
  0
VERTEX
  5
834
  8
0
 10
96.33630794732183
 20
343.9290911058178
 30
0.0
  0
VERTEX
  5
835
  8
0
 10
96.66425087715203
 20
343.5053592078692
 30
0.0
  0
SEQEND
  5
9AB
  8
0
  0
POLYLINE
  5
33F
  8
0
 66
     1
 10
0.0
 20
0.0
 30
0.0
  0
VERTEX
  5
836
  8
0
 10
99.92608252
 20
355.01340754
 30
0.0
  0
VERTEX
  5
837
  8
0
 10
100.1469545647517
 20
354.9223001361249
 30
0.0
  0
VERTEX
  5
838
  8
0
 10
100.390491553123
 20
354.8888162755851
 30
0.0
  0
VERTEX
  5
839
  8
0
 10
100.6473344952494
 20
354.9142427243603
 30
0.0
  0
VERTEX
  5
83A
  8
0
 10
100.9076130609266
 20
354.9976023582855
 30
0.0
  0
VERTEX
  5
83B
  8
0
 10
101.1613248908642
 20
355.135691713385
 30
0.0
  0
VERTEX
  5
83C
  8
0
 10
101.3987199817433
 20
355.3232040931957
 30
0.0
  0
VERTEX
  5
83D
  8
0
 10
101.6106753733748
 20
355.5529335021362
 30
0.0
  0
VERTEX
  5
83E
  8
0
 10
101.7890457389429
 20
355.8160515678746
 30
0.0
  0
VERTEX
  5
83F
  8
0
 10
101.9269764053456
 20
356.1024468107259
 30
0.0
  0
VERTEX
  5
840
  8
0
 10
102.0191667744375
 20
356.4011132221449
 30
0.0
  0
VERTEX
  5
841
  8
0
 10
102.0620740220435
 20
356.7005732194608
 30
0.0
  0
VERTEX
  5
842
  8
0
 10
102.0540492467046
 20
356.9893187229421
 30
0.0
  0
VERTEX
  5
843
  8
0
 10
101.9954008360358
 20
357.2562534048457
 30
0.0
  0
VERTEX
  5
844
  8
0
 10
101.8883826155637
 20
357.491119115068
 30
0.0
  0
VERTEX
  5
845
  8
0
 10
101.7371072354752
 20
357.6848900961
 30
0.0
  0
VERTEX
  5
846
  8
0
 10
101.5473881237776
 20
357.8301198378256
 30
0.0
  0
SEQEND
  5
9AC
  8
0
  0
POLYLINE
  5
340
  8
0
 66
     1
 10
0.0
 20
0.0
 30
0.0
  0
VERTEX
  5
847
  8
0
 10
101.5473881237776
 20
357.8301198378256
 30
0.0
  0
VERTEX
  5
848
  8
0
 10
101.326516078987
 20
357.9212272428721
 30
0.0
  0
VERTEX
  5
849
  8
0
 10
101.0829790903297
 20
357.9547111043593
 30
0.0
  0
VERTEX
  5
84A
  8
0
 10
100.8261361477241
 20
357.9292846562652
 30
0.0
  0
VERTEX
  5
84B
  8
0
 10
100.5658575814379
 20
357.8459250227331
 30
0.0
  0
VERTEX
  5
84C
  8
0
 10
100.3121457508302
 20
357.7078356677383
 30
0.0
  0
VERTEX
  5
84D
  8
0
 10
100.0747506592902
 20
357.5203232877639
 30
0.0
  0
VERTEX
  5
84E
  8
0
 10
99.86279526707405
 20
357.2905938784306
 30
0.0
  0
VERTEX
  5
84F
  8
0
 10
99.68442490105708
 20
357.0274758121254
 30
0.0
  0
VERTEX
  5
850
  8
0
 10
99.54649423438975
 20
356.7410805686012
 30
0.0
  0
VERTEX
  5
851
  8
0
 10
99.45430386525172
 20
356.4424141564793
 30
0.0
  0
VERTEX
  5
852
  8
0
 10
99.41139661783608
 20
356.1429541585098
 30
0.0
  0
VERTEX
  5
853
  8
0
 10
99.41942139360212
 20
355.8542086545016
 30
0.0
  0
VERTEX
  5
854
  8
0
 10
99.47806980491679
 20
355.5872739722689
 30
0.0
  0
VERTEX
  5
855
  8
0
 10
99.58508802621856
 20
355.3524082619742
 30
0.0
  0
VERTEX
  5
856
  8
0
 10
99.73636340726989
 20
355.1586372811709
 30
0.0
  0
VERTEX
  5
857
  8
0
 10
99.92608252
 20
355.01340754
 30
0.0
  0
SEQEND
  5
9AD
  8
0
  0
POLYLINE
  5
341
  8
0
 66
     1
 10
0.0
 20
0.0
 30
0.0
  0
VERTEX
  5
858
  8
0
 10
99.56553997109886
 20
355.3862193509696
 30
0.0
  0
VERTEX
  5
859
  8
0
 10
99.8168555743231
 20
355.4190957262722
 30
0.0
  0
VERTEX
  5
85A
  8
0
 10
100.0702095262855
 20
355.5066946074822
 30
0.0
  0
VERTEX
  5
85B
  8
0
 10
100.3163590030315
 20
355.645820224289
 30
0.0
  0
VERTEX
  5
85C
  8
0
 10
100.5463240132782
 20
355.8313970151168
 30
0.0
  0
VERTEX
  5
85D
  8
0
 10
100.7517150052192
 20
356.0566547930615
 30
0.0
  0
VERTEX
  5
85E
  8
0
 10
100.9250389329962
 20
356.3133757349163
 30
0.0
  0
VERTEX
  5
85F
  8
0
 10
101.0599726169661
 20
356.5921941826656
 30
0.0
  0
VERTEX
  5
860
  8
0
 10
101.151593425069
 20
356.8829383201294
 30
0.0
  0
VERTEX
  5
861
  8
0
 10
101.1965588596121
 20
357.1750012597592
 30
0.0
  0
VERTEX
  5
862
  8
0
 10
101.1932284978101
 20
357.4577280016479
 30
0.0
  0
VERTEX
  5
863
  8
0
 10
101.1417238374634
 20
357.7208041477674
 30
0.0
  0
VERTEX
  5
864
  8
0
 10
101.0439238644915
 20
357.9546321904159
 30
0.0
  0
SEQEND
  5
9AE
  8
0
  0
LINE
  5
342
  8
0
 10
104.23954194
 20
360.3511457
 30
0.0
 11
97.29165686
 21
358.44988305
 31
0.0
  0
LINE
  5
343
  8
0
 10
96.42765004
 20
358.94720721
 30
0.0
 11
103.37553512
 21
360.84846986
 31
0.0
  0
POLYLINE
  5
344
  8
0
 66
     1
 10
0.0
 20
0.0
 30
0.0
  0
VERTEX
  5
865
  8
0
 10
104.7295239423247
 20
360.3012877386619
 30
0.0
  0
VERTEX
  5
866
  8
0
 10
104.5797474534464
 20
360.3608900694157
 30
0.0
  0
VERTEX
  5
867
  8
0
 10
104.4138698273845
 20
360.3777688958058
 30
0.0
  0
VERTEX
  5
868
  8
0
 10
104.2395419366899
 20
360.3511457056691
 30
0.0
  0
SEQEND
  5
9AF
  8
0
  0
POLYLINE
  5
345
  8
0
 66
     1
 10
0.0
 20
0.0
 30
0.0
  0
VERTEX
  5
869
  8
0
 10
105.0480589254183
 20
359.6582849942925
 30
0.0
  0
VERTEX
  5
86A
  8
0
 10
105.0357373704123
 20
359.8231069422494
 30
0.0
  0
VERTEX
  5
86B
  8
0
 10
104.9959251876847
 20
359.9746629410308
 30
0.0
  0
VERTEX
  5
86C
  8
0
 10
104.9299818277168
 20
360.1077778693206
 30
0.0
  0
VERTEX
  5
86D
  8
0
 10
104.8401590317168
 20
360.2179063055692
 30
0.0
  0
VERTEX
  5
86E
  8
0
 10
104.7295239423247
 20
360.3012877386619
 30
0.0
  0
SEQEND
  5
9B0
  8
0
  0
LINE
  5
346
  8
0
 10
104.94148389
 20
348.65982091
 30
0.0
 11
105.04805893
 21
359.65828499
 31
0.0
  0
POLYLINE
  5
347
  8
0
 66
     1
 10
0.0
 20
0.0
 30
0.0
  0
VERTEX
  5
86F
  8
0
 10
102.2849395909354
 20
347.9328675310281
 30
0.0
  0
VERTEX
  5
870
  8
0
 10
102.0042220585818
 20
348.3440430686371
 30
0.0
  0
VERTEX
  5
871
  8
0
 10
101.6654122253633
 20
348.6366236155443
 30
0.0
  0
VERTEX
  5
872
  8
0
 10
101.2828461472655
 20
348.7982292149433
 30
0.0
  0
VERTEX
  5
873
  8
0
 10
100.8727113376842
 20
348.8220218512471
 30
0.0
  0
VERTEX
  5
874
  8
0
 10
100.4523618253853
 20
348.706994786951
 30
0.0
  0
VERTEX
  5
875
  8
0
 10
100.0395838537155
 20
348.4580151607029
 30
0.0
  0
VERTEX
  5
876
  8
0
 10
99.65184329152311
 20
348.0856180441309
 30
0.0
  0
VERTEX
  5
877
  8
0
 10
99.30554660008087
 20
347.6055606714963
 30
0.0
  0
VERTEX
  5
878
  8
0
 10
99.01534662670734
 20
347.0381557040494
 30
0.0
  0
SEQEND
  5
9B1
  8
0
  0
LINE
  5
348
  8
0
 10
96.46537736
 20
357.30966642
 30
0.0
 11
96.35880232
 21
346.31120234
 31
0.0
  0
POLYLINE
  5
349
  8
0
 66
     1
 10
0.0
 20
0.0
 30
0.0
  0
VERTEX
  5
879
  8
0
 10
97.29165685668991
 20
358.4498830556691
 30
0.0
  0
VERTEX
  5
87A
  8
0
 10
97.13201971860876
 20
358.3886346169902
 30
0.0
  0
VERTEX
  5
87B
  8
0
 10
96.97817604452817
 20
358.2945178540224
 30
0.0
  0
VERTEX
  5
87C
  8
0
 10
96.83603796059057
 20
358.1711496212
 30
0.0
  0
VERTEX
  5
87D
  8
0
 10
96.71106775367197
 20
358.0232708905438
 30
0.0
  0
VERTEX
  5
87E
  8
0
 10
96.60806795875965
 20
357.8565645587648
 30
0.0
  0
VERTEX
  5
87F
  8
0
 10
96.53099680022528
 20
357.6774370567293
 30
0.0
  0
VERTEX
  5
880
  8
0
 10
96.48281607948135
 20
357.4927721539127
 30
0.0
  0
VERTEX
  5
881
  8
0
 10
96.46537735461355
 20
357.3096664189977
 30
0.0
  0
SEQEND
  5
9B2
  8
0
  0
POLYLINE
  5
34A
  8
0
 66
     1
 10
0.0
 20
0.0
 30
0.0
  0
VERTEX
  5
34B
  8
0
 10
95.49479551
 20
346.8085265
 30
0.0
  0
VERTEX
  5
34C
  8
0
 10
95.60137054
 20
357.80699058
 30
0.0
  0
SEQEND
  5
34D
  8
0
  0
POLYLINE
  5
34E
  8
0
 66
     1
 10
0.0
 20
0.0
 30
0.0
  0
VERTEX
  5
882
  8
0
 10
96.42765004668992
 20
358.9472072156691
 30
0.0
  0
VERTEX
  5
883
  8
0
 10
96.26801290860877
 20
358.8859587769902
 30
0.0
  0
VERTEX
  5
884
  8
0
 10
96.11416923452818
 20
358.7918420140224
 30
0.0
  0
VERTEX
  5
885
  8
0
 10
95.97203115059058
 20
358.6684737812
 30
0.0
  0
VERTEX
  5
886
  8
0
 10
95.84706094367198
 20
358.5205950505438
 30
0.0
  0
VERTEX
  5
887
  8
0
 10
95.74406114875966
 20
358.3538887187648
 30
0.0
  0
VERTEX
  5
888
  8
0
 10
95.66698999022529
 20
358.1747612167293
 30
0.0
  0
VERTEX
  5
889
  8
0
 10
95.61880926948136
 20
357.9900963139127
 30
0.0
  0
VERTEX
  5
88A
  8
0
 10
95.60137054461356
 20
357.8069905789977
 30
0.0
  0
SEQEND
  5
9B3
  8
0
  0
LINE
  5
34F
  8
0
 10
104.72952394
 20
360.30128774
 30
0.0
 11
103.86551713
 21
360.7986119
 31
0.0
  0
POLYLINE
  5
350
  8
0
 66
     1
 10
0.0
 20
0.0
 30
0.0
  0
VERTEX
  5
88B
  8
0
 10
103.8655171323247
 20
360.7986118986619
 30
0.0
  0
VERTEX
  5
88C
  8
0
 10
103.7157406434464
 20
360.8582142294157
 30
0.0
  0
VERTEX
  5
88D
  8
0
 10
103.5498630173845
 20
360.8750930558058
 30
0.0
  0
VERTEX
  5
88E
  8
0
 10
103.3755351266899
 20
360.8484698656691
 30
0.0
  0
SEQEND
  5
9B4
  8
0
  0
LINE
  5
351
  8
0
  6
STRICHPUNKT2
 62
     1
 10
99.6844249
 20
357.02747581
 30
0.0
 11
101.20473901
 21
356.15237977
 31
0.0
  0
LINE
  5
352
  8
0
  6
STRICHPUNKT2
 62
     1
 10
99.87272851
 20
356.91908785
 30
0.0
 11
99.85829648
 21
355.4297125
 31
0.0
  0
LINE
  5
353
  8
0
  6
STRICHPUNKT2
 62
     1
 10
99.87272851
 20
356.91908785
 30
0.0
 11
99.87649424
 21
357.30770822
 31
0.0
  0
LINE
  5
354
  8
0
  6
STRICHPUNKT2
 62
     1
 10
99.87272851
 20
356.91908785
 30
0.0
 11
99.58895989
 21
356.84143563
 31
0.0
  0
LINE
  5
355
  8
0
  6
STRICHPUNKT2
 62
     1
 10
99.87272851
 20
356.91908785
 30
0.0
 11
101.20100066
 21
357.28256453
 31
0.0
  0
LINE
  5
356
  8
0
  6
STRICHPUNKT2
 62
     1
 10
100.73673532
 20
356.42176369
 30
0.0
 11
100.71508727
 21
354.18770067
 31
0.0
  0
LINE
  5
357
  8
0
  6
STRICHPUNKT2
 62
     1
 10
100.73673532
 20
356.42176369
 30
0.0
 11
100.75838338
 21
358.6558267
 31
0.0
  0
LINE
  5
358
  8
0
  6
STRICHPUNKT2
 62
     1
 10
100.73673532
 20
356.42176369
 30
0.0
 11
98.7443271
 21
355.87654866
 31
0.0
  0
LINE
  5
359
  8
0
  6
STRICHPUNKT2
 62
     1
 10
100.73673532
 20
356.42176369
 30
0.0
 11
102.72914355
 21
356.96697871
 31
0.0
  0
POLYLINE
  5
35A
  8
0
 66
     1
 10
0.0
 20
0.0
 30
0.0
  0
VERTEX
  5
35B
  8
0
 10
65.50201858
 20
337.86735938
 30
0.0
  0
VERTEX
  5
35C
  8
0
 10
65.55931292
 20
337.75282604
 30
0.0
  0
VERTEX
  5
35D
  8
0
 10
65.58286383
 20
337.70179255
 30
0.0
  0
SEQEND
  5
35E
  8
0
  0
POLYLINE
  5
35F
  8
0
 66
     1
 10
0.0
 20
0.0
 30
0.0
  0
VERTEX
  5
360
  8
0
 10
66.31362784
 20
336.09357457
 30
0.0
  0
VERTEX
  5
361
  8
0
 10
66.33378217
 20
336.04709417
 30
0.0
  0
VERTEX
  5
362
  8
0
 10
66.35270351
 20
335.99522722
 30
0.0
  0
SEQEND
  5
363
  8
0
  0
POLYLINE
  5
364
  8
0
 66
     1
 10
0.0
 20
0.0
 30
0.0
  0
VERTEX
  5
88F
  8
0
 10
68.15856286937142
 20
338.5943127504839
 30
0.0
  0
VERTEX
  5
890
  8
0
 10
68.1725655486379
 20
338.3165450674386
 30
0.0
  0
VERTEX
  5
891
  8
0
 10
68.21923341011768
 20
338.0303399520597
 30
0.0
  0
VERTEX
  5
892
  8
0
 10
68.29677303405846
 20
337.7466961064702
 30
0.0
  0
VERTEX
  5
893
  8
0
 10
68.40220461618476
 20
337.4765138046313
 30
0.0
  0
VERTEX
  5
894
  8
0
 10
68.53147647990575
 20
337.2301760009248
 30
0.0
  0
VERTEX
  5
895
  8
0
 10
68.67962077997485
 20
337.0171493190379
 30
0.0
  0
VERTEX
  5
896
  8
0
 10
68.8409444139976
 20
336.845620254922
 30
0.0
  0
VERTEX
  5
897
  8
0
 10
69.00924780516459
 20
336.7221805743433
 30
0.0
  0
SEQEND
  5
9B5
  8
0
  0
POLYLINE
  5
365
  8
0
 66
     1
 10
0.0
 20
0.0
 30
0.0
  0
VERTEX
  5
898
  8
0
 10
59.57588129937142
 20
336.2456941804839
 30
0.0
  0
VERTEX
  5
899
  8
0
 10
59.58988397863789
 20
335.9679264974386
 30
0.0
  0
VERTEX
  5
89A
  8
0
 10
59.63655184011768
 20
335.6817213820597
 30
0.0
  0
VERTEX
  5
89B
  8
0
 10
59.71409146405845
 20
335.3980775364702
 30
0.0
  0
VERTEX
  5
89C
  8
0
 10
59.81952304618476
 20
335.1278952346313
 30
0.0
  0
VERTEX
  5
89D
  8
0
 10
59.94879490990574
 20
334.8815574309248
 30
0.0
  0
VERTEX
  5
89E
  8
0
 10
60.09693920997486
 20
334.6685307490379
 30
0.0
  0
VERTEX
  5
89F
  8
0
 10
60.2582628439976
 20
334.4970016849219
 30
0.0
  0
VERTEX
  5
8A0
  8
0
 10
60.42656623516459
 20
334.3735620043433
 30
0.0
  0
SEQEND
  5
9B6
  8
0
  0
POLYLINE
  5
366
  8
0
 66
     1
 10
0.0
 20
0.0
 30
0.0
  0
VERTEX
  5
367
  8
0
 10
63.08311052
 20
335.10051538
 30
0.0
  0
VERTEX
  5
368
  8
0
 10
62.99548795
 20
335.12256099
 30
0.0
  0
VERTEX
  5
369
  8
0
 10
62.91198544
 20
335.15073236
 30
0.0
  0
VERTEX
  5
36A
  8
0
 10
62.83230987
 20
335.18495466
 30
0.0
  0
VERTEX
  5
36B
  8
0
 10
62.75619947
 20
335.22522923
 30
0.0
  0
VERTEX
  5
36C
  8
0
 10
62.68342916
 20
335.27163253
 30
0.0
  0
VERTEX
  5
36D
  8
0
 10
62.61381532
 20
335.32431363
 30
0.0
  0
VERTEX
  5
36E
  8
0
 10
62.58507978
 20
335.34871651
 30
0.0
  0
VERTEX
  5
36F
  8
0
 10
62.51970936
 20
335.41078892
 30
0.0
  0
VERTEX
  5
370
  8
0
 10
62.45782392
 20
335.47925349
 30
0.0
  0
VERTEX
  5
371
  8
0
 10
62.39978815
 20
335.55396498
 30
0.0
  0
VERTEX
  5
372
  8
0
 10
62.34597074
 20
335.63474505
 30
0.0
  0
VERTEX
  5
373
  8
0
 10
62.29673754
 20
335.72138306
 30
0.0
  0
VERTEX
  5
374
  8
0
 10
62.26039985
 20
335.79583201
 30
0.0
  0
VERTEX
  5
375
  8
0
 10
62.22094094
 20
335.89106796
 30
0.0
  0
VERTEX
  5
376
  8
0
 10
62.18780159
 20
335.98921906
 30
0.0
  0
VERTEX
  5
377
  8
0
 10
62.16124785
 20
336.08962533
 30
0.0
  0
VERTEX
  5
378
  8
0
 10
62.14149668
 20
336.19156383
 30
0.0
  0
VERTEX
  5
379
  8
0
 10
62.12870287
 20
336.29426727
 30
0.0
  0
VERTEX
  5
37A
  8
0
 10
62.12405966
 20
336.36329966
 30
0.0
  0
VERTEX
  5
37B
  8
0
 10
62.12306744
 20
336.46556861
 30
0.0
  0
VERTEX
  5
37C
  8
0
 10
62.12913218
 20
336.56607508
 30
0.0
  0
VERTEX
  5
37D
  8
0
 10
62.14213837
 20
336.6646266
 30
0.0
  0
VERTEX
  5
37E
  8
0
 10
62.16198195
 20
336.76107477
 30
0.0
  0
VERTEX
  5
37F
  8
0
 10
62.18857874
 20
336.85530747
 30
0.0
  0
VERTEX
  5
380
  8
0
 10
62.22187113
 20
336.9472406
 30
0.0
  0
VERTEX
  5
381
  8
0
 10
62.23242559
 20
336.97264754
 30
0.0
  0
SEQEND
  5
382
  8
0
  0
POLYLINE
  5
383
  8
0
 66
     1
 10
0.0
 20
0.0
 30
0.0
  0
VERTEX
  5
8A1
  8
0
 10
58.71187449342354
 20
336.7430183362496
 30
0.0
  0
VERTEX
  5
8A2
  8
0
 10
58.7398798523552
 20
336.1874829719697
 30
0.0
  0
VERTEX
  5
8A3
  8
0
 10
58.8332155755183
 20
335.6150727431343
 30
0.0
  0
VERTEX
  5
8A4
  8
0
 10
58.98829482340034
 20
335.0477850539157
 30
0.0
  0
VERTEX
  5
8A5
  8
0
 10
59.19915798745043
 20
334.5074204521607
 30
0.0
  0
VERTEX
  5
8A6
  8
0
 10
59.45770171449459
 20
334.0147448465593
 30
0.0
  0
VERTEX
  5
8A7
  8
0
 10
59.75399031405507
 20
333.5886914844158
 30
0.0
  0
VERTEX
  5
8A8
  8
0
 10
60.07663758136503
 20
333.245633357571
 30
0.0
  0
VERTEX
  5
8A9
  8
0
 10
60.41324436283396
 20
332.9987539975035
 30
0.0
  0
SEQEND
  5
9B7
  8
0
  0
POLYLINE
  5
384
  8
0
 66
     1
 10
0.0
 20
0.0
 30
0.0
  0
VERTEX
  5
8AA
  8
0
 10
63.1431615
 20
344.94789938
 30
0.0
  0
VERTEX
  5
8AB
  8
0
 10
63.36403354475165
 20
344.856791976125
 30
0.0
  0
VERTEX
  5
8AC
  8
0
 10
63.60757053312301
 20
344.8233081155851
 30
0.0
  0
VERTEX
  5
8AD
  8
0
 10
63.8644134752494
 20
344.8487345643603
 30
0.0
  0
VERTEX
  5
8AE
  8
0
 10
64.12469204092658
 20
344.9320941982855
 30
0.0
  0
VERTEX
  5
8AF
  8
0
 10
64.37840387086423
 20
345.070183553385
 30
0.0
  0
VERTEX
  5
8B0
  8
0
 10
64.61579896174332
 20
345.2576959331957
 30
0.0
  0
VERTEX
  5
8B1
  8
0
 10
64.82775435337484
 20
345.4874253421362
 30
0.0
  0
VERTEX
  5
8B2
  8
0
 10
65.0061247189429
 20
345.7505434078746
 30
0.0
  0
VERTEX
  5
8B3
  8
0
 10
65.14405538534558
 20
346.0369386507259
 30
0.0
  0
VERTEX
  5
8B4
  8
0
 10
65.23624575443753
 20
346.3356050621449
 30
0.0
  0
VERTEX
  5
8B5
  8
0
 10
65.27915300204356
 20
346.6350650594608
 30
0.0
  0
VERTEX
  5
8B6
  8
0
 10
65.27112822670456
 20
346.9238105629422
 30
0.0
  0
VERTEX
  5
8B7
  8
0
 10
65.21247981603582
 20
347.1907452448457
 30
0.0
  0
VERTEX
  5
8B8
  8
0
 10
65.10546159556374
 20
347.425610955068
 30
0.0
  0
VERTEX
  5
8B9
  8
0
 10
64.9541862154752
 20
347.6193819361
 30
0.0
  0
VERTEX
  5
8BA
  8
0
 10
64.76446710377758
 20
347.7646116778256
 30
0.0
  0
SEQEND
  5
9B8
  8
0
  0
POLYLINE
  5
385
  8
0
 66
     1
 10
0.0
 20
0.0
 30
0.0
  0
VERTEX
  5
8BB
  8
0
 10
64.76446710377758
 20
347.7646116778256
 30
0.0
  0
VERTEX
  5
8BC
  8
0
 10
64.54359505898698
 20
347.8557190828721
 30
0.0
  0
VERTEX
  5
8BD
  8
0
 10
64.30005807032973
 20
347.8892029443593
 30
0.0
  0
VERTEX
  5
8BE
  8
0
 10
64.04321512772415
 20
347.8637764962652
 30
0.0
  0
VERTEX
  5
8BF
  8
0
 10
63.78293656143787
 20
347.7804168627331
 30
0.0
  0
VERTEX
  5
8C0
  8
0
 10
63.52922473083015
 20
347.6423275077383
 30
0.0
  0
VERTEX
  5
8C1
  8
0
 10
63.29182963929022
 20
347.4548151277639
 30
0.0
  0
VERTEX
  5
8C2
  8
0
 10
63.07987424707404
 20
347.2250857184306
 30
0.0
  0
VERTEX
  5
8C3
  8
0
 10
62.90150388105709
 20
346.9619676521254
 30
0.0
  0
VERTEX
  5
8C4
  8
0
 10
62.76357321438975
 20
346.6755724086012
 30
0.0
  0
VERTEX
  5
8C5
  8
0
 10
62.67138284525172
 20
346.3769059964794
 30
0.0
  0
VERTEX
  5
8C6
  8
0
 10
62.62847559783609
 20
346.0774459985098
 30
0.0
  0
VERTEX
  5
8C7
  8
0
 10
62.63650037360213
 20
345.7887004945017
 30
0.0
  0
VERTEX
  5
8C8
  8
0
 10
62.6951487849168
 20
345.5217658122689
 30
0.0
  0
VERTEX
  5
8C9
  8
0
 10
62.80216700621855
 20
345.2869001019743
 30
0.0
  0
VERTEX
  5
8CA
  8
0
 10
62.9534423872699
 20
345.0931291211709
 30
0.0
  0
VERTEX
  5
8CB
  8
0
 10
63.1431615
 20
344.94789938
 30
0.0
  0
SEQEND
  5
9B9
  8
0
  0
POLYLINE
  5
386
  8
0
 66
     1
 10
0.0
 20
0.0
 30
0.0
  0
VERTEX
  5
8CC
  8
0
 10
62.78261895109884
 20
345.3207111909696
 30
0.0
  0
VERTEX
  5
8CD
  8
0
 10
63.03393455432309
 20
345.3535875662723
 30
0.0
  0
VERTEX
  5
8CE
  8
0
 10
63.28728850628548
 20
345.4411864474822
 30
0.0
  0
VERTEX
  5
8CF
  8
0
 10
63.53343798303145
 20
345.580312064289
 30
0.0
  0
VERTEX
  5
8D0
  8
0
 10
63.76340299327824
 20
345.7658888551168
 30
0.0
  0
VERTEX
  5
8D1
  8
0
 10
63.96879398521915
 20
345.9911466330615
 30
0.0
  0
VERTEX
  5
8D2
  8
0
 10
64.14211791299617
 20
346.2478675749164
 30
0.0
  0
VERTEX
  5
8D3
  8
0
 10
64.27705159696615
 20
346.5266860226656
 30
0.0
  0
VERTEX
  5
8D4
  8
0
 10
64.368672405069
 20
346.8174301601294
 30
0.0
  0
VERTEX
  5
8D5
  8
0
 10
64.41363783961208
 20
347.1094930997592
 30
0.0
  0
VERTEX
  5
8D6
  8
0
 10
64.41030747781012
 20
347.3922198416479
 30
0.0
  0
VERTEX
  5
8D7
  8
0
 10
64.35880281746336
 20
347.6552959877674
 30
0.0
  0
VERTEX
  5
8D8
  8
0
 10
64.26100284449144
 20
347.8891240304159
 30
0.0
  0
SEQEND
  5
9BA
  8
0
  0
LINE
  5
387
  8
0
 10
67.45662091
 20
350.28563754
 30
0.0
 11
60.50873583
 21
348.38437489
 31
0.0
  0
LINE
  5
388
  8
0
 10
59.64472902
 20
348.88169905
 30
0.0
 11
66.5926141
 21
350.7829617
 31
0.0
  0
POLYLINE
  5
389
  8
0
 66
     1
 10
0.0
 20
0.0
 30
0.0
  0
VERTEX
  5
8D9
  8
0
 10
67.94660292232466
 20
350.2357795786619
 30
0.0
  0
VERTEX
  5
8DA
  8
0
 10
67.79682643344644
 20
350.2953819094157
 30
0.0
  0
VERTEX
  5
8DB
  8
0
 10
67.63094880738446
 20
350.3122607358059
 30
0.0
  0
VERTEX
  5
8DC
  8
0
 10
67.45662091668991
 20
350.2856375456691
 30
0.0
  0
SEQEND
  5
9BB
  8
0
  0
POLYLINE
  5
38A
  8
0
 66
     1
 10
0.0
 20
0.0
 30
0.0
  0
VERTEX
  5
8DD
  8
0
 10
68.26513790541833
 20
349.5927768342925
 30
0.0
  0
VERTEX
  5
8DE
  8
0
 10
68.25281635041229
 20
349.7575987822494
 30
0.0
  0
VERTEX
  5
8DF
  8
0
 10
68.21300416768473
 20
349.9091547810308
 30
0.0
  0
VERTEX
  5
8E0
  8
0
 10
68.14706080771681
 20
350.0422697093206
 30
0.0
  0
VERTEX
  5
8E1
  8
0
 10
68.05723801171675
 20
350.1523981455692
 30
0.0
  0
VERTEX
  5
8E2
  8
0
 10
67.94660292232466
 20
350.2357795786619
 30
0.0
  0
SEQEND
  5
9BC
  8
0
  0
LINE
  5
38B
  8
0
 10
68.15856287
 20
338.59431275
 30
0.0
 11
68.26513791
 21
349.59277683
 31
0.0
  0
POLYLINE
  5
38C
  8
0
 66
     1
 10
0.0
 20
0.0
 30
0.0
  0
VERTEX
  5
8E3
  8
0
 10
65.50201857093543
 20
337.867359371028
 30
0.0
  0
VERTEX
  5
8E4
  8
0
 10
65.22130103858184
 20
338.2785349086371
 30
0.0
  0
VERTEX
  5
8E5
  8
0
 10
64.8824912053633
 20
338.5711154555443
 30
0.0
  0
VERTEX
  5
8E6
  8
0
 10
64.4999251272655
 20
338.7327210549433
 30
0.0
  0
VERTEX
  5
8E7
  8
0
 10
64.0897903176842
 20
338.7565136912471
 30
0.0
  0
VERTEX
  5
8E8
  8
0
 10
63.66944080538531
 20
338.641486626951
 30
0.0
  0
VERTEX
  5
8E9
  8
0
 10
63.2566628337155
 20
338.3925070007029
 30
0.0
  0
VERTEX
  5
8EA
  8
0
 10
62.86892227152311
 20
338.0201098841309
 30
0.0
  0
VERTEX
  5
8EB
  8
0
 10
62.52262558008088
 20
337.5400525114962
 30
0.0
  0
VERTEX
  5
8EC
  8
0
 10
62.23242560670735
 20
336.9726475440493
 30
0.0
  0
SEQEND
  5
9BD
  8
0
  0
LINE
  5
38D
  8
0
 10
59.68245633
 20
347.24415826
 30
0.0
 11
59.5758813
 21
336.24569418
 31
0.0
  0
POLYLINE
  5
38E
  8
0
 66
     1
 10
0.0
 20
0.0
 30
0.0
  0
VERTEX
  5
8ED
  8
0
 10
60.50873583668992
 20
348.3843748956691
 30
0.0
  0
VERTEX
  5
8EE
  8
0
 10
60.34909869860877
 20
348.3231264569902
 30
0.0
  0
VERTEX
  5
8EF
  8
0
 10
60.19525502452817
 20
348.2290096940224
 30
0.0
  0
VERTEX
  5
8F0
  8
0
 10
60.05311694059058
 20
348.1056414611999
 30
0.0
  0
VERTEX
  5
8F1
  8
0
 10
59.92814673367197
 20
347.9577627305438
 30
0.0
  0
VERTEX
  5
8F2
  8
0
 10
59.82514693875966
 20
347.7910563987647
 30
0.0
  0
VERTEX
  5
8F3
  8
0
 10
59.74807578022529
 20
347.6119288967292
 30
0.0
  0
VERTEX
  5
8F4
  8
0
 10
59.69989505948136
 20
347.4272639939126
 30
0.0
  0
VERTEX
  5
8F5
  8
0
 10
59.68245633461355
 20
347.2441582589977
 30
0.0
  0
SEQEND
  5
9BE
  8
0
  0
POLYLINE
  5
38F
  8
0
 66
     1
 10
0.0
 20
0.0
 30
0.0
  0
VERTEX
  5
390
  8
0
 10
58.71187448
 20
336.74301834
 30
0.0
  0
VERTEX
  5
391
  8
0
 10
58.81844952
 20
347.74148242
 30
0.0
  0
SEQEND
  5
392
  8
0
  0
POLYLINE
  5
393
  8
0
 66
     1
 10
0.0
 20
0.0
 30
0.0
  0
VERTEX
  5
8F6
  8
0
 10
59.64472902668992
 20
348.8816990556691
 30
0.0
  0
VERTEX
  5
8F7
  8
0
 10
59.48509188860877
 20
348.8204506169902
 30
0.0
  0
VERTEX
  5
8F8
  8
0
 10
59.33124821452817
 20
348.7263338540224
 30
0.0
  0
VERTEX
  5
8F9
  8
0
 10
59.18911013059058
 20
348.6029656211999
 30
0.0
  0
VERTEX
  5
8FA
  8
0
 10
59.06413992367197
 20
348.4550868905438
 30
0.0
  0
VERTEX
  5
8FB
  8
0
 10
58.96114012875966
 20
348.2883805587647
 30
0.0
  0
VERTEX
  5
8FC
  8
0
 10
58.88406897022529
 20
348.1092530567292
 30
0.0
  0
VERTEX
  5
8FD
  8
0
 10
58.83588824948136
 20
347.9245881539126
 30
0.0
  0
VERTEX
  5
8FE
  8
0
 10
58.81844952461356
 20
347.7414824189977
 30
0.0
  0
SEQEND
  5
9BF
  8
0
  0
LINE
  5
394
  8
0
 10
67.94660292
 20
350.23577958
 30
0.0
 11
67.08259611
 21
350.73310374
 31
0.0
  0
POLYLINE
  5
395
  8
0
 66
     1
 10
0.0
 20
0.0
 30
0.0
  0
VERTEX
  5
8FF
  8
0
 10
67.08259611232467
 20
350.733103738662
 30
0.0
  0
VERTEX
  5
900
  8
0
 10
66.93281962344645
 20
350.7927060694157
 30
0.0
  0
VERTEX
  5
901
  8
0
 10
66.76694199738446
 20
350.8095848958059
 30
0.0
  0
VERTEX
  5
902
  8
0
 10
66.59261410668992
 20
350.7829617056691
 30
0.0
  0
SEQEND
  5
9C0
  8
0
  0
LINE
  5
396
  8
0
  6
STRICHPUNKT2
 62
     1
 10
62.90150388
 20
346.96196765
 30
0.0
 11
64.42181799
 21
346.08687161
 31
0.0
  0
LINE
  5
397
  8
0
  6
STRICHPUNKT2
 62
     1
 10
63.08980749
 20
346.85357969
 30
0.0
 11
63.07537545
 21
345.36420434
 31
0.0
  0
LINE
  5
398
  8
0
  6
STRICHPUNKT2
 62
     1
 10
63.08980749
 20
346.85357969
 30
0.0
 11
63.09357322
 21
347.24220006
 31
0.0
  0
LINE
  5
399
  8
0
  6
STRICHPUNKT2
 62
     1
 10
63.08980749
 20
346.85357969
 30
0.0
 11
62.80603886
 21
346.77592747
 31
0.0
  0
LINE
  5
39A
  8
0
  6
STRICHPUNKT2
 62
     1
 10
63.08980749
 20
346.85357969
 30
0.0
 11
64.41807964
 21
347.21705637
 31
0.0
  0
LINE
  5
39B
  8
0
  6
STRICHPUNKT2
 62
     1
 10
63.9538143
 20
346.35625553
 30
0.0
 11
63.93216625
 21
344.12219251
 31
0.0
  0
LINE
  5
39C
  8
0
  6
STRICHPUNKT2
 62
     1
 10
63.9538143
 20
346.35625553
 30
0.0
 11
63.97546236
 21
348.59031855
 31
0.0
  0
LINE
  5
39D
  8
0
  6
STRICHPUNKT2
 62
     1
 10
63.9538143
 20
346.35625553
 30
0.0
 11
61.96140608
 21
345.8110405
 31
0.0
  0
LINE
  5
39E
  8
0
  6
STRICHPUNKT2
 62
     1
 10
63.9538143
 20
346.35625553
 30
0.0
 11
65.94622252
 21
346.90147055
 31
0.0
  0
POLYLINE
  5
39F
  8
0
 66
     1
 10
0.0
 20
0.0
 30
0.0
  0
VERTEX
  5
3A0
  8
0
 10
140.59888571
 20
488.30690401
 30
0.0
  0
VERTEX
  5
3A1
  8
0
 10
140.3511503
 20
488.31004283
 30
0.0
  0
VERTEX
  5
3A2
  8
0
 10
140.04719173
 20
488.31987753
 30
0.0
  0
VERTEX
  5
3A3
  8
0
 10
139.80426306
 20
488.32974094
 30
0.0
  0
SEQEND
  5
3A4
  8
0
  0
POLYLINE
  5
3A5
  8
0
 66
     1
 10
0.0
 20
0.0
 30
0.0
  0
VERTEX
  5
3A6
  8
0
 10
141.30426306
 20
488.34581065
 30
0.0
  0
VERTEX
  5
3A7
  8
0
 10
141.13659275
 20
488.32802835
 30
0.0
  0
VERTEX
  5
3A8
  8
0
 10
140.95448316
 20
488.31552039
 30
0.0
  0
VERTEX
  5
3A9
  8
0
 10
140.75438836
 20
488.30849711
 30
0.0
  0
VERTEX
  5
3AA
  8
0
 10
140.59888571
 20
488.30690401
 30
0.0
  0
SEQEND
  5
3AB
  8
0
  0
POLYLINE
  5
3AC
  8
0
 66
     1
 10
0.0
 20
0.0
 30
0.0
  0
VERTEX
  5
3AD
  8
0
 10
141.30426306
 20
489.90858307
 30
0.0
  0
VERTEX
  5
3AE
  8
0
 10
141.20376788
 20
489.87765951
 30
0.0
  0
VERTEX
  5
3AF
  8
0
 10
141.09554678
 20
489.85199379
 30
0.0
  0
VERTEX
  5
3B0
  8
0
 10
141.07024824
 20
489.84700035
 30
0.0
  0
VERTEX
  5
3B1
  8
0
 10
140.95464032
 20
489.8284398
 30
0.0
  0
VERTEX
  5
3B2
  8
0
 10
140.83083573
 20
489.81546956
 30
0.0
  0
VERTEX
  5
3B3
  8
0
 10
140.69717452
 20
489.80828928
 30
0.0
  0
VERTEX
  5
3B4
  8
0
 10
140.59877123
 20
489.80690401
 30
0.0
  0
VERTEX
  5
3B5
  8
0
 10
140.44231137
 20
489.81017143
 30
0.0
  0
VERTEX
  5
3B6
  8
0
 10
140.26525577
 20
489.82047843
 30
0.0
  0
VERTEX
  5
3B7
  8
0
 10
140.04890444
 20
489.83961509
 30
0.0
  0
VERTEX
  5
3B8
  8
0
 10
139.80426306
 20
489.86544505
 30
0.0
  0
SEQEND
  5
3B9
  8
0
  0
POLYLINE
  5
3BA
  8
0
 66
     1
 10
0.0
 20
0.0
 30
0.0
  0
VERTEX
  5
3BB
  8
0
 10
140.59877123
 20
491.80690401
 30
0.0
  0
VERTEX
  5
3BC
  8
0
 10
140.75391478
 20
491.80326095
 30
0.0
  0
VERTEX
  5
3BD
  8
0
 10
140.89285471
 20
491.79266727
 30
0.0
  0
VERTEX
  5
3BE
  8
0
 10
141.01973615
 20
491.77574662
 30
0.0
  0
VERTEX
  5
3BF
  8
0
 10
141.07024824
 20
491.76680767
 30
0.0
  0
VERTEX
  5
3C0
  8
0
 10
141.17942059
 20
491.74256643
 30
0.0
  0
VERTEX
  5
3C1
  8
0
 10
141.28032752
 20
491.7132755
 30
0.0
  0
VERTEX
  5
3C2
  8
0
 10
141.30426306
 20
491.70522495
 30
0.0
  0
SEQEND
  5
3C3
  8
0
  0
POLYLINE
  5
3C4
  8
0
 66
     1
 10
0.0
 20
0.0
 30
0.0
  0
VERTEX
  5
903
  8
0
 10
141.3042630671333
 20
489.9085830723309
 30
0.0
  0
VERTEX
  5
904
  8
0
 10
141.5475167048654
 20
490.0155406883271
 30
0.0
  0
VERTEX
  5
905
  8
0
 10
141.7553002456261
 20
490.1549648534569
 30
0.0
  0
VERTEX
  5
906
  8
0
 10
141.9190891415238
 20
490.3211355382679
 30
0.0
  0
VERTEX
  5
907
  8
0
 10
142.0321637732756
 20
490.5072354079717
 30
0.0
  0
VERTEX
  5
908
  8
0
 10
142.0898851299656
 20
490.7056295110892
 30
0.0
  0
VERTEX
  5
909
  8
0
 10
142.0898851295616
 20
490.9081785117168
 30
0.0
  0
VERTEX
  5
90A
  8
0
 10
142.0321637720803
 20
491.106572614719
 30
0.0
  0
VERTEX
  5
90B
  8
0
 10
141.9190891395862
 20
491.2926724841973
 30
0.0
  0
VERTEX
  5
90C
  8
0
 10
141.7553002430257
 20
491.4588431686817
 30
0.0
  0
VERTEX
  5
90D
  8
0
 10
141.5475167017089
 20
491.5982673333971
 30
0.0
  0
VERTEX
  5
90E
  8
0
 10
141.3042630635502
 20
491.7052249489082
 30
0.0
  0
SEQEND
  5
9C1
  8
0
  0
POLYLINE
  5
3C5
  8
0
 66
     1
 10
0.0
 20
0.0
 30
0.0
  0
VERTEX
  5
90F
  8
0
 10
141.3042630498832
 20
488.345810651777
 30
0.0
  0
VERTEX
  5
910
  8
0
 10
141.9805976256426
 20
488.4813834512516
 30
0.0
  0
VERTEX
  5
911
  8
0
 10
142.605629318653
 20
488.7088958781549
 30
0.0
  0
VERTEX
  5
912
  8
0
 10
143.1546474546655
 20
489.0193532118485
 30
0.0
  0
VERTEX
  5
913
  8
0
 10
143.6059465610338
 20
489.400481498664
 30
0.0
  0
VERTEX
  5
914
  8
0
 10
143.9416844941816
 20
489.8372128035708
 30
0.0
  0
VERTEX
  5
915
  8
0
 10
144.1485878300703
 20
490.3122809221018
 30
0.0
  0
VERTEX
  5
916
  8
0
 10
144.21847663
 20
490.8069040010255
 30
0.0
  0
VERTEX
  5
917
  8
0
 10
144.1485878350924
 20
491.301527080304
 30
0.0
  0
VERTEX
  5
918
  8
0
 10
143.9416845040273
 20
491.7765951998854
 30
0.0
  0
VERTEX
  5
919
  8
0
 10
143.6059465753139
 20
492.2133265064966
 30
0.0
  0
VERTEX
  5
91A
  8
0
 10
143.1546474728154
 20
492.5944547956033
 30
0.0
  0
VERTEX
  5
91B
  8
0
 10
142.605629339955
 20
492.9049121320841
 30
0.0
  0
VERTEX
  5
91C
  8
0
 10
141.9805976492547
 20
493.1324245621605
 30
0.0
  0
VERTEX
  5
91D
  8
0
 10
141.3042630748718
 20
493.2679973650687
 30
0.0
  0
SEQEND
  5
9C2
  8
0
  0
POLYLINE
  5
3C6
  8
0
 66
     1
 10
0.0
 20
0.0
 30
0.0
  0
VERTEX
  5
3C7
  8
0
 10
140.59888571
 20
493.30690401
 30
0.0
  0
VERTEX
  5
3C8
  8
0
 10
140.72262411
 20
493.30587369
 30
0.0
  0
VERTEX
  5
3C9
  8
0
 10
140.94991813
 20
493.29852091
 30
0.0
  0
VERTEX
  5
3CA
  8
0
 10
141.14859674
 20
493.28471972
 30
0.0
  0
VERTEX
  5
3CB
  8
0
 10
141.30426306
 20
493.26799737
 30
0.0
  0
SEQEND
  5
3CC
  8
0
  0
POLYLINE
  5
3CD
  8
0
 66
     1
 10
0.0
 20
0.0
 30
0.0
  0
VERTEX
  5
3CE
  8
0
 10
139.80426306
 20
493.28406708
 30
0.0
  0
VERTEX
  5
3CF
  8
0
 10
139.90389671
 20
493.28815289
 30
0.0
  0
VERTEX
  5
3D0
  8
0
 10
139.99104623
 20
493.29170514
 30
0.0
  0
VERTEX
  5
3D1
  8
0
 10
140.06715269
 20
493.29470297
 30
0.0
  0
VERTEX
  5
3D2
  8
0
 10
140.19977782
 20
493.29946843
 30
0.0
  0
VERTEX
  5
3D3
  8
0
 10
140.2993387
 20
493.30246261
 30
0.0
  0
VERTEX
  5
3D4
  8
0
 10
140.59888571
 20
493.30690401
 30
0.0
  0
SEQEND
  5
3D5
  8
0
  0
POLYLINE
  5
3D6
  8
0
 66
     1
 10
0.0
 20
0.0
 30
0.0
  0
VERTEX
  5
3D7
  8
0
 10
139.80426306
 20
491.74836297
 30
0.0
  0
VERTEX
  5
3D8
  8
0
 10
140.04890444
 20
491.77419293
 30
0.0
  0
VERTEX
  5
3D9
  8
0
 10
140.19615365
 20
491.78784902
 30
0.0
  0
VERTEX
  5
3DA
  8
0
 10
140.31090994
 20
491.79654351
 30
0.0
  0
VERTEX
  5
3DB
  8
0
 10
140.41099924
 20
491.80226541
 30
0.0
  0
VERTEX
  5
3DC
  8
0
 10
140.50506079
 20
491.80571021
 30
0.0
  0
VERTEX
  5
3DD
  8
0
 10
140.59877123
 20
491.80690401
 30
0.0
  0
SEQEND
  5
3DE
  8
0
  0
POLYLINE
  5
3DF
  8
0
 66
     1
 10
0.0
 20
0.0
 30
0.0
  0
VERTEX
  5
3E0
  8
0
 10
140.59888571
 20
443.30690401
 30
0.0
  0
VERTEX
  5
3E1
  8
0
 10
140.3511503
 20
443.31004283
 30
0.0
  0
VERTEX
  5
3E2
  8
0
 10
140.04719173
 20
443.31987753
 30
0.0
  0
VERTEX
  5
3E3
  8
0
 10
139.80426306
 20
443.32974094
 30
0.0
  0
SEQEND
  5
3E4
  8
0
  0
POLYLINE
  5
3E5
  8
0
 66
     1
 10
0.0
 20
0.0
 30
0.0
  0
VERTEX
  5
3E6
  8
0
 10
141.30426306
 20
443.34581065
 30
0.0
  0
VERTEX
  5
3E7
  8
0
 10
141.13659275
 20
443.32802835
 30
0.0
  0
VERTEX
  5
3E8
  8
0
 10
140.95448316
 20
443.31552039
 30
0.0
  0
VERTEX
  5
3E9
  8
0
 10
140.75438836
 20
443.30849711
 30
0.0
  0
VERTEX
  5
3EA
  8
0
 10
140.59888571
 20
443.30690401
 30
0.0
  0
SEQEND
  5
3EB
  8
0
  0
POLYLINE
  5
3EC
  8
0
 66
     1
 10
0.0
 20
0.0
 30
0.0
  0
VERTEX
  5
3ED
  8
0
 10
141.30426306
 20
444.90858307
 30
0.0
  0
VERTEX
  5
3EE
  8
0
 10
141.20376788
 20
444.87765951
 30
0.0
  0
VERTEX
  5
3EF
  8
0
 10
141.09554678
 20
444.85199379
 30
0.0
  0
VERTEX
  5
3F0
  8
0
 10
141.07024824
 20
444.84700035
 30
0.0
  0
VERTEX
  5
3F1
  8
0
 10
140.95464032
 20
444.8284398
 30
0.0
  0
VERTEX
  5
3F2
  8
0
 10
140.83083573
 20
444.81546956
 30
0.0
  0
VERTEX
  5
3F3
  8
0
 10
140.69717452
 20
444.80828928
 30
0.0
  0
VERTEX
  5
3F4
  8
0
 10
140.59877123
 20
444.80690401
 30
0.0
  0
VERTEX
  5
3F5
  8
0
 10
140.44231137
 20
444.81017143
 30
0.0
  0
VERTEX
  5
3F6
  8
0
 10
140.26525577
 20
444.82047843
 30
0.0
  0
VERTEX
  5
3F7
  8
0
 10
140.04890444
 20
444.83961509
 30
0.0
  0
VERTEX
  5
3F8
  8
0
 10
139.80426306
 20
444.86544505
 30
0.0
  0
SEQEND
  5
3F9
  8
0
  0
POLYLINE
  5
3FA
  8
0
 66
     1
 10
0.0
 20
0.0
 30
0.0
  0
VERTEX
  5
3FB
  8
0
 10
140.59877123
 20
446.80690401
 30
0.0
  0
VERTEX
  5
3FC
  8
0
 10
140.75391478
 20
446.80326095
 30
0.0
  0
VERTEX
  5
3FD
  8
0
 10
140.89285471
 20
446.79266727
 30
0.0
  0
VERTEX
  5
3FE
  8
0
 10
141.01973615
 20
446.77574662
 30
0.0
  0
VERTEX
  5
3FF
  8
0
 10
141.07024824
 20
446.76680767
 30
0.0
  0
VERTEX
  5
400
  8
0
 10
141.17942059
 20
446.74256643
 30
0.0
  0
VERTEX
  5
401
  8
0
 10
141.28032752
 20
446.7132755
 30
0.0
  0
VERTEX
  5
402
  8
0
 10
141.30426306
 20
446.70522495
 30
0.0
  0
SEQEND
  5
403
  8
0
  0
POLYLINE
  5
404
  8
0
 66
     1
 10
0.0
 20
0.0
 30
0.0
  0
VERTEX
  5
91E
  8
0
 10
141.3042630671333
 20
444.9085830723309
 30
0.0
  0
VERTEX
  5
91F
  8
0
 10
141.5475167048654
 20
445.0155406883271
 30
0.0
  0
VERTEX
  5
920
  8
0
 10
141.7553002456261
 20
445.1549648534569
 30
0.0
  0
VERTEX
  5
921
  8
0
 10
141.9190891415238
 20
445.3211355382679
 30
0.0
  0
VERTEX
  5
922
  8
0
 10
142.0321637732756
 20
445.5072354079717
 30
0.0
  0
VERTEX
  5
923
  8
0
 10
142.0898851299656
 20
445.7056295110892
 30
0.0
  0
VERTEX
  5
924
  8
0
 10
142.0898851295616
 20
445.9081785117168
 30
0.0
  0
VERTEX
  5
925
  8
0
 10
142.0321637720803
 20
446.106572614719
 30
0.0
  0
VERTEX
  5
926
  8
0
 10
141.9190891395862
 20
446.2926724841973
 30
0.0
  0
VERTEX
  5
927
  8
0
 10
141.7553002430257
 20
446.4588431686817
 30
0.0
  0
VERTEX
  5
928
  8
0
 10
141.5475167017089
 20
446.5982673333971
 30
0.0
  0
VERTEX
  5
929
  8
0
 10
141.3042630635502
 20
446.7052249489082
 30
0.0
  0
SEQEND
  5
9C3
  8
0
  0
POLYLINE
  5
405
  8
0
 66
     1
 10
0.0
 20
0.0
 30
0.0
  0
VERTEX
  5
92A
  8
0
 10
141.3042630498832
 20
443.345810651777
 30
0.0
  0
VERTEX
  5
92B
  8
0
 10
141.9805976256426
 20
443.4813834512516
 30
0.0
  0
VERTEX
  5
92C
  8
0
 10
142.605629318653
 20
443.7088958781549
 30
0.0
  0
VERTEX
  5
92D
  8
0
 10
143.1546474546655
 20
444.0193532118485
 30
0.0
  0
VERTEX
  5
92E
  8
0
 10
143.6059465610338
 20
444.400481498664
 30
0.0
  0
VERTEX
  5
92F
  8
0
 10
143.9416844941816
 20
444.8372128035708
 30
0.0
  0
VERTEX
  5
930
  8
0
 10
144.1485878300703
 20
445.3122809221018
 30
0.0
  0
VERTEX
  5
931
  8
0
 10
144.21847663
 20
445.8069040010255
 30
0.0
  0
VERTEX
  5
932
  8
0
 10
144.1485878350924
 20
446.301527080304
 30
0.0
  0
VERTEX
  5
933
  8
0
 10
143.9416845040273
 20
446.7765951998854
 30
0.0
  0
VERTEX
  5
934
  8
0
 10
143.6059465753139
 20
447.2133265064966
 30
0.0
  0
VERTEX
  5
935
  8
0
 10
143.1546474728154
 20
447.5944547956033
 30
0.0
  0
VERTEX
  5
936
  8
0
 10
142.605629339955
 20
447.9049121320841
 30
0.0
  0
VERTEX
  5
937
  8
0
 10
141.9805976492547
 20
448.1324245621605
 30
0.0
  0
VERTEX
  5
938
  8
0
 10
141.3042630748718
 20
448.2679973650687
 30
0.0
  0
SEQEND
  5
9C4
  8
0
  0
POLYLINE
  5
406
  8
0
 66
     1
 10
0.0
 20
0.0
 30
0.0
  0
VERTEX
  5
407
  8
0
 10
140.59888571
 20
448.30690401
 30
0.0
  0
VERTEX
  5
408
  8
0
 10
140.72262411
 20
448.30587369
 30
0.0
  0
VERTEX
  5
409
  8
0
 10
140.94991813
 20
448.29852091
 30
0.0
  0
VERTEX
  5
40A
  8
0
 10
141.14859674
 20
448.28471972
 30
0.0
  0
VERTEX
  5
40B
  8
0
 10
141.30426306
 20
448.26799737
 30
0.0
  0
SEQEND
  5
40C
  8
0
  0
POLYLINE
  5
40D
  8
0
 66
     1
 10
0.0
 20
0.0
 30
0.0
  0
VERTEX
  5
40E
  8
0
 10
139.80426306
 20
448.28406708
 30
0.0
  0
VERTEX
  5
40F
  8
0
 10
139.90389671
 20
448.28815289
 30
0.0
  0
VERTEX
  5
410
  8
0
 10
139.99104623
 20
448.29170514
 30
0.0
  0
VERTEX
  5
411
  8
0
 10
140.06715269
 20
448.29470297
 30
0.0
  0
VERTEX
  5
412
  8
0
 10
140.19977782
 20
448.29946843
 30
0.0
  0
VERTEX
  5
413
  8
0
 10
140.2993387
 20
448.30246261
 30
0.0
  0
VERTEX
  5
414
  8
0
 10
140.59888571
 20
448.30690401
 30
0.0
  0
SEQEND
  5
415
  8
0
  0
POLYLINE
  5
416
  8
0
 66
     1
 10
0.0
 20
0.0
 30
0.0
  0
VERTEX
  5
417
  8
0
 10
139.80426306
 20
446.74836297
 30
0.0
  0
VERTEX
  5
418
  8
0
 10
140.04890444
 20
446.77419293
 30
0.0
  0
VERTEX
  5
419
  8
0
 10
140.19615365
 20
446.78784902
 30
0.0
  0
VERTEX
  5
41A
  8
0
 10
140.31090994
 20
446.79654351
 30
0.0
  0
VERTEX
  5
41B
  8
0
 10
140.41099924
 20
446.80226541
 30
0.0
  0
VERTEX
  5
41C
  8
0
 10
140.50506079
 20
446.80571021
 30
0.0
  0
VERTEX
  5
41D
  8
0
 10
140.59877123
 20
446.80690401
 30
0.0
  0
SEQEND
  5
41E
  8
0
  0
ARC
  5
41F
  8
0
 10
136.80426306
 20
482.30690401
 30
0.0
 40
3.0
 50
-90.0
 51
0.0
  0
ARC
  5
420
  8
0
 10
136.80426306
 20
482.30690401
 30
0.0
 40
1.5
 50
-90.0
 51
0.0
  0
LINE
  5
421
  8
0
 10
133.05426306
 20
458.80690401
 30
0.0
 11
133.05426306
 21
477.80690401
 31
0.0
  0
LINE
  5
422
  8
0
 10
131.55426306
 20
458.80690401
 30
0.0
 11
131.55426306
 21
477.80690401
 31
0.0
  0
LINE
  5
423
  8
0
  6
STRICHPUNKT2
 62
     1
 10
131.55426306
 20
464.9481468
 30
0.0
 11
130.05426306
 21
464.9481468
 31
0.0
  0
LINE
  5
424
  8
0
  6
STRICHPUNKT2
 62
     1
 10
134.55426306
 20
464.9481468
 30
0.0
 11
133.05426306
 21
464.9481468
 31
0.0
  0
LINE
  5
425
  8
0
  6
STRICHPUNKT2
 62
     1
 10
131.55426306
 20
471.66566122
 30
0.0
 11
130.05426306
 21
471.66566122
 31
0.0
  0
LINE
  5
426
  8
0
  6
STRICHPUNKT2
 62
     1
 10
134.55426306
 20
471.66566122
 30
0.0
 11
133.05426306
 21
471.66566122
 31
0.0
  0
LINE
  5
427
  8
0
  6
STRICHPUNKT2
 62
     1
 10
131.55426306
 20
468.30690401
 30
0.0
 11
130.17926306
 21
468.30690401
 31
0.0
  0
LINE
  5
428
  8
0
  6
STRICHPUNKT2
 62
     1
 10
134.42926306
 20
468.30690401
 30
0.0
 11
133.05426306
 21
468.30690401
 31
0.0
  0
ARC
  5
429
  8
0
 10
134.55426306
 20
477.80690401
 30
0.0
 40
1.5
 50
90.0
 51
180.0
  0
ARC
  5
42A
  8
0
 10
134.55426306
 20
477.80690401
 30
0.0
 40
3.0
 50
90.0
 51
180.0
  0
ARC
  5
42B
  8
0
 10
134.55426306
 20
458.80690401
 30
0.0
 40
1.5
 50
180.0
 51
-90.0
  0
ARC
  5
42C
  8
0
 10
134.55426306
 20
458.80690401
 30
0.0
 40
3.0
 50
180.0
 51
-90.0
  0
LINE
  5
42D
  8
0
 10
136.80426306
 20
457.30690401
 30
0.0
 11
134.55426306
 21
457.30690401
 31
0.0
  0
LINE
  5
42E
  8
0
 10
136.80426306
 20
455.80690401
 30
0.0
 11
134.55426306
 21
455.80690401
 31
0.0
  0
ARC
  5
42F
  8
0
 10
136.80426306
 20
454.30690401
 30
0.0
 40
3.0
 50
0.0
 51
90.0
  0
ARC
  5
430
  8
0
 10
136.80426306
 20
454.30690401
 30
0.0
 40
1.5
 50
0.0
 51
90.0
  0
LINE
  5
431
  8
0
 10
136.80426306
 20
479.30690401
 30
0.0
 11
134.55426306
 21
479.30690401
 31
0.0
  0
LINE
  5
432
  8
0
 10
136.80426306
 20
480.80690401
 30
0.0
 11
134.55426306
 21
480.80690401
 31
0.0
  0
LINE
  5
433
  8
0
 10
139.80426306
 20
440.55690401
 30
0.0
 11
139.80426306
 21
454.30690401
 31
0.0
  0
LINE
  5
434
  8
0
 10
138.30426306
 20
440.55690401
 30
0.0
 11
138.30426306
 21
454.30690401
 31
0.0
  0
LINE
  5
435
  8
0
 10
139.80426306
 20
440.55690401
 30
0.0
 11
138.30426306
 21
440.55690401
 31
0.0
  0
LINE
  5
436
  8
0
  6
STRICHPUNKT2
 62
     1
 10
138.30426306
 20
445.55690401
 30
0.0
 11
137.49176306
 21
445.55690401
 31
0.0
  0
LINE
  5
437
  8
0
  6
STRICHPUNKT2
 62
     1
 10
140.61676306
 20
445.55690401
 30
0.0
 11
139.80426306
 21
445.55690401
 31
0.0
  0
POLYLINE
  5
438
  8
0
 66
     1
 10
0.0
 20
0.0
 30
0.0
  0
VERTEX
  5
439
  8
0
 10
139.80426306
 20
482.30690401
 30
0.0
  0
VERTEX
  5
43A
  8
0
 10
139.80426306
 20
496.05690401
 30
0.0
  0
VERTEX
  5
43B
  8
0
 10
138.30426306
 20
496.05690401
 30
0.0
  0
SEQEND
  5
43C
  8
0
  0
LINE
  5
43D
  8
0
 10
138.30426306
 20
482.30690401
 30
0.0
 11
138.30426306
 21
496.05690401
 31
0.0
  0
LINE
  5
43E
  8
0
  6
STRICHPUNKT2
 62
     1
 10
138.30426306
 20
491.05690401
 30
0.0
 11
137.49176306
 21
491.05690401
 31
0.0
  0
LINE
  5
43F
  8
0
  6
STRICHPUNKT2
 62
     1
 10
140.61676306
 20
491.05690401
 30
0.0
 11
139.80426306
 21
491.05690401
 31
0.0
  0
POLYLINE
  5
440
  8
0
 66
     1
 10
0.0
 20
0.0
 30
0.0
  0
VERTEX
  5
441
  8
0
 10
139.80426306
 20
491.74836297
 30
0.0
  0
VERTEX
  5
442
  8
0
 10
140.04890444
 20
491.77419293
 30
0.0
  0
VERTEX
  5
443
  8
0
 10
140.19615365
 20
491.78784902
 30
0.0
  0
VERTEX
  5
444
  8
0
 10
140.31090994
 20
491.79654351
 30
0.0
  0
VERTEX
  5
445
  8
0
 10
140.41099924
 20
491.80226541
 30
0.0
  0
VERTEX
  5
446
  8
0
 10
140.50506079
 20
491.80571021
 30
0.0
  0
VERTEX
  5
447
  8
0
 10
140.59877123
 20
491.80690401
 30
0.0
  0
VERTEX
  5
448
  8
0
 10
140.75391478
 20
491.80326095
 30
0.0
  0
VERTEX
  5
449
  8
0
 10
140.89285471
 20
491.79266727
 30
0.0
  0
VERTEX
  5
44A
  8
0
 10
141.01973615
 20
491.77574662
 30
0.0
  0
VERTEX
  5
44B
  8
0
 10
141.07024824
 20
491.76680767
 30
0.0
  0
VERTEX
  5
44C
  8
0
 10
141.17942059
 20
491.74256643
 30
0.0
  0
VERTEX
  5
44D
  8
0
 10
141.28032752
 20
491.7132755
 30
0.0
  0
VERTEX
  5
44E
  8
0
 10
141.30426306
 20
491.70522495
 30
0.0
  0
SEQEND
  5
44F
  8
0
  0
POLYLINE
  5
450
  8
0
 66
     1
 10
0.0
 20
0.0
 30
0.0
  0
VERTEX
  5
451
  8
0
 10
141.30426306
 20
489.90858307
 30
0.0
  0
VERTEX
  5
452
  8
0
 10
141.20376788
 20
489.87765951
 30
0.0
  0
VERTEX
  5
453
  8
0
 10
141.09554678
 20
489.85199379
 30
0.0
  0
VERTEX
  5
454
  8
0
 10
141.07024824
 20
489.84700035
 30
0.0
  0
VERTEX
  5
455
  8
0
 10
140.95464032
 20
489.8284398
 30
0.0
  0
VERTEX
  5
456
  8
0
 10
140.83083573
 20
489.81546956
 30
0.0
  0
VERTEX
  5
457
  8
0
 10
140.69717452
 20
489.80828928
 30
0.0
  0
VERTEX
  5
458
  8
0
 10
140.59877123
 20
489.80690401
 30
0.0
  0
VERTEX
  5
459
  8
0
 10
140.44231137
 20
489.81017143
 30
0.0
  0
VERTEX
  5
45A
  8
0
 10
140.26525577
 20
489.82047843
 30
0.0
  0
VERTEX
  5
45B
  8
0
 10
140.04890444
 20
489.83961509
 30
0.0
  0
VERTEX
  5
45C
  8
0
 10
139.80426306
 20
489.86544505
 30
0.0
  0
SEQEND
  5
45D
  8
0
  0
POLYLINE
  5
45E
  8
0
 66
     1
 10
0.0
 20
0.0
 30
0.0
  0
VERTEX
  5
45F
  8
0
 10
140.59888571
 20
488.30690401
 30
0.0
  0
VERTEX
  5
460
  8
0
 10
140.3511503
 20
488.31004283
 30
0.0
  0
VERTEX
  5
461
  8
0
 10
140.04719173
 20
488.31987753
 30
0.0
  0
VERTEX
  5
462
  8
0
 10
139.80426306
 20
488.32974094
 30
0.0
  0
SEQEND
  5
463
  8
0
  0
POLYLINE
  5
464
  8
0
 66
     1
 10
0.0
 20
0.0
 30
0.0
  0
VERTEX
  5
465
  8
0
 10
141.30426306
 20
488.34581065
 30
0.0
  0
VERTEX
  5
466
  8
0
 10
141.13659275
 20
488.32802835
 30
0.0
  0
VERTEX
  5
467
  8
0
 10
140.95448316
 20
488.31552039
 30
0.0
  0
VERTEX
  5
468
  8
0
 10
140.75438836
 20
488.30849711
 30
0.0
  0
VERTEX
  5
469
  8
0
 10
140.59888571
 20
488.30690401
 30
0.0
  0
SEQEND
  5
46A
  8
0
  0
LINE
  5
46B
  8
0
 10
141.30426306
 20
485.55690401
 30
0.0
 11
139.80426306
 21
485.55690401
 31
0.0
  0
LINE
  5
46C
  8
0
 10
139.80426306
 20
496.05690401
 30
0.0
 11
141.30426306
 21
496.05690401
 31
0.0
  0
POLYLINE
  5
46D
  8
0
 66
     1
 10
0.0
 20
0.0
 30
0.0
  0
VERTEX
  5
46E
  8
0
 10
139.80426306
 20
493.28406708
 30
0.0
  0
VERTEX
  5
46F
  8
0
 10
139.90389671
 20
493.28815289
 30
0.0
  0
VERTEX
  5
470
  8
0
 10
139.99104623
 20
493.29170514
 30
0.0
  0
VERTEX
  5
471
  8
0
 10
140.06715269
 20
493.29470297
 30
0.0
  0
VERTEX
  5
472
  8
0
 10
140.19977782
 20
493.29946843
 30
0.0
  0
VERTEX
  5
473
  8
0
 10
140.2993387
 20
493.30246261
 30
0.0
  0
VERTEX
  5
474
  8
0
 10
140.59888571
 20
493.30690401
 30
0.0
  0
VERTEX
  5
475
  8
0
 10
140.72262411
 20
493.30587369
 30
0.0
  0
VERTEX
  5
476
  8
0
 10
140.94991813
 20
493.29852091
 30
0.0
  0
VERTEX
  5
477
  8
0
 10
141.14859674
 20
493.28471972
 30
0.0
  0
VERTEX
  5
478
  8
0
 10
141.30426306
 20
493.26799737
 30
0.0
  0
SEQEND
  5
479
  8
0
  0
POLYLINE
  5
47A
  8
0
 66
     1
 10
0.0
 20
0.0
 30
0.0
  0
VERTEX
  5
939
  8
0
 10
141.3042630671333
 20
489.9085830723309
 30
0.0
  0
VERTEX
  5
93A
  8
0
 10
141.5475167048654
 20
490.0155406883271
 30
0.0
  0
VERTEX
  5
93B
  8
0
 10
141.7553002456261
 20
490.1549648534569
 30
0.0
  0
VERTEX
  5
93C
  8
0
 10
141.9190891415238
 20
490.3211355382679
 30
0.0
  0
VERTEX
  5
93D
  8
0
 10
142.0321637732756
 20
490.5072354079717
 30
0.0
  0
VERTEX
  5
93E
  8
0
 10
142.0898851299656
 20
490.7056295110892
 30
0.0
  0
VERTEX
  5
93F
  8
0
 10
142.0898851295616
 20
490.9081785117168
 30
0.0
  0
VERTEX
  5
940
  8
0
 10
142.0321637720803
 20
491.106572614719
 30
0.0
  0
VERTEX
  5
941
  8
0
 10
141.9190891395862
 20
491.2926724841973
 30
0.0
  0
VERTEX
  5
942
  8
0
 10
141.7553002430257
 20
491.4588431686817
 30
0.0
  0
VERTEX
  5
943
  8
0
 10
141.5475167017089
 20
491.5982673333971
 30
0.0
  0
VERTEX
  5
944
  8
0
 10
141.3042630635502
 20
491.7052249489082
 30
0.0
  0
SEQEND
  5
9C5
  8
0
  0
CIRCLE
  5
47B
  8
0
 10
151.05426306
 20
490.80690401
 30
0.0
 40
1.625
  0
POLYLINE
  5
47C
  8
0
 66
     1
 10
0.0
 20
0.0
 30
0.0
  0
VERTEX
  5
47D
  8
0
 10
154.30426306
 20
486.55690401
 30
0.0
  0
VERTEX
  5
47E
  8
0
 10
154.30426306
 20
495.05690401
 30
0.0
 42
0.414213562
  0
VERTEX
  5
47F
  8
0
 10
153.30426306
 20
496.05690401
 30
0.0
  0
VERTEX
  5
480
  8
0
 10
141.30426306
 20
496.05690401
 30
0.0
  0
SEQEND
  5
481
  8
0
  0
POLYLINE
  5
482
  8
0
 66
     1
 10
0.0
 20
0.0
 30
0.0
  0
VERTEX
  5
945
  8
0
 10
141.3042630498832
 20
488.345810651777
 30
0.0
  0
VERTEX
  5
946
  8
0
 10
141.9805976256426
 20
488.4813834512516
 30
0.0
  0
VERTEX
  5
947
  8
0
 10
142.605629318653
 20
488.7088958781549
 30
0.0
  0
VERTEX
  5
948
  8
0
 10
143.1546474546655
 20
489.0193532118485
 30
0.0
  0
VERTEX
  5
949
  8
0
 10
143.6059465610338
 20
489.400481498664
 30
0.0
  0
VERTEX
  5
94A
  8
0
 10
143.9416844941816
 20
489.8372128035708
 30
0.0
  0
VERTEX
  5
94B
  8
0
 10
144.1485878300703
 20
490.3122809221018
 30
0.0
  0
VERTEX
  5
94C
  8
0
 10
144.21847663
 20
490.8069040010255
 30
0.0
  0
VERTEX
  5
94D
  8
0
 10
144.1485878350924
 20
491.301527080304
 30
0.0
  0
VERTEX
  5
94E
  8
0
 10
143.9416845040273
 20
491.7765951998854
 30
0.0
  0
VERTEX
  5
94F
  8
0
 10
143.6059465753139
 20
492.2133265064966
 30
0.0
  0
VERTEX
  5
950
  8
0
 10
143.1546474728154
 20
492.5944547956033
 30
0.0
  0
VERTEX
  5
951
  8
0
 10
142.605629339955
 20
492.9049121320841
 30
0.0
  0
VERTEX
  5
952
  8
0
 10
141.9805976492547
 20
493.1324245621605
 30
0.0
  0
VERTEX
  5
953
  8
0
 10
141.3042630748718
 20
493.2679973650687
 30
0.0
  0
SEQEND
  5
9C6
  8
0
  0
POLYLINE
  5
483
  8
0
 66
     1
 10
0.0
 20
0.0
 30
0.0
  0
VERTEX
  5
484
  8
0
 10
141.30426306
 20
485.55690401
 30
0.0
  0
VERTEX
  5
485
  8
0
 10
153.30426306
 20
485.55690401
 30
0.0
 42
0.414213562
  0
VERTEX
  5
486
  8
0
 10
154.30426306
 20
486.55690401
 30
0.0
  0
SEQEND
  5
487
  8
0
  0
LINE
  5
488
  8
0
  6
STRICHPUNKT2
 62
     1
 10
151.05426306
 20
490.80690401
 30
0.0
 11
148.61676306
 21
490.80690401
 31
0.0
  0
LINE
  5
489
  8
0
  6
STRICHPUNKT2
 62
     1
 10
151.05426306
 20
490.80690401
 30
0.0
 11
153.49176306
 21
490.80690401
 31
0.0
  0
LINE
  5
48A
  8
0
  6
STRICHPUNKT2
 62
     1
 10
151.05426306
 20
490.80690401
 30
0.0
 11
151.05426306
 21
488.36940401
 31
0.0
  0
LINE
  5
48B
  8
0
  6
STRICHPUNKT2
 62
     1
 10
151.05426306
 20
490.80690401
 30
0.0
 11
151.05426306
 21
493.24440401
 31
0.0
  0
POLYLINE
  5
48C
  8
0
 66
     1
 10
0.0
 20
0.0
 30
0.0
  0
VERTEX
  5
48D
  8
0
 10
139.80426306
 20
446.74836297
 30
0.0
  0
VERTEX
  5
48E
  8
0
 10
140.04890444
 20
446.77419293
 30
0.0
  0
VERTEX
  5
48F
  8
0
 10
140.19615365
 20
446.78784902
 30
0.0
  0
VERTEX
  5
490
  8
0
 10
140.31090994
 20
446.79654351
 30
0.0
  0
VERTEX
  5
491
  8
0
 10
140.41099924
 20
446.80226541
 30
0.0
  0
VERTEX
  5
492
  8
0
 10
140.50506079
 20
446.80571021
 30
0.0
  0
VERTEX
  5
493
  8
0
 10
140.59877123
 20
446.80690401
 30
0.0
  0
VERTEX
  5
494
  8
0
 10
140.75391478
 20
446.80326095
 30
0.0
  0
VERTEX
  5
495
  8
0
 10
140.89285471
 20
446.79266727
 30
0.0
  0
VERTEX
  5
496
  8
0
 10
141.01973615
 20
446.77574662
 30
0.0
  0
VERTEX
  5
497
  8
0
 10
141.07024824
 20
446.76680767
 30
0.0
  0
VERTEX
  5
498
  8
0
 10
141.17942059
 20
446.74256643
 30
0.0
  0
VERTEX
  5
499
  8
0
 10
141.28032752
 20
446.7132755
 30
0.0
  0
VERTEX
  5
49A
  8
0
 10
141.30426306
 20
446.70522495
 30
0.0
  0
SEQEND
  5
49B
  8
0
  0
POLYLINE
  5
49C
  8
0
 66
     1
 10
0.0
 20
0.0
 30
0.0
  0
VERTEX
  5
49D
  8
0
 10
141.30426306
 20
444.90858307
 30
0.0
  0
VERTEX
  5
49E
  8
0
 10
141.20376788
 20
444.87765951
 30
0.0
  0
VERTEX
  5
49F
  8
0
 10
141.09554678
 20
444.85199379
 30
0.0
  0
VERTEX
  5
4A0
  8
0
 10
141.07024824
 20
444.84700035
 30
0.0
  0
VERTEX
  5
4A1
  8
0
 10
140.95464032
 20
444.8284398
 30
0.0
  0
VERTEX
  5
4A2
  8
0
 10
140.83083573
 20
444.81546956
 30
0.0
  0
VERTEX
  5
4A3
  8
0
 10
140.69717452
 20
444.80828928
 30
0.0
  0
VERTEX
  5
4A4
  8
0
 10
140.59877123
 20
444.80690401
 30
0.0
  0
VERTEX
  5
4A5
  8
0
 10
140.44231137
 20
444.81017143
 30
0.0
  0
VERTEX
  5
4A6
  8
0
 10
140.26525577
 20
444.82047843
 30
0.0
  0
VERTEX
  5
4A7
  8
0
 10
140.04890444
 20
444.83961509
 30
0.0
  0
VERTEX
  5
4A8
  8
0
 10
139.80426306
 20
444.86544505
 30
0.0
  0
SEQEND
  5
4A9
  8
0
  0
POLYLINE
  5
4AA
  8
0
 66
     1
 10
0.0
 20
0.0
 30
0.0
  0
VERTEX
  5
4AB
  8
0
 10
140.59888571
 20
443.30690401
 30
0.0
  0
VERTEX
  5
4AC
  8
0
 10
140.3511503
 20
443.31004283
 30
0.0
  0
VERTEX
  5
4AD
  8
0
 10
140.04719173
 20
443.31987753
 30
0.0
  0
VERTEX
  5
4AE
  8
0
 10
139.80426306
 20
443.32974094
 30
0.0
  0
SEQEND
  5
4AF
  8
0
  0
POLYLINE
  5
4B0
  8
0
 66
     1
 10
0.0
 20
0.0
 30
0.0
  0
VERTEX
  5
4B1
  8
0
 10
141.30426306
 20
443.34581065
 30
0.0
  0
VERTEX
  5
4B2
  8
0
 10
141.13659275
 20
443.32802835
 30
0.0
  0
VERTEX
  5
4B3
  8
0
 10
140.95448316
 20
443.31552039
 30
0.0
  0
VERTEX
  5
4B4
  8
0
 10
140.75438836
 20
443.30849711
 30
0.0
  0
VERTEX
  5
4B5
  8
0
 10
140.59888571
 20
443.30690401
 30
0.0
  0
SEQEND
  5
4B6
  8
0
  0
LINE
  5
4B7
  8
0
 10
141.30426306
 20
440.55690401
 30
0.0
 11
139.80426306
 21
440.55690401
 31
0.0
  0
LINE
  5
4B8
  8
0
 10
139.80426306
 20
451.05690401
 30
0.0
 11
141.30426306
 21
451.05690401
 31
0.0
  0
POLYLINE
  5
4B9
  8
0
 66
     1
 10
0.0
 20
0.0
 30
0.0
  0
VERTEX
  5
4BA
  8
0
 10
139.80426306
 20
448.28406708
 30
0.0
  0
VERTEX
  5
4BB
  8
0
 10
139.90389671
 20
448.28815289
 30
0.0
  0
VERTEX
  5
4BC
  8
0
 10
139.99104623
 20
448.29170514
 30
0.0
  0
VERTEX
  5
4BD
  8
0
 10
140.06715269
 20
448.29470297
 30
0.0
  0
VERTEX
  5
4BE
  8
0
 10
140.19977782
 20
448.29946843
 30
0.0
  0
VERTEX
  5
4BF
  8
0
 10
140.2993387
 20
448.30246261
 30
0.0
  0
VERTEX
  5
4C0
  8
0
 10
140.59888571
 20
448.30690401
 30
0.0
  0
VERTEX
  5
4C1
  8
0
 10
140.72262411
 20
448.30587369
 30
0.0
  0
VERTEX
  5
4C2
  8
0
 10
140.94991813
 20
448.29852091
 30
0.0
  0
VERTEX
  5
4C3
  8
0
 10
141.14859674
 20
448.28471972
 30
0.0
  0
VERTEX
  5
4C4
  8
0
 10
141.30426306
 20
448.26799737
 30
0.0
  0
SEQEND
  5
4C5
  8
0
  0
POLYLINE
  5
4C6
  8
0
 66
     1
 10
0.0
 20
0.0
 30
0.0
  0
VERTEX
  5
954
  8
0
 10
141.3042630671333
 20
444.9085830723309
 30
0.0
  0
VERTEX
  5
955
  8
0
 10
141.5475167048654
 20
445.0155406883271
 30
0.0
  0
VERTEX
  5
956
  8
0
 10
141.7553002456261
 20
445.1549648534569
 30
0.0
  0
VERTEX
  5
957
  8
0
 10
141.9190891415238
 20
445.3211355382679
 30
0.0
  0
VERTEX
  5
958
  8
0
 10
142.0321637732756
 20
445.5072354079717
 30
0.0
  0
VERTEX
  5
959
  8
0
 10
142.0898851299656
 20
445.7056295110892
 30
0.0
  0
VERTEX
  5
95A
  8
0
 10
142.0898851295616
 20
445.9081785117168
 30
0.0
  0
VERTEX
  5
95B
  8
0
 10
142.0321637720803
 20
446.106572614719
 30
0.0
  0
VERTEX
  5
95C
  8
0
 10
141.9190891395862
 20
446.2926724841973
 30
0.0
  0
VERTEX
  5
95D
  8
0
 10
141.7553002430257
 20
446.4588431686817
 30
0.0
  0
VERTEX
  5
95E
  8
0
 10
141.5475167017089
 20
446.5982673333971
 30
0.0
  0
VERTEX
  5
95F
  8
0
 10
141.3042630635502
 20
446.7052249489082
 30
0.0
  0
SEQEND
  5
9C7
  8
0
  0
CIRCLE
  5
4C7
  8
0
 10
151.05426306
 20
445.80690401
 30
0.0
 40
1.625
  0
POLYLINE
  5
4C8
  8
0
 66
     1
 10
0.0
 20
0.0
 30
0.0
  0
VERTEX
  5
4C9
  8
0
 10
154.30426306
 20
441.55690401
 30
0.0
  0
VERTEX
  5
4CA
  8
0
 10
154.30426306
 20
450.05690401
 30
0.0
 42
0.414213562
  0
VERTEX
  5
4CB
  8
0
 10
153.30426306
 20
451.05690401
 30
0.0
  0
VERTEX
  5
4CC
  8
0
 10
141.30426306
 20
451.05690401
 30
0.0
  0
SEQEND
  5
4CD
  8
0
  0
POLYLINE
  5
4CE
  8
0
 66
     1
 10
0.0
 20
0.0
 30
0.0
  0
VERTEX
  5
960
  8
0
 10
141.3042630498832
 20
443.345810651777
 30
0.0
  0
VERTEX
  5
961
  8
0
 10
141.9805976256426
 20
443.4813834512516
 30
0.0
  0
VERTEX
  5
962
  8
0
 10
142.605629318653
 20
443.7088958781549
 30
0.0
  0
VERTEX
  5
963
  8
0
 10
143.1546474546655
 20
444.0193532118485
 30
0.0
  0
VERTEX
  5
964
  8
0
 10
143.6059465610338
 20
444.400481498664
 30
0.0
  0
VERTEX
  5
965
  8
0
 10
143.9416844941816
 20
444.8372128035708
 30
0.0
  0
VERTEX
  5
966
  8
0
 10
144.1485878300703
 20
445.3122809221018
 30
0.0
  0
VERTEX
  5
967
  8
0
 10
144.21847663
 20
445.8069040010255
 30
0.0
  0
VERTEX
  5
968
  8
0
 10
144.1485878350924
 20
446.301527080304
 30
0.0
  0
VERTEX
  5
969
  8
0
 10
143.9416845040273
 20
446.7765951998854
 30
0.0
  0
VERTEX
  5
96A
  8
0
 10
143.6059465753139
 20
447.2133265064966
 30
0.0
  0
VERTEX
  5
96B
  8
0
 10
143.1546474728154
 20
447.5944547956033
 30
0.0
  0
VERTEX
  5
96C
  8
0
 10
142.605629339955
 20
447.9049121320841
 30
0.0
  0
VERTEX
  5
96D
  8
0
 10
141.9805976492547
 20
448.1324245621605
 30
0.0
  0
VERTEX
  5
96E
  8
0
 10
141.3042630748718
 20
448.2679973650687
 30
0.0
  0
SEQEND
  5
9C8
  8
0
  0
POLYLINE
  5
4CF
  8
0
 66
     1
 10
0.0
 20
0.0
 30
0.0
  0
VERTEX
  5
4D0
  8
0
 10
141.30426306
 20
440.55690401
 30
0.0
  0
VERTEX
  5
4D1
  8
0
 10
153.30426306
 20
440.55690401
 30
0.0
 42
0.414213562
  0
VERTEX
  5
4D2
  8
0
 10
154.30426306
 20
441.55690401
 30
0.0
  0
SEQEND
  5
4D3
  8
0
  0
LINE
  5
4D4
  8
0
  6
STRICHPUNKT2
 62
     1
 10
151.05426306
 20
445.80690401
 30
0.0
 11
148.61676306
 21
445.80690401
 31
0.0
  0
LINE
  5
4D5
  8
0
  6
STRICHPUNKT2
 62
     1
 10
151.05426306
 20
445.80690401
 30
0.0
 11
153.49176306
 21
445.80690401
 31
0.0
  0
LINE
  5
4D6
  8
0
  6
STRICHPUNKT2
 62
     1
 10
151.05426306
 20
445.80690401
 30
0.0
 11
151.05426306
 21
443.36940401
 31
0.0
  0
LINE
  5
4D7
  8
0
  6
STRICHPUNKT2
 62
     1
 10
151.05426306
 20
445.80690401
 30
0.0
 11
151.05426306
 21
448.24440401
 31
0.0
  0
LINE
  5
4D8
  8
0
 10
307.23120401
 20
369.14512986
 30
0.0
 11
304.31699045
 21
372.05934342
 31
0.0
  0
LINE
  5
4D9
  8
0
  6
STRICHPUNKT2
 62
     1
 10
297.81699045
 20
360.89512986
 30
0.0
 11
297.81699045
 21
359.52012986
 31
0.0
  0
LINE
  5
4DA
  8
0
  6
STRICHPUNKT2
 62
     1
 10
311.95823324
 20
360.89512986
 30
0.0
 11
311.95823324
 21
359.39512986
 31
0.0
  0
LINE
  5
4DB
  8
0
  6
STRICHPUNKT2
 62
     1
 10
318.67574766
 20
360.89512986
 30
0.0
 11
318.67574766
 21
359.39512986
 31
0.0
  0
LINE
  5
4DC
  8
0
  6
STRICHPUNKT2
 62
     1
 10
217.81699045
 20
360.89512986
 30
0.0
 11
217.81699045
 21
359.52012986
 31
0.0
  0
LINE
  5
4DD
  8
0
  6
STRICHPUNKT2
 62
     1
 10
326.95823324
 20
360.89512986
 30
0.0
 11
326.95823324
 21
359.39512986
 31
0.0
  0
LINE
  5
4DE
  8
0
  6
STRICHPUNKT2
 62
     1
 10
333.67574766
 20
360.89512986
 30
0.0
 11
333.67574766
 21
359.39512986
 31
0.0
  0
LINE
  5
4DF
  8
0
 10
340.31699045
 20
360.89512986
 30
0.0
 11
207.81699045
 21
360.89512986
 31
0.0
  0
LINE
  5
4E0
  8
0
 10
207.81699045
 20
363.89512986
 30
0.0
 11
207.81699045
 21
360.89512986
 31
0.0
  0
LINE
  5
4E1
  8
0
 10
340.31699045
 20
360.89512986
 30
0.0
 11
340.31699045
 21
363.89512986
 31
0.0
  0
LINE
  5
4E2
  8
0
 10
207.81699045
 20
366.14512986
 30
0.0
 11
207.81699045
 21
363.89512986
 31
0.0
  0
LINE
  5
4E3
  8
0
 10
340.31699045
 20
363.89512986
 30
0.0
 11
340.31699045
 21
366.14512986
 31
0.0
  0
LINE
  5
4E4
  8
0
 10
207.81699045
 20
367.64512986
 30
0.0
 11
207.81699045
 21
366.14512986
 31
0.0
  0
POLYLINE
  5
4E5
  8
0
 66
     1
 10
0.0
 20
0.0
 30
0.0
  0
VERTEX
  5
4E6
  8
0
 10
340.31699045
 20
366.14512986
 30
0.0
  0
VERTEX
  5
4E7
  8
0
 10
340.31699045
 20
367.64512986
 30
0.0
  0
VERTEX
  5
4E8
  8
0
 10
283.81699045
 20
367.64512986
 30
0.0
  0
SEQEND
  5
4E9
  8
0
  0
LINE
  5
4EA
  8
0
 10
284.81699045
 20
367.64512986
 30
0.0
 11
305.81699045
 21
367.64512986
 31
0.0
  0
LINE
  5
4EB
  8
0
 10
303.21890439
 20
369.14512986
 30
0.0
 11
284.81699045
 21
369.14512986
 31
0.0
  0
LINE
  5
4EC
  8
0
 10
284.81699045
 20
367.64512986
 30
0.0
 11
283.81699045
 21
367.64512986
 31
0.0
  0
LINE
  5
4ED
  8
0
 10
283.81699045
 20
369.14512986
 30
0.0
 11
284.81699045
 21
369.14512986
 31
0.0
  0
LINE
  5
4EE
  8
0
 10
340.31699045
 20
367.64512986
 30
0.0
 11
305.81699045
 21
367.64512986
 31
0.0
  0
LINE
  5
4EF
  8
0
 10
340.31699045
 20
369.14512986
 30
0.0
 11
305.81699045
 21
369.14512986
 31
0.0
  0
LINE
  5
4F0
  8
0
 10
340.31699045
 20
369.14512986
 30
0.0
 11
340.31699045
 21
367.64512986
 31
0.0
  0
POLYLINE
  5
4F1
  8
0
 66
     1
 10
0.0
 20
0.0
 30
0.0
  0
VERTEX
  5
4F2
  8
0
 10
282.81699045
 20
369.14512986
 30
0.0
  0
VERTEX
  5
4F3
  8
0
 10
207.81699045
 20
369.14512986
 30
0.0
  0
VERTEX
  5
4F4
  8
0
 10
207.81699045
 20
367.64512986
 30
0.0
  0
SEQEND
  5
4F5
  8
0
  0
LINE
  5
4F6
  8
0
 10
282.81699045
 20
367.64512986
 30
0.0
 11
207.81699045
 21
367.64512986
 31
0.0
  0
POLYLINE
  5
4F7
  8
0
 66
     1
 10
0.0
 20
0.0
 30
0.0
  0
VERTEX
  5
4F8
  8
0
 10
282.81699045
 20
369.14512986
 30
0.0
  0
VERTEX
  5
4F9
  8
0
 10
283.81699045
 20
369.14512986
 30
0.0
  0
VERTEX
  5
4FA
  8
0
 10
283.81699045
 20
367.64512986
 30
0.0
  0
VERTEX
  5
4FB
  8
0
 10
282.81699045
 20
367.64512986
 30
0.0
  0
SEQEND
  5
4FC
  8
0
  0
LINE
  5
4FD
  8
0
  6
STRICHPUNKT2
 62
     1
 10
218.81699045
 20
367.64512986
 30
0.0
 11
218.81699045
 21
366.83262986
 31
0.0
  0
LINE
  5
4FE
  8
0
  6
STRICHPUNKT2
 62
     1
 10
218.81699045
 20
369.95762986
 30
0.0
 11
218.81699045
 21
369.14512986
 31
0.0
  0
ARC
  5
4FF
  8
0
 10
305.81699045
 20
370.64512986
 30
0.0
 40
3.0
 50
180.0
 51
-90.0
  0
ARC
  5
500
  8
0
 10
305.81699045
 20
370.64512986
 30
0.0
 40
1.5
 50
180.0
 51
-90.0
  0
LINE
  5
501
  8
0
 10
302.81699045
 20
370.64512986
 30
0.0
 11
302.81699045
 21
382.64512986
 31
0.0
  0
LINE
  5
502
  8
0
 10
304.31699045
 20
382.64512986
 30
0.0
 11
304.31699045
 21
370.64512986
 31
0.0
  0
LINE
  5
503
  8
0
 10
304.31699045
 20
383.64512986
 30
0.0
 11
304.31699045
 21
382.64512986
 31
0.0
  0
LINE
  5
504
  8
0
 10
302.81699045
 20
383.64512986
 30
0.0
 11
304.31699045
 21
383.64512986
 31
0.0
  0
LINE
  5
505
  8
0
 10
302.81699045
 20
382.64512986
 30
0.0
 11
302.81699045
 21
383.64512986
 31
0.0
  0
LINE
  5
506
  8
0
  6
STRICHPUNKT2
 62
     1
 10
304.31699045
 20
380.39512986
 30
0.0
 11
305.12949045
 21
380.39512986
 31
0.0
  0
LINE
  5
507
  8
0
  6
STRICHPUNKT2
 62
     1
 10
302.00449045
 20
380.39512986
 30
0.0
 11
302.81699045
 21
380.39512986
 31
0.0
  0
TEXT
  5
508
  8
TXT_DIM49
 10
271.18723734
 20
427.70580319
 30
0.0
 40
2.5
  1
265
  7
ARIAL
  0
LINE
  5
509
  8
0
 62
     4
 10
339.31699045
 20
425.20580319
 30
0.0
 11
341.31699045
 21
427.20580319
 31
0.0
  0
LINE
  5
50A
  8
0
 62
     4
 10
208.56699045
 20
426.95580319
 30
0.0
 11
207.06699045
 21
425.45580319
 31
0.0
  0
LINE
  5
50B
  8
0
 62
     4
 10
340.31699045
 20
426.20580319
 30
0.0
 11
207.81699045
 21
426.20580319
 31
0.0
  0
LINE
  5
50C
  8
0
 62
     4
 10
340.31699045
 20
428.20580319
 30
0.0
 11
340.31699045
 21
424.20580319
 31
0.0
  0
LINE
  5
50D
  8
0
 62
     4
 10
207.81699045
 20
428.20580319
 30
0.0
 11
207.81699045
 21
424.20580319
 31
0.0
  0
TEXT
  5
50E
  8
TXT_DIM49
 10
319.647155
 20
514.8978082
 30
0.0
 40
2.5
  1
75
  7
ARIAL
  0
LINE
  5
50F
  8
0
 62
     4
 10
339.31699045
 20
512.3978082
 30
0.0
 11
341.31699045
 21
514.3978082
 31
0.0
  0
LINE
  5
510
  8
0
 62
     4
 10
303.56699045
 20
514.1478082
 30
0.0
 11
302.06699045
 21
512.6478082
 31
0.0
  0
LINE
  5
511
  8
0
 62
     4
 10
340.31699045
 20
513.3978082
 30
0.0
 11
302.81699045
 21
513.3978082
 31
0.0
  0
LINE
  5
512
  8
0
 62
     4
 10
340.31699045
 20
511.3978082
 30
0.0
 11
340.31699045
 21
515.3978082
 31
0.0
  0
LINE
  5
513
  8
0
 62
     4
 10
302.81699045
 20
511.3978082
 30
0.0
 11
302.81699045
 21
515.3978082
 31
0.0
  0
TEXT
  5
514
  8
TXT_DIM49
 10
252.43723734
 20
514.8978082
 30
0.0
 40
2.5
  1
190
  7
ARIAL
  0
LINE
  5
515
  8
0
 62
     4
 10
301.81699045
 20
512.3978082
 30
0.0
 11
303.81699045
 21
514.3978082
 31
0.0
  0
LINE
  5
516
  8
0
 62
     4
 10
208.56699045
 20
514.1478082
 30
0.0
 11
207.06699045
 21
512.6478082
 31
0.0
  0
LINE
  5
517
  8
0
 62
     4
 10
302.81699045
 20
513.3978082
 30
0.0
 11
207.81699045
 21
513.3978082
 31
0.0
  0
LINE
  5
518
  8
0
 62
     4
 10
302.81699045
 20
511.3978082
 30
0.0
 11
302.81699045
 21
515.3978082
 31
0.0
  0
LINE
  5
519
  8
0
 62
     4
 10
207.81699045
 20
511.3978082
 30
0.0
 11
207.81699045
 21
515.3978082
 31
0.0
  0
TEXT
  5
51A
  8
TXT_DIM49
 10
242.93723734
 20
503.24646643
 30
0.0
 40
2.5
  1
152
  7
ARIAL
  0
LINE
  5
51B
  8
0
 62
     4
 10
208.81699045
 20
502.74646643
 30
0.0
 11
206.81699045
 21
500.74646643
 31
0.0
  0
LINE
  5
51C
  8
0
 62
     4
 10
283.06699045
 20
500.99646643
 30
0.0
 11
284.56699045
 21
502.49646643
 31
0.0
  0
LINE
  5
51D
  8
0
 62
     4
 10
207.81699045
 20
501.74646643
 30
0.0
 11
283.81699045
 21
501.74646643
 31
0.0
  0
LINE
  5
51E
  8
0
 62
     4
 10
207.81699045
 20
499.74646643
 30
0.0
 11
207.81699045
 21
503.74646643
 31
0.0
  0
LINE
  5
51F
  8
0
 62
     4
 10
283.81699045
 20
499.74646643
 30
0.0
 11
283.81699045
 21
503.74646643
 31
0.0
  0
TEXT
  5
520
  8
TXT_DIM49
 10
291.397155
 20
503.24646643
 30
0.0
 40
2.5
  1
38
  7
ARIAL
  0
LINE
  5
521
  8
0
 62
     4
 10
284.81699045
 20
502.74646643
 30
0.0
 11
282.81699045
 21
500.74646643
 31
0.0
  0
LINE
  5
522
  8
0
 62
     4
 10
302.06699045
 20
500.99646643
 30
0.0
 11
303.56699045
 21
502.49646643
 31
0.0
  0
LINE
  5
523
  8
0
 62
     4
 10
283.81699045
 20
501.74646643
 30
0.0
 11
302.81699045
 21
501.74646643
 31
0.0
  0
LINE
  5
524
  8
0
 62
     4
 10
283.81699045
 20
499.74646643
 30
0.0
 11
283.81699045
 21
503.74646643
 31
0.0
  0
LINE
  5
525
  8
0
 62
     4
 10
302.81699045
 20
499.74646643
 30
0.0
 11
302.81699045
 21
503.74646643
 31
0.0
  0
TEXT
  5
526
  8
TXT_DIM49
 10
319.647155
 20
503.24646643
 30
0.0
 40
2.5
  1
75
  7
ARIAL
  0
LINE
  5
527
  8
0
 62
     4
 10
303.81699045
 20
502.74646643
 30
0.0
 11
301.81699045
 21
500.74646643
 31
0.0
  0
LINE
  5
528
  8
0
 62
     4
 10
339.56699045
 20
500.99646643
 30
0.0
 11
341.06699045
 21
502.49646643
 31
0.0
  0
LINE
  5
529
  8
0
 62
     4
 10
302.81699045
 20
501.74646643
 30
0.0
 11
340.31699045
 21
501.74646643
 31
0.0
  0
LINE
  5
52A
  8
0
 62
     4
 10
302.81699045
 20
499.74646643
 30
0.0
 11
302.81699045
 21
503.74646643
 31
0.0
  0
LINE
  5
52B
  8
0
 62
     4
 10
340.31699045
 20
499.74646643
 30
0.0
 11
340.31699045
 21
503.74646643
 31
0.0
  0
TEXT
  5
52C
  8
TXT_DIM49
 10
287.413293
 20
487.88706856
 30
0.0
 40
2.5
  1
25
 50
90.00020741
  7
ARIAL
  0
LINE
  5
52D
  8
0
 62
     4
 10
289.913293
 20
495.05690401
 30
0.0
 11
287.913293
 21
497.05690401
 31
0.0
  0
LINE
  5
52E
  8
0
 62
     4
 10
288.163293
 20
484.30690401
 30
0.0
 11
289.663293
 21
482.80690401
 31
0.0
  0
LINE
  5
52F
  8
0
 62
     4
 10
288.913293
 20
496.05690401
 30
0.0
 11
288.913293
 21
483.55690401
 31
0.0
  0
LINE
  5
530
  8
0
 62
     4
 10
286.913293
 20
496.05690401
 30
0.0
 11
290.913293
 21
496.05690401
 31
0.0
  0
LINE
  5
531
  8
0
 62
     4
 10
290.913293
 20
483.55690401
 30
0.0
 11
286.913293
 21
483.55690401
 31
0.0
  0
TEXT
  5
532
  8
TXT_DIM49
 10
287.413293
 20
466.38706856
 30
0.0
 40
2.5
  1
61
 50
90.00020741
  7
ARIAL
  0
LINE
  5
533
  8
0
 62
     4
 10
289.913293
 20
482.55690401
 30
0.0
 11
287.913293
 21
484.55690401
 31
0.0
  0
LINE
  5
534
  8
0
 62
     4
 10
288.163293
 20
453.80690401
 30
0.0
 11
289.663293
 21
452.30690401
 31
0.0
  0
LINE
  5
535
  8
0
 62
     4
 10
288.913293
 20
483.55690401
 30
0.0
 11
288.913293
 21
453.05690401
 31
0.0
  0
LINE
  5
536
  8
0
 62
     4
 10
290.913293
 20
483.55690401
 30
0.0
 11
286.913293
 21
483.55690401
 31
0.0
  0
LINE
  5
537
  8
0
 62
     4
 10
290.913293
 20
453.05690401
 30
0.0
 11
286.913293
 21
453.05690401
 31
0.0
  0
TEXT
  5
538
  8
TXT_DIM49
 10
287.413293
 20
444.88706856
 30
0.0
 40
2.5
  1
25
 50
90.00020741
  7
ARIAL
  0
LINE
  5
539
  8
0
 62
     4
 10
289.913293
 20
452.05690401
 30
0.0
 11
287.913293
 21
454.05690401
 31
0.0
  0
LINE
  5
53A
  8
0
 62
     4
 10
288.163293
 20
441.30690401
 30
0.0
 11
289.663293
 21
439.80690401
 31
0.0
  0
LINE
  5
53B
  8
0
 62
     4
 10
288.913293
 20
453.05690401
 30
0.0
 11
288.913293
 21
440.55690401
 31
0.0
  0
LINE
  5
53C
  8
0
 62
     4
 10
290.913293
 20
453.05690401
 30
0.0
 11
286.913293
 21
453.05690401
 31
0.0
  0
LINE
  5
53D
  8
0
 62
     4
 10
286.913293
 20
440.55690401
 30
0.0
 11
290.913293
 21
440.55690401
 31
0.0
  0
TEXT
  5
53E
  8
TXT_DIM49
 10
333.397155
 20
460.4771636
 30
0.0
 40
2.5
  1
20
  7
ARIAL
  0
LINE
  5
53F
  8
0
 62
     4
 10
339.31699045
 20
457.9771636
 30
0.0
 11
341.31699045
 21
459.9771636
 31
0.0
  0
LINE
  5
540
  8
0
 62
     4
 10
331.06699045
 20
459.7271636
 30
0.0
 11
329.56699045
 21
458.2271636
 31
0.0
  0
LINE
  5
541
  8
0
 62
     4
 10
340.31699045
 20
458.9771636
 30
0.0
 11
330.31699045
 21
458.9771636
 31
0.0
  0
LINE
  5
542
  8
0
 62
     4
 10
340.31699045
 20
464.4631596
 30
0.0
 11
340.31699045
 21
456.9771636
 31
0.0
  0
LINE
  5
543
  8
0
 62
     4
 10
330.31699045
 20
468.30690401
 30
0.0
 11
330.31699045
 21
456.9771636
 31
0.0
  0
TEXT
  5
544
  8
TXT_DIM49
 10
320.897155
 20
460.4771636
 30
0.0
 40
2.5
  1
30
  7
ARIAL
  0
LINE
  5
545
  8
0
 62
     4
 10
329.31699045
 20
457.9771636
 30
0.0
 11
331.31699045
 21
459.9771636
 31
0.0
  0
LINE
  5
546
  8
0
 62
     4
 10
316.06699045
 20
459.7271636
 30
0.0
 11
314.56699045
 21
458.2271636
 31
0.0
  0
LINE
  5
547
  8
0
 62
     4
 10
330.31699045
 20
458.9771636
 30
0.0
 11
315.31699045
 21
458.9771636
 31
0.0
  0
LINE
  5
548
  8
0
 62
     4
 10
330.31699045
 20
468.30690401
 30
0.0
 11
330.31699045
 21
456.9771636
 31
0.0
  0
LINE
  5
549
  8
0
 62
     4
 10
315.31699045
 20
468.30690401
 30
0.0
 11
315.31699045
 21
456.9771636
 31
0.0
  0
TEXT
  5
54A
  8
TXT_DIM49
 10
304.647155
 20
460.4771636
 30
0.0
 40
2.5
  1
35
  7
ARIAL
  0
LINE
  5
54B
  8
0
 62
     4
 10
314.31699045
 20
457.9771636
 30
0.0
 11
316.31699045
 21
459.9771636
 31
0.0
  0
LINE
  5
54C
  8
0
 62
     4
 10
298.56699045
 20
459.7271636
 30
0.0
 11
297.06699045
 21
458.2271636
 31
0.0
  0
LINE
  5
54D
  8
0
 62
     4
 10
315.31699045
 20
458.9771636
 30
0.0
 11
297.81699045
 21
458.9771636
 31
0.0
  0
LINE
  5
54E
  8
0
 62
     4
 10
315.31699045
 20
468.30690401
 30
0.0
 11
315.31699045
 21
456.9771636
 31
0.0
  0
LINE
  5
54F
  8
0
 62
     4
 10
297.81699045
 20
472.43190401
 30
0.0
 11
297.81699045
 21
456.9771636
 31
0.0
  0
TEXT
  5
550
  8
TXT_DIM49
 10
255.41036709
 20
460.4771636
 30
0.0
 40
2.5
  1
160
  7
ARIAL
  0
LINE
  5
551
  8
0
 62
     4
 10
296.81699045
 20
457.9771636
 30
0.0
 11
298.81699045
 21
459.9771636
 31
0.0
  0
LINE
  5
552
  8
0
 62
     4
 10
218.56699045
 20
459.7271636
 30
0.0
 11
217.06699045
 21
458.2271636
 31
0.0
  0
LINE
  5
553
  8
0
 62
     4
 10
297.81699045
 20
458.9771636
 30
0.0
 11
217.81699045
 21
458.9771636
 31
0.0
  0
LINE
  5
554
  8
0
 62
     4
 10
297.81699045
 20
472.43190401
 30
0.0
 11
297.81699045
 21
456.9771636
 31
0.0
  0
LINE
  5
555
  8
0
 62
     4
 10
217.81699045
 20
472.43190401
 30
0.0
 11
217.81699045
 21
456.9771636
 31
0.0
  0
TEXT
  5
556
  8
TXT_DIM49
 10
210.897155
 20
460.4771636
 30
0.0
 40
2.5
  1
20
  7
ARIAL
  0
LINE
  5
557
  8
0
 62
     4
 10
216.81699045
 20
457.9771636
 30
0.0
 11
218.81699045
 21
459.9771636
 31
0.0
  0
LINE
  5
558
  8
0
 62
     4
 10
208.56699045
 20
459.7271636
 30
0.0
 11
207.06699045
 21
458.2271636
 31
0.0
  0
LINE
  5
559
  8
0
 62
     4
 10
217.81699045
 20
458.9771636
 30
0.0
 11
207.81699045
 21
458.9771636
 31
0.0
  0
LINE
  5
55A
  8
0
 62
     4
 10
217.81699045
 20
472.43190401
 30
0.0
 11
217.81699045
 21
456.9771636
 31
0.0
  0
LINE
  5
55B
  8
0
 62
     4
 10
207.81699045
 20
470.44336893
 30
0.0
 11
207.81699045
 21
456.9771636
 31
0.0
  0
TEXT
  5
55C
  8
TXT_DIM49
 10
211.397155
 20
437.97084489
 30
0.0
 40
2.5
  1
22
  7
ARIAL
  0
LINE
  5
55D
  8
0
 62
     4
 10
208.81699045
 20
437.47084489
 30
0.0
 11
206.81699045
 21
435.47084489
 31
0.0
  0
LINE
  5
55E
  8
0
 62
     4
 10
218.06699045
 20
435.72084489
 30
0.0
 11
219.56699045
 21
437.22084489
 31
0.0
  0
LINE
  5
55F
  8
0
 62
     4
 10
207.81699045
 20
436.47084489
 30
0.0
 11
218.81699045
 21
436.47084489
 31
0.0
  0
LINE
  5
560
  8
0
 62
     4
 10
207.81699045
 20
438.47084489
 30
0.0
 11
207.81699045
 21
434.47084489
 31
0.0
  0
LINE
  5
561
  8
0
 62
     4
 10
218.81699045
 20
438.47084489
 30
0.0
 11
218.81699045
 21
434.47084489
 31
0.0
  0
TEXT
  5
562
  8
TXT_DIM49
 10
197.5665488
 20
441.13706856
 30
0.0
 40
2.5
  1
10
 50
90.00020741
  7
ARIAL
  0
LINE
  5
563
  8
0
 62
     4
 10
198.0665488
 20
441.55690401
 30
0.0
 11
200.0665488
 21
439.55690401
 31
0.0
  0
LINE
  5
564
  8
0
 62
     4
 10
199.8165488
 20
444.80690401
 30
0.0
 11
198.3165488
 21
446.30690401
 31
0.0
  0
LINE
  5
565
  8
0
 62
     4
 10
199.0665488
 20
440.55690401
 30
0.0
 11
199.0665488
 21
445.55690401
 31
0.0
  0
LINE
  5
566
  8
0
 62
     4
 10
201.0665488
 20
440.55690401
 30
0.0
 11
197.0665488
 21
440.55690401
 31
0.0
  0
LINE
  5
567
  8
0
 62
     4
 10
201.0665488
 20
445.55690401
 30
0.0
 11
197.0665488
 21
445.55690401
 31
0.0
  0
TEXT
  5
568
  8
TXT_DIM49
 10
197.5665488
 20
466.38706856
 30
0.0
 40
2.5
  1
91
 50
90.00020741
  7
ARIAL
  0
LINE
  5
569
  8
0
 62
     4
 10
198.0665488
 20
446.55690401
 30
0.0
 11
200.0665488
 21
444.55690401
 31
0.0
  0
LINE
  5
56A
  8
0
 62
     4
 10
199.8165488
 20
490.30690401
 30
0.0
 11
198.3165488
 21
491.80690401
 31
0.0
  0
LINE
  5
56B
  8
0
 62
     4
 10
199.0665488
 20
445.55690401
 30
0.0
 11
199.0665488
 21
491.05690401
 31
0.0
  0
LINE
  5
56C
  8
0
 62
     4
 10
201.0665488
 20
445.55690401
 30
0.0
 11
197.0665488
 21
445.55690401
 31
0.0
  0
LINE
  5
56D
  8
0
 62
     4
 10
201.0665488
 20
491.05690401
 30
0.0
 11
197.0665488
 21
491.05690401
 31
0.0
  0
TEXT
  5
56E
  8
TXT_DIM49
 10
197.5665488
 20
491.63706856
 30
0.0
 40
2.5
  1
10
 50
90.00020741
  7
ARIAL
  0
LINE
  5
56F
  8
0
 62
     4
 10
198.0665488
 20
492.05690401
 30
0.0
 11
200.0665488
 21
490.05690401
 31
0.0
  0
LINE
  5
570
  8
0
 62
     4
 10
199.8165488
 20
495.30690401
 30
0.0
 11
198.3165488
 21
496.80690401
 31
0.0
  0
LINE
  5
571
  8
0
 62
     4
 10
199.0665488
 20
491.05690401
 30
0.0
 11
199.0665488
 21
496.05690401
 31
0.0
  0
LINE
  5
572
  8
0
 62
     4
 10
201.0665488
 20
491.05690401
 30
0.0
 11
197.0665488
 21
491.05690401
 31
0.0
  0
LINE
  5
573
  8
0
 62
     4
 10
201.0665488
 20
496.05690401
 30
0.0
 11
197.0665488
 21
496.05690401
 31
0.0
  0
TEXT
  5
574
  8
TXT_DIM49
 10
310.23435674
 20
475.47037402
 30
0.0
 40
2.5
  1
45
 50
292.4998427350001
  7
ARIAL
  0
TEXT
  5
575
  8
TXT_DIM49
 10
311.70373518
 20
471.92298067
 30
0.0
 40
2.5
  1
°
 50
292.4998427350001
  7
ARIAL
  0
LINE
  5
576
  8
0
 62
     4
 10
313.75925802
 20
468.11501272
 30
0.0
 11
313.66411388
 21
465.2881863
 31
0.0
  0
LINE
  5
577
  8
0
 62
     4
 10
307.76605122
 20
478.53209956
 30
0.0
 11
309.21474452
 21
480.08170846
 31
0.0
  0
POLYLINE
  5
578
  8
0
 62
     4
 66
     1
 10
0.0
 20
0.0
 30
0.0
  0
VERTEX
  5
96F
  8
0
 62
     4
 10
308.4903979382659
 20
479.3069040168577
 30
0.0
  0
VERTEX
  5
970
  8
0
 62
     4
 10
308.832930910453
 20
475.8291083232338
 30
0.0
  0
VERTEX
  5
971
  8
0
 62
     4
 10
309.847366479777
 20
472.4849623663294
 30
0.0
  0
VERTEX
  5
972
  8
0
 62
     4
 10
311.494720456547
 20
469.4029797987416
 30
0.0
  0
VERTEX
  5
973
  8
0
 62
     4
 10
313.7116859518285
 20
466.7015994811255
 30
0.0
  0
SEQEND
  5
9C9
  8
0
 62
     4
  0
LINE
  5
579
  8
0
 62
     5
 10
315.31699045
 20
468.30690401
 30
0.0
 11
319.37102383
 21
484.33680345
 31
0.0
  0
TEXT
  5
57A
  8
TXT_DIM49
 10
319.37102383
 20
483.08680345
 30
0.0
 40
2.5
  1
Slobgat 13 x 32
  7
ARIAL
  0
LINE
  5
57B
  8
0
 62
     5
 10
330.31699045
 20
468.30690401
 30
0.0
 11
333.72856127
 21
479.30690401
 31
0.0
  0
TEXT
  5
57C
  8
TXT_DIM49
 10
333.72856127
 20
478.05690401
 30
0.0
 40
2.5
  1
Slobgat 13 x 32
  7
ARIAL
  0
LINE
  5
57D
  8
0
 62
     5
 10
217.81699045
 20
468.30690401
 30
0.0
 11
221.51876246
 21
474.38322362
 31
0.0
  0
TEXT
  5
57E
  8
TXT_DIM49
 10
221.51876246
 20
473.13322362
 30
0.0
 40
2.5
  1
Ø11
  7
ARIAL
  0
LINE
  5
57F
  8
0
 62
     4
 10
218.81699045
 20
491.05690401
 30
0.0
 11
221.2537167
 21
486.65734599
 31
0.0
  0
TEXT
  5
580
  8
TXT_DIM49
 10
221.2537167
 20
485.40734599
 30
0.0
 40
2.5
  1
Ø6.5
  7
ARIAL
  0
LINE
  5
581
  8
0
 62
     5
 10
218.81699045
 20
445.55690401
 30
0.0
 11
220.72448853
 21
448.86544666
 31
0.0
  0
TEXT
  5
582
  8
TXT_DIM49
 10
220.72448853
 20
447.61544666
 30
0.0
 40
2.5
  1
Ø6.5
  7
ARIAL
  0
LINE
  5
583
  8
0
 62
     5
 10
151.05426306
 20
490.80690401
 30
0.0
 11
156.42013522
 21
479.7250396
 31
0.0
  0
TEXT
  5
584
  8
TXT_DIM49
 10
156.42013522
 20
478.4750396
 30
0.0
 40
2.5
  1
Ø6.5
  7
ARIAL
  0
LINE
  5
585
  8
0
 62
     5
 10
151.05426306
 20
445.80690401
 30
0.0
 11
156.97159443
 21
454.56080089
 31
0.0
  0
TEXT
  5
586
  8
TXT_DIM49
 10
156.97159443
 20
453.31080089
 30
0.0
 40
2.5
  1
Ø6.5
  7
ARIAL
  0
TEXT
  5
587
  8
TXT_DIM49
 10
141.00942761
 20
510.46766207
 30
0.0
 40
2.5
  1
46
  7
ARIAL
  0
LINE
  5
588
  8
0
 62
     4
 10
132.55426306
 20
509.96766207
 30
0.0
 11
130.55426306
 21
507.96766207
 31
0.0
  0
LINE
  5
589
  8
0
 62
     4
 10
153.55426306
 20
508.21766207
 30
0.0
 11
155.05426306
 21
509.71766207
 31
0.0
  0
LINE
  5
58A
  8
0
 62
     4
 10
131.55426306
 20
508.96766207
 30
0.0
 11
154.30426306
 21
508.96766207
 31
0.0
  0
LINE
  5
58B
  8
0
 62
     4
 10
131.55426306
 20
506.96766207
 30
0.0
 11
131.55426306
 21
510.96766207
 31
0.0
  0
LINE
  5
58C
  8
0
 62
     4
 10
154.30426306
 20
506.96766207
 30
0.0
 11
154.30426306
 21
510.96766207
 31
0.0
  0
TEXT
  5
58D
  8
TXT_DIM49
 10
133.00942761
 20
503.18322038
 30
0.0
 40
2.5
  1
14
  7
ARIAL
  0
LINE
  5
58E
  8
0
 62
     4
 10
132.55426306
 20
502.68322038
 30
0.0
 11
130.55426306
 21
500.68322038
 31
0.0
  0
LINE
  5
58F
  8
0
 62
     4
 10
137.55426306
 20
500.93322038
 30
0.0
 11
139.05426306
 21
502.43322038
 31
0.0
  0
LINE
  5
590
  8
0
 62
     4
 10
131.55426306
 20
501.68322038
 30
0.0
 11
138.30426306
 21
501.68322038
 31
0.0
  0
LINE
  5
591
  8
0
 62
     4
 10
131.55426306
 20
499.68322038
 30
0.0
 11
131.55426306
 21
503.68322038
 31
0.0
  0
LINE
  5
592
  8
0
 62
     4
 10
138.30426306
 20
499.68322038
 30
0.0
 11
138.30426306
 21
503.68322038
 31
0.0
  0
TEXT
  5
593
  8
TXT_DIM49
 10
144.38442761
 20
503.18322038
 30
0.0
 40
2.5
  1
32
  7
ARIAL
  0
LINE
  5
594
  8
0
 62
     4
 10
139.30426306
 20
502.68322038
 30
0.0
 11
137.30426306
 21
500.68322038
 31
0.0
  0
LINE
  5
595
  8
0
 62
     4
 10
153.55426306
 20
500.93322038
 30
0.0
 11
155.05426306
 21
502.43322038
 31
0.0
  0
LINE
  5
596
  8
0
 62
     4
 10
138.30426306
 20
501.68322038
 30
0.0
 11
154.30426306
 21
501.68322038
 31
0.0
  0
LINE
  5
597
  8
0
 62
     4
 10
138.30426306
 20
499.68322038
 30
0.0
 11
138.30426306
 21
503.68322038
 31
0.0
  0
LINE
  5
598
  8
0
 62
     4
 10
154.30426306
 20
499.68322038
 30
0.0
 11
154.30426306
 21
503.68322038
 31
0.0
  0
TEXT
  5
599
  8
TXT_DIM49
 10
122.74253495
 20
486.51206856
 30
0.0
 40
2.5
  1
31
 50
90.00020741
  7
ARIAL
  0
LINE
  5
59A
  8
0
 62
     4
 10
125.24253495
 20
495.05690401
 30
0.0
 11
123.24253495
 21
497.05690401
 31
0.0
  0
LINE
  5
59B
  8
0
 62
     4
 10
123.49253495
 20
481.55690401
 30
0.0
 11
124.99253495
 21
480.05690401
 31
0.0
  0
LINE
  5
59C
  8
0
 62
     4
 10
124.24253495
 20
496.05690401
 30
0.0
 11
124.24253495
 21
480.80690401
 31
0.0
  0
LINE
  5
59D
  8
0
 62
     4
 10
126.24253495
 20
496.05690401
 30
0.0
 11
122.24253495
 21
496.05690401
 31
0.0
  0
LINE
  5
59E
  8
0
 62
     4
 10
126.24253495
 20
480.80690401
 30
0.0
 11
122.24253495
 21
480.80690401
 31
0.0
  0
TEXT
  5
59F
  8
TXT_DIM49
 10
122.74253495
 20
466.38706856
 30
0.0
 40
2.5
  1
50
 50
90.00020741
  7
ARIAL
  0
LINE
  5
5A0
  8
0
 62
     4
 10
125.24253495
 20
479.80690401
 30
0.0
 11
123.24253495
 21
481.80690401
 31
0.0
  0
LINE
  5
5A1
  8
0
 62
     4
 10
123.49253495
 20
456.55690401
 30
0.0
 11
124.99253495
 21
455.05690401
 31
0.0
  0
LINE
  5
5A2
  8
0
 62
     4
 10
124.24253495
 20
480.80690401
 30
0.0
 11
124.24253495
 21
455.80690401
 31
0.0
  0
LINE
  5
5A3
  8
0
 62
     4
 10
126.24253495
 20
480.80690401
 30
0.0
 11
122.24253495
 21
480.80690401
 31
0.0
  0
LINE
  5
5A4
  8
0
 62
     4
 10
126.24253495
 20
455.80690401
 30
0.0
 11
122.24253495
 21
455.80690401
 31
0.0
  0
TEXT
  5
5A5
  8
TXT_DIM49
 10
122.74253495
 20
446.26206856
 30
0.0
 40
2.5
  1
31
 50
90.00020741
  7
ARIAL
  0
LINE
  5
5A6
  8
0
 62
     4
 10
125.24253495
 20
454.80690401
 30
0.0
 11
123.24253495
 21
456.80690401
 31
0.0
  0
LINE
  5
5A7
  8
0
 62
     4
 10
123.49253495
 20
441.30690401
 30
0.0
 11
124.99253495
 21
439.80690401
 31
0.0
  0
LINE
  5
5A8
  8
0
 62
     4
 10
124.24253495
 20
455.80690401
 30
0.0
 11
124.24253495
 21
440.55690401
 31
0.0
  0
LINE
  5
5A9
  8
0
 62
     4
 10
126.24253495
 20
455.80690401
 30
0.0
 11
122.24253495
 21
455.80690401
 31
0.0
  0
LINE
  5
5AA
  8
0
 62
     4
 10
126.24253495
 20
440.55690401
 30
0.0
 11
122.24253495
 21
440.55690401
 31
0.0
  0
TEXT
  5
5AB
  8
TXT_DIM49
 10
112.82057302
 20
465.4271509
 30
0.0
 40
2.5
  1
111
 50
90.00020741
  7
ARIAL
  0
LINE
  5
5AC
  8
0
 62
     4
 10
113.32057302
 20
441.55690401
 30
0.0
 11
115.32057302
 21
439.55690401
 31
0.0
  0
LINE
  5
5AD
  8
0
 62
     4
 10
115.07057302
 20
495.30690401
 30
0.0
 11
113.57057302
 21
496.80690401
 31
0.0
  0
LINE
  5
5AE
  8
0
 62
     4
 10
114.32057302
 20
440.55690401
 30
0.0
 11
114.32057302
 21
496.05690401
 31
0.0
  0
LINE
  5
5AF
  8
0
 62
     4
 10
116.32057302
 20
440.55690401
 30
0.0
 11
112.32057302
 21
440.55690401
 31
0.0
  0
LINE
  5
5B0
  8
0
 62
     4
 10
116.32057302
 20
496.05690401
 30
0.0
 11
112.32057302
 21
496.05690401
 31
0.0
  0
TEXT
  5
5B1
  8
TXT_DIM49
 10
151.71934534
 20
457.30690401
 30
0.0
 40
2.5
  1
7
  7
ARIAL
  0
LINE
  5
5B2
  8
0
 62
     4
 10
152.05426306
 20
456.80690401
 30
0.0
 11
150.05426306
 21
454.80690401
 31
0.0
  0
LINE
  5
5B3
  8
0
 62
     4
 10
153.55426306
 20
455.05690401
 30
0.0
 11
155.05426306
 21
456.55690401
 31
0.0
  0
LINE
  5
5B4
  8
0
 62
     4
 10
151.05426306
 20
455.80690401
 30
0.0
 11
154.30426306
 21
455.80690401
 31
0.0
  0
LINE
  5
5B5
  8
0
 62
     4
 10
151.05426306
 20
453.80690401
 30
0.0
 11
151.05426306
 21
457.80690401
 31
0.0
  0
LINE
  5
5B6
  8
0
 62
     4
 10
154.30426306
 20
453.80690401
 30
0.0
 11
154.30426306
 21
457.80690401
 31
0.0
  0
TEXT
  5
5B7
  8
TXT_DIM49
 10
160.41374305
 20
440.96723293
 30
0.0
 40
2.5
  1
11
 50
90.00020741
  7
ARIAL
  0
LINE
  5
5B8
  8
0
 62
     4
 10
160.91374305
 20
441.55690401
 30
0.0
 11
162.91374305
 21
439.55690401
 31
0.0
  0
LINE
  5
5B9
  8
0
 62
     4
 10
162.66374305
 20
445.05690401
 30
0.0
 11
161.16374305
 21
446.55690401
 31
0.0
  0
LINE
  5
5BA
  8
0
 62
     4
 10
161.91374305
 20
440.55690401
 30
0.0
 11
161.91374305
 21
445.80690401
 31
0.0
  0
LINE
  5
5BB
  8
0
 62
     4
 10
161.91374305
 20
443.18190401
 30
0.0
 11
161.41374259
 21
442.88706847
 31
0.0
  0
LINE
  5
5BC
  8
0
 62
     4
 10
159.91374305
 20
440.55690401
 30
0.0
 11
163.91374305
 21
440.55690401
 31
0.0
  0
LINE
  5
5BD
  8
0
 62
     4
 10
159.91374305
 20
445.80690401
 30
0.0
 11
163.91374305
 21
445.80690401
 31
0.0
  0
TEXT
  5
5BE
  8
TXT_DIM49
 10
160.41374305
 20
448.15690396
 30
0.0
 40
2.5
  1
11
 50
90.00020741
  7
ARIAL
  0
LINE
  5
5BF
  8
0
 62
     4
 10
160.91374305
 20
446.80690401
 30
0.0
 11
162.91374305
 21
444.80690401
 31
0.0
  0
LINE
  5
5C0
  8
0
 62
     4
 10
162.66374305
 20
450.30690401
 30
0.0
 11
161.16374305
 21
451.80690401
 31
0.0
  0
LINE
  5
5C1
  8
0
 62
     4
 10
161.91374305
 20
445.80690401
 30
0.0
 11
161.91374305
 21
451.05690401
 31
0.0
  0
LINE
  5
5C2
  8
0
 62
     4
 10
161.91374305
 20
448.43190401
 30
0.0
 11
161.41374259
 21
450.07673924
 31
0.0
  0
LINE
  5
5C3
  8
0
 62
     4
 10
159.91374305
 20
445.80690401
 30
0.0
 11
163.91374305
 21
445.80690401
 31
0.0
  0
LINE
  5
5C4
  8
0
 62
     4
 10
159.91374305
 20
451.05690401
 30
0.0
 11
163.91374305
 21
451.05690401
 31
0.0
  0
TEXT
  5
5C5
  8
TXT_DIM49
 10
159.65253814
 20
488.88706856
 30
0.0
 40
2.5
  1
21
 50
90.00020741
  7
ARIAL
  0
LINE
  5
5C6
  8
0
 62
     4
 10
162.15253814
 20
495.05690401
 30
0.0
 11
160.15253814
 21
497.05690401
 31
0.0
  0
LINE
  5
5C7
  8
0
 62
     4
 10
160.40253814
 20
486.30690401
 30
0.0
 11
161.90253814
 21
484.80690401
 31
0.0
  0
LINE
  5
5C8
  8
0
 62
     4
 10
161.15253814
 20
496.05690401
 30
0.0
 11
161.15253814
 21
485.55690401
 31
0.0
  0
LINE
  5
5C9
  8
0
 62
     4
 10
159.15253814
 20
496.05690401
 30
0.0
 11
163.15253814
 21
496.05690401
 31
0.0
  0
LINE
  5
5CA
  8
0
 62
     4
 10
159.15253814
 20
485.55690401
 30
0.0
 11
163.15253814
 21
485.55690401
 31
0.0
  0
TEXT
  5
5CB
  8
TXT_DIM49
 10
252.43723734
 20
399.80629561
 30
0.0
 40
2.5
  1
190
  7
ARIAL
  0
LINE
  5
5CC
  8
0
 62
     4
 10
208.81699045
 20
399.30629561
 30
0.0
 11
206.81699045
 21
397.30629561
 31
0.0
  0
LINE
  5
5CD
  8
0
 62
     4
 10
302.06699045
 20
397.55629561
 30
0.0
 11
303.56699045
 21
399.05629561
 31
0.0
  0
LINE
  5
5CE
  8
0
 62
     4
 10
207.81699045
 20
398.30629561
 30
0.0
 11
302.81699045
 21
398.30629561
 31
0.0
  0
LINE
  5
5CF
  8
0
 62
     4
 10
207.81699045
 20
396.30629561
 30
0.0
 11
207.81699045
 21
400.30629561
 31
0.0
  0
LINE
  5
5D0
  8
0
 62
     4
 10
302.81699045
 20
396.30629561
 30
0.0
 11
302.81699045
 21
400.30629561
 31
0.0
  0
TEXT
  5
5D1
  8
TXT_DIM49
 10
319.647155
 20
399.80629561
 30
0.0
 40
2.5
  1
75
  7
ARIAL
  0
LINE
  5
5D2
  8
0
 62
     4
 10
303.81699045
 20
399.30629561
 30
0.0
 11
301.81699045
 21
397.30629561
 31
0.0
  0
LINE
  5
5D3
  8
0
 62
     4
 10
339.56699045
 20
397.55629561
 30
0.0
 11
341.06699045
 21
399.05629561
 31
0.0
  0
LINE
  5
5D4
  8
0
 62
     4
 10
302.81699045
 20
398.30629561
 30
0.0
 11
340.31699045
 21
398.30629561
 31
0.0
  0
LINE
  5
5D5
  8
0
 62
     4
 10
302.81699045
 20
396.30629561
 30
0.0
 11
302.81699045
 21
400.30629561
 31
0.0
  0
LINE
  5
5D6
  8
0
 62
     4
 10
340.31699045
 20
396.30629561
 30
0.0
 11
340.31699045
 21
400.30629561
 31
0.0
  0
TEXT
  5
5D7
  8
TXT_DIM49
 10
302.60707273
 20
389.80629561
 30
0.0
 40
2.5
  1
3
  7
ARIAL
  0
LINE
  5
5D8
  8
0
 62
     4
 10
303.81699045
 20
389.30629561
 30
0.0
 11
301.81699045
 21
387.30629561
 31
0.0
  0
LINE
  5
5D9
  8
0
 62
     4
 10
303.56699045
 20
387.55629561
 30
0.0
 11
305.06699045
 21
389.05629561
 31
0.0
  0
LINE
  5
5DA
  8
0
 62
     4
 10
302.81699045
 20
388.30629561
 30
0.0
 11
304.31699045
 21
388.30629561
 31
0.0
  0
LINE
  5
5DB
  8
0
 62
     4
 10
302.81699045
 20
386.30629561
 30
0.0
 11
302.81699045
 21
390.30629561
 31
0.0
  0
LINE
  5
5DC
  8
0
 62
     4
 10
304.31699045
 20
386.30629561
 30
0.0
 11
304.31699045
 21
390.30629561
 31
0.0
  0
ENDSEC
  0
EOF
