  0
SECTION
  2
HEADER
  9
$ACADVER
  1
AC1006
  9
$DWGCODEPAGE
  3
ansi_1252
  9
$INSBASE
 10
0.0
 20
0.0
 30
0.0
  9
$EXTMIN
 10
-303.25880747
 20
-84.27784023
  9
$EXTMAX
 10
650.01028603
 20
354.92599977
  9
$LIMMIN
 10
-303.25880747
 20
-84.27784023
  9
$LIMMAX
 10
650.01028603
 20
354.92599977
  9
$ORTHOMODE
 70
     0
  9
$REGENMODE
 70
     1
  9
$FILLMODE
 70
     1
  9
$QTEXTMODE
 70
     0
  9
$MIRRTEXT
 70
     1
  9
$DRAGMODE
 70
     2
  9
$LTSCALE
 40
1.0
  9
$OSMODE
 70
    37
  9
$ATTMODE
 70
     1
  9
$TEXTSIZE
 40
1.0
  9
$TRACEWID
 40
0.05
  9
$TEXTSTYLE
  7
STANDARD
  9
$CLAYER
  8
0
  9
$CELTYPE
  6
BYBLOCK
  9
$CECOLOR
 62
   256
  9
$DIMSCALE
 40
1.0
  9
$DIMASZ
 40
0.18
  9
$DIMEXO
 40
0.0625
  9
$DIMDLI
 40
0.38
  9
$DIMRND
 40
0.0
  9
$DIMDLE
 40
0.0
  9
$DIMEXE
 40
0.18
  9
$DIMTP
 40
0.0
  9
$DIMTM
 40
0.0
  9
$DIMTXT
 40
0.18
  9
$DIMCEN
 40
0.09
  9
$DIMTSZ
 40
0.0
  9
$DIMTOL
 70
     0
  9
$DIMLIM
 70
     0
  9
$DIMTIH
 70
     1
  9
$DIMTOH
 70
     1
  9
$DIMSE1
 70
     0
  9
$DIMSE2
 70
     0
  9
$DIMTAD
 70
     0
  9
$DIMZIN
 70
     0
  9
$DIMBLK
  1

  9
$DIMASO
 70
     1
  9
$DIMSHO
 70
     1
  9
$DIMPOST
  1

  9
$DIMAPOST
  1

  9
$DIMALT
 70
     0
  9
$DIMALTD
 70
     2
  9
$DIMALTF
 40
25.4
  9
$DIMLFAC
 40
1.0
  9
$DIMTOFL
 70
     0
  9
$DIMTVP
 40
0.0
  9
$DIMTIX
 70
     0
  9
$DIMSOXD
 70
     0
  9
$DIMSAH
 70
     0
  9
$DIMBLK1
  1

  9
$DIMBLK2
  1

  9
$LUNITS
 70
     2
  9
$LUPREC
 70
     4
  9
$SKETCHINC
 40
0.1
  9
$FILLETRAD
 40
0.5
  9
$AUNITS
 70
     0
  9
$AUPREC
 70
     0
  9
$MENU
  1
.
  9
$ELEVATION
 40
0.0
  9
$THICKNESS
 40
0.0
  9
$LIMCHECK
 70
     0
  9
$CHAMFERA
 40
0.0
  9
$CHAMFERB
 40
0.0
  9
$SKPOLY
 70
     0
  9
$TDCREATE
 40
2447893.125
  9
$TDUPDATE
 40
2460791.479539896
  9
$TDINDWG
 40
0.0
  9
$TDUSRTIMER
 40
0.0
  9
$USRTIMER
 70
     1
  9
$ANGBASE
 50
0.0
  9
$ANGDIR
 70
     0
  9
$PDMODE
 70
     0
  9
$PDSIZE
 40
0.0
  9
$PLINEWID
 40
0.0
  9
$COORDS
 70
     1
  9
$SPLFRAME
 70
     0
  9
$SPLINETYPE
 70
     6
  9
$SPLINESEGS
 70
     8
  9
$ATTDIA
 70
     0
  9
$ATTREQ
 70
     1
  9
$HANDLING
 70
     1
  9
$HANDSEED
  5
393
  9
$SURFTAB1
 70
     6
  9
$SURFTAB2
 70
     6
  9
$SURFTYPE
 70
     6
  9
$SURFU
 70
     6
  9
$SURFV
 70
     6
  9
$UCSNAME
  2

  9
$UCSORG
 10
0.0
 20
0.0
 30
0.0
  9
$UCSXDIR
 10
1.0
 20
0.0
 30
0.0
  9
$UCSYDIR
 10
0.0
 20
1.0
 30
0.0
  9
$USERI1
 70
     0
  9
$USERI2
 70
     0
  9
$USERI3
 70
     0
  9
$USERI4
 70
     0
  9
$USERI5
 70
     0
  9
$USERR1
 40
0.0
  9
$USERR2
 40
0.0
  9
$USERR3
 40
0.0
  9
$USERR4
 40
0.0
  9
$USERR5
 40
0.0
  9
$WORLDVIEW
 70
     1
  0
ENDSEC
  0
SECTION
  2
TABLES
  0
TABLE
  2
VPORT
 70
     1
  0
VPORT
  2
*ACTIVE
 70
     0
 10
0.0
 20
0.0
 11
1.0
 21
1.0
 12
173.37573928
 22
135.32407977
 13
0.0
 23
0.0
 14
1.0
 24
1.0
 15
0.0
 25
0.0
 16
0.0
 26
0.0
 36
1.0
 17
0.0
 27
0.0
 37
0.0
 40
439.20384
 41
2.170447994
 42
50.0
 43
0.0
 44
0.0
 50
0.0
 51
0.0
 71
     0
 72
   100
 73
     1
 74
     1
 75
     0
 76
     0
 77
     0
 78
     0
  0
ENDTAB
  0
TABLE
  2
LTYPE
 70
    19
  0
LTYPE
  2
CONTINUOUS
 70
     0
  3
Solid line
 72
    65
 73
     0
 40
0.0
  0
LTYPE
  2
DOT
 70
     0
  3
..............
 72
    65
 73
     2
 40
2.0
 49
0.5
 49
-1.5
  0
LTYPE
  2
HIDDEN
 70
     0
  3
-- -- -- -- --
 72
    65
 73
     2
 40
7.0
 49
4.0
 49
-3.0
  0
LTYPE
  2
DASHDOT
 70
     0
  3
--.--.--.--.--
 72
    65
 73
     4
 40
8.5
 49
4.0
 49
-2.0
 49
0.5
 49
-2.0
  0
LTYPE
  2
STRICHPUNKT2
 70
     0
  3
--.--.--.--.--
 72
    65
 73
     4
 40
18.5
 49
10.0
 49
-4.0
 49
0.5
 49
-4.0
  0
LTYPE
  2
STRICHPUNKT3
 70
     0
  3
--.--.--.--.--
 72
    65
 73
     4
 40
35.5
 49
25.0
 49
-5.0
 49
0.5
 49
-5.0
  0
LTYPE
  2
PHANTOM
 70
     0
  3
--..--..--..--
 72
    65
 73
     6
 40
23.0
 49
10.0
 49
-4.0
 49
0.5
 49
-4.0
 49
0.5
 49
-4.0
  0
LTYPE
  2
PHANTOM2
 70
     0
  3
--..--..--..--
 72
    65
 73
     6
 40
33.0
 49
20.0
 49
-4.0
 49
0.5
 49
-4.0
 49
0.5
 49
-4.0
  0
LTYPE
  2
PHANTOM3
 70
     0
  3
--..--..--..--
 72
    65
 73
     6
 40
50.0
 49
37.0
 49
-4.0
 49
0.5
 49
-4.0
 49
0.5
 49
-4.0
  0
LTYPE
  2
STR3PKT
 70
     0
  3
--...--...--...
 72
    65
 73
     8
 40
31.5
 49
20.0
 49
-2.5
 49
0.5
 49
-2.5
 49
0.5
 49
-2.5
 49
0.5
 49
-2.5
  0
LTYPE
  2
2STRPKT
 70
     0
  3
--.--.--.--.--
 72
    65
 73
     6
 40
28.0
 49
10.0
 49
-2.5
 49
10.0
 49
-2.5
 49
0.5
 49
-2.5
  0
LTYPE
  2
GESTRICHELT2
 70
     0
  3
-- -- -- -- --
 72
    65
 73
     2
 40
25.0
 49
10.0
 49
-15.0
  0
LTYPE
  2
2STR2PKT
 70
     0
  3
--..--..--..--
 72
    65
 73
     8
 40
31.0
 49
10.0
 49
-2.5
 49
10.0
 49
-2.5
 49
0.5
 49
-2.5
 49
0.5
 49
-2.5
  0
LTYPE
  2
STR3PKT2
 70
     0
  3
--...--...--...
 72
    65
 73
     8
 40
21.0
 49
10.0
 49
-2.5
 49
0.5
 49
-2.5
 49
0.5
 49
-2.5
 49
0.5
 49
-2.0
  0
LTYPE
  2
2STR3PKT
 70
     0
  3
--...--...--...
 72
    65
 73
    10
 40
34.0
 49
10.0
 49
-2.5
 49
10.0
 49
-2.5
 49
0.5
 49
-2.5
 49
0.5
 49
-2.5
 49
0.5
 49
-2.5
  0
LTYPE
  2
STRKSTR
 70
     0
  3
-- - -- - -- -
 72
    65
 73
     4
 40
30.0
 49
20.0
 49
-2.5
 49
5.0
 49
-2.5
  0
LTYPE
  2
STRKSTR2
 70
     0
  3
-- - -- - -- -
 72
    65
 73
     6
 40
37.5
 49
20.0
 49
-2.5
 49
5.0
 49
-2.5
 49
5.0
 49
-2.5
  0
LTYPE
  2
STRKSTR3
 70
     0
  3
-- - -- - -- -
 72
    65
 73
     8
 40
45.0
 49
20.0
 49
-2.5
 49
5.0
 49
-2.5
 49
5.0
 49
-2.5
 49
5.0
 49
-2.5
  0
LTYPE
  2
PUNKT2
 70
     0
  3
..............
 72
    65
 73
     2
 40
3.5
 49
0.5
 49
-3.0
  0
ENDTAB
  0
TABLE
  2
LAYER
 70
    17
  0
LAYER
  2
0
 70
     0
 62
     7
  6
CONTINUOUS
  0
LAYER
  2
LE_GREEN
 70
     0
 62
     3
  6
CONTINUOUS
  0
LAYER
  2
LE_RED
 70
     0
 62
     1
  6
CONTINUOUS
  0
LAYER
  2
LE_ALL
 70
     0
 62
     7
  6
CONTINUOUS
  0
LAYER
  2
LE_HIDDEN1
 70
     0
 62
     3
  6
HIDDEN
  0
LAYER
  2
LE_HIDDEN
 70
     0
 62
     7
  6
CONTINUOUS
  0
LAYER
  2
LE_MIDDLE
 70
     0
 62
     7
  6
CONTINUOUS
  0
LAYER
  2
TXT_YELLOW
 70
     0
 62
     2
  6
CONTINUOUS
  0
LAYER
  2
TXT_DIM49
 70
     0
 62
     2
  6
CONTINUOUS
  0
LAYER
  2
TXT_ALL
 70
     0
 62
     7
  6
CONTINUOUS
  0
LAYER
  2
DIM49
 70
     0
 62
     4
  6
CONTINUOUS
  0
LAYER
  2
HATCH
 70
     0
 62
     3
  6
CONTINUOUS
  0
LAYER
  2
APPLE
 70
     0
 62
     7
  6
CONTINUOUS
  0
LAYER
  2
10
 70
     0
 62
     7
  6
CONTINUOUS
  0
LAYER
  2
20
 70
     0
 62
     7
  6
CONTINUOUS
  0
LAYER
  2
47
 70
     0
 62
     7
  6
CONTINUOUS
  0
LAYER
  2
49
 70
     0
 62
     7
  6
CONTINUOUS
  0
ENDTAB
  0
TABLE
  2
STYLE
 70
     5
  0
STYLE
  2
MONOTXT
 70
     0
 40
0.0
 41
1.0
 50
0.0
 71
     0
 42
1.0
  3
monotxt.shx
  4

  0
STYLE
  2
STANDARD
 70
     0
 40
0.0
 41
1.0
 50
0.0
 71
     0
 42
1.0
  3
txt
  4

  0
STYLE
  2
ARIAL
 70
     0
 40
0.0
 41
1.0
 50
0.0
 71
     0
 42
1.0
  3
arial.ttf
  4

  0
STYLE
  2
ARIAL_NARROW
 70
     0
 40
0.0
 41
1.0
 50
0.0
 71
     0
 42
1.0
  3
ArialN.ttf
  4

  0
STYLE
  2
ISOCPEUR
 70
     0
 40
0.0
 41
1.0
 50
0.0
 71
     0
 42
1.0
  3
ISOCPEUR.ttf
  4

  0
ENDTAB
  0
TABLE
  2
VIEW
 70
     0
  0
ENDTAB
  0
TABLE
  2
UCS
 70
     0
  0
ENDTAB
  0
ENDSEC
  0
SECTION
  2
BLOCKS
  0
ENDSEC
  0
SECTION
  2
ENTITIES
  0
POLYLINE
  5
16E
  8
0
 66
     1
 10
0.0
 20
0.0
 30
0.0
 70
     1
  0
VERTEX
  5
16F
  8
0
 10
-38.86803712
 20
-46.22584504
 30
0.0
  0
VERTEX
  5
170
  8
0
 10
381.13196288
 20
-46.22584504
 30
0.0
  0
VERTEX
  5
171
  8
0
 10
381.13196288
 20
250.77415496
 30
0.0
  0
VERTEX
  5
172
  8
0
 10
-38.86803712
 20
250.77415496
 30
0.0
  0
SEQEND
  5
173
  8
0
  0
POLYLINE
  5
174
  8
0
 66
     1
 10
0.0
 20
0.0
 30
0.0
 70
     1
  0
VERTEX
  5
175
  8
0
 10
-33.86803712
 20
-41.22584504
 30
0.0
  0
VERTEX
  5
176
  8
0
 10
376.13196288
 20
-41.22584504
 30
0.0
  0
VERTEX
  5
177
  8
0
 10
376.13196288
 20
245.77415496
 30
0.0
  0
VERTEX
  5
178
  8
0
 10
-33.86803712
 20
245.77415496
 30
0.0
  0
SEQEND
  5
179
  8
0
  0
LINE
  5
17A
  8
0
 10
191.13196288
 20
-41.22584504
 30
0.0
 11
191.13196288
 21
-46.22584504
 31
0.0
  0
LINE
  5
17B
  8
0
 10
191.13196288
 20
245.77415496
 30
0.0
 11
191.13196288
 21
250.77415496
 31
0.0
  0
LINE
  5
17C
  8
0
 10
-18.86803712
 20
-41.22584504
 30
0.0
 11
-18.86803712
 21
-46.22584504
 31
0.0
  0
LINE
  5
17D
  8
0
 10
-18.86803712
 20
245.77415496
 30
0.0
 11
-18.86803712
 21
250.77415496
 31
0.0
  0
TEXT
  5
17E
  8
TXT_ALL
 62
     4
 10
380.13196288
 20
-45.22584504
 30
0.0
 40
2.5
  1

 50
90.00020741
  0
POLYLINE
  5
17F
  8
0
 66
     1
 10
0.0
 20
0.0
 30
0.0
  0
VERTEX
  5
180
  8
0
 10
376.13196288
 20
235.77415496
 30
0.0
  0
VERTEX
  5
181
  8
0
 10
307.13866288
 20
235.77415496
 30
0.0
  0
VERTEX
  5
182
  8
0
 10
307.13866288
 20
245.77415496
 30
0.0
  0
SEQEND
  5
183
  8
0
  0
LINE
  5
184
  8
0
 10
309.04196288
 20
-21.72584504
 30
0.0
 11
169.15196288
 21
-21.72584504
 31
0.0
  0
LINE
  5
185
  8
0
 10
169.15196288
 20
-31.47584504
 30
0.0
 11
309.04196288
 21
-31.47584504
 31
0.0
  0
POLYLINE
  5
186
  8
0
 66
     1
 10
0.0
 20
0.0
 30
0.0
  0
VERTEX
  5
187
  8
0
 10
169.15196288
 20
-21.72584504
 30
0.0
  0
VERTEX
  5
188
  8
0
 10
169.15196288
 20
-31.47584504
 30
0.0
  0
VERTEX
  5
189
  8
0
 10
169.15196288
 20
-41.22584504
 30
0.0
  0
SEQEND
  5
18A
  8
0
  0
POLYLINE
  5
18B
  8
0
 66
     1
 10
0.0
 20
0.0
 30
0.0
  0
VERTEX
  5
18C
  8
0
 10
239.09696288
 20
-21.72584504
 30
0.0
  0
VERTEX
  5
18D
  8
0
 10
239.09696288
 20
-31.47584504
 30
0.0
  0
VERTEX
  5
18E
  8
0
 10
239.09696288
 20
-41.22584504
 30
0.0
  0
SEQEND
  5
18F
  8
0
  0
TEXT
  5
190
  8
TXT_ALL
 10
171.15196288
 20
-27.90084499
 30
0.0
 40
2.5999999
  1
E-mail: verkoop@jonkers-bouwmetaal.nl
  7
ARIAL
  0
TEXT
  5
191
  8
TXT_ALL
 10
171.15196288
 20
-37.65084499
 30
0.0
 40
2.5999999
  1
Telefoon: 0527-685156
  7
ARIAL
  0
TEXT
  5
192
  8
TXT_ALL
 10
241.09696288
 20
-37.65084499
 30
0.0
 40
2.5999999
  1
Website: www.jonkers-bouwmetaal.nl
  7
ARIAL
  0
TEXT
  5
193
  8
TXT_ALL
 10
241.09696288
 20
-27.90084499
 30
0.0
 40
2.5999999
  1
Adres: Hoornse Hop 10, 8321 WX Urk
  7
ARIAL
  0
TEXT
  5
194
  8
TXT_ALL
 10
-30.42607686
 20
239.52415496
 30
0.0
 40
2.5
  1
Art. nr. 91013696
  7
ARIAL
  0
TEXT
  5
195
  8
TXT_ALL
 10
12.31195995
 20
239.52415496
 30
0.0
 40
2.5
  1
Omschrijving: H2002-anker 200x160 80x8
  7
ARIAL
  0
LINE
  5
196
  8
0
 10
376.13196288
 20
235.77415496
 30
0.0
 11
-33.86803712
 21
235.77415496
 31
0.0
  0
LINE
  5
197
  8
0
 10
9.15196288
 20
235.77415496
 30
0.0
 11
9.15196288
 21
245.77415496
 31
0.0
  0
LINE
  5
198
  8
0
 10
169.15196288
 20
235.77415496
 30
0.0
 11
169.15196288
 21
245.77415496
 31
0.0
  0
TEXT
  5
199
  8
TXT_ALL
 10
240.14566288
 20
239.52415496
 30
0.0
 40
2.5
  1
Behandeling: Thermisch Verzinkt
  7
ARIAL
  0
LINE
  5
19A
  8
0
 10
309.04196288
 20
-21.72584504
 30
0.0
 11
376.13196288
 21
-21.72584504
 31
0.0
  0
LINE
  5
19B
  8
0
 10
309.04196288
 20
-41.22584504
 30
0.0
 11
309.04196288
 21
-21.72584504
 31
0.0
  0
LINE
  5
19C
  8
0
 10
309.04196288
 20
-41.22584504
 30
0.0
 11
309.04196288
 21
-21.72584504
 31
0.0
  0
TEXT
  5
19D
  8
TXT_ALL
 10
103.49716097
 20
-40.07131162
 30
0.0
 40
2.5
  1

  0
TEXT
  5
19E
  8
TXT_ALL
 10
224.63234394
 20
-29.97584504
 30
0.0
 40
2.5
  1

  0
POLYLINE
  5
19F
  8
0
 66
     1
 10
0.0
 20
0.0
 30
0.0
  0
VERTEX
  5
1A0
  8
0
 10
307.13866288
 20
235.77415496
 30
0.0
  0
VERTEX
  5
1A1
  8
0
 10
238.14566288
 20
235.77415496
 30
0.0
  0
VERTEX
  5
1A2
  8
0
 10
238.14566288
 20
245.77415496
 30
0.0
  0
SEQEND
  5
1A3
  8
0
  0
TEXT
  5
1A4
  8
TXT_ALL
 10
309.13866288
 20
239.52415496
 30
0.0
 40
2.5
  1
Verpakkingshoeveelheid: 1 st.
  7
ARIAL
  0
TEXT
  5
1A5
  8
TXT_ALL
 10
171.15196288
 20
239.52415496
 30
0.0
 40
2.5
  1
Materiaal: S355
  7
ARIAL
  0
TEXT
  5
1A6
  8
TXT_ALL
 10
343.91361011
 20
-44.47535488
 30
0.0
 40
1.5
  1
Onderdeel van
  7
ARIAL
  0
POLYLINE
  5
1A7
  8
0
 66
     1
 10
0.0
 20
0.0
 30
0.0
  0
VERTEX
  5
301
  8
0
 10
26.91121984296803
 20
48.42759958962606
 30
0.0
  0
VERTEX
  5
302
  8
0
 10
26.74664613874189
 20
48.40144547463282
 30
0.0
  0
VERTEX
  5
303
  8
0
 10
26.57656712697226
 20
48.28395308085549
 30
0.0
  0
VERTEX
  5
304
  8
0
 10
26.40731256291192
 20
48.0794950706757
 30
0.0
  0
VERTEX
  5
305
  8
0
 10
26.24518151870837
 20
47.79568066730356
 30
0.0
  0
VERTEX
  5
306
  8
0
 10
26.09620795362566
 20
47.44307246568753
 30
0.0
  0
VERTEX
  5
307
  8
0
 10
25.96593615085484
 20
47.03479332909641
 30
0.0
  0
VERTEX
  5
308
  8
0
 10
25.85921437838206
 20
46.58603800132925
 30
0.0
  0
VERTEX
  5
309
  8
0
 10
25.78001445314617
 20
46.11350761066513
 30
0.0
  0
VERTEX
  5
30A
  8
0
 10
25.73128392368693
 20
45.63478811136893
 30
0.0
  0
VERTEX
  5
30B
  8
0
 10
25.71483637253639
 20
45.16769579502035
 30
0.0
  0
SEQEND
  5
386
  8
0
  0
POLYLINE
  5
1A8
  8
0
 66
     1
 10
0.0
 20
0.0
 30
0.0
  0
VERTEX
  5
30C
  8
0
 10
27.48260330746362
 20
46.72671969344088
 30
0.0
  0
VERTEX
  5
30D
  8
0
 10
27.46470745427653
 20
47.18283485993341
 30
0.0
  0
VERTEX
  5
30E
  8
0
 10
27.41174456233153
 20
47.58891491808178
 30
0.0
  0
VERTEX
  5
30F
  8
0
 10
27.32585929484777
 20
47.92851618566336
 30
0.0
  0
VERTEX
  5
310
  8
0
 10
27.21052946369452
 20
48.18788695235783
 30
0.0
  0
VERTEX
  5
311
  8
0
 10
27.07042519993639
 20
48.35652433731747
 30
0.0
  0
VERTEX
  5
312
  8
0
 10
26.91121984296803
 20
48.42759958962606
 30
0.0
  0
SEQEND
  5
387
  8
0
  0
POLYLINE
  5
1A9
  8
0
 66
     1
 10
0.0
 20
0.0
 30
0.0
  0
VERTEX
  5
1AA
  8
0
 10
27.48260331
 20
46.7267197
 30
0.0
  0
VERTEX
  5
1AB
  8
0
 10
27.48260331
 20
32.58458408
 30
0.0
  0
SEQEND
  5
1AC
  8
0
  0
POLYLINE
  5
1AD
  8
0
 66
     1
 10
0.0
 20
0.0
 30
0.0
  0
VERTEX
  5
313
  8
0
 10
26.28621984
 20
29.32468027
 30
0.0
  0
VERTEX
  5
314
  8
0
 10
26.45079354438632
 20
29.35083438670993
 30
0.0
  0
VERTEX
  5
315
  8
0
 10
26.6208725561997
 20
29.46832678215399
 30
0.0
  0
VERTEX
  5
316
  8
0
 10
26.79012712018576
 20
29.67278479388848
 30
0.0
  0
VERTEX
  5
317
  8
0
 10
26.95225816419972
 20
29.95659919864547
 30
0.0
  0
VERTEX
  5
318
  8
0
 10
27.10123172898462
 20
30.30920740142496
 30
0.0
  0
VERTEX
  5
319
  8
0
 10
27.23150353136048
 20
30.71748653891483
 30
0.0
  0
VERTEX
  5
31A
  8
0
 10
27.33822530335587
 20
31.16624186728259
 30
0.0
  0
VERTEX
  5
31B
  8
0
 10
27.41742522804967
 20
31.6387722582268
 30
0.0
  0
VERTEX
  5
31C
  8
0
 10
27.46615575692233
 20
32.11749175747217
 30
0.0
  0
VERTEX
  5
31D
  8
0
 10
27.48260330746362
 20
32.58458407344088
 30
0.0
  0
SEQEND
  5
388
  8
0
  0
POLYLINE
  5
1AE
  8
0
 66
     1
 10
0.0
 20
0.0
 30
0.0
  0
VERTEX
  5
31E
  8
0
 10
25.71483637253639
 20
31.02556017502035
 30
0.0
  0
VERTEX
  5
31F
  8
0
 10
25.73273222529997
 20
30.5694450052197
 30
0.0
  0
VERTEX
  5
320
  8
0
 10
25.78569511725354
 20
30.16336494414659
 30
0.0
  0
VERTEX
  5
321
  8
0
 10
25.87158038515223
 20
29.82376367433664
 30
0.0
  0
VERTEX
  5
322
  8
0
 10
25.98691021706881
 20
29.56439290636313
 30
0.0
  0
VERTEX
  5
323
  8
0
 10
26.12701448185251
 20
29.39575552124984
 30
0.0
  0
VERTEX
  5
324
  8
0
 10
26.28621984
 20
29.32468027
 30
0.0
  0
SEQEND
  5
389
  8
0
  0
LINE
  5
1AF
  8
0
 10
25.71483636
 20
31.02556017
 30
0.0
 11
25.71483636
 21
45.16769579
 31
0.0
  0
LINE
  5
1B0
  8
0
 10
25.93580723
 20
46.92159769
 30
0.0
 11
27.48260331
 21
46.7267197
 31
0.0
  0
LINE
  5
1B1
  8
0
 10
25.71483636
 20
32.80730178
 30
0.0
 11
27.48260331
 21
32.58458408
 31
0.0
  0
POLYLINE
  5
1B2
  8
0
 66
     1
 10
0.0
 20
0.0
 30
0.0
  0
VERTEX
  5
325
  8
0
 10
26.91121984296803
 20
86.13996125962608
 30
0.0
  0
VERTEX
  5
326
  8
0
 10
26.74664613874189
 20
86.11380714463282
 30
0.0
  0
VERTEX
  5
327
  8
0
 10
26.57656712697226
 20
85.99631475085548
 30
0.0
  0
VERTEX
  5
328
  8
0
 10
26.40731256291192
 20
85.79185674067571
 30
0.0
  0
VERTEX
  5
329
  8
0
 10
26.24518151870837
 20
85.50804233730358
 30
0.0
  0
VERTEX
  5
32A
  8
0
 10
26.09620795362566
 20
85.15543413568753
 30
0.0
  0
VERTEX
  5
32B
  8
0
 10
25.96593615085484
 20
84.74715499909641
 30
0.0
  0
VERTEX
  5
32C
  8
0
 10
25.85921437838206
 20
84.29839967132926
 30
0.0
  0
VERTEX
  5
32D
  8
0
 10
25.78001445314617
 20
83.82586928066512
 30
0.0
  0
VERTEX
  5
32E
  8
0
 10
25.73128392368693
 20
83.34714978136893
 30
0.0
  0
VERTEX
  5
32F
  8
0
 10
25.71483637253639
 20
82.88005746502034
 30
0.0
  0
SEQEND
  5
38A
  8
0
  0
POLYLINE
  5
1B3
  8
0
 66
     1
 10
0.0
 20
0.0
 30
0.0
  0
VERTEX
  5
330
  8
0
 10
27.48260330746362
 20
84.43908136344088
 30
0.0
  0
VERTEX
  5
331
  8
0
 10
27.46470745427653
 20
84.8951965299334
 30
0.0
  0
VERTEX
  5
332
  8
0
 10
27.41174456233153
 20
85.30127658808178
 30
0.0
  0
VERTEX
  5
333
  8
0
 10
27.32585929484777
 20
85.64087785566336
 30
0.0
  0
VERTEX
  5
334
  8
0
 10
27.21052946369452
 20
85.90024862235784
 30
0.0
  0
VERTEX
  5
335
  8
0
 10
27.07042519993639
 20
86.06888600731746
 30
0.0
  0
VERTEX
  5
336
  8
0
 10
26.91121984296803
 20
86.13996125962608
 30
0.0
  0
SEQEND
  5
38B
  8
0
  0
POLYLINE
  5
1B4
  8
0
 66
     1
 10
0.0
 20
0.0
 30
0.0
  0
VERTEX
  5
1B5
  8
0
 10
27.48260331
 20
84.43908136
 30
0.0
  0
VERTEX
  5
1B6
  8
0
 10
27.48260331
 20
70.29694574
 30
0.0
  0
SEQEND
  5
1B7
  8
0
  0
POLYLINE
  5
1B8
  8
0
 66
     1
 10
0.0
 20
0.0
 30
0.0
  0
VERTEX
  5
337
  8
0
 10
26.28621984
 20
67.03704193
 30
0.0
  0
VERTEX
  5
338
  8
0
 10
26.45079354438632
 20
67.06319604670995
 30
0.0
  0
VERTEX
  5
339
  8
0
 10
26.6208725561997
 20
67.180688442154
 30
0.0
  0
VERTEX
  5
33A
  8
0
 10
26.79012712018576
 20
67.3851464538885
 30
0.0
  0
VERTEX
  5
33B
  8
0
 10
26.95225816419972
 20
67.66896085864548
 30
0.0
  0
VERTEX
  5
33C
  8
0
 10
27.10123172898462
 20
68.02156906142497
 30
0.0
  0
VERTEX
  5
33D
  8
0
 10
27.23150353136048
 20
68.42984819891484
 30
0.0
  0
VERTEX
  5
33E
  8
0
 10
27.33822530335587
 20
68.87860352728259
 30
0.0
  0
VERTEX
  5
33F
  8
0
 10
27.41742522804967
 20
69.35113391822681
 30
0.0
  0
VERTEX
  5
340
  8
0
 10
27.46615575692233
 20
69.82985341747217
 30
0.0
  0
VERTEX
  5
341
  8
0
 10
27.48260330746362
 20
70.29694573344088
 30
0.0
  0
SEQEND
  5
38C
  8
0
  0
POLYLINE
  5
1B9
  8
0
 66
     1
 10
0.0
 20
0.0
 30
0.0
  0
VERTEX
  5
342
  8
0
 10
25.71483637253639
 20
68.73792183502034
 30
0.0
  0
VERTEX
  5
343
  8
0
 10
25.73273222529997
 20
68.28180666521972
 30
0.0
  0
VERTEX
  5
344
  8
0
 10
25.78569511725354
 20
67.87572660414659
 30
0.0
  0
VERTEX
  5
345
  8
0
 10
25.87158038515223
 20
67.53612533433665
 30
0.0
  0
VERTEX
  5
346
  8
0
 10
25.98691021706881
 20
67.27675456636314
 30
0.0
  0
VERTEX
  5
347
  8
0
 10
26.12701448185251
 20
67.10811718124985
 30
0.0
  0
VERTEX
  5
348
  8
0
 10
26.28621984
 20
67.03704193
 30
0.0
  0
SEQEND
  5
38D
  8
0
  0
LINE
  5
1BA
  8
0
 10
25.71483636
 20
68.73792183
 30
0.0
 11
25.71483636
 21
82.88005745
 31
0.0
  0
LINE
  5
1BB
  8
0
 10
25.93580723
 20
84.63395935
 30
0.0
 11
27.48260331
 21
84.43908136
 31
0.0
  0
LINE
  5
1BC
  8
0
 10
25.71483636
 20
70.51966344
 30
0.0
 11
27.48260331
 21
70.29694574
 31
0.0
  0
POLYLINE
  5
1BD
  8
0
 66
     1
 10
0.0
 20
0.0
 30
0.0
  0
VERTEX
  5
1BE
  8
0
 10
33.66978765
 20
96.96673286
 30
0.0
  0
VERTEX
  5
1BF
  8
0
 10
19.52765203
 20
84.49454158
 30
0.0
  0
VERTEX
  5
1C0
  8
0
 10
15.78599464
 20
84.9659461
 30
0.0
  0
SEQEND
  5
1C1
  8
0
  0
LINE
  5
1C2
  8
0
 10
29.92813026
 20
97.43813739
 30
0.0
 11
15.78599464
 21
84.9659461
 31
0.0
  0
LINE
  5
1C3
  8
0
 10
33.66978765
 20
96.96673286
 30
0.0
 11
29.92813026
 21
97.43813739
 31
0.0
  0
POLYLINE
  5
1C4
  8
0
 66
     1
 10
0.0
 20
0.0
 30
0.0
  0
VERTEX
  5
1C5
  8
0
 10
33.66978765
 20
96.96673286
 30
0.0
  0
VERTEX
  5
1C6
  8
0
 10
33.66978765
 20
29.08448187
 30
0.0
  0
VERTEX
  5
1C7
  8
0
 10
19.52765203
 20
16.61229058
 30
0.0
  0
VERTEX
  5
1C8
  8
0
 10
19.52765203
 20
84.49454158
 30
0.0
  0
SEQEND
  5
1C9
  8
0
  0
LINE
  5
1CA
  8
0
 10
15.78599464
 20
17.0836951
 30
0.0
 11
15.78599464
 21
84.9659461
 31
0.0
  0
LINE
  5
1CB
  8
0
  6
STRICHPUNKT2
 62
     1
 10
27.76798777
 20
83.5122555
 30
0.0
 11
25.77192255
 21
83.76373607
 31
0.0
  0
LINE
  5
1CC
  8
0
  6
STRICHPUNKT2
 62
     1
 10
27.76798777
 20
69.37011987
 30
0.0
 11
25.71483636
 21
69.62879263
 31
0.0
  0
LINE
  5
1CD
  8
0
  6
STRICHPUNKT2
 62
     1
 10
26.59871984
 20
87.19510331
 30
0.0
 11
26.59871984
 21
65.98189988
 31
0.0
  0
LINE
  5
1CE
  8
0
  6
STRICHPUNKT2
 62
     1
 10
25.27289462
 20
82.49030147
 30
0.0
 11
27.92454505
 21
84.82883734
 31
0.0
  0
LINE
  5
1CF
  8
0
  6
STRICHPUNKT2
 62
     1
 10
25.27289462
 20
68.34816585
 30
0.0
 11
27.92454505
 21
70.68670172
 31
0.0
  0
LINE
  5
1D0
  8
0
  6
STRICHPUNKT2
 62
     1
 10
27.76798777
 20
45.79989383
 30
0.0
 11
25.77192255
 21
46.05137441
 31
0.0
  0
LINE
  5
1D1
  8
0
  6
STRICHPUNKT2
 62
     1
 10
27.76798777
 20
31.65775821
 30
0.0
 11
25.71483636
 21
31.91643097
 31
0.0
  0
LINE
  5
1D2
  8
0
  6
STRICHPUNKT2
 62
     1
 10
26.59871984
 20
49.48274165
 30
0.0
 11
26.59871984
 21
28.26953821
 31
0.0
  0
LINE
  5
1D3
  8
0
  6
STRICHPUNKT2
 62
     1
 10
25.27289462
 20
44.77793981
 30
0.0
 11
27.92454505
 21
47.11647568
 31
0.0
  0
LINE
  5
1D4
  8
0
  6
STRICHPUNKT2
 62
     1
 10
25.27289462
 20
30.63580419
 30
0.0
 11
27.92454505
 21
32.97434005
 31
0.0
  0
POLYLINE
  5
1D5
  8
0
 66
     1
 10
0.0
 20
0.0
 30
0.0
  0
VERTEX
  5
349
  8
0
 10
91.83606672
 20
11.29897547
 30
0.0
  0
VERTEX
  5
34A
  8
0
 10
91.76881520156451
 20
11.5265808431527
 30
0.0
  0
VERTEX
  5
34B
  8
0
 10
91.56964508439053
 20
11.74543946947764
 30
0.0
  0
VERTEX
  5
34C
  8
0
 10
91.24621036436773
 20
11.94714073472162
 30
0.0
  0
VERTEX
  5
34D
  8
0
 10
90.810940456374
 20
12.12393337239437
 30
0.0
  0
VERTEX
  5
34E
  8
0
 10
90.28056253883324
 20
12.26902334059204
 30
0.0
  0
VERTEX
  5
34F
  8
0
 10
89.67545873763078
 20
12.37683491321689
 30
0.0
  0
VERTEX
  5
350
  8
0
 10
89.0188828524477
 20
12.44322495200381
 30
0.0
  0
VERTEX
  5
351
  8
0
 10
88.33606672628214
 20
12.465642125
 30
0.0
  0
VERTEX
  5
352
  8
0
 10
87.65325059987516
 20
12.44322495282087
 30
0.0
  0
VERTEX
  5
353
  8
0
 10
86.99667471397711
 20
12.3768349148196
 30
0.0
  0
VERTEX
  5
354
  8
0
 10
86.39157091161358
 20
12.26902334291882
 30
0.0
  0
VERTEX
  5
355
  8
0
 10
85.8611929925103
 20
12.1239333753558
 30
0.0
  0
VERTEX
  5
356
  8
0
 10
85.42592308261263
 20
11.9471407382039
 30
0.0
  0
VERTEX
  5
357
  8
0
 10
85.10248836041762
 20
11.74543947334693
 30
0.0
  0
VERTEX
  5
358
  8
0
 10
84.90331824088668
 20
11.52658084726032
 30
0.0
  0
VERTEX
  5
359
  8
0
 10
84.83606672
 20
11.29897547418809
 30
0.0
  0
SEQEND
  5
38E
  8
0
  0
POLYLINE
  5
1D6
  8
0
 66
     1
 10
0.0
 20
0.0
 30
0.0
  0
VERTEX
  5
35A
  8
0
 10
84.83606672
 20
11.29897547418809
 30
0.0
  0
VERTEX
  5
35B
  8
0
 10
84.90331823629073
 20
11.07137010044146
 30
0.0
  0
VERTEX
  5
35C
  8
0
 10
85.10248835200338
 20
10.85251147342433
 30
0.0
  0
VERTEX
  5
35D
  8
0
 10
85.42592307126958
 20
10.6508102074548
 30
0.0
  0
VERTEX
  5
35E
  8
0
 10
85.86119297918387
 20
10.47401756908634
 30
0.0
  0
VERTEX
  5
35F
  8
0
 10
86.39157089724921
 20
10.3289276002805
 30
0.0
  0
VERTEX
  5
360
  8
0
 10
86.99667469946726
 20
10.22111602718379
 30
0.0
  0
VERTEX
  5
361
  8
0
 10
87.65325058601195
 20
10.15472598809832
 30
0.0
  0
VERTEX
  5
362
  8
0
 10
88.33606671371787
 20
10.132308815
 30
0.0
  0
VERTEX
  5
363
  8
0
 10
89.0188828416652
 20
10.15472598728126
 30
0.0
  0
VERTEX
  5
364
  8
0
 10
89.67545872892487
 20
10.22111602558108
 30
0.0
  0
VERTEX
  5
365
  8
0
 10
90.28056253230399
 20
10.32892759795372
 30
0.0
  0
VERTEX
  5
366
  8
0
 10
90.81094045193186
 20
10.47401756612492
 30
0.0
  0
VERTEX
  5
367
  8
0
 10
91.2462103617501
 20
10.65081020397252
 30
0.0
  0
VERTEX
  5
368
  8
0
 10
91.56964508318849
 20
10.85251146955504
 30
0.0
  0
VERTEX
  5
369
  8
0
 10
91.7688152012581
 20
11.07137009633384
 30
0.0
  0
VERTEX
  5
36A
  8
0
 10
91.83606672
 20
11.29897547
 30
0.0
  0
SEQEND
  5
38F
  8
0
  0
LINE
  5
1D7
  8
0
 10
109.32742931
 20
1.52734592
 30
0.0
 11
23.26930941
 21
12.36964989
 31
0.0
  0
LINE
  5
1D8
  8
0
 10
37.41144504
 20
24.84184118
 30
0.0
 11
23.26930941
 21
12.36964989
 31
0.0
  0
POLYLINE
  5
1D9
  8
0
 66
     1
 10
0.0
 20
0.0
 30
0.0
  0
VERTEX
  5
1DA
  8
0
 10
37.41144504
 20
24.84184118
 30
0.0
  0
VERTEX
  5
1DB
  8
0
 10
123.46956493
 20
13.99953721
 30
0.0
  0
VERTEX
  5
1DC
  8
0
 10
109.32742931
 20
1.52734592
 30
0.0
  0
VERTEX
  5
1DD
  8
0
 10
109.32742931
 20
-2.24389025
 30
0.0
  0
VERTEX
  5
1DE
  8
0
 10
23.26930941
 20
8.59841373
 30
0.0
  0
SEQEND
  5
1DF
  8
0
  0
LINE
  5
1E0
  8
0
 10
123.46956493
 20
10.22830104
 30
0.0
 11
109.32742931
 21
-2.24389025
 31
0.0
  0
LINE
  5
1E1
  8
0
 10
123.46956493
 20
13.99953721
 30
0.0
 11
123.46956493
 21
10.22830104
 31
0.0
  0
LINE
  5
1E2
  8
0
  6
STRICHPUNKT2
 62
     1
 10
88.33606672
 20
12.71318903
 30
0.0
 11
88.33606672
 21
10.1323088
 31
0.0
  0
LINE
  5
1E3
  8
0
  6
STRICHPUNKT2
 62
     1
 10
88.33606672
 20
11.29897547
 30
0.0
 11
83.65899499
 21
11.88823112
 31
0.0
  0
LINE
  5
1E4
  8
0
  6
STRICHPUNKT2
 62
     1
 10
88.33606672
 20
11.29897547
 30
0.0
 11
93.01313845
 21
10.70971982
 31
0.0
  0
LINE
  5
1E5
  8
0
  6
STRICHPUNKT2
 62
     1
 10
88.33606672
 20
11.29897547
 30
0.0
 11
86.56829977
 21
9.73995156
 31
0.0
  0
LINE
  5
1E6
  8
0
  6
STRICHPUNKT2
 62
     1
 10
88.33606672
 20
11.29897547
 30
0.0
 11
90.10383367
 21
12.85799938
 31
0.0
  0
LINE
  5
1E7
  8
0
 10
33.66978765
 20
29.08448187
 30
0.0
 11
19.52765203
 21
16.61229058
 31
0.0
  0
POLYLINE
  5
1E8
  8
0
 66
     1
 10
0.0
 20
0.0
 30
0.0
  0
VERTEX
  5
36B
  8
0
 10
33.66978766180268
 20
29.08448186699308
 30
0.0
  0
VERTEX
  5
36C
  8
0
 10
33.74168256211062
 20
28.33969228771284
 30
0.0
  0
VERTEX
  5
36D
  8
0
 10
33.95460437520116
 20
27.60540874296958
 30
0.0
  0
VERTEX
  5
36E
  8
0
 10
34.30037063527573
 20
26.90984933735349
 30
0.0
  0
VERTEX
  5
36F
  8
0
 10
34.7656937389822
 20
26.27974402851767
 30
0.0
  0
VERTEX
  5
370
  8
0
 10
35.33269158055555
 20
25.73930740990474
 30
0.0
  0
VERTEX
  5
371
  8
0
 10
35.97957475110807
 20
25.30930815750854
 30
0.0
  0
VERTEX
  5
372
  8
0
 10
36.68148389338607
 20
25.00627090130979
 30
0.0
  0
VERTEX
  5
373
  8
0
 10
37.41144503291959
 20
24.84184119301854
 30
0.0
  0
SEQEND
  5
390
  8
0
  0
POLYLINE
  5
1E9
  8
0
 66
     1
 10
0.0
 20
0.0
 30
0.0
  0
VERTEX
  5
1EA
  8
0
 10
37.41144504
 20
24.84184118
 30
0.0
  0
VERTEX
  5
1EB
  8
0
 10
23.26930941
 20
12.36964989
 30
0.0
  0
SEQEND
  5
1EC
  8
0
  0
POLYLINE
  5
1ED
  8
0
 66
     1
 10
0.0
 20
0.0
 30
0.0
  0
VERTEX
  5
374
  8
0
 10
19.52765203180269
 20
16.61229057699308
 30
0.0
  0
VERTEX
  5
375
  8
0
 10
19.59954693211062
 20
15.86750099771283
 30
0.0
  0
VERTEX
  5
376
  8
0
 10
19.81246874520117
 20
15.13321745296958
 30
0.0
  0
VERTEX
  5
377
  8
0
 10
20.15823500527573
 20
14.43765804735349
 30
0.0
  0
VERTEX
  5
378
  8
0
 10
20.62355810898221
 20
13.80755273851767
 30
0.0
  0
VERTEX
  5
379
  8
0
 10
21.19055595055556
 20
13.26711611990474
 30
0.0
  0
VERTEX
  5
37A
  8
0
 10
21.83743912110808
 20
12.83711686750854
 30
0.0
  0
VERTEX
  5
37B
  8
0
 10
22.53934826338607
 20
12.53407961130979
 30
0.0
  0
VERTEX
  5
37C
  8
0
 10
23.2693094029196
 20
12.36964990301854
 30
0.0
  0
SEQEND
  5
391
  8
0
  0
POLYLINE
  5
1EE
  8
0
 66
     1
 10
0.0
 20
0.0
 30
0.0
  0
VERTEX
  5
37D
  8
0
 10
15.78599465360537
 20
17.08369509398617
 30
0.0
  0
VERTEX
  5
37E
  8
0
 10
15.92978445422125
 20
15.59411593542567
 30
0.0
  0
VERTEX
  5
37F
  8
0
 10
16.35562808040233
 20
14.12554884593915
 30
0.0
  0
VERTEX
  5
380
  8
0
 10
17.04716060055147
 20
12.73443003470697
 30
0.0
  0
VERTEX
  5
381
  8
0
 10
17.97780680796441
 20
11.47421941703534
 30
0.0
  0
VERTEX
  5
382
  8
0
 10
19.11180249111111
 20
10.39334617980948
 30
0.0
  0
VERTEX
  5
383
  8
0
 10
20.40556883221615
 20
9.533347675017076
 30
0.0
  0
VERTEX
  5
384
  8
0
 10
21.80938711677214
 20
8.927273162619581
 30
0.0
  0
VERTEX
  5
385
  8
0
 10
23.26930939583921
 20
8.598413746037073
 30
0.0
  0
SEQEND
  5
392
  8
0
  0
POLYLINE
  5
1EF
  8
0
 66
     1
 10
0.0
 20
0.0
 30
0.0
  0
VERTEX
  5
1F0
  8
0
 10
209.78599464
 20
127.54122277
 30
0.0
  0
VERTEX
  5
1F1
  8
0
 10
209.78599464
 20
199.54122277
 30
0.0
  0
VERTEX
  5
1F2
  8
0
 10
205.78599464
 20
199.54122277
 30
0.0
  0
SEQEND
  5
1F3
  8
0
  0
LINE
  5
1F4
  8
0
 10
205.78599464
 20
127.54122277
 30
0.0
 11
205.78599464
 21
199.54122277
 31
0.0
  0
LINE
  5
1F5
  8
0
  6
STRICHPUNKT2
 62
     1
 10
205.78599464
 20
192.04122277
 30
0.0
 11
204.53599464
 21
192.04122277
 31
0.0
  0
LINE
  5
1F6
  8
0
  6
STRICHPUNKT2
 62
     1
 10
211.03599464
 20
192.04122277
 30
0.0
 11
209.78599464
 21
192.04122277
 31
0.0
  0
LINE
  5
1F7
  8
0
  6
STRICHPUNKT2
 62
     1
 10
205.78599464
 20
177.04122277
 30
0.0
 11
204.53599464
 21
177.04122277
 31
0.0
  0
LINE
  5
1F8
  8
0
  6
STRICHPUNKT2
 62
     1
 10
211.03599464
 20
177.04122277
 30
0.0
 11
209.78599464
 21
177.04122277
 31
0.0
  0
LINE
  5
1F9
  8
0
  6
STRICHPUNKT2
 62
     1
 10
205.78599464
 20
137.04122277
 30
0.0
 11
204.53599464
 21
137.04122277
 31
0.0
  0
LINE
  5
1FA
  8
0
  6
STRICHPUNKT2
 62
     1
 10
211.03599464
 20
137.04122277
 30
0.0
 11
209.78599464
 21
137.04122277
 31
0.0
  0
LINE
  5
1FB
  8
0
  6
STRICHPUNKT2
 62
     1
 10
205.78599464
 20
152.04122277
 30
0.0
 11
204.53599464
 21
152.04122277
 31
0.0
  0
LINE
  5
1FC
  8
0
  6
STRICHPUNKT2
 62
     1
 10
211.03599464
 20
152.04122277
 30
0.0
 11
209.78599464
 21
152.04122277
 31
0.0
  0
LINE
  5
1FD
  8
0
 10
305.78599464
 20
123.54122277
 30
0.0
 11
213.78599464
 21
123.54122277
 31
0.0
  0
LINE
  5
1FE
  8
0
 10
305.78599464
 20
119.54122277
 30
0.0
 11
213.78599464
 21
119.54122277
 31
0.0
  0
LINE
  5
1FF
  8
0
 10
305.78599464
 20
123.54122277
 30
0.0
 11
305.78599464
 21
119.54122277
 31
0.0
  0
LINE
  5
200
  8
0
  6
STRICHPUNKT2
 62
     1
 10
275.78599464
 20
119.54122277
 30
0.0
 11
275.78599464
 21
118.04122277
 31
0.0
  0
LINE
  5
201
  8
0
  6
STRICHPUNKT2
 62
     1
 10
275.78599464
 20
125.04122277
 30
0.0
 11
275.78599464
 21
123.54122277
 31
0.0
  0
ARC
  5
202
  8
0
 10
213.78599464
 20
127.54122277
 30
0.0
 40
4.0
 50
180.0
 51
-90.0
  0
ARC
  5
203
  8
0
 10
213.78599464
 20
127.54122277
 30
0.0
 40
8.0
 50
180.0
 51
-90.0
  0
POLYLINE
  5
204
  8
0
 66
     1
 10
0.0
 20
0.0
 30
0.0
 70
     1
  0
VERTEX
  5
205
  8
0
 10
142.22827655
 20
137.04122277
 30
0.0
  0
VERTEX
  5
206
  8
0
 10
142.22827655
 20
152.04122277
 30
0.0
 42
1.0
  0
VERTEX
  5
207
  8
0
 10
137.22827655
 20
152.04122277
 30
0.0
  0
VERTEX
  5
208
  8
0
 10
137.22827655
 20
137.04122277
 30
0.0
 42
1.0
  0
SEQEND
  5
209
  8
0
  0
POLYLINE
  5
20A
  8
0
 66
     1
 10
0.0
 20
0.0
 30
0.0
 70
     1
  0
VERTEX
  5
20B
  8
0
 10
142.22827655
 20
177.04122277
 30
0.0
  0
VERTEX
  5
20C
  8
0
 10
142.22827655
 20
192.04122277
 30
0.0
 42
1.0
  0
VERTEX
  5
20D
  8
0
 10
137.22827655
 20
192.04122277
 30
0.0
  0
VERTEX
  5
20E
  8
0
 10
137.22827655
 20
177.04122277
 30
0.0
 42
1.0
  0
SEQEND
  5
20F
  8
0
  0
LINE
  5
210
  8
0
 10
119.72827655
 20
199.54122277
 30
0.0
 11
159.72827655
 21
199.54122277
 31
0.0
  0
LINE
  5
211
  8
0
 10
159.72827655
 20
127.54122277
 30
0.0
 11
159.72827655
 21
199.54122277
 31
0.0
  0
LINE
  5
212
  8
0
 10
119.72827655
 20
127.54122277
 30
0.0
 11
159.72827655
 21
127.54122277
 31
0.0
  0
LINE
  5
213
  8
0
 10
119.72827655
 20
199.54122277
 30
0.0
 11
119.72827655
 21
127.54122277
 31
0.0
  0
LINE
  5
214
  8
0
  6
STRICHPUNKT2
 62
     1
 10
139.72827655
 20
195.79122277
 30
0.0
 11
139.72827655
 21
173.29122277
 31
0.0
  0
LINE
  5
215
  8
0
  6
STRICHPUNKT2
 62
     1
 10
143.47827655
 20
192.04122277
 30
0.0
 11
135.97827655
 21
192.04122277
 31
0.0
  0
LINE
  5
216
  8
0
  6
STRICHPUNKT2
 62
     1
 10
143.47827655
 20
177.04122277
 30
0.0
 11
135.97827655
 21
177.04122277
 31
0.0
  0
LINE
  5
217
  8
0
  6
STRICHPUNKT2
 62
     1
 10
139.72827655
 20
155.79122277
 30
0.0
 11
139.72827655
 21
133.29122277
 31
0.0
  0
LINE
  5
218
  8
0
  6
STRICHPUNKT2
 62
     1
 10
143.47827655
 20
152.04122277
 30
0.0
 11
135.97827655
 21
152.04122277
 31
0.0
  0
LINE
  5
219
  8
0
  6
STRICHPUNKT2
 62
     1
 10
143.47827655
 20
137.04122277
 30
0.0
 11
135.97827655
 21
137.04122277
 31
0.0
  0
LINE
  5
21A
  8
0
 10
119.72827655
 20
119.54122277
 30
0.0
 11
159.72827655
 21
119.54122277
 31
0.0
  0
LINE
  5
21B
  8
0
  6
STRICHPUNKT2
 62
     1
 10
139.72827655
 20
119.54122277
 30
0.0
 11
139.72827655
 21
118.04122277
 31
0.0
  0
LINE
  5
21C
  8
0
 10
119.72827655
 20
127.54122277
 30
0.0
 11
159.72827655
 21
127.54122277
 31
0.0
  0
LINE
  5
21D
  8
0
 10
159.72827655
 20
119.54122277
 30
0.0
 11
159.72827655
 21
127.54122277
 31
0.0
  0
LINE
  5
21E
  8
0
 10
119.72827655
 20
119.54122277
 30
0.0
 11
159.72827655
 21
119.54122277
 31
0.0
  0
LINE
  5
21F
  8
0
 10
119.72827655
 20
127.54122277
 30
0.0
 11
119.72827655
 21
119.54122277
 31
0.0
  0
POLYLINE
  5
220
  8
0
 66
     1
 10
0.0
 20
0.0
 30
0.0
  0
VERTEX
  5
221
  8
0
 10
209.78599464
 20
97.43813739
 30
0.0
  0
VERTEX
  5
222
  8
0
 10
209.78599464
 20
57.43813739
 30
0.0
  0
VERTEX
  5
223
  8
0
 10
205.78599464
 20
57.43813739
 30
0.0
  0
SEQEND
  5
224
  8
0
  0
LINE
  5
225
  8
0
 10
205.78599464
 20
97.43813739
 30
0.0
 11
205.78599464
 21
57.43813739
 31
0.0
  0
LINE
  5
226
  8
0
 10
209.78599464
 20
97.43813739
 30
0.0
 11
205.78599464
 21
97.43813739
 31
0.0
  0
LINE
  5
227
  8
0
  6
STRICHPUNKT2
 62
     1
 10
205.78599464
 20
77.43813739
 30
0.0
 11
204.53599464
 21
77.43813739
 31
0.0
  0
LINE
  5
228
  8
0
  6
STRICHPUNKT2
 62
     1
 10
211.03599464
 20
77.43813739
 30
0.0
 11
209.78599464
 21
77.43813739
 31
0.0
  0
CIRCLE
  5
229
  8
0
 10
275.78599464
 20
77.43813739
 30
0.0
 40
3.5
  0
LINE
  5
22A
  8
0
 10
305.78599464
 20
57.43813739
 30
0.0
 11
213.78599464
 21
57.43813739
 31
0.0
  0
LINE
  5
22B
  8
0
 10
213.78599464
 20
97.43813739
 30
0.0
 11
213.78599464
 21
57.43813739
 31
0.0
  0
POLYLINE
  5
22C
  8
0
 66
     1
 10
0.0
 20
0.0
 30
0.0
  0
VERTEX
  5
22D
  8
0
 10
213.78599464
 20
97.43813739
 30
0.0
  0
VERTEX
  5
22E
  8
0
 10
305.78599464
 20
97.43813739
 30
0.0
  0
VERTEX
  5
22F
  8
0
 10
305.78599464
 20
57.43813739
 30
0.0
  0
SEQEND
  5
230
  8
0
  0
LINE
  5
231
  8
0
  6
STRICHPUNKT2
 62
     1
 10
275.78599464
 20
77.43813739
 30
0.0
 11
270.78599464
 21
77.43813739
 31
0.0
  0
LINE
  5
232
  8
0
  6
STRICHPUNKT2
 62
     1
 10
275.78599464
 20
77.43813739
 30
0.0
 11
280.78599464
 21
77.43813739
 31
0.0
  0
LINE
  5
233
  8
0
  6
STRICHPUNKT2
 62
     1
 10
275.78599464
 20
77.43813739
 30
0.0
 11
275.78599464
 21
72.43813739
 31
0.0
  0
LINE
  5
234
  8
0
  6
STRICHPUNKT2
 62
     1
 10
275.78599464
 20
77.43813739
 30
0.0
 11
275.78599464
 21
82.43813739
 31
0.0
  0
POLYLINE
  5
235
  8
0
 66
     1
 10
0.0
 20
0.0
 30
0.0
  0
VERTEX
  5
236
  8
0
 10
209.78599464
 20
97.43813739
 30
0.0
  0
VERTEX
  5
237
  8
0
 10
213.78599464
 20
97.43813739
 30
0.0
  0
VERTEX
  5
238
  8
0
 10
213.78599464
 20
57.43813739
 30
0.0
  0
VERTEX
  5
239
  8
0
 10
209.78599464
 20
57.43813739
 30
0.0
  0
SEQEND
  5
23A
  8
0
  0
TEXT
  5
23B
  8
TXT_DIM49
 10
197.5605318
 20
156.66146966
 30
0.0
 40
2.5
  1
160
 50
90.00020741
  7
ARIAL
  0
LINE
  5
23C
  8
0
 62
     4
 10
200.0605318
 20
198.54122277
 30
0.0
 11
198.0605318
 21
200.54122277
 31
0.0
  0
LINE
  5
23D
  8
0
 62
     4
 10
198.3105318
 20
120.29122277
 30
0.0
 11
199.8105318
 21
118.79122277
 31
0.0
  0
LINE
  5
23E
  8
0
 62
     4
 10
199.0605318
 20
199.54122277
 30
0.0
 11
199.0605318
 21
119.54122277
 31
0.0
  0
LINE
  5
23F
  8
0
 62
     4
 10
201.0605318
 20
199.54122277
 30
0.0
 11
197.0605318
 21
199.54122277
 31
0.0
  0
LINE
  5
240
  8
0
 62
     4
 10
201.0605318
 20
119.54122277
 30
0.0
 11
197.0605318
 21
119.54122277
 31
0.0
  0
TEXT
  5
241
  8
TXT_DIM49
 10
252.90624153
 20
112.6138906
 30
0.0
 40
2.5
  1
200
  7
ARIAL
  0
LINE
  5
242
  8
0
 62
     4
 10
206.78599464
 20
112.1138906
 30
0.0
 11
204.78599464
 21
110.1138906
 31
0.0
  0
LINE
  5
243
  8
0
 62
     4
 10
305.03599464
 20
110.3638906
 30
0.0
 11
306.53599464
 21
111.8638906
 31
0.0
  0
LINE
  5
244
  8
0
 62
     4
 10
205.78599464
 20
111.1138906
 30
0.0
 11
305.78599464
 21
111.1138906
 31
0.0
  0
LINE
  5
245
  8
0
 62
     4
 10
205.78599464
 20
113.1138906
 30
0.0
 11
205.78599464
 21
109.1138906
 31
0.0
  0
LINE
  5
246
  8
0
 62
     4
 10
305.78599464
 20
113.1138906
 30
0.0
 11
305.78599464
 21
109.1138906
 31
0.0
  0
TEXT
  5
247
  8
TXT_DIM49
 10
310.12033512
 20
120.58130505
 30
0.0
 40
2.5
  1
8
 50
90.00020741
  7
ARIAL
  0
LINE
  5
248
  8
0
 62
     4
 10
312.62033512
 20
122.54122277
 30
0.0
 11
310.62033512
 21
124.54122277
 31
0.0
  0
LINE
  5
249
  8
0
 62
     4
 10
310.87033512
 20
120.29122277
 30
0.0
 11
312.37033512
 21
118.79122277
 31
0.0
  0
LINE
  5
24A
  8
0
 62
     4
 10
311.62033512
 20
123.54122277
 30
0.0
 11
311.62033512
 21
119.54122277
 31
0.0
  0
LINE
  5
24B
  8
0
 62
     4
 10
309.62033512
 20
123.54122277
 30
0.0
 11
313.62033512
 21
123.54122277
 31
0.0
  0
LINE
  5
24C
  8
0
 62
     4
 10
309.62033512
 20
119.54122277
 30
0.0
 11
313.62033512
 21
119.54122277
 31
0.0
  0
TEXT
  5
24D
  8
TXT_DIM49
 10
206.82607692
 20
207.95256365
 30
0.0
 40
2.5
  1
8
  7
ARIAL
  0
LINE
  5
24E
  8
0
 62
     4
 10
206.78599464
 20
207.45256365
 30
0.0
 11
204.78599464
 21
205.45256365
 31
0.0
  0
LINE
  5
24F
  8
0
 62
     4
 10
209.03599464
 20
205.70256365
 30
0.0
 11
210.53599464
 21
207.20256365
 31
0.0
  0
LINE
  5
250
  8
0
 62
     4
 10
205.78599464
 20
206.45256365
 30
0.0
 11
209.78599464
 21
206.45256365
 31
0.0
  0
LINE
  5
251
  8
0
 62
     4
 10
205.78599464
 20
204.45256365
 30
0.0
 11
205.78599464
 21
208.45256365
 31
0.0
  0
LINE
  5
252
  8
0
 62
     4
 10
209.78599464
 20
204.45256365
 30
0.0
 11
209.78599464
 21
208.45256365
 31
0.0
  0
LINE
  5
253
  8
0
 62
     5
 10
139.72827655
 20
174.54122277
 30
0.0
 11
116.42248717
 21
164.51837513
 31
0.0
  0
LINE
  5
254
  8
0
 62
     5
 10
139.72827655
 20
154.54122277
 30
0.0
 11
116.42248717
 21
164.51837513
 31
0.0
  0
TEXT
  5
255
  8
TXT_DIM49
 10
92.43212849
 20
163.26837513
 30
0.0
 40
2.5
  1
Slobgat 10 x 40
  7
ARIAL
  0
TEXT
  5
256
  8
TXT_DIM49
 10
147.8084411
 20
204.78291258
 30
0.0
 40
2.5
  1
40
  7
ARIAL
  0
LINE
  5
257
  8
0
 62
     4
 10
158.72827655
 20
202.28291258
 30
0.0
 11
160.72827655
 21
204.28291258
 31
0.0
  0
LINE
  5
258
  8
0
 62
     4
 10
140.47827655
 20
204.03291258
 30
0.0
 11
138.97827655
 21
202.53291258
 31
0.0
  0
LINE
  5
259
  8
0
 62
     4
 10
159.72827655
 20
203.28291258
 30
0.0
 11
139.72827655
 21
203.28291258
 31
0.0
  0
LINE
  5
25A
  8
0
 62
     4
 10
159.72827655
 20
201.28291258
 30
0.0
 11
159.72827655
 21
205.28291258
 31
0.0
  0
LINE
  5
25B
  8
0
 62
     4
 10
139.72827655
 20
201.28291258
 30
0.0
 11
139.72827655
 21
205.28291258
 31
0.0
  0
TEXT
  5
25C
  8
TXT_DIM49
 10
127.8084411
 20
204.78291258
 30
0.0
 40
2.5
  1
40
  7
ARIAL
  0
LINE
  5
25D
  8
0
 62
     4
 10
138.72827655
 20
202.28291258
 30
0.0
 11
140.72827655
 21
204.28291258
 31
0.0
  0
LINE
  5
25E
  8
0
 62
     4
 10
120.47827655
 20
204.03291258
 30
0.0
 11
118.97827655
 21
202.53291258
 31
0.0
  0
LINE
  5
25F
  8
0
 62
     4
 10
139.72827655
 20
203.28291258
 30
0.0
 11
119.72827655
 21
203.28291258
 31
0.0
  0
LINE
  5
260
  8
0
 62
     4
 10
139.72827655
 20
201.28291258
 30
0.0
 11
139.72827655
 21
205.28291258
 31
0.0
  0
LINE
  5
261
  8
0
 62
     4
 10
119.72827655
 20
201.28291258
 30
0.0
 11
119.72827655
 21
205.28291258
 31
0.0
  0
TEXT
  5
262
  8
TXT_DIM49
 10
163.32837818
 20
193.87138732
 30
0.0
 40
2.5
  1
15
 50
90.00020741
  7
ARIAL
  0
LINE
  5
263
  8
0
 62
     4
 10
165.82837818
 20
198.54122277
 30
0.0
 11
163.82837818
 21
200.54122277
 31
0.0
  0
LINE
  5
264
  8
0
 62
     4
 10
164.07837818
 20
192.79122277
 30
0.0
 11
165.57837818
 21
191.29122277
 31
0.0
  0
LINE
  5
265
  8
0
 62
     4
 10
164.82837818
 20
199.54122277
 30
0.0
 11
164.82837818
 21
192.04122277
 31
0.0
  0
LINE
  5
266
  8
0
 62
     4
 10
162.82837818
 20
199.54122277
 30
0.0
 11
166.82837818
 21
199.54122277
 31
0.0
  0
LINE
  5
267
  8
0
 62
     4
 10
162.82837818
 20
192.04122277
 30
0.0
 11
166.82837818
 21
192.04122277
 31
0.0
  0
TEXT
  5
268
  8
TXT_DIM49
 10
163.32837818
 20
182.62138732
 30
0.0
 40
2.5
  1
30
 50
90.00020741
  7
ARIAL
  0
LINE
  5
269
  8
0
 62
     4
 10
165.82837818
 20
191.04122277
 30
0.0
 11
163.82837818
 21
193.04122277
 31
0.0
  0
LINE
  5
26A
  8
0
 62
     4
 10
164.07837818
 20
177.79122277
 30
0.0
 11
165.57837818
 21
176.29122277
 31
0.0
  0
LINE
  5
26B
  8
0
 62
     4
 10
164.82837818
 20
192.04122277
 30
0.0
 11
164.82837818
 21
177.04122277
 31
0.0
  0
LINE
  5
26C
  8
0
 62
     4
 10
162.82837818
 20
192.04122277
 30
0.0
 11
166.82837818
 21
192.04122277
 31
0.0
  0
LINE
  5
26D
  8
0
 62
     4
 10
162.82837818
 20
177.04122277
 30
0.0
 11
166.82837818
 21
177.04122277
 31
0.0
  0
TEXT
  5
26E
  8
TXT_DIM49
 10
163.32837818
 20
162.62138732
 30
0.0
 40
2.5
  1
50
 50
90.00020741
  7
ARIAL
  0
LINE
  5
26F
  8
0
 62
     4
 10
165.82837818
 20
176.04122277
 30
0.0
 11
163.82837818
 21
178.04122277
 31
0.0
  0
LINE
  5
270
  8
0
 62
     4
 10
164.07837818
 20
152.79122277
 30
0.0
 11
165.57837818
 21
151.29122277
 31
0.0
  0
LINE
  5
271
  8
0
 62
     4
 10
164.82837818
 20
177.04122277
 30
0.0
 11
164.82837818
 21
152.04122277
 31
0.0
  0
LINE
  5
272
  8
0
 62
     4
 10
162.82837818
 20
177.04122277
 30
0.0
 11
166.82837818
 21
177.04122277
 31
0.0
  0
LINE
  5
273
  8
0
 62
     4
 10
162.82837818
 20
152.04122277
 30
0.0
 11
166.82837818
 21
152.04122277
 31
0.0
  0
TEXT
  5
274
  8
TXT_DIM49
 10
163.32837818
 20
142.62138732
 30
0.0
 40
2.5
  1
30
 50
90.00020741
  7
ARIAL
  0
LINE
  5
275
  8
0
 62
     4
 10
165.82837818
 20
151.04122277
 30
0.0
 11
163.82837818
 21
153.04122277
 31
0.0
  0
LINE
  5
276
  8
0
 62
     4
 10
164.07837818
 20
137.79122277
 30
0.0
 11
165.57837818
 21
136.29122277
 31
0.0
  0
LINE
  5
277
  8
0
 62
     4
 10
164.82837818
 20
152.04122277
 30
0.0
 11
164.82837818
 21
137.04122277
 31
0.0
  0
LINE
  5
278
  8
0
 62
     4
 10
162.82837818
 20
152.04122277
 30
0.0
 11
166.82837818
 21
152.04122277
 31
0.0
  0
LINE
  5
279
  8
0
 62
     4
 10
162.82837818
 20
137.04122277
 30
0.0
 11
166.82837818
 21
137.04122277
 31
0.0
  0
TEXT
  5
27A
  8
TXT_DIM49
 10
163.32837818
 20
126.37138732
 30
0.0
 40
2.5
  1
35
 50
90.00020741
  7
ARIAL
  0
LINE
  5
27B
  8
0
 62
     4
 10
165.82837818
 20
136.04122277
 30
0.0
 11
163.82837818
 21
138.04122277
 31
0.0
  0
LINE
  5
27C
  8
0
 62
     4
 10
164.07837818
 20
120.29122277
 30
0.0
 11
165.57837818
 21
118.79122277
 31
0.0
  0
LINE
  5
27D
  8
0
 62
     4
 10
164.82837818
 20
137.04122277
 30
0.0
 11
164.82837818
 21
119.54122277
 31
0.0
  0
LINE
  5
27E
  8
0
 62
     4
 10
162.82837818
 20
137.04122277
 30
0.0
 11
166.82837818
 21
137.04122277
 31
0.0
  0
LINE
  5
27F
  8
0
 62
     4
 10
162.82837818
 20
119.54122277
 30
0.0
 11
166.82837818
 21
119.54122277
 31
0.0
  0
TEXT
  5
280
  8
TXT_DIM49
 10
137.8084411
 20
111.56175637
 30
0.0
 40
2.5
  1
80
  7
ARIAL
  0
LINE
  5
281
  8
0
 62
     4
 10
120.72827655
 20
111.06175637
 30
0.0
 11
118.72827655
 21
109.06175637
 31
0.0
  0
LINE
  5
282
  8
0
 62
     4
 10
158.97827655
 20
109.31175637
 30
0.0
 11
160.47827655
 21
110.81175637
 31
0.0
  0
LINE
  5
283
  8
0
 62
     4
 10
119.72827655
 20
110.06175637
 30
0.0
 11
159.72827655
 21
110.06175637
 31
0.0
  0
LINE
  5
284
  8
0
 62
     4
 10
119.72827655
 20
112.06175637
 30
0.0
 11
119.72827655
 21
108.06175637
 31
0.0
  0
LINE
  5
285
  8
0
 62
     4
 10
159.72827655
 20
112.06175637
 30
0.0
 11
159.72827655
 21
108.06175637
 31
0.0
  0
LINE
  5
286
  8
0
 62
     5
 10
272.28599464
 20
77.43813739
 30
0.0
 11
266.96410353
 21
81.14144459
 31
0.0
  0
TEXT
  5
287
  8
TXT_DIM49
 10
260.43935973
 20
79.89144459
 30
0.0
 40
2.5
  1
Ø14
  7
ARIAL
  0
TEXT
  5
288
  8
TXT_DIM49
 10
288.86615919
 20
103.63854596
 30
0.0
 40
2.5
  1
60
  7
ARIAL
  0
LINE
  5
289
  8
0
 62
     4
 10
304.78599464
 20
101.13854596
 30
0.0
 11
306.78599464
 21
103.13854596
 31
0.0
  0
LINE
  5
28A
  8
0
 62
     4
 10
276.53599464
 20
102.88854596
 30
0.0
 11
275.03599464
 21
101.38854596
 31
0.0
  0
LINE
  5
28B
  8
0
 62
     4
 10
305.78599464
 20
102.13854596
 30
0.0
 11
275.78599464
 21
102.13854596
 31
0.0
  0
LINE
  5
28C
  8
0
 62
     4
 10
305.78599464
 20
100.13854596
 30
0.0
 11
305.78599464
 21
104.13854596
 31
0.0
  0
LINE
  5
28D
  8
0
 62
     4
 10
275.78599464
 20
100.13854596
 30
0.0
 11
275.78599464
 21
104.13854596
 31
0.0
  0
TEXT
  5
28E
  8
TXT_DIM49
 10
237.90624153
 20
103.63854596
 30
0.0
 40
2.5
  1
140
  7
ARIAL
  0
LINE
  5
28F
  8
0
 62
     4
 10
274.78599464
 20
101.13854596
 30
0.0
 11
276.78599464
 21
103.13854596
 31
0.0
  0
LINE
  5
290
  8
0
 62
     4
 10
206.53599464
 20
102.88854596
 30
0.0
 11
205.03599464
 21
101.38854596
 31
0.0
  0
LINE
  5
291
  8
0
 62
     4
 10
275.78599464
 20
102.13854596
 30
0.0
 11
205.78599464
 21
102.13854596
 31
0.0
  0
LINE
  5
292
  8
0
 62
     4
 10
275.78599464
 20
100.13854596
 30
0.0
 11
275.78599464
 21
104.13854596
 31
0.0
  0
LINE
  5
293
  8
0
 62
     4
 10
205.78599464
 20
100.13854596
 30
0.0
 11
205.78599464
 21
104.13854596
 31
0.0
  0
TEXT
  5
294
  8
TXT_DIM49
 10
310.24681047
 20
85.51830194
 30
0.0
 40
2.5
  1
40
 50
90.00020741
  7
ARIAL
  0
LINE
  5
295
  8
0
 62
     4
 10
312.74681047
 20
96.43813739
 30
0.0
 11
310.74681047
 21
98.43813739
 31
0.0
  0
LINE
  5
296
  8
0
 62
     4
 10
310.99681047
 20
78.18813739
 30
0.0
 11
312.49681047
 21
76.68813739
 31
0.0
  0
LINE
  5
297
  8
0
 62
     4
 10
311.74681047
 20
97.43813739
 30
0.0
 11
311.74681047
 21
77.43813739
 31
0.0
  0
LINE
  5
298
  8
0
 62
     4
 10
309.74681047
 20
97.43813739
 30
0.0
 11
313.74681047
 21
97.43813739
 31
0.0
  0
LINE
  5
299
  8
0
 62
     4
 10
309.74681047
 20
77.43813739
 30
0.0
 11
313.74681047
 21
77.43813739
 31
0.0
  0
TEXT
  5
29A
  8
TXT_DIM49
 10
310.24681047
 20
65.51830194
 30
0.0
 40
2.5
  1
40
 50
90.00020741
  7
ARIAL
  0
LINE
  5
29B
  8
0
 62
     4
 10
312.74681047
 20
76.43813739
 30
0.0
 11
310.74681047
 21
78.43813739
 31
0.0
  0
LINE
  5
29C
  8
0
 62
     4
 10
310.99681047
 20
58.18813739
 30
0.0
 11
312.49681047
 21
56.68813739
 31
0.0
  0
LINE
  5
29D
  8
0
 62
     4
 10
311.74681047
 20
77.43813739
 30
0.0
 11
311.74681047
 21
57.43813739
 31
0.0
  0
LINE
  5
29E
  8
0
 62
     4
 10
309.74681047
 20
77.43813739
 30
0.0
 11
313.74681047
 21
77.43813739
 31
0.0
  0
LINE
  5
29F
  8
0
 62
     4
 10
309.74681047
 20
57.43813739
 30
0.0
 11
313.74681047
 21
57.43813739
 31
0.0
  0
ENDSEC
  0
EOF
