  0
SECTION
  2
HEADER
  9
$ACADVER
  1
AC1006
  9
$DWGCODEPAGE
  3
ansi_1252
  9
$INSBASE
 10
0.0
 20
0.0
 30
0.0
  9
$EXTMIN
 10
1096.62820221
 20
250.35422706
  9
$EXTMAX
 10
1805.34419849
 20
576.88404866
  9
$LIMMIN
 10
1096.62820221
 20
250.35422706
  9
$LIMMAX
 10
1805.34419849
 20
576.88404866
  9
$ORTHOMODE
 70
     0
  9
$REGENMODE
 70
     1
  9
$FILLMODE
 70
     1
  9
$QTEXTMODE
 70
     0
  9
$MIRRTEXT
 70
     1
  9
$DRAGMODE
 70
     2
  9
$LTSCALE
 40
1.0
  9
$OSMODE
 70
    37
  9
$ATTMODE
 70
     1
  9
$TEXTSIZE
 40
1.0
  9
$TRACEWID
 40
0.05
  9
$TEXTSTYLE
  7
STANDARD
  9
$CLAYER
  8
0
  9
$CELTYPE
  6
BYBLOCK
  9
$CECOLOR
 62
   256
  9
$DIMSCALE
 40
1.0
  9
$DIMASZ
 40
0.18
  9
$DIMEXO
 40
0.0625
  9
$DIMDLI
 40
0.38
  9
$DIMRND
 40
0.0
  9
$DIMDLE
 40
0.0
  9
$DIMEXE
 40
0.18
  9
$DIMTP
 40
0.0
  9
$DIMTM
 40
0.0
  9
$DIMTXT
 40
0.18
  9
$DIMCEN
 40
0.09
  9
$DIMTSZ
 40
0.0
  9
$DIMTOL
 70
     0
  9
$DIMLIM
 70
     0
  9
$DIMTIH
 70
     1
  9
$DIMTOH
 70
     1
  9
$DIMSE1
 70
     0
  9
$DIMSE2
 70
     0
  9
$DIMTAD
 70
     0
  9
$DIMZIN
 70
     0
  9
$DIMBLK
  1

  9
$DIMASO
 70
     1
  9
$DIMSHO
 70
     1
  9
$DIMPOST
  1

  9
$DIMAPOST
  1

  9
$DIMALT
 70
     0
  9
$DIMALTD
 70
     2
  9
$DIMALTF
 40
25.4
  9
$DIMLFAC
 40
1.0
  9
$DIMTOFL
 70
     0
  9
$DIMTVP
 40
0.0
  9
$DIMTIX
 70
     0
  9
$DIMSOXD
 70
     0
  9
$DIMSAH
 70
     0
  9
$DIMBLK1
  1

  9
$DIMBLK2
  1

  9
$LUNITS
 70
     2
  9
$LUPREC
 70
     4
  9
$SKETCHINC
 40
0.1
  9
$FILLETRAD
 40
0.5
  9
$AUNITS
 70
     0
  9
$AUPREC
 70
     0
  9
$MENU
  1
.
  9
$ELEVATION
 40
0.0
  9
$THICKNESS
 40
0.0
  9
$LIMCHECK
 70
     0
  9
$CHAMFERA
 40
0.0
  9
$CHAMFERB
 40
0.0
  9
$SKPOLY
 70
     0
  9
$TDCREATE
 40
2447893.125
  9
$TDUPDATE
 40
2460791.513081458
  9
$TDINDWG
 40
0.0
  9
$TDUSRTIMER
 40
0.0
  9
$USRTIMER
 70
     1
  9
$ANGBASE
 50
0.0
  9
$ANGDIR
 70
     0
  9
$PDMODE
 70
     0
  9
$PDSIZE
 40
0.0
  9
$PLINEWID
 40
0.0
  9
$COORDS
 70
     1
  9
$SPLFRAME
 70
     0
  9
$SPLINETYPE
 70
     6
  9
$SPLINESEGS
 70
     8
  9
$ATTDIA
 70
     0
  9
$ATTREQ
 70
     1
  9
$HANDLING
 70
     1
  9
$HANDSEED
  5
7A8
  9
$SURFTAB1
 70
     6
  9
$SURFTAB2
 70
     6
  9
$SURFTYPE
 70
     6
  9
$SURFU
 70
     6
  9
$SURFV
 70
     6
  9
$UCSNAME
  2

  9
$UCSORG
 10
0.0
 20
0.0
 30
0.0
  9
$UCSXDIR
 10
1.0
 20
0.0
 30
0.0
  9
$UCSYDIR
 10
0.0
 20
1.0
 30
0.0
  9
$USERI1
 70
     0
  9
$USERI2
 70
     0
  9
$USERI3
 70
     0
  9
$USERI4
 70
     0
  9
$USERI5
 70
     0
  9
$USERR1
 40
0.0
  9
$USERR2
 40
0.0
  9
$USERR3
 40
0.0
  9
$USERR4
 40
0.0
  9
$USERR5
 40
0.0
  9
$WORLDVIEW
 70
     1
  0
ENDSEC
  0
SECTION
  2
TABLES
  0
TABLE
  2
VPORT
 70
     1
  0
VPORT
  2
*ACTIVE
 70
     0
 10
0.0
 20
0.0
 11
1.0
 21
1.0
 12
1450.98620035
 22
413.61913786
 13
0.0
 23
0.0
 14
1.0
 24
1.0
 15
0.0
 25
0.0
 16
0.0
 26
0.0
 36
1.0
 17
0.0
 27
0.0
 37
0.0
 40
326.529821597
 41
2.170447994
 42
50.0
 43
0.0
 44
0.0
 50
0.0
 51
0.0
 71
     0
 72
   100
 73
     1
 74
     1
 75
     0
 76
     0
 77
     0
 78
     0
  0
ENDTAB
  0
TABLE
  2
LTYPE
 70
    19
  0
LTYPE
  2
CONTINUOUS
 70
     0
  3
Solid line
 72
    65
 73
     0
 40
0.0
  0
LTYPE
  2
DOT
 70
     0
  3
..............
 72
    65
 73
     2
 40
2.0
 49
0.5
 49
-1.5
  0
LTYPE
  2
HIDDEN
 70
     0
  3
-- -- -- -- --
 72
    65
 73
     2
 40
7.0
 49
4.0
 49
-3.0
  0
LTYPE
  2
DASHDOT
 70
     0
  3
--.--.--.--.--
 72
    65
 73
     4
 40
8.5
 49
4.0
 49
-2.0
 49
0.5
 49
-2.0
  0
LTYPE
  2
STRICHPUNKT2
 70
     0
  3
--.--.--.--.--
 72
    65
 73
     4
 40
18.5
 49
10.0
 49
-4.0
 49
0.5
 49
-4.0
  0
LTYPE
  2
STRICHPUNKT3
 70
     0
  3
--.--.--.--.--
 72
    65
 73
     4
 40
35.5
 49
25.0
 49
-5.0
 49
0.5
 49
-5.0
  0
LTYPE
  2
PHANTOM
 70
     0
  3
--..--..--..--
 72
    65
 73
     6
 40
23.0
 49
10.0
 49
-4.0
 49
0.5
 49
-4.0
 49
0.5
 49
-4.0
  0
LTYPE
  2
PHANTOM2
 70
     0
  3
--..--..--..--
 72
    65
 73
     6
 40
33.0
 49
20.0
 49
-4.0
 49
0.5
 49
-4.0
 49
0.5
 49
-4.0
  0
LTYPE
  2
PHANTOM3
 70
     0
  3
--..--..--..--
 72
    65
 73
     6
 40
50.0
 49
37.0
 49
-4.0
 49
0.5
 49
-4.0
 49
0.5
 49
-4.0
  0
LTYPE
  2
STR3PKT
 70
     0
  3
--...--...--...
 72
    65
 73
     8
 40
31.5
 49
20.0
 49
-2.5
 49
0.5
 49
-2.5
 49
0.5
 49
-2.5
 49
0.5
 49
-2.5
  0
LTYPE
  2
2STRPKT
 70
     0
  3
--.--.--.--.--
 72
    65
 73
     6
 40
28.0
 49
10.0
 49
-2.5
 49
10.0
 49
-2.5
 49
0.5
 49
-2.5
  0
LTYPE
  2
GESTRICHELT2
 70
     0
  3
-- -- -- -- --
 72
    65
 73
     2
 40
25.0
 49
10.0
 49
-15.0
  0
LTYPE
  2
2STR2PKT
 70
     0
  3
--..--..--..--
 72
    65
 73
     8
 40
31.0
 49
10.0
 49
-2.5
 49
10.0
 49
-2.5
 49
0.5
 49
-2.5
 49
0.5
 49
-2.5
  0
LTYPE
  2
STR3PKT2
 70
     0
  3
--...--...--...
 72
    65
 73
     8
 40
21.0
 49
10.0
 49
-2.5
 49
0.5
 49
-2.5
 49
0.5
 49
-2.5
 49
0.5
 49
-2.0
  0
LTYPE
  2
2STR3PKT
 70
     0
  3
--...--...--...
 72
    65
 73
    10
 40
34.0
 49
10.0
 49
-2.5
 49
10.0
 49
-2.5
 49
0.5
 49
-2.5
 49
0.5
 49
-2.5
 49
0.5
 49
-2.5
  0
LTYPE
  2
STRKSTR
 70
     0
  3
-- - -- - -- -
 72
    65
 73
     4
 40
30.0
 49
20.0
 49
-2.5
 49
5.0
 49
-2.5
  0
LTYPE
  2
STRKSTR2
 70
     0
  3
-- - -- - -- -
 72
    65
 73
     6
 40
37.5
 49
20.0
 49
-2.5
 49
5.0
 49
-2.5
 49
5.0
 49
-2.5
  0
LTYPE
  2
STRKSTR3
 70
     0
  3
-- - -- - -- -
 72
    65
 73
     8
 40
45.0
 49
20.0
 49
-2.5
 49
5.0
 49
-2.5
 49
5.0
 49
-2.5
 49
5.0
 49
-2.5
  0
LTYPE
  2
PUNKT2
 70
     0
  3
..............
 72
    65
 73
     2
 40
3.5
 49
0.5
 49
-3.0
  0
ENDTAB
  0
TABLE
  2
LAYER
 70
    17
  0
LAYER
  2
0
 70
     0
 62
     7
  6
CONTINUOUS
  0
LAYER
  2
LE_GREEN
 70
     0
 62
     3
  6
CONTINUOUS
  0
LAYER
  2
LE_RED
 70
     0
 62
     1
  6
CONTINUOUS
  0
LAYER
  2
LE_ALL
 70
     0
 62
     7
  6
CONTINUOUS
  0
LAYER
  2
LE_HIDDEN1
 70
     0
 62
     3
  6
HIDDEN
  0
LAYER
  2
LE_HIDDEN
 70
     0
 62
     7
  6
CONTINUOUS
  0
LAYER
  2
LE_MIDDLE
 70
     0
 62
     7
  6
CONTINUOUS
  0
LAYER
  2
TXT_YELLOW
 70
     0
 62
     2
  6
CONTINUOUS
  0
LAYER
  2
TXT_DIM49
 70
     0
 62
     2
  6
CONTINUOUS
  0
LAYER
  2
TXT_ALL
 70
     0
 62
     7
  6
CONTINUOUS
  0
LAYER
  2
DIM49
 70
     0
 62
     4
  6
CONTINUOUS
  0
LAYER
  2
HATCH
 70
     0
 62
     3
  6
CONTINUOUS
  0
LAYER
  2
APPLE
 70
     0
 62
     7
  6
CONTINUOUS
  0
LAYER
  2
10
 70
     0
 62
     7
  6
CONTINUOUS
  0
LAYER
  2
20
 70
     0
 62
     7
  6
CONTINUOUS
  0
LAYER
  2
47
 70
     0
 62
     7
  6
CONTINUOUS
  0
LAYER
  2
49
 70
     0
 62
     7
  6
CONTINUOUS
  0
ENDTAB
  0
TABLE
  2
STYLE
 70
     5
  0
STYLE
  2
MONOTXT
 70
     0
 40
0.0
 41
1.0
 50
0.0
 71
     0
 42
1.0
  3
monotxt.shx
  4

  0
STYLE
  2
STANDARD
 70
     0
 40
0.0
 41
1.0
 50
0.0
 71
     0
 42
1.0
  3
txt
  4

  0
STYLE
  2
ARIAL
 70
     0
 40
0.0
 41
1.0
 50
0.0
 71
     0
 42
1.0
  3
arial.ttf
  4

  0
STYLE
  2
ARIAL_NARROW
 70
     0
 40
0.0
 41
1.0
 50
0.0
 71
     0
 42
1.0
  3
ArialN.ttf
  4

  0
STYLE
  2
ISOCPEUR
 70
     0
 40
0.0
 41
1.0
 50
0.0
 71
     0
 42
1.0
  3
ISOCPEUR.ttf
  4

  0
ENDTAB
  0
TABLE
  2
VIEW
 70
     0
  0
ENDTAB
  0
TABLE
  2
UCS
 70
     0
  0
ENDTAB
  0
ENDSEC
  0
SECTION
  2
BLOCKS
  0
ENDSEC
  0
SECTION
  2
ENTITIES
  0
POLYLINE
  5
16E
  8
0
 66
     1
 10
0.0
 20
0.0
 30
0.0
 70
     1
  0
VERTEX
  5
16F
  8
0
 10
1224.42345543
 20
268.34820919
 30
0.0
  0
VERTEX
  5
170
  8
0
 10
1644.42345543
 20
268.34820919
 30
0.0
  0
VERTEX
  5
171
  8
0
 10
1644.42345543
 20
565.34820919
 30
0.0
  0
VERTEX
  5
172
  8
0
 10
1224.42345543
 20
565.34820919
 30
0.0
  0
SEQEND
  5
173
  8
0
  0
POLYLINE
  5
174
  8
0
 66
     1
 10
0.0
 20
0.0
 30
0.0
 70
     1
  0
VERTEX
  5
175
  8
0
 10
1229.42345543
 20
273.34820919
 30
0.0
  0
VERTEX
  5
176
  8
0
 10
1639.42345543
 20
273.34820919
 30
0.0
  0
VERTEX
  5
177
  8
0
 10
1639.42345543
 20
560.34820919
 30
0.0
  0
VERTEX
  5
178
  8
0
 10
1229.42345543
 20
560.34820919
 30
0.0
  0
SEQEND
  5
179
  8
0
  0
LINE
  5
17A
  8
0
 10
1454.42345543
 20
273.34820919
 30
0.0
 11
1454.42345543
 21
268.34820919
 31
0.0
  0
LINE
  5
17B
  8
0
 10
1454.42345543
 20
560.34820919
 30
0.0
 11
1454.42345543
 21
565.34820919
 31
0.0
  0
LINE
  5
17C
  8
0
 10
1244.42345543
 20
273.34820919
 30
0.0
 11
1244.42345543
 21
268.34820919
 31
0.0
  0
LINE
  5
17D
  8
0
 10
1244.42345543
 20
560.34820919
 30
0.0
 11
1244.42345543
 21
565.34820919
 31
0.0
  0
TEXT
  5
17E
  8
TXT_ALL
 62
     4
 10
1643.42345543
 20
269.34820919
 30
0.0
 40
2.5
  1

 50
90.00020741
  0
POLYLINE
  5
17F
  8
0
 66
     1
 10
0.0
 20
0.0
 30
0.0
  0
VERTEX
  5
180
  8
0
 10
1639.42345543
 20
550.34820919
 30
0.0
  0
VERTEX
  5
181
  8
0
 10
1570.43015543
 20
550.34820919
 30
0.0
  0
VERTEX
  5
182
  8
0
 10
1570.43015543
 20
560.34820919
 30
0.0
  0
SEQEND
  5
183
  8
0
  0
LINE
  5
184
  8
0
 10
1572.33345543
 20
292.84820919
 30
0.0
 11
1432.44345543
 21
292.84820919
 31
0.0
  0
LINE
  5
185
  8
0
 10
1432.44345543
 20
283.09820919
 30
0.0
 11
1572.33345543
 21
283.09820919
 31
0.0
  0
POLYLINE
  5
186
  8
0
 66
     1
 10
0.0
 20
0.0
 30
0.0
  0
VERTEX
  5
187
  8
0
 10
1432.44345543
 20
292.84820919
 30
0.0
  0
VERTEX
  5
188
  8
0
 10
1432.44345543
 20
283.09820919
 30
0.0
  0
VERTEX
  5
189
  8
0
 10
1432.44345543
 20
273.34820919
 30
0.0
  0
SEQEND
  5
18A
  8
0
  0
POLYLINE
  5
18B
  8
0
 66
     1
 10
0.0
 20
0.0
 30
0.0
  0
VERTEX
  5
18C
  8
0
 10
1502.38845543
 20
292.84820919
 30
0.0
  0
VERTEX
  5
18D
  8
0
 10
1502.38845543
 20
283.09820919
 30
0.0
  0
VERTEX
  5
18E
  8
0
 10
1502.38845543
 20
273.34820919
 30
0.0
  0
SEQEND
  5
18F
  8
0
  0
TEXT
  5
190
  8
TXT_ALL
 10
1434.44345543
 20
286.67320924
 30
0.0
 40
2.5999999
  1
E-mail: verkoop@jonkers-bouwmetaal.nl
  7
ARIAL
  0
TEXT
  5
191
  8
TXT_ALL
 10
1434.44345543
 20
276.92320924
 30
0.0
 40
2.5999999
  1
Telefoon: 0527-685156
  7
ARIAL
  0
TEXT
  5
192
  8
TXT_ALL
 10
1504.38845543
 20
276.92320924
 30
0.0
 40
2.5999999
  1
Website: www.jonkers-bouwmetaal.nl
  7
ARIAL
  0
TEXT
  5
193
  8
TXT_ALL
 10
1504.38845543
 20
286.67320924
 30
0.0
 40
2.5999999
  1
Adres: Hoornse Hop 10, 8321 WX Urk
  7
ARIAL
  0
TEXT
  5
194
  8
TXT_ALL
 10
1232.86541569
 20
554.09820919
 30
0.0
 40
2.5
  1
Art. nr. 91013329-03
  7
ARIAL
  0
TEXT
  5
195
  8
TXT_ALL
 10
1275.6034525
 20
554.09820919
 30
0.0
 40
2.5
  1
Omschrijving: Trekanker-03 370x50 60x2 incl. opvulstrip-03
  7
ARIAL
  0
LINE
  5
196
  8
0
 10
1639.42345543
 20
550.34820919
 30
0.0
 11
1229.42345543
 21
550.34820919
 31
0.0
  0
LINE
  5
197
  8
0
 10
1272.44345543
 20
550.34820919
 30
0.0
 11
1272.44345543
 21
560.34820919
 31
0.0
  0
LINE
  5
198
  8
0
 10
1432.44345543
 20
550.34820919
 30
0.0
 11
1432.44345543
 21
560.34820919
 31
0.0
  0
TEXT
  5
199
  8
TXT_ALL
 10
1503.43715543
 20
554.09820919
 30
0.0
 40
2.5
  1
Behandeling: n.v.t.
  7
ARIAL
  0
LINE
  5
19A
  8
0
 10
1572.33345543
 20
292.84820919
 30
0.0
 11
1639.42345543
 21
292.84820919
 31
0.0
  0
LINE
  5
19B
  8
0
 10
1572.33345543
 20
273.34820919
 30
0.0
 11
1572.33345543
 21
292.84820919
 31
0.0
  0
LINE
  5
19C
  8
0
 10
1572.33345543
 20
273.34820919
 30
0.0
 11
1572.33345543
 21
292.84820919
 31
0.0
  0
TEXT
  5
19D
  8
TXT_ALL
 10
1366.78865353
 20
274.5027426
 30
0.0
 40
2.5
  1

  0
TEXT
  5
19E
  8
TXT_ALL
 10
1487.92383649
 20
284.59820919
 30
0.0
 40
2.5
  1

  0
POLYLINE
  5
19F
  8
0
 66
     1
 10
0.0
 20
0.0
 30
0.0
  0
VERTEX
  5
1A0
  8
0
 10
1570.43015543
 20
550.34820919
 30
0.0
  0
VERTEX
  5
1A1
  8
0
 10
1501.43715543
 20
550.34820919
 30
0.0
  0
VERTEX
  5
1A2
  8
0
 10
1501.43715543
 20
560.34820919
 30
0.0
  0
SEQEND
  5
1A3
  8
0
  0
TEXT
  5
1A4
  8
TXT_ALL
 10
1572.43015543
 20
554.09820919
 30
0.0
 40
2.5
  1
Verpakkingshoeveelheid: 10 st.
  7
ARIAL
  0
TEXT
  5
1A5
  8
TXT_ALL
 10
1434.44345543
 20
554.09820919
 30
0.0
 40
2.5
  1
Materiaal: Sendzimir Verzinkt
  7
ARIAL
  0
TEXT
  5
1A6
  8
TXT_ALL
 10
1607.20510266
 20
270.09869934
 30
0.0
 40
1.5
  1
Onderdeel van
  7
ARIAL
  0
POLYLINE
  5
1A7
  8
0
 66
     1
 10
0.0
 20
0.0
 30
0.0
  0
VERTEX
  5
47C
  8
0
 10
1264.884158854155
 20
341.8208103894764
 30
0.0
  0
VERTEX
  5
47D
  8
0
 10
1264.649932208345
 20
341.7825370158396
 30
0.0
  0
VERTEX
  5
47E
  8
0
 10
1264.407893881354
 20
341.6122863709368
 30
0.0
  0
VERTEX
  5
47F
  8
0
 10
1264.167345270371
 20
341.316601091589
 30
0.0
  0
VERTEX
  5
480
  8
0
 10
1263.937530523637
 20
340.906844197285
 30
0.0
  0
VERTEX
  5
481
  8
0
 10
1263.727281293007
 20
340.3987624157147
 30
0.0
  0
VERTEX
  5
482
  8
0
 10
1263.544677338524
 20
339.8118810448526
 30
0.0
  0
VERTEX
  5
483
  8
0
 10
1263.396736027769
 20
339.1687536067056
 30
0.0
  0
VERTEX
  5
484
  8
0
 10
1263.289142662361
 20
338.4940951281079
 30
0.0
  0
VERTEX
  5
485
  8
0
 10
1263.226031995002
 20
337.8138323560981
 30
0.0
  0
VERTEX
  5
486
  8
0
 10
1263.209829333252
 20
337.1541074075686
 30
0.0
  0
VERTEX
  5
487
  8
0
 10
1263.241157336317
 20
336.5402731423709
 30
0.0
  0
VERTEX
  5
488
  8
0
 10
1263.318812086605
 20
335.9959188671282
 30
0.0
  0
VERTEX
  5
489
  8
0
 10
1263.439809355606
 20
335.5419638114082
 30
0.0
  0
VERTEX
  5
48A
  8
0
 10
1263.599499286117
 20
335.1958532134612
 30
0.0
  0
VERTEX
  5
48B
  8
0
 10
1263.791745083649
 20
334.9708879094954
 30
0.0
  0
VERTEX
  5
48C
  8
0
 10
1264.00915885
 20
334.87571319
 30
0.0
  0
SEQEND
  5
77A
  8
0
  0
POLYLINE
  5
1A8
  8
0
 66
     1
 10
0.0
 20
0.0
 30
0.0
  0
VERTEX
  5
48D
  8
0
 10
1264.00915885
 20
334.87571319
 30
0.0
  0
VERTEX
  5
48E
  8
0
 10
1264.243385495488
 20
334.9139865658391
 30
0.0
  0
VERTEX
  5
48F
  8
0
 10
1264.485423821976
 20
335.0842372122783
 30
0.0
  0
VERTEX
  5
490
  8
0
 10
1264.725972432333
 20
335.3799224924675
 30
0.0
  0
VERTEX
  5
491
  8
0
 10
1264.955787178387
 20
335.7896793869372
 30
0.0
  0
VERTEX
  5
492
  8
0
 10
1265.166036408348
 20
336.2977611680631
 30
0.0
  0
VERTEX
  5
493
  8
0
 10
1265.348640362236
 20
336.8846425379765
 30
0.0
  0
VERTEX
  5
494
  8
0
 10
1265.496581672525
 20
337.5277699748099
 30
0.0
  0
VERTEX
  5
495
  8
0
 10
1265.604175037639
 20
338.2024284518921
 30
0.0
  0
VERTEX
  5
496
  8
0
 10
1265.667285704907
 20
338.8826912223608
 30
0.0
  0
VERTEX
  5
497
  8
0
 10
1265.683488366783
 20
339.5424161695021
 30
0.0
  0
VERTEX
  5
498
  8
0
 10
1265.652160364059
 20
340.1562504336332
 30
0.0
  0
VERTEX
  5
499
  8
0
 10
1265.574505614308
 20
340.7006047082794
 30
0.0
  0
VERTEX
  5
49A
  8
0
 10
1265.453508346008
 20
341.1545597639912
 30
0.0
  0
VERTEX
  5
49B
  8
0
 10
1265.293818416312
 20
341.5006703625982
 30
0.0
  0
VERTEX
  5
49C
  8
0
 10
1265.101572619649
 20
341.7256356679273
 30
0.0
  0
VERTEX
  5
49D
  8
0
 10
1264.884158854155
 20
341.8208103894764
 30
0.0
  0
SEQEND
  5
77B
  8
0
  0
POLYLINE
  5
1A9
  8
0
 66
     1
 10
0.0
 20
0.0
 30
0.0
  0
VERTEX
  5
1AA
  8
0
 10
1259.14335799
 20
370.44074268
 30
0.0
  0
VERTEX
  5
1AB
  8
0
 10
1269.74995971
 20
379.79488615
 30
0.0
  0
VERTEX
  5
1AC
  8
0
 10
1269.74995971
 20
332.65443407
 30
0.0
  0
SEQEND
  5
1AD
  8
0
  0
LINE
  5
1AE
  8
0
 10
1259.14335799
 20
323.3002906
 30
0.0
 11
1269.74995971
 21
332.65443407
 31
0.0
  0
POLYLINE
  5
1AF
  8
0
 66
     1
 10
0.0
 20
0.0
 30
0.0
  0
VERTEX
  5
1B0
  8
0
 10
1259.14335799
 20
323.3002906
 30
0.0
  0
VERTEX
  5
1B1
  8
0
 10
1259.14335799
 20
370.44074268
 30
0.0
  0
VERTEX
  5
1B2
  8
0
 10
1252.12775039
 20
371.32462616
 30
0.0
  0
VERTEX
  5
1B3
  8
0
 10
1262.73435211
 20
380.67876963
 30
0.0
  0
SEQEND
  5
1B4
  8
0
  0
LINE
  5
1B5
  8
0
 10
1269.74995971
 20
379.79488615
 30
0.0
 11
1262.73435211
 21
380.67876963
 31
0.0
  0
LINE
  5
1B6
  8
0
 10
1252.12775039
 20
324.18417408
 30
0.0
 11
1252.12775039
 21
371.32462616
 31
0.0
  0
LINE
  5
1B7
  8
0
 10
1259.14335799
 20
323.3002906
 30
0.0
 11
1252.12775039
 21
324.18417408
 31
0.0
  0
LINE
  5
1B8
  8
0
  6
STRICHPUNKT2
 62
     1
 10
1265.84978037
 20
338.1714851
 30
0.0
 11
1263.28914265
 21
338.49409513
 31
0.0
  0
LINE
  5
1B9
  8
0
  6
STRICHPUNKT2
 62
     1
 10
1264.44665885
 20
338.34826179
 30
0.0
 11
1264.44665885
 21
343.062307
 31
0.0
  0
LINE
  5
1BA
  8
0
  6
STRICHPUNKT2
 62
     1
 10
1264.44665885
 20
338.34826179
 30
0.0
 11
1264.44665885
 21
333.63421659
 31
0.0
  0
LINE
  5
1BB
  8
0
  6
STRICHPUNKT2
 62
     1
 10
1264.44665885
 20
338.34826179
 30
0.0
 11
1262.6788919
 21
336.78923788
 31
0.0
  0
LINE
  5
1BC
  8
0
  6
STRICHPUNKT2
 62
     1
 10
1264.44665885
 20
338.34826179
 30
0.0
 11
1266.2144258
 21
339.90728571
 31
0.0
  0
LINE
  5
1BD
  8
0
 10
1252.12775039
 20
324.6555786
 30
0.0
 11
1252.12775039
 21
346.34018656
 31
0.0
  0
LINE
  5
1BE
  8
0
 10
1251.19233604
 20
346.45803769
 30
0.0
 11
1252.12775039
 21
347.2829956
 31
0.0
  0
LINE
  5
1BF
  8
0
 10
1252.12775039
 20
346.34018656
 30
0.0
 11
1251.19233604
 21
346.45803769
 31
0.0
  0
LINE
  5
1C0
  8
0
 10
1251.19233604
 20
324.77342973
 30
0.0
 11
1251.19233604
 21
346.45803769
 31
0.0
  0
POLYLINE
  5
1C1
  8
0
 66
     1
 10
0.0
 20
0.0
 30
0.0
  0
VERTEX
  5
49E
  8
0
 10
1275.27223836
 20
322.5992687414957
 30
0.0
  0
VERTEX
  5
49F
  8
0
 10
1275.296256758675
 20
322.5179811080148
 30
0.0
  0
VERTEX
  5
4A0
  8
0
 10
1275.367388942858
 20
322.4398173126515
 30
0.0
  0
VERTEX
  5
4A1
  8
0
 10
1275.482901342596
 20
322.3677811462339
 30
0.0
  0
VERTEX
  5
4A2
  8
0
 10
1275.638354881137
 20
322.3046409182451
 30
0.0
  0
VERTEX
  5
4A3
  8
0
 10
1275.82777556616
 20
322.2528230722431
 30
0.0
  0
VERTEX
  5
4A4
  8
0
 10
1276.043884066953
 20
322.2143189389942
 30
0.0
  0
VERTEX
  5
4A5
  8
0
 10
1276.278375455004
 20
322.1906082107494
 30
0.0
  0
VERTEX
  5
4A6
  8
0
 10
1276.522238357756
 20
322.1826020775
 30
0.0
  0
VERTEX
  5
4A7
  8
0
 10
1276.766101260595
 20
322.1906082104576
 30
0.0
  0
VERTEX
  5
4A8
  8
0
 10
1277.000592648902
 20
322.2143189384219
 30
0.0
  0
VERTEX
  5
4A9
  8
0
 10
1277.216701150109
 20
322.2528230714121
 30
0.0
  0
VERTEX
  5
4AA
  8
0
 10
1277.40612183569
 20
322.3046409171875
 30
0.0
  0
VERTEX
  5
4AB
  8
0
 10
1277.561575374911
 20
322.3677811449902
 30
0.0
  0
VERTEX
  5
4AC
  8
0
 10
1277.677087775425
 20
322.4398173112697
 30
0.0
  0
VERTEX
  5
4AD
  8
0
 10
1277.748219960449
 20
322.5179811065478
 30
0.0
  0
VERTEX
  5
4AE
  8
0
 10
1277.77223836
 20
322.59926874
 30
0.0
  0
SEQEND
  5
77C
  8
0
  0
POLYLINE
  5
1C2
  8
0
 66
     1
 10
0.0
 20
0.0
 30
0.0
  0
VERTEX
  5
4AF
  8
0
 10
1277.77223836
 20
322.59926874
 30
0.0
  0
VERTEX
  5
4B0
  8
0
 10
1277.748219960559
 20
322.6805563732688
 30
0.0
  0
VERTEX
  5
4B1
  8
0
 10
1277.677087775854
 20
322.7587201683849
 30
0.0
  0
VERTEX
  5
4B2
  8
0
 10
1277.561575375846
 20
322.8307563345434
 30
0.0
  0
VERTEX
  5
4B3
  8
0
 10
1277.406121837276
 20
322.8938965622837
 30
0.0
  0
VERTEX
  5
4B4
  8
0
 10
1277.21670115244
 20
322.9457144080686
 30
0.0
  0
VERTEX
  5
4B5
  8
0
 10
1277.000592652011
 20
322.9842185411489
 30
0.0
  0
VERTEX
  5
4B6
  8
0
 10
1276.766101264446
 20
323.0079292692871
 30
0.0
  0
VERTEX
  5
4B7
  8
0
 10
1276.522238362244
 20
323.0159354025
 30
0.0
  0
VERTEX
  5
4B8
  8
0
 10
1276.278375459955
 20
323.0079292695789
 30
0.0
  0
VERTEX
  5
4B9
  8
0
 10
1276.043884072135
 20
322.9842185417213
 30
0.0
  0
VERTEX
  5
4BA
  8
0
 10
1275.827775571291
 20
322.9457144088996
 30
0.0
  0
VERTEX
  5
4BB
  8
0
 10
1275.638354885897
 20
322.8938965633413
 30
0.0
  0
VERTEX
  5
4BC
  8
0
 10
1275.482901346647
 20
322.8307563357871
 30
0.0
  0
VERTEX
  5
4BD
  8
0
 10
1275.367388945863
 20
322.7587201697668
 30
0.0
  0
VERTEX
  5
4BE
  8
0
 10
1275.296256760317
 20
322.6805563747358
 30
0.0
  0
VERTEX
  5
4BF
  8
0
 10
1275.27223836
 20
322.5992687414957
 30
0.0
  0
SEQEND
  5
77D
  8
0
  0
POLYLINE
  5
1C3
  8
0
 66
     1
 10
0.0
 20
0.0
 30
0.0
  0
VERTEX
  5
4C0
  8
0
 10
1298.65759703
 20
319.6529904814957
 30
0.0
  0
VERTEX
  5
4C1
  8
0
 10
1298.681615428675
 20
319.5717028480148
 30
0.0
  0
VERTEX
  5
4C2
  8
0
 10
1298.752747612858
 20
319.4935390526516
 30
0.0
  0
VERTEX
  5
4C3
  8
0
 10
1298.868260012596
 20
319.4215028862339
 30
0.0
  0
VERTEX
  5
4C4
  8
0
 10
1299.023713551137
 20
319.3583626582451
 30
0.0
  0
VERTEX
  5
4C5
  8
0
 10
1299.21313423616
 20
319.3065448122431
 30
0.0
  0
VERTEX
  5
4C6
  8
0
 10
1299.429242736953
 20
319.2680406789942
 30
0.0
  0
VERTEX
  5
4C7
  8
0
 10
1299.663734125004
 20
319.2443299507494
 30
0.0
  0
VERTEX
  5
4C8
  8
0
 10
1299.907597027756
 20
319.2363238175
 30
0.0
  0
VERTEX
  5
4C9
  8
0
 10
1300.151459930595
 20
319.2443299504576
 30
0.0
  0
VERTEX
  5
4CA
  8
0
 10
1300.385951318902
 20
319.2680406784219
 30
0.0
  0
VERTEX
  5
4CB
  8
0
 10
1300.602059820109
 20
319.3065448114121
 30
0.0
  0
VERTEX
  5
4CC
  8
0
 10
1300.79148050569
 20
319.3583626571875
 30
0.0
  0
VERTEX
  5
4CD
  8
0
 10
1300.946934044911
 20
319.4215028849902
 30
0.0
  0
VERTEX
  5
4CE
  8
0
 10
1301.062446445424
 20
319.4935390512697
 30
0.0
  0
VERTEX
  5
4CF
  8
0
 10
1301.133578630449
 20
319.5717028465479
 30
0.0
  0
VERTEX
  5
4D0
  8
0
 10
1301.15759703
 20
319.65299048
 30
0.0
  0
SEQEND
  5
77E
  8
0
  0
POLYLINE
  5
1C4
  8
0
 66
     1
 10
0.0
 20
0.0
 30
0.0
  0
VERTEX
  5
4D1
  8
0
 10
1301.15759703
 20
319.65299048
 30
0.0
  0
VERTEX
  5
4D2
  8
0
 10
1301.133578630559
 20
319.7342781132688
 30
0.0
  0
VERTEX
  5
4D3
  8
0
 10
1301.062446445854
 20
319.8124419083849
 30
0.0
  0
VERTEX
  5
4D4
  8
0
 10
1300.946934045846
 20
319.8844780745434
 30
0.0
  0
VERTEX
  5
4D5
  8
0
 10
1300.791480507276
 20
319.9476183022837
 30
0.0
  0
VERTEX
  5
4D6
  8
0
 10
1300.60205982244
 20
319.9994361480686
 30
0.0
  0
VERTEX
  5
4D7
  8
0
 10
1300.385951322011
 20
320.0379402811489
 30
0.0
  0
VERTEX
  5
4D8
  8
0
 10
1300.151459934446
 20
320.0616510092871
 30
0.0
  0
VERTEX
  5
4D9
  8
0
 10
1299.907597032244
 20
320.0696571425
 30
0.0
  0
VERTEX
  5
4DA
  8
0
 10
1299.663734129955
 20
320.0616510095789
 30
0.0
  0
VERTEX
  5
4DB
  8
0
 10
1299.429242742135
 20
320.0379402817213
 30
0.0
  0
VERTEX
  5
4DC
  8
0
 10
1299.213134241291
 20
319.9994361488996
 30
0.0
  0
VERTEX
  5
4DD
  8
0
 10
1299.023713555897
 20
319.9476183033414
 30
0.0
  0
VERTEX
  5
4DE
  8
0
 10
1298.868260016647
 20
319.8844780757871
 30
0.0
  0
VERTEX
  5
4DF
  8
0
 10
1298.752747615863
 20
319.8124419097668
 30
0.0
  0
VERTEX
  5
4E0
  8
0
 10
1298.681615430317
 20
319.7342781147358
 30
0.0
  0
VERTEX
  5
4E1
  8
0
 10
1298.65759703
 20
319.6529904814957
 30
0.0
  0
SEQEND
  5
77F
  8
0
  0
POLYLINE
  5
1C5
  8
0
 66
     1
 10
0.0
 20
0.0
 30
0.0
  0
VERTEX
  5
4E2
  8
0
 10
1322.04295569
 20
316.7067122314957
 30
0.0
  0
VERTEX
  5
4E3
  8
0
 10
1322.066974088675
 20
316.6254245980148
 30
0.0
  0
VERTEX
  5
4E4
  8
0
 10
1322.138106272859
 20
316.5472608026515
 30
0.0
  0
VERTEX
  5
4E5
  8
0
 10
1322.253618672596
 20
316.4752246362339
 30
0.0
  0
VERTEX
  5
4E6
  8
0
 10
1322.409072211137
 20
316.4120844082451
 30
0.0
  0
VERTEX
  5
4E7
  8
0
 10
1322.59849289616
 20
316.3602665622431
 30
0.0
  0
VERTEX
  5
4E8
  8
0
 10
1322.814601396953
 20
316.3217624289942
 30
0.0
  0
VERTEX
  5
4E9
  8
0
 10
1323.049092785004
 20
316.2980517007494
 30
0.0
  0
VERTEX
  5
4EA
  8
0
 10
1323.292955687756
 20
316.2900455675
 30
0.0
  0
VERTEX
  5
4EB
  8
0
 10
1323.536818590595
 20
316.2980517004576
 30
0.0
  0
VERTEX
  5
4EC
  8
0
 10
1323.771309978902
 20
316.3217624284218
 30
0.0
  0
VERTEX
  5
4ED
  8
0
 10
1323.987418480109
 20
316.3602665614121
 30
0.0
  0
VERTEX
  5
4EE
  8
0
 10
1324.17683916569
 20
316.4120844071875
 30
0.0
  0
VERTEX
  5
4EF
  8
0
 10
1324.332292704911
 20
316.4752246349902
 30
0.0
  0
VERTEX
  5
4F0
  8
0
 10
1324.447805105425
 20
316.5472608012697
 30
0.0
  0
VERTEX
  5
4F1
  8
0
 10
1324.518937290449
 20
316.6254245965478
 30
0.0
  0
VERTEX
  5
4F2
  8
0
 10
1324.54295569
 20
316.70671223
 30
0.0
  0
SEQEND
  5
780
  8
0
  0
POLYLINE
  5
1C6
  8
0
 66
     1
 10
0.0
 20
0.0
 30
0.0
  0
VERTEX
  5
4F3
  8
0
 10
1324.54295569
 20
316.70671223
 30
0.0
  0
VERTEX
  5
4F4
  8
0
 10
1324.518937290559
 20
316.7879998632688
 30
0.0
  0
VERTEX
  5
4F5
  8
0
 10
1324.447805105854
 20
316.8661636583849
 30
0.0
  0
VERTEX
  5
4F6
  8
0
 10
1324.332292705846
 20
316.9381998245434
 30
0.0
  0
VERTEX
  5
4F7
  8
0
 10
1324.176839167277
 20
317.0013400522837
 30
0.0
  0
VERTEX
  5
4F8
  8
0
 10
1323.98741848244
 20
317.0531578980686
 30
0.0
  0
VERTEX
  5
4F9
  8
0
 10
1323.771309982011
 20
317.0916620311489
 30
0.0
  0
VERTEX
  5
4FA
  8
0
 10
1323.536818594446
 20
317.1153727592871
 30
0.0
  0
VERTEX
  5
4FB
  8
0
 10
1323.292955692244
 20
317.1233788925
 30
0.0
  0
VERTEX
  5
4FC
  8
0
 10
1323.049092789955
 20
317.1153727595789
 30
0.0
  0
VERTEX
  5
4FD
  8
0
 10
1322.814601402135
 20
317.0916620317213
 30
0.0
  0
VERTEX
  5
4FE
  8
0
 10
1322.598492901291
 20
317.0531578988996
 30
0.0
  0
VERTEX
  5
4FF
  8
0
 10
1322.409072215897
 20
317.0013400533413
 30
0.0
  0
VERTEX
  5
500
  8
0
 10
1322.253618676647
 20
316.9381998257871
 30
0.0
  0
VERTEX
  5
501
  8
0
 10
1322.138106275863
 20
316.8661636597668
 30
0.0
  0
VERTEX
  5
502
  8
0
 10
1322.066974090317
 20
316.7879998647358
 30
0.0
  0
VERTEX
  5
503
  8
0
 10
1322.04295569
 20
316.7067122314957
 30
0.0
  0
SEQEND
  5
781
  8
0
  0
POLYLINE
  5
1C7
  8
0
 66
     1
 10
0.0
 20
0.0
 30
0.0
  0
VERTEX
  5
504
  8
0
 10
1345.42831436
 20
313.7604339714957
 30
0.0
  0
VERTEX
  5
505
  8
0
 10
1345.452332758675
 20
313.6791463380148
 30
0.0
  0
VERTEX
  5
506
  8
0
 10
1345.523464942858
 20
313.6009825426515
 30
0.0
  0
VERTEX
  5
507
  8
0
 10
1345.638977342596
 20
313.5289463762339
 30
0.0
  0
VERTEX
  5
508
  8
0
 10
1345.794430881137
 20
313.4658061482451
 30
0.0
  0
VERTEX
  5
509
  8
0
 10
1345.98385156616
 20
313.4139883022431
 30
0.0
  0
VERTEX
  5
50A
  8
0
 10
1346.199960066953
 20
313.3754841689942
 30
0.0
  0
VERTEX
  5
50B
  8
0
 10
1346.434451455004
 20
313.3517734407494
 30
0.0
  0
VERTEX
  5
50C
  8
0
 10
1346.678314357756
 20
313.3437673075
 30
0.0
  0
VERTEX
  5
50D
  8
0
 10
1346.922177260595
 20
313.3517734404576
 30
0.0
  0
VERTEX
  5
50E
  8
0
 10
1347.156668648902
 20
313.3754841684218
 30
0.0
  0
VERTEX
  5
50F
  8
0
 10
1347.372777150109
 20
313.4139883014121
 30
0.0
  0
VERTEX
  5
510
  8
0
 10
1347.56219783569
 20
313.4658061471875
 30
0.0
  0
VERTEX
  5
511
  8
0
 10
1347.717651374911
 20
313.5289463749902
 30
0.0
  0
VERTEX
  5
512
  8
0
 10
1347.833163775425
 20
313.6009825412697
 30
0.0
  0
VERTEX
  5
513
  8
0
 10
1347.904295960449
 20
313.6791463365478
 30
0.0
  0
VERTEX
  5
514
  8
0
 10
1347.92831436
 20
313.76043397
 30
0.0
  0
SEQEND
  5
782
  8
0
  0
POLYLINE
  5
1C8
  8
0
 66
     1
 10
0.0
 20
0.0
 30
0.0
  0
VERTEX
  5
515
  8
0
 10
1347.92831436
 20
313.76043397
 30
0.0
  0
VERTEX
  5
516
  8
0
 10
1347.904295960559
 20
313.8417216032688
 30
0.0
  0
VERTEX
  5
517
  8
0
 10
1347.833163775854
 20
313.9198853983849
 30
0.0
  0
VERTEX
  5
518
  8
0
 10
1347.717651375846
 20
313.9919215645434
 30
0.0
  0
VERTEX
  5
519
  8
0
 10
1347.562197837276
 20
314.0550617922837
 30
0.0
  0
VERTEX
  5
51A
  8
0
 10
1347.37277715244
 20
314.1068796380686
 30
0.0
  0
VERTEX
  5
51B
  8
0
 10
1347.156668652011
 20
314.1453837711489
 30
0.0
  0
VERTEX
  5
51C
  8
0
 10
1346.922177264446
 20
314.1690944992871
 30
0.0
  0
VERTEX
  5
51D
  8
0
 10
1346.678314362244
 20
314.1771006325
 30
0.0
  0
VERTEX
  5
51E
  8
0
 10
1346.434451459955
 20
314.1690944995789
 30
0.0
  0
VERTEX
  5
51F
  8
0
 10
1346.199960072135
 20
314.1453837717213
 30
0.0
  0
VERTEX
  5
520
  8
0
 10
1345.983851571291
 20
314.1068796388996
 30
0.0
  0
VERTEX
  5
521
  8
0
 10
1345.794430885897
 20
314.0550617933413
 30
0.0
  0
VERTEX
  5
522
  8
0
 10
1345.638977346647
 20
313.9919215657871
 30
0.0
  0
VERTEX
  5
523
  8
0
 10
1345.523464945863
 20
313.9198853997668
 30
0.0
  0
VERTEX
  5
524
  8
0
 10
1345.452332760317
 20
313.8417216047358
 30
0.0
  0
VERTEX
  5
525
  8
0
 10
1345.42831436
 20
313.7604339714957
 30
0.0
  0
SEQEND
  5
783
  8
0
  0
POLYLINE
  5
1C9
  8
0
 66
     1
 10
0.0
 20
0.0
 30
0.0
  0
VERTEX
  5
526
  8
0
 10
1368.81367303
 20
310.8141557214957
 30
0.0
  0
VERTEX
  5
527
  8
0
 10
1368.837691428675
 20
310.7328680880148
 30
0.0
  0
VERTEX
  5
528
  8
0
 10
1368.908823612858
 20
310.6547042926515
 30
0.0
  0
VERTEX
  5
529
  8
0
 10
1369.024336012596
 20
310.5826681262338
 30
0.0
  0
VERTEX
  5
52A
  8
0
 10
1369.179789551137
 20
310.5195278982451
 30
0.0
  0
VERTEX
  5
52B
  8
0
 10
1369.36921023616
 20
310.467710052243
 30
0.0
  0
VERTEX
  5
52C
  8
0
 10
1369.585318736953
 20
310.4292059189942
 30
0.0
  0
VERTEX
  5
52D
  8
0
 10
1369.819810125004
 20
310.4054951907494
 30
0.0
  0
VERTEX
  5
52E
  8
0
 10
1370.063673027756
 20
310.3974890575
 30
0.0
  0
VERTEX
  5
52F
  8
0
 10
1370.307535930595
 20
310.4054951904575
 30
0.0
  0
VERTEX
  5
530
  8
0
 10
1370.542027318902
 20
310.4292059184218
 30
0.0
  0
VERTEX
  5
531
  8
0
 10
1370.758135820109
 20
310.467710051412
 30
0.0
  0
VERTEX
  5
532
  8
0
 10
1370.94755650569
 20
310.5195278971875
 30
0.0
  0
VERTEX
  5
533
  8
0
 10
1371.103010044911
 20
310.5826681249902
 30
0.0
  0
VERTEX
  5
534
  8
0
 10
1371.218522445424
 20
310.6547042912696
 30
0.0
  0
VERTEX
  5
535
  8
0
 10
1371.289654630449
 20
310.7328680865478
 30
0.0
  0
VERTEX
  5
536
  8
0
 10
1371.31367303
 20
310.81415572
 30
0.0
  0
SEQEND
  5
784
  8
0
  0
POLYLINE
  5
1CA
  8
0
 66
     1
 10
0.0
 20
0.0
 30
0.0
  0
VERTEX
  5
537
  8
0
 10
1371.31367303
 20
310.81415572
 30
0.0
  0
VERTEX
  5
538
  8
0
 10
1371.289654630559
 20
310.8954433532688
 30
0.0
  0
VERTEX
  5
539
  8
0
 10
1371.218522445854
 20
310.9736071483849
 30
0.0
  0
VERTEX
  5
53A
  8
0
 10
1371.103010045846
 20
311.0456433145434
 30
0.0
  0
VERTEX
  5
53B
  8
0
 10
1370.947556507276
 20
311.1087835422837
 30
0.0
  0
VERTEX
  5
53C
  8
0
 10
1370.75813582244
 20
311.1606013880686
 30
0.0
  0
VERTEX
  5
53D
  8
0
 10
1370.542027322011
 20
311.1991055211489
 30
0.0
  0
VERTEX
  5
53E
  8
0
 10
1370.307535934446
 20
311.2228162492871
 30
0.0
  0
VERTEX
  5
53F
  8
0
 10
1370.063673032244
 20
311.2308223825
 30
0.0
  0
VERTEX
  5
540
  8
0
 10
1369.819810129955
 20
311.2228162495788
 30
0.0
  0
VERTEX
  5
541
  8
0
 10
1369.585318742135
 20
311.1991055217213
 30
0.0
  0
VERTEX
  5
542
  8
0
 10
1369.369210241291
 20
311.1606013888996
 30
0.0
  0
VERTEX
  5
543
  8
0
 10
1369.179789555897
 20
311.1087835433413
 30
0.0
  0
VERTEX
  5
544
  8
0
 10
1369.024336016647
 20
311.0456433157871
 30
0.0
  0
VERTEX
  5
545
  8
0
 10
1368.908823615863
 20
310.9736071497667
 30
0.0
  0
VERTEX
  5
546
  8
0
 10
1368.837691430317
 20
310.8954433547358
 30
0.0
  0
VERTEX
  5
547
  8
0
 10
1368.81367303
 20
310.8141557214957
 30
0.0
  0
SEQEND
  5
785
  8
0
  0
POLYLINE
  5
1CB
  8
0
 66
     1
 10
0.0
 20
0.0
 30
0.0
  0
VERTEX
  5
548
  8
0
 10
1392.1990317
 20
307.8678774614957
 30
0.0
  0
VERTEX
  5
549
  8
0
 10
1392.223050098675
 20
307.7865898280148
 30
0.0
  0
VERTEX
  5
54A
  8
0
 10
1392.294182282858
 20
307.7084260326515
 30
0.0
  0
VERTEX
  5
54B
  8
0
 10
1392.409694682596
 20
307.6363898662339
 30
0.0
  0
VERTEX
  5
54C
  8
0
 10
1392.565148221137
 20
307.5732496382451
 30
0.0
  0
VERTEX
  5
54D
  8
0
 10
1392.75456890616
 20
307.521431792243
 30
0.0
  0
VERTEX
  5
54E
  8
0
 10
1392.970677406953
 20
307.4829276589942
 30
0.0
  0
VERTEX
  5
54F
  8
0
 10
1393.205168795004
 20
307.4592169307494
 30
0.0
  0
VERTEX
  5
550
  8
0
 10
1393.449031697756
 20
307.4512107975
 30
0.0
  0
VERTEX
  5
551
  8
0
 10
1393.692894600595
 20
307.4592169304576
 30
0.0
  0
VERTEX
  5
552
  8
0
 10
1393.927385988902
 20
307.4829276584218
 30
0.0
  0
VERTEX
  5
553
  8
0
 10
1394.143494490109
 20
307.5214317914121
 30
0.0
  0
VERTEX
  5
554
  8
0
 10
1394.33291517569
 20
307.5732496371875
 30
0.0
  0
VERTEX
  5
555
  8
0
 10
1394.488368714911
 20
307.6363898649902
 30
0.0
  0
VERTEX
  5
556
  8
0
 10
1394.603881115424
 20
307.7084260312697
 30
0.0
  0
VERTEX
  5
557
  8
0
 10
1394.675013300449
 20
307.7865898265478
 30
0.0
  0
VERTEX
  5
558
  8
0
 10
1394.6990317
 20
307.86787746
 30
0.0
  0
SEQEND
  5
786
  8
0
  0
POLYLINE
  5
1CC
  8
0
 66
     1
 10
0.0
 20
0.0
 30
0.0
  0
VERTEX
  5
559
  8
0
 10
1394.6990317
 20
307.86787746
 30
0.0
  0
VERTEX
  5
55A
  8
0
 10
1394.675013300559
 20
307.9491650932688
 30
0.0
  0
VERTEX
  5
55B
  8
0
 10
1394.603881115854
 20
308.0273288883849
 30
0.0
  0
VERTEX
  5
55C
  8
0
 10
1394.488368715846
 20
308.0993650545434
 30
0.0
  0
VERTEX
  5
55D
  8
0
 10
1394.332915177276
 20
308.1625052822837
 30
0.0
  0
VERTEX
  5
55E
  8
0
 10
1394.14349449244
 20
308.2143231280686
 30
0.0
  0
VERTEX
  5
55F
  8
0
 10
1393.927385992011
 20
308.2528272611489
 30
0.0
  0
VERTEX
  5
560
  8
0
 10
1393.692894604446
 20
308.2765379892871
 30
0.0
  0
VERTEX
  5
561
  8
0
 10
1393.449031702244
 20
308.2845441225
 30
0.0
  0
VERTEX
  5
562
  8
0
 10
1393.205168799955
 20
308.2765379895789
 30
0.0
  0
VERTEX
  5
563
  8
0
 10
1392.970677412135
 20
308.2528272617213
 30
0.0
  0
VERTEX
  5
564
  8
0
 10
1392.754568911291
 20
308.2143231288996
 30
0.0
  0
VERTEX
  5
565
  8
0
 10
1392.565148225897
 20
308.1625052833413
 30
0.0
  0
VERTEX
  5
566
  8
0
 10
1392.409694686647
 20
308.0993650557871
 30
0.0
  0
VERTEX
  5
567
  8
0
 10
1392.294182285863
 20
308.0273288897667
 30
0.0
  0
VERTEX
  5
568
  8
0
 10
1392.223050100317
 20
307.9491650947358
 30
0.0
  0
VERTEX
  5
569
  8
0
 10
1392.1990317
 20
307.8678774614957
 30
0.0
  0
SEQEND
  5
787
  8
0
  0
POLYLINE
  5
1CD
  8
0
 66
     1
 10
0.0
 20
0.0
 30
0.0
  0
VERTEX
  5
56A
  8
0
 10
1415.58439036
 20
304.9215992114957
 30
0.0
  0
VERTEX
  5
56B
  8
0
 10
1415.608408758675
 20
304.8403115780148
 30
0.0
  0
VERTEX
  5
56C
  8
0
 10
1415.679540942858
 20
304.7621477826515
 30
0.0
  0
VERTEX
  5
56D
  8
0
 10
1415.795053342596
 20
304.6901116162339
 30
0.0
  0
VERTEX
  5
56E
  8
0
 10
1415.950506881137
 20
304.6269713882451
 30
0.0
  0
VERTEX
  5
56F
  8
0
 10
1416.13992756616
 20
304.5751535422431
 30
0.0
  0
VERTEX
  5
570
  8
0
 10
1416.356036066953
 20
304.5366494089942
 30
0.0
  0
VERTEX
  5
571
  8
0
 10
1416.590527455004
 20
304.5129386807494
 30
0.0
  0
VERTEX
  5
572
  8
0
 10
1416.834390357756
 20
304.5049325475
 30
0.0
  0
VERTEX
  5
573
  8
0
 10
1417.078253260595
 20
304.5129386804576
 30
0.0
  0
VERTEX
  5
574
  8
0
 10
1417.312744648902
 20
304.5366494084219
 30
0.0
  0
VERTEX
  5
575
  8
0
 10
1417.528853150109
 20
304.5751535414121
 30
0.0
  0
VERTEX
  5
576
  8
0
 10
1417.71827383569
 20
304.6269713871875
 30
0.0
  0
VERTEX
  5
577
  8
0
 10
1417.873727374911
 20
304.6901116149902
 30
0.0
  0
VERTEX
  5
578
  8
0
 10
1417.989239775424
 20
304.7621477812697
 30
0.0
  0
VERTEX
  5
579
  8
0
 10
1418.060371960449
 20
304.8403115765478
 30
0.0
  0
VERTEX
  5
57A
  8
0
 10
1418.08439036
 20
304.92159921
 30
0.0
  0
SEQEND
  5
788
  8
0
  0
POLYLINE
  5
1CE
  8
0
 66
     1
 10
0.0
 20
0.0
 30
0.0
  0
VERTEX
  5
57B
  8
0
 10
1418.08439036
 20
304.92159921
 30
0.0
  0
VERTEX
  5
57C
  8
0
 10
1418.060371960559
 20
305.0028868432688
 30
0.0
  0
VERTEX
  5
57D
  8
0
 10
1417.989239775854
 20
305.0810506383849
 30
0.0
  0
VERTEX
  5
57E
  8
0
 10
1417.873727375846
 20
305.1530868045434
 30
0.0
  0
VERTEX
  5
57F
  8
0
 10
1417.718273837276
 20
305.2162270322837
 30
0.0
  0
VERTEX
  5
580
  8
0
 10
1417.52885315244
 20
305.2680448780686
 30
0.0
  0
VERTEX
  5
581
  8
0
 10
1417.312744652011
 20
305.3065490111489
 30
0.0
  0
VERTEX
  5
582
  8
0
 10
1417.078253264446
 20
305.3302597392871
 30
0.0
  0
VERTEX
  5
583
  8
0
 10
1416.834390362244
 20
305.3382658725
 30
0.0
  0
VERTEX
  5
584
  8
0
 10
1416.590527459955
 20
305.3302597395789
 30
0.0
  0
VERTEX
  5
585
  8
0
 10
1416.356036072135
 20
305.3065490117213
 30
0.0
  0
VERTEX
  5
586
  8
0
 10
1416.139927571291
 20
305.2680448788996
 30
0.0
  0
VERTEX
  5
587
  8
0
 10
1415.950506885897
 20
305.2162270333413
 30
0.0
  0
VERTEX
  5
588
  8
0
 10
1415.795053346647
 20
305.1530868057871
 30
0.0
  0
VERTEX
  5
589
  8
0
 10
1415.679540945863
 20
305.0810506397668
 30
0.0
  0
VERTEX
  5
58A
  8
0
 10
1415.608408760317
 20
305.0028868447358
 30
0.0
  0
VERTEX
  5
58B
  8
0
 10
1415.58439036
 20
304.9215992114957
 30
0.0
  0
SEQEND
  5
789
  8
0
  0
POLYLINE
  5
1CF
  8
0
 66
     1
 10
0.0
 20
0.0
 30
0.0
  0
VERTEX
  5
58C
  8
0
 10
1281.98975278
 20
328.5235596014957
 30
0.0
  0
VERTEX
  5
58D
  8
0
 10
1282.013771178675
 20
328.4422719680148
 30
0.0
  0
VERTEX
  5
58E
  8
0
 10
1282.084903362858
 20
328.3641081726515
 30
0.0
  0
VERTEX
  5
58F
  8
0
 10
1282.200415762596
 20
328.2920720062339
 30
0.0
  0
VERTEX
  5
590
  8
0
 10
1282.355869301137
 20
328.2289317782451
 30
0.0
  0
VERTEX
  5
591
  8
0
 10
1282.54528998616
 20
328.1771139322431
 30
0.0
  0
VERTEX
  5
592
  8
0
 10
1282.761398486952
 20
328.1386097989942
 30
0.0
  0
VERTEX
  5
593
  8
0
 10
1282.995889875004
 20
328.1148990707494
 30
0.0
  0
VERTEX
  5
594
  8
0
 10
1283.239752777756
 20
328.1068929375
 30
0.0
  0
VERTEX
  5
595
  8
0
 10
1283.483615680595
 20
328.1148990704576
 30
0.0
  0
VERTEX
  5
596
  8
0
 10
1283.718107068902
 20
328.1386097984218
 30
0.0
  0
VERTEX
  5
597
  8
0
 10
1283.934215570109
 20
328.1771139314121
 30
0.0
  0
VERTEX
  5
598
  8
0
 10
1284.12363625569
 20
328.2289317771875
 30
0.0
  0
VERTEX
  5
599
  8
0
 10
1284.279089794911
 20
328.2920720049902
 30
0.0
  0
VERTEX
  5
59A
  8
0
 10
1284.394602195424
 20
328.3641081712697
 30
0.0
  0
VERTEX
  5
59B
  8
0
 10
1284.465734380449
 20
328.4422719665478
 30
0.0
  0
VERTEX
  5
59C
  8
0
 10
1284.48975278
 20
328.5235596
 30
0.0
  0
SEQEND
  5
78A
  8
0
  0
POLYLINE
  5
1D0
  8
0
 66
     1
 10
0.0
 20
0.0
 30
0.0
  0
VERTEX
  5
59D
  8
0
 10
1284.48975278
 20
328.5235596
 30
0.0
  0
VERTEX
  5
59E
  8
0
 10
1284.465734380559
 20
328.6048472332688
 30
0.0
  0
VERTEX
  5
59F
  8
0
 10
1284.394602195854
 20
328.6830110283849
 30
0.0
  0
VERTEX
  5
5A0
  8
0
 10
1284.279089795845
 20
328.7550471945434
 30
0.0
  0
VERTEX
  5
5A1
  8
0
 10
1284.123636257276
 20
328.8181874222837
 30
0.0
  0
VERTEX
  5
5A2
  8
0
 10
1283.93421557244
 20
328.8700052680686
 30
0.0
  0
VERTEX
  5
5A3
  8
0
 10
1283.718107072011
 20
328.9085094011489
 30
0.0
  0
VERTEX
  5
5A4
  8
0
 10
1283.483615684446
 20
328.9322201292871
 30
0.0
  0
VERTEX
  5
5A5
  8
0
 10
1283.239752782244
 20
328.9402262625
 30
0.0
  0
VERTEX
  5
5A6
  8
0
 10
1282.995889879955
 20
328.9322201295789
 30
0.0
  0
VERTEX
  5
5A7
  8
0
 10
1282.761398492135
 20
328.9085094017213
 30
0.0
  0
VERTEX
  5
5A8
  8
0
 10
1282.54528999129
 20
328.8700052688996
 30
0.0
  0
VERTEX
  5
5A9
  8
0
 10
1282.355869305896
 20
328.8181874233413
 30
0.0
  0
VERTEX
  5
5AA
  8
0
 10
1282.200415766647
 20
328.7550471957871
 30
0.0
  0
VERTEX
  5
5AB
  8
0
 10
1282.084903365863
 20
328.6830110297668
 30
0.0
  0
VERTEX
  5
5AC
  8
0
 10
1282.013771180317
 20
328.6048472347358
 30
0.0
  0
VERTEX
  5
5AD
  8
0
 10
1281.98975278
 20
328.5235596014957
 30
0.0
  0
SEQEND
  5
78B
  8
0
  0
POLYLINE
  5
1D1
  8
0
 66
     1
 10
0.0
 20
0.0
 30
0.0
  0
VERTEX
  5
5AE
  8
0
 10
1305.37511145
 20
325.5772813414957
 30
0.0
  0
VERTEX
  5
5AF
  8
0
 10
1305.399129848675
 20
325.4959937080148
 30
0.0
  0
VERTEX
  5
5B0
  8
0
 10
1305.470262032858
 20
325.4178299126515
 30
0.0
  0
VERTEX
  5
5B1
  8
0
 10
1305.585774432596
 20
325.3457937462339
 30
0.0
  0
VERTEX
  5
5B2
  8
0
 10
1305.741227971137
 20
325.2826535182451
 30
0.0
  0
VERTEX
  5
5B3
  8
0
 10
1305.93064865616
 20
325.2308356722431
 30
0.0
  0
VERTEX
  5
5B4
  8
0
 10
1306.146757156953
 20
325.1923315389942
 30
0.0
  0
VERTEX
  5
5B5
  8
0
 10
1306.381248545004
 20
325.1686208107494
 30
0.0
  0
VERTEX
  5
5B6
  8
0
 10
1306.625111447756
 20
325.1606146775
 30
0.0
  0
VERTEX
  5
5B7
  8
0
 10
1306.868974350595
 20
325.1686208104576
 30
0.0
  0
VERTEX
  5
5B8
  8
0
 10
1307.103465738902
 20
325.1923315384219
 30
0.0
  0
VERTEX
  5
5B9
  8
0
 10
1307.319574240109
 20
325.2308356714121
 30
0.0
  0
VERTEX
  5
5BA
  8
0
 10
1307.50899492569
 20
325.2826535171875
 30
0.0
  0
VERTEX
  5
5BB
  8
0
 10
1307.664448464911
 20
325.3457937449902
 30
0.0
  0
VERTEX
  5
5BC
  8
0
 10
1307.779960865425
 20
325.4178299112697
 30
0.0
  0
VERTEX
  5
5BD
  8
0
 10
1307.851093050449
 20
325.4959937065478
 30
0.0
  0
VERTEX
  5
5BE
  8
0
 10
1307.87511145
 20
325.57728134
 30
0.0
  0
SEQEND
  5
78C
  8
0
  0
POLYLINE
  5
1D2
  8
0
 66
     1
 10
0.0
 20
0.0
 30
0.0
  0
VERTEX
  5
5BF
  8
0
 10
1307.87511145
 20
325.57728134
 30
0.0
  0
VERTEX
  5
5C0
  8
0
 10
1307.851093050559
 20
325.6585689732688
 30
0.0
  0
VERTEX
  5
5C1
  8
0
 10
1307.779960865854
 20
325.7367327683849
 30
0.0
  0
VERTEX
  5
5C2
  8
0
 10
1307.664448465846
 20
325.8087689345434
 30
0.0
  0
VERTEX
  5
5C3
  8
0
 10
1307.508994927276
 20
325.8719091622837
 30
0.0
  0
VERTEX
  5
5C4
  8
0
 10
1307.31957424244
 20
325.9237270080686
 30
0.0
  0
VERTEX
  5
5C5
  8
0
 10
1307.103465742011
 20
325.9622311411489
 30
0.0
  0
VERTEX
  5
5C6
  8
0
 10
1306.868974354446
 20
325.9859418692871
 30
0.0
  0
VERTEX
  5
5C7
  8
0
 10
1306.625111452244
 20
325.9939480025
 30
0.0
  0
VERTEX
  5
5C8
  8
0
 10
1306.381248549955
 20
325.9859418695789
 30
0.0
  0
VERTEX
  5
5C9
  8
0
 10
1306.146757162135
 20
325.9622311417213
 30
0.0
  0
VERTEX
  5
5CA
  8
0
 10
1305.930648661291
 20
325.9237270088996
 30
0.0
  0
VERTEX
  5
5CB
  8
0
 10
1305.741227975897
 20
325.8719091633413
 30
0.0
  0
VERTEX
  5
5CC
  8
0
 10
1305.585774436647
 20
325.8087689357871
 30
0.0
  0
VERTEX
  5
5CD
  8
0
 10
1305.470262035863
 20
325.7367327697668
 30
0.0
  0
VERTEX
  5
5CE
  8
0
 10
1305.399129850317
 20
325.6585689747358
 30
0.0
  0
VERTEX
  5
5CF
  8
0
 10
1305.37511145
 20
325.5772813414957
 30
0.0
  0
SEQEND
  5
78D
  8
0
  0
POLYLINE
  5
1D3
  8
0
 66
     1
 10
0.0
 20
0.0
 30
0.0
  0
VERTEX
  5
5D0
  8
0
 10
1328.76047011
 20
322.6310030914957
 30
0.0
  0
VERTEX
  5
5D1
  8
0
 10
1328.784488508675
 20
322.5497154580148
 30
0.0
  0
VERTEX
  5
5D2
  8
0
 10
1328.855620692858
 20
322.4715516626515
 30
0.0
  0
VERTEX
  5
5D3
  8
0
 10
1328.971133092596
 20
322.3995154962338
 30
0.0
  0
VERTEX
  5
5D4
  8
0
 10
1329.126586631137
 20
322.3363752682451
 30
0.0
  0
VERTEX
  5
5D5
  8
0
 10
1329.31600731616
 20
322.284557422243
 30
0.0
  0
VERTEX
  5
5D6
  8
0
 10
1329.532115816952
 20
322.2460532889942
 30
0.0
  0
VERTEX
  5
5D7
  8
0
 10
1329.766607205004
 20
322.2223425607494
 30
0.0
  0
VERTEX
  5
5D8
  8
0
 10
1330.010470107756
 20
322.2143364275
 30
0.0
  0
VERTEX
  5
5D9
  8
0
 10
1330.254333010595
 20
322.2223425604575
 30
0.0
  0
VERTEX
  5
5DA
  8
0
 10
1330.488824398902
 20
322.2460532884218
 30
0.0
  0
VERTEX
  5
5DB
  8
0
 10
1330.704932900109
 20
322.284557421412
 30
0.0
  0
VERTEX
  5
5DC
  8
0
 10
1330.89435358569
 20
322.3363752671875
 30
0.0
  0
VERTEX
  5
5DD
  8
0
 10
1331.049807124911
 20
322.3995154949902
 30
0.0
  0
VERTEX
  5
5DE
  8
0
 10
1331.165319525424
 20
322.4715516612696
 30
0.0
  0
VERTEX
  5
5DF
  8
0
 10
1331.236451710449
 20
322.5497154565478
 30
0.0
  0
VERTEX
  5
5E0
  8
0
 10
1331.26047011
 20
322.63100309
 30
0.0
  0
SEQEND
  5
78E
  8
0
  0
POLYLINE
  5
1D4
  8
0
 66
     1
 10
0.0
 20
0.0
 30
0.0
  0
VERTEX
  5
5E1
  8
0
 10
1331.26047011
 20
322.63100309
 30
0.0
  0
VERTEX
  5
5E2
  8
0
 10
1331.236451710559
 20
322.7122907232688
 30
0.0
  0
VERTEX
  5
5E3
  8
0
 10
1331.165319525854
 20
322.7904545183849
 30
0.0
  0
VERTEX
  5
5E4
  8
0
 10
1331.049807125846
 20
322.8624906845434
 30
0.0
  0
VERTEX
  5
5E5
  8
0
 10
1330.894353587276
 20
322.9256309122837
 30
0.0
  0
VERTEX
  5
5E6
  8
0
 10
1330.70493290244
 20
322.9774487580686
 30
0.0
  0
VERTEX
  5
5E7
  8
0
 10
1330.488824402011
 20
323.0159528911489
 30
0.0
  0
VERTEX
  5
5E8
  8
0
 10
1330.254333014446
 20
323.0396636192871
 30
0.0
  0
VERTEX
  5
5E9
  8
0
 10
1330.010470112244
 20
323.0476697525
 30
0.0
  0
VERTEX
  5
5EA
  8
0
 10
1329.766607209955
 20
323.0396636195788
 30
0.0
  0
VERTEX
  5
5EB
  8
0
 10
1329.532115822135
 20
323.0159528917213
 30
0.0
  0
VERTEX
  5
5EC
  8
0
 10
1329.31600732129
 20
322.9774487588996
 30
0.0
  0
VERTEX
  5
5ED
  8
0
 10
1329.126586635897
 20
322.9256309133413
 30
0.0
  0
VERTEX
  5
5EE
  8
0
 10
1328.971133096647
 20
322.8624906857871
 30
0.0
  0
VERTEX
  5
5EF
  8
0
 10
1328.855620695863
 20
322.7904545197667
 30
0.0
  0
VERTEX
  5
5F0
  8
0
 10
1328.784488510317
 20
322.7122907247358
 30
0.0
  0
VERTEX
  5
5F1
  8
0
 10
1328.76047011
 20
322.6310030914957
 30
0.0
  0
SEQEND
  5
78F
  8
0
  0
POLYLINE
  5
1D5
  8
0
 66
     1
 10
0.0
 20
0.0
 30
0.0
  0
VERTEX
  5
5F2
  8
0
 10
1352.14582878
 20
319.6847248314957
 30
0.0
  0
VERTEX
  5
5F3
  8
0
 10
1352.169847178675
 20
319.6034371980148
 30
0.0
  0
VERTEX
  5
5F4
  8
0
 10
1352.240979362859
 20
319.5252734026515
 30
0.0
  0
VERTEX
  5
5F5
  8
0
 10
1352.356491762596
 20
319.4532372362339
 30
0.0
  0
VERTEX
  5
5F6
  8
0
 10
1352.511945301137
 20
319.3900970082451
 30
0.0
  0
VERTEX
  5
5F7
  8
0
 10
1352.70136598616
 20
319.3382791622431
 30
0.0
  0
VERTEX
  5
5F8
  8
0
 10
1352.917474486953
 20
319.2997750289942
 30
0.0
  0
VERTEX
  5
5F9
  8
0
 10
1353.151965875004
 20
319.2760643007494
 30
0.0
  0
VERTEX
  5
5FA
  8
0
 10
1353.395828777756
 20
319.2680581675
 30
0.0
  0
VERTEX
  5
5FB
  8
0
 10
1353.639691680595
 20
319.2760643004576
 30
0.0
  0
VERTEX
  5
5FC
  8
0
 10
1353.874183068902
 20
319.2997750284218
 30
0.0
  0
VERTEX
  5
5FD
  8
0
 10
1354.090291570109
 20
319.3382791614121
 30
0.0
  0
VERTEX
  5
5FE
  8
0
 10
1354.27971225569
 20
319.3900970071875
 30
0.0
  0
VERTEX
  5
5FF
  8
0
 10
1354.435165794911
 20
319.4532372349902
 30
0.0
  0
VERTEX
  5
600
  8
0
 10
1354.550678195425
 20
319.5252734012697
 30
0.0
  0
VERTEX
  5
601
  8
0
 10
1354.621810380449
 20
319.6034371965478
 30
0.0
  0
VERTEX
  5
602
  8
0
 10
1354.64582878
 20
319.68472483
 30
0.0
  0
SEQEND
  5
790
  8
0
  0
POLYLINE
  5
1D6
  8
0
 66
     1
 10
0.0
 20
0.0
 30
0.0
  0
VERTEX
  5
603
  8
0
 10
1354.64582878
 20
319.68472483
 30
0.0
  0
VERTEX
  5
604
  8
0
 10
1354.621810380559
 20
319.7660124632688
 30
0.0
  0
VERTEX
  5
605
  8
0
 10
1354.550678195854
 20
319.8441762583849
 30
0.0
  0
VERTEX
  5
606
  8
0
 10
1354.435165795846
 20
319.9162124245434
 30
0.0
  0
VERTEX
  5
607
  8
0
 10
1354.279712257277
 20
319.9793526522837
 30
0.0
  0
VERTEX
  5
608
  8
0
 10
1354.09029157244
 20
320.0311704980686
 30
0.0
  0
VERTEX
  5
609
  8
0
 10
1353.874183072011
 20
320.0696746311489
 30
0.0
  0
VERTEX
  5
60A
  8
0
 10
1353.639691684446
 20
320.0933853592871
 30
0.0
  0
VERTEX
  5
60B
  8
0
 10
1353.395828782244
 20
320.1013914925
 30
0.0
  0
VERTEX
  5
60C
  8
0
 10
1353.151965879955
 20
320.0933853595789
 30
0.0
  0
VERTEX
  5
60D
  8
0
 10
1352.917474492135
 20
320.0696746317213
 30
0.0
  0
VERTEX
  5
60E
  8
0
 10
1352.701365991291
 20
320.0311704988996
 30
0.0
  0
VERTEX
  5
60F
  8
0
 10
1352.511945305897
 20
319.9793526533413
 30
0.0
  0
VERTEX
  5
610
  8
0
 10
1352.356491766647
 20
319.9162124257871
 30
0.0
  0
VERTEX
  5
611
  8
0
 10
1352.240979365863
 20
319.8441762597668
 30
0.0
  0
VERTEX
  5
612
  8
0
 10
1352.169847180317
 20
319.7660124647358
 30
0.0
  0
VERTEX
  5
613
  8
0
 10
1352.14582878
 20
319.6847248314957
 30
0.0
  0
SEQEND
  5
791
  8
0
  0
POLYLINE
  5
1D7
  8
0
 66
     1
 10
0.0
 20
0.0
 30
0.0
  0
VERTEX
  5
614
  8
0
 10
1375.53118745
 20
316.7384465814957
 30
0.0
  0
VERTEX
  5
615
  8
0
 10
1375.555205848675
 20
316.6571589480148
 30
0.0
  0
VERTEX
  5
616
  8
0
 10
1375.626338032858
 20
316.5789951526515
 30
0.0
  0
VERTEX
  5
617
  8
0
 10
1375.741850432596
 20
316.5069589862339
 30
0.0
  0
VERTEX
  5
618
  8
0
 10
1375.897303971137
 20
316.4438187582451
 30
0.0
  0
VERTEX
  5
619
  8
0
 10
1376.08672465616
 20
316.3920009122431
 30
0.0
  0
VERTEX
  5
61A
  8
0
 10
1376.302833156953
 20
316.3534967789942
 30
0.0
  0
VERTEX
  5
61B
  8
0
 10
1376.537324545004
 20
316.3297860507494
 30
0.0
  0
VERTEX
  5
61C
  8
0
 10
1376.781187447756
 20
316.3217799175
 30
0.0
  0
VERTEX
  5
61D
  8
0
 10
1377.025050350595
 20
316.3297860504576
 30
0.0
  0
VERTEX
  5
61E
  8
0
 10
1377.259541738902
 20
316.3534967784219
 30
0.0
  0
VERTEX
  5
61F
  8
0
 10
1377.475650240109
 20
316.3920009114121
 30
0.0
  0
VERTEX
  5
620
  8
0
 10
1377.66507092569
 20
316.4438187571875
 30
0.0
  0
VERTEX
  5
621
  8
0
 10
1377.820524464911
 20
316.5069589849902
 30
0.0
  0
VERTEX
  5
622
  8
0
 10
1377.936036865425
 20
316.5789951512697
 30
0.0
  0
VERTEX
  5
623
  8
0
 10
1378.007169050449
 20
316.6571589465478
 30
0.0
  0
VERTEX
  5
624
  8
0
 10
1378.03118745
 20
316.73844658
 30
0.0
  0
SEQEND
  5
792
  8
0
  0
POLYLINE
  5
1D8
  8
0
 66
     1
 10
0.0
 20
0.0
 30
0.0
  0
VERTEX
  5
625
  8
0
 10
1378.03118745
 20
316.73844658
 30
0.0
  0
VERTEX
  5
626
  8
0
 10
1378.007169050559
 20
316.8197342132688
 30
0.0
  0
VERTEX
  5
627
  8
0
 10
1377.936036865854
 20
316.8978980083849
 30
0.0
  0
VERTEX
  5
628
  8
0
 10
1377.820524465846
 20
316.9699341745434
 30
0.0
  0
VERTEX
  5
629
  8
0
 10
1377.665070927276
 20
317.0330744022837
 30
0.0
  0
VERTEX
  5
62A
  8
0
 10
1377.47565024244
 20
317.0848922480686
 30
0.0
  0
VERTEX
  5
62B
  8
0
 10
1377.259541742011
 20
317.1233963811489
 30
0.0
  0
VERTEX
  5
62C
  8
0
 10
1377.025050354446
 20
317.1471071092871
 30
0.0
  0
VERTEX
  5
62D
  8
0
 10
1376.781187452244
 20
317.1551132425
 30
0.0
  0
VERTEX
  5
62E
  8
0
 10
1376.537324549955
 20
317.1471071095789
 30
0.0
  0
VERTEX
  5
62F
  8
0
 10
1376.302833162135
 20
317.1233963817213
 30
0.0
  0
VERTEX
  5
630
  8
0
 10
1376.086724661291
 20
317.0848922488996
 30
0.0
  0
VERTEX
  5
631
  8
0
 10
1375.897303975897
 20
317.0330744033413
 30
0.0
  0
VERTEX
  5
632
  8
0
 10
1375.741850436647
 20
316.9699341757871
 30
0.0
  0
VERTEX
  5
633
  8
0
 10
1375.626338035863
 20
316.8978980097668
 30
0.0
  0
VERTEX
  5
634
  8
0
 10
1375.555205850317
 20
316.8197342147358
 30
0.0
  0
VERTEX
  5
635
  8
0
 10
1375.53118745
 20
316.7384465814957
 30
0.0
  0
SEQEND
  5
793
  8
0
  0
POLYLINE
  5
1D9
  8
0
 66
     1
 10
0.0
 20
0.0
 30
0.0
  0
VERTEX
  5
636
  8
0
 10
1398.91654612
 20
313.7921683214957
 30
0.0
  0
VERTEX
  5
637
  8
0
 10
1398.940564518675
 20
313.7108806880148
 30
0.0
  0
VERTEX
  5
638
  8
0
 10
1399.011696702858
 20
313.6327168926515
 30
0.0
  0
VERTEX
  5
639
  8
0
 10
1399.127209102596
 20
313.5606807262338
 30
0.0
  0
VERTEX
  5
63A
  8
0
 10
1399.282662641137
 20
313.4975404982451
 30
0.0
  0
VERTEX
  5
63B
  8
0
 10
1399.47208332616
 20
313.445722652243
 30
0.0
  0
VERTEX
  5
63C
  8
0
 10
1399.688191826953
 20
313.4072185189942
 30
0.0
  0
VERTEX
  5
63D
  8
0
 10
1399.922683215004
 20
313.3835077907494
 30
0.0
  0
VERTEX
  5
63E
  8
0
 10
1400.166546117756
 20
313.3755016575
 30
0.0
  0
VERTEX
  5
63F
  8
0
 10
1400.410409020595
 20
313.3835077904575
 30
0.0
  0
VERTEX
  5
640
  8
0
 10
1400.644900408902
 20
313.4072185184218
 30
0.0
  0
VERTEX
  5
641
  8
0
 10
1400.861008910109
 20
313.445722651412
 30
0.0
  0
VERTEX
  5
642
  8
0
 10
1401.05042959569
 20
313.4975404971875
 30
0.0
  0
VERTEX
  5
643
  8
0
 10
1401.205883134911
 20
313.5606807249902
 30
0.0
  0
VERTEX
  5
644
  8
0
 10
1401.321395535424
 20
313.6327168912696
 30
0.0
  0
VERTEX
  5
645
  8
0
 10
1401.392527720449
 20
313.7108806865478
 30
0.0
  0
VERTEX
  5
646
  8
0
 10
1401.41654612
 20
313.79216832
 30
0.0
  0
SEQEND
  5
794
  8
0
  0
POLYLINE
  5
1DA
  8
0
 66
     1
 10
0.0
 20
0.0
 30
0.0
  0
VERTEX
  5
647
  8
0
 10
1401.41654612
 20
313.79216832
 30
0.0
  0
VERTEX
  5
648
  8
0
 10
1401.392527720559
 20
313.8734559532688
 30
0.0
  0
VERTEX
  5
649
  8
0
 10
1401.321395535854
 20
313.9516197483849
 30
0.0
  0
VERTEX
  5
64A
  8
0
 10
1401.205883135846
 20
314.0236559145434
 30
0.0
  0
VERTEX
  5
64B
  8
0
 10
1401.050429597276
 20
314.0867961422837
 30
0.0
  0
VERTEX
  5
64C
  8
0
 10
1400.86100891244
 20
314.1386139880686
 30
0.0
  0
VERTEX
  5
64D
  8
0
 10
1400.644900412011
 20
314.1771181211489
 30
0.0
  0
VERTEX
  5
64E
  8
0
 10
1400.410409024446
 20
314.2008288492871
 30
0.0
  0
VERTEX
  5
64F
  8
0
 10
1400.166546122244
 20
314.2088349825
 30
0.0
  0
VERTEX
  5
650
  8
0
 10
1399.922683219955
 20
314.2008288495788
 30
0.0
  0
VERTEX
  5
651
  8
0
 10
1399.688191832135
 20
314.1771181217213
 30
0.0
  0
VERTEX
  5
652
  8
0
 10
1399.472083331291
 20
314.1386139888996
 30
0.0
  0
VERTEX
  5
653
  8
0
 10
1399.282662645897
 20
314.0867961433413
 30
0.0
  0
VERTEX
  5
654
  8
0
 10
1399.127209106647
 20
314.0236559157871
 30
0.0
  0
VERTEX
  5
655
  8
0
 10
1399.011696705863
 20
313.9516197497667
 30
0.0
  0
VERTEX
  5
656
  8
0
 10
1398.940564520317
 20
313.8734559547358
 30
0.0
  0
VERTEX
  5
657
  8
0
 10
1398.91654612
 20
313.7921683214957
 30
0.0
  0
SEQEND
  5
795
  8
0
  0
POLYLINE
  5
1DB
  8
0
 66
     1
 10
0.0
 20
0.0
 30
0.0
  0
VERTEX
  5
658
  8
0
 10
1422.30190478
 20
310.8458900714957
 30
0.0
  0
VERTEX
  5
659
  8
0
 10
1422.325923178675
 20
310.7646024380148
 30
0.0
  0
VERTEX
  5
65A
  8
0
 10
1422.397055362859
 20
310.6864386426515
 30
0.0
  0
VERTEX
  5
65B
  8
0
 10
1422.512567762596
 20
310.6144024762339
 30
0.0
  0
VERTEX
  5
65C
  8
0
 10
1422.668021301137
 20
310.5512622482451
 30
0.0
  0
VERTEX
  5
65D
  8
0
 10
1422.85744198616
 20
310.4994444022431
 30
0.0
  0
VERTEX
  5
65E
  8
0
 10
1423.073550486953
 20
310.4609402689942
 30
0.0
  0
VERTEX
  5
65F
  8
0
 10
1423.308041875004
 20
310.4372295407494
 30
0.0
  0
VERTEX
  5
660
  8
0
 10
1423.551904777756
 20
310.4292234075
 30
0.0
  0
VERTEX
  5
661
  8
0
 10
1423.795767680595
 20
310.4372295404576
 30
0.0
  0
VERTEX
  5
662
  8
0
 10
1424.030259068902
 20
310.4609402684218
 30
0.0
  0
VERTEX
  5
663
  8
0
 10
1424.246367570109
 20
310.4994444014121
 30
0.0
  0
VERTEX
  5
664
  8
0
 10
1424.43578825569
 20
310.5512622471875
 30
0.0
  0
VERTEX
  5
665
  8
0
 10
1424.591241794911
 20
310.6144024749902
 30
0.0
  0
VERTEX
  5
666
  8
0
 10
1424.706754195425
 20
310.6864386412697
 30
0.0
  0
VERTEX
  5
667
  8
0
 10
1424.777886380449
 20
310.7646024365478
 30
0.0
  0
VERTEX
  5
668
  8
0
 10
1424.80190478
 20
310.84589007
 30
0.0
  0
SEQEND
  5
796
  8
0
  0
POLYLINE
  5
1DC
  8
0
 66
     1
 10
0.0
 20
0.0
 30
0.0
  0
VERTEX
  5
669
  8
0
 10
1424.80190478
 20
310.84589007
 30
0.0
  0
VERTEX
  5
66A
  8
0
 10
1424.777886380559
 20
310.9271777032688
 30
0.0
  0
VERTEX
  5
66B
  8
0
 10
1424.706754195854
 20
311.0053414983849
 30
0.0
  0
VERTEX
  5
66C
  8
0
 10
1424.591241795846
 20
311.0773776645434
 30
0.0
  0
VERTEX
  5
66D
  8
0
 10
1424.435788257276
 20
311.1405178922837
 30
0.0
  0
VERTEX
  5
66E
  8
0
 10
1424.24636757244
 20
311.1923357380686
 30
0.0
  0
VERTEX
  5
66F
  8
0
 10
1424.030259072011
 20
311.2308398711489
 30
0.0
  0
VERTEX
  5
670
  8
0
 10
1423.795767684446
 20
311.2545505992871
 30
0.0
  0
VERTEX
  5
671
  8
0
 10
1423.551904782244
 20
311.2625567325
 30
0.0
  0
VERTEX
  5
672
  8
0
 10
1423.308041879955
 20
311.2545505995789
 30
0.0
  0
VERTEX
  5
673
  8
0
 10
1423.073550492135
 20
311.2308398717213
 30
0.0
  0
VERTEX
  5
674
  8
0
 10
1422.857441991291
 20
311.1923357388996
 30
0.0
  0
VERTEX
  5
675
  8
0
 10
1422.668021305897
 20
311.1405178933413
 30
0.0
  0
VERTEX
  5
676
  8
0
 10
1422.512567766647
 20
311.0773776657871
 30
0.0
  0
VERTEX
  5
677
  8
0
 10
1422.397055365863
 20
311.0053414997668
 30
0.0
  0
VERTEX
  5
678
  8
0
 10
1422.325923180317
 20
310.9271777047358
 30
0.0
  0
VERTEX
  5
679
  8
0
 10
1422.30190478
 20
310.8458900714957
 30
0.0
  0
SEQEND
  5
797
  8
0
  0
POLYLINE
  5
1DD
  8
0
 66
     1
 10
0.0
 20
0.0
 30
0.0
  0
VERTEX
  5
67A
  8
0
 10
1266.93831624
 20
327.0345533014957
 30
0.0
  0
VERTEX
  5
67B
  8
0
 10
1266.962334638675
 20
326.9532656680148
 30
0.0
  0
VERTEX
  5
67C
  8
0
 10
1267.033466822858
 20
326.8751018726516
 30
0.0
  0
VERTEX
  5
67D
  8
0
 10
1267.148979222596
 20
326.8030657062339
 30
0.0
  0
VERTEX
  5
67E
  8
0
 10
1267.304432761137
 20
326.7399254782451
 30
0.0
  0
VERTEX
  5
67F
  8
0
 10
1267.49385344616
 20
326.6881076322431
 30
0.0
  0
VERTEX
  5
680
  8
0
 10
1267.709961946952
 20
326.6496034989942
 30
0.0
  0
VERTEX
  5
681
  8
0
 10
1267.944453335004
 20
326.6258927707494
 30
0.0
  0
VERTEX
  5
682
  8
0
 10
1268.188316237756
 20
326.6178866375
 30
0.0
  0
VERTEX
  5
683
  8
0
 10
1268.432179140595
 20
326.6258927704576
 30
0.0
  0
VERTEX
  5
684
  8
0
 10
1268.666670528902
 20
326.6496034984219
 30
0.0
  0
VERTEX
  5
685
  8
0
 10
1268.882779030109
 20
326.6881076314121
 30
0.0
  0
VERTEX
  5
686
  8
0
 10
1269.07219971569
 20
326.7399254771875
 30
0.0
  0
VERTEX
  5
687
  8
0
 10
1269.227653254911
 20
326.8030657049902
 30
0.0
  0
VERTEX
  5
688
  8
0
 10
1269.343165655424
 20
326.8751018712697
 30
0.0
  0
VERTEX
  5
689
  8
0
 10
1269.414297840449
 20
326.9532656665478
 30
0.0
  0
VERTEX
  5
68A
  8
0
 10
1269.43831624
 20
327.0345533
 30
0.0
  0
SEQEND
  5
798
  8
0
  0
POLYLINE
  5
1DE
  8
0
 66
     1
 10
0.0
 20
0.0
 30
0.0
  0
VERTEX
  5
68B
  8
0
 10
1269.43831624
 20
327.0345533
 30
0.0
  0
VERTEX
  5
68C
  8
0
 10
1269.414297840559
 20
327.1158409332688
 30
0.0
  0
VERTEX
  5
68D
  8
0
 10
1269.343165655854
 20
327.1940047283849
 30
0.0
  0
VERTEX
  5
68E
  8
0
 10
1269.227653255846
 20
327.2660408945434
 30
0.0
  0
VERTEX
  5
68F
  8
0
 10
1269.072199717276
 20
327.3291811222837
 30
0.0
  0
VERTEX
  5
690
  8
0
 10
1268.88277903244
 20
327.3809989680686
 30
0.0
  0
VERTEX
  5
691
  8
0
 10
1268.666670532011
 20
327.4195031011489
 30
0.0
  0
VERTEX
  5
692
  8
0
 10
1268.432179144446
 20
327.4432138292871
 30
0.0
  0
VERTEX
  5
693
  8
0
 10
1268.188316242244
 20
327.4512199625
 30
0.0
  0
VERTEX
  5
694
  8
0
 10
1267.944453339955
 20
327.4432138295789
 30
0.0
  0
VERTEX
  5
695
  8
0
 10
1267.709961952135
 20
327.4195031017213
 30
0.0
  0
VERTEX
  5
696
  8
0
 10
1267.493853451291
 20
327.3809989688996
 30
0.0
  0
VERTEX
  5
697
  8
0
 10
1267.304432765897
 20
327.3291811233414
 30
0.0
  0
VERTEX
  5
698
  8
0
 10
1267.148979226647
 20
327.2660408957871
 30
0.0
  0
VERTEX
  5
699
  8
0
 10
1267.033466825863
 20
327.1940047297668
 30
0.0
  0
VERTEX
  5
69A
  8
0
 10
1266.962334640317
 20
327.1158409347358
 30
0.0
  0
VERTEX
  5
69B
  8
0
 10
1266.93831624
 20
327.0345533014957
 30
0.0
  0
SEQEND
  5
799
  8
0
  0
POLYLINE
  5
1DF
  8
0
 66
     1
 10
0.0
 20
0.0
 30
0.0
  0
VERTEX
  5
69C
  8
0
 10
1290.3236749
 20
324.0882750414957
 30
0.0
  0
VERTEX
  5
69D
  8
0
 10
1290.347693298675
 20
324.0069874080148
 30
0.0
  0
VERTEX
  5
69E
  8
0
 10
1290.418825482858
 20
323.9288236126515
 30
0.0
  0
VERTEX
  5
69F
  8
0
 10
1290.534337882596
 20
323.8567874462339
 30
0.0
  0
VERTEX
  5
6A0
  8
0
 10
1290.689791421137
 20
323.7936472182451
 30
0.0
  0
VERTEX
  5
6A1
  8
0
 10
1290.87921210616
 20
323.741829372243
 30
0.0
  0
VERTEX
  5
6A2
  8
0
 10
1291.095320606953
 20
323.7033252389942
 30
0.0
  0
VERTEX
  5
6A3
  8
0
 10
1291.329811995004
 20
323.6796145107494
 30
0.0
  0
VERTEX
  5
6A4
  8
0
 10
1291.573674897756
 20
323.6716083775
 30
0.0
  0
VERTEX
  5
6A5
  8
0
 10
1291.817537800595
 20
323.6796145104576
 30
0.0
  0
VERTEX
  5
6A6
  8
0
 10
1292.052029188902
 20
323.7033252384218
 30
0.0
  0
VERTEX
  5
6A7
  8
0
 10
1292.268137690109
 20
323.7418293714121
 30
0.0
  0
VERTEX
  5
6A8
  8
0
 10
1292.45755837569
 20
323.7936472171875
 30
0.0
  0
VERTEX
  5
6A9
  8
0
 10
1292.613011914911
 20
323.8567874449902
 30
0.0
  0
VERTEX
  5
6AA
  8
0
 10
1292.728524315424
 20
323.9288236112696
 30
0.0
  0
VERTEX
  5
6AB
  8
0
 10
1292.799656500449
 20
324.0069874065478
 30
0.0
  0
VERTEX
  5
6AC
  8
0
 10
1292.8236749
 20
324.08827504
 30
0.0
  0
SEQEND
  5
79A
  8
0
  0
POLYLINE
  5
1E0
  8
0
 66
     1
 10
0.0
 20
0.0
 30
0.0
  0
VERTEX
  5
6AD
  8
0
 10
1292.8236749
 20
324.08827504
 30
0.0
  0
VERTEX
  5
6AE
  8
0
 10
1292.799656500559
 20
324.1695626732688
 30
0.0
  0
VERTEX
  5
6AF
  8
0
 10
1292.728524315854
 20
324.2477264683849
 30
0.0
  0
VERTEX
  5
6B0
  8
0
 10
1292.613011915846
 20
324.3197626345434
 30
0.0
  0
VERTEX
  5
6B1
  8
0
 10
1292.457558377276
 20
324.3829028622837
 30
0.0
  0
VERTEX
  5
6B2
  8
0
 10
1292.26813769244
 20
324.4347207080686
 30
0.0
  0
VERTEX
  5
6B3
  8
0
 10
1292.052029192011
 20
324.4732248411489
 30
0.0
  0
VERTEX
  5
6B4
  8
0
 10
1291.817537804446
 20
324.4969355692871
 30
0.0
  0
VERTEX
  5
6B5
  8
0
 10
1291.573674902244
 20
324.5049417025
 30
0.0
  0
VERTEX
  5
6B6
  8
0
 10
1291.329811999955
 20
324.4969355695789
 30
0.0
  0
VERTEX
  5
6B7
  8
0
 10
1291.095320612135
 20
324.4732248417213
 30
0.0
  0
VERTEX
  5
6B8
  8
0
 10
1290.879212111291
 20
324.4347207088996
 30
0.0
  0
VERTEX
  5
6B9
  8
0
 10
1290.689791425897
 20
324.3829028633413
 30
0.0
  0
VERTEX
  5
6BA
  8
0
 10
1290.534337886647
 20
324.3197626357871
 30
0.0
  0
VERTEX
  5
6BB
  8
0
 10
1290.418825485863
 20
324.2477264697667
 30
0.0
  0
VERTEX
  5
6BC
  8
0
 10
1290.347693300317
 20
324.1695626747358
 30
0.0
  0
VERTEX
  5
6BD
  8
0
 10
1290.3236749
 20
324.0882750414957
 30
0.0
  0
SEQEND
  5
79B
  8
0
  0
POLYLINE
  5
1E1
  8
0
 66
     1
 10
0.0
 20
0.0
 30
0.0
  0
VERTEX
  5
6BE
  8
0
 10
1313.70903357
 20
321.1419967914957
 30
0.0
  0
VERTEX
  5
6BF
  8
0
 10
1313.733051968675
 20
321.0607091580148
 30
0.0
  0
VERTEX
  5
6C0
  8
0
 10
1313.804184152858
 20
320.9825453626515
 30
0.0
  0
VERTEX
  5
6C1
  8
0
 10
1313.919696552596
 20
320.9105091962339
 30
0.0
  0
VERTEX
  5
6C2
  8
0
 10
1314.075150091137
 20
320.8473689682451
 30
0.0
  0
VERTEX
  5
6C3
  8
0
 10
1314.26457077616
 20
320.7955511222431
 30
0.0
  0
VERTEX
  5
6C4
  8
0
 10
1314.480679276953
 20
320.7570469889942
 30
0.0
  0
VERTEX
  5
6C5
  8
0
 10
1314.715170665004
 20
320.7333362607494
 30
0.0
  0
VERTEX
  5
6C6
  8
0
 10
1314.959033567756
 20
320.7253301275
 30
0.0
  0
VERTEX
  5
6C7
  8
0
 10
1315.202896470595
 20
320.7333362604576
 30
0.0
  0
VERTEX
  5
6C8
  8
0
 10
1315.437387858902
 20
320.7570469884218
 30
0.0
  0
VERTEX
  5
6C9
  8
0
 10
1315.653496360109
 20
320.7955511214121
 30
0.0
  0
VERTEX
  5
6CA
  8
0
 10
1315.84291704569
 20
320.8473689671875
 30
0.0
  0
VERTEX
  5
6CB
  8
0
 10
1315.998370584911
 20
320.9105091949902
 30
0.0
  0
VERTEX
  5
6CC
  8
0
 10
1316.113882985424
 20
320.9825453612697
 30
0.0
  0
VERTEX
  5
6CD
  8
0
 10
1316.185015170449
 20
321.0607091565478
 30
0.0
  0
VERTEX
  5
6CE
  8
0
 10
1316.20903357
 20
321.14199679
 30
0.0
  0
SEQEND
  5
79C
  8
0
  0
POLYLINE
  5
1E2
  8
0
 66
     1
 10
0.0
 20
0.0
 30
0.0
  0
VERTEX
  5
6CF
  8
0
 10
1316.20903357
 20
321.14199679
 30
0.0
  0
VERTEX
  5
6D0
  8
0
 10
1316.185015170559
 20
321.2232844232688
 30
0.0
  0
VERTEX
  5
6D1
  8
0
 10
1316.113882985854
 20
321.3014482183849
 30
0.0
  0
VERTEX
  5
6D2
  8
0
 10
1315.998370585846
 20
321.3734843845434
 30
0.0
  0
VERTEX
  5
6D3
  8
0
 10
1315.842917047276
 20
321.4366246122837
 30
0.0
  0
VERTEX
  5
6D4
  8
0
 10
1315.65349636244
 20
321.4884424580686
 30
0.0
  0
VERTEX
  5
6D5
  8
0
 10
1315.437387862011
 20
321.5269465911489
 30
0.0
  0
VERTEX
  5
6D6
  8
0
 10
1315.202896474446
 20
321.5506573192871
 30
0.0
  0
VERTEX
  5
6D7
  8
0
 10
1314.959033572244
 20
321.5586634525
 30
0.0
  0
VERTEX
  5
6D8
  8
0
 10
1314.715170669955
 20
321.5506573195789
 30
0.0
  0
VERTEX
  5
6D9
  8
0
 10
1314.480679282135
 20
321.5269465917213
 30
0.0
  0
VERTEX
  5
6DA
  8
0
 10
1314.264570781291
 20
321.4884424588996
 30
0.0
  0
VERTEX
  5
6DB
  8
0
 10
1314.075150095897
 20
321.4366246133413
 30
0.0
  0
VERTEX
  5
6DC
  8
0
 10
1313.919696556647
 20
321.3734843857871
 30
0.0
  0
VERTEX
  5
6DD
  8
0
 10
1313.804184155863
 20
321.3014482197668
 30
0.0
  0
VERTEX
  5
6DE
  8
0
 10
1313.733051970317
 20
321.2232844247358
 30
0.0
  0
VERTEX
  5
6DF
  8
0
 10
1313.70903357
 20
321.1419967914957
 30
0.0
  0
SEQEND
  5
79D
  8
0
  0
POLYLINE
  5
1E3
  8
0
 66
     1
 10
0.0
 20
0.0
 30
0.0
  0
VERTEX
  5
6E0
  8
0
 10
1337.09439224
 20
318.1957185314957
 30
0.0
  0
VERTEX
  5
6E1
  8
0
 10
1337.118410638675
 20
318.1144308980148
 30
0.0
  0
VERTEX
  5
6E2
  8
0
 10
1337.189542822858
 20
318.0362671026515
 30
0.0
  0
VERTEX
  5
6E3
  8
0
 10
1337.305055222596
 20
317.9642309362339
 30
0.0
  0
VERTEX
  5
6E4
  8
0
 10
1337.460508761137
 20
317.9010907082451
 30
0.0
  0
VERTEX
  5
6E5
  8
0
 10
1337.64992944616
 20
317.8492728622431
 30
0.0
  0
VERTEX
  5
6E6
  8
0
 10
1337.866037946952
 20
317.8107687289942
 30
0.0
  0
VERTEX
  5
6E7
  8
0
 10
1338.100529335004
 20
317.7870580007494
 30
0.0
  0
VERTEX
  5
6E8
  8
0
 10
1338.344392237756
 20
317.7790518675
 30
0.0
  0
VERTEX
  5
6E9
  8
0
 10
1338.588255140595
 20
317.7870580004576
 30
0.0
  0
VERTEX
  5
6EA
  8
0
 10
1338.822746528902
 20
317.8107687284219
 30
0.0
  0
VERTEX
  5
6EB
  8
0
 10
1339.038855030109
 20
317.8492728614121
 30
0.0
  0
VERTEX
  5
6EC
  8
0
 10
1339.22827571569
 20
317.9010907071875
 30
0.0
  0
VERTEX
  5
6ED
  8
0
 10
1339.383729254911
 20
317.9642309349902
 30
0.0
  0
VERTEX
  5
6EE
  8
0
 10
1339.499241655424
 20
318.0362671012697
 30
0.0
  0
VERTEX
  5
6EF
  8
0
 10
1339.570373840449
 20
318.1144308965478
 30
0.0
  0
VERTEX
  5
6F0
  8
0
 10
1339.59439224
 20
318.19571853
 30
0.0
  0
SEQEND
  5
79E
  8
0
  0
POLYLINE
  5
1E4
  8
0
 66
     1
 10
0.0
 20
0.0
 30
0.0
  0
VERTEX
  5
6F1
  8
0
 10
1339.59439224
 20
318.19571853
 30
0.0
  0
VERTEX
  5
6F2
  8
0
 10
1339.570373840559
 20
318.2770061632688
 30
0.0
  0
VERTEX
  5
6F3
  8
0
 10
1339.499241655854
 20
318.3551699583849
 30
0.0
  0
VERTEX
  5
6F4
  8
0
 10
1339.383729255846
 20
318.4272061245434
 30
0.0
  0
VERTEX
  5
6F5
  8
0
 10
1339.228275717276
 20
318.4903463522837
 30
0.0
  0
VERTEX
  5
6F6
  8
0
 10
1339.03885503244
 20
318.5421641980686
 30
0.0
  0
VERTEX
  5
6F7
  8
0
 10
1338.822746532011
 20
318.5806683311489
 30
0.0
  0
VERTEX
  5
6F8
  8
0
 10
1338.588255144446
 20
318.6043790592871
 30
0.0
  0
VERTEX
  5
6F9
  8
0
 10
1338.344392242244
 20
318.6123851925
 30
0.0
  0
VERTEX
  5
6FA
  8
0
 10
1338.100529339955
 20
318.6043790595789
 30
0.0
  0
VERTEX
  5
6FB
  8
0
 10
1337.866037952135
 20
318.5806683317213
 30
0.0
  0
VERTEX
  5
6FC
  8
0
 10
1337.649929451291
 20
318.5421641988996
 30
0.0
  0
VERTEX
  5
6FD
  8
0
 10
1337.460508765897
 20
318.4903463533414
 30
0.0
  0
VERTEX
  5
6FE
  8
0
 10
1337.305055226647
 20
318.4272061257871
 30
0.0
  0
VERTEX
  5
6FF
  8
0
 10
1337.189542825863
 20
318.3551699597668
 30
0.0
  0
VERTEX
  5
700
  8
0
 10
1337.118410640317
 20
318.2770061647358
 30
0.0
  0
VERTEX
  5
701
  8
0
 10
1337.09439224
 20
318.1957185314957
 30
0.0
  0
SEQEND
  5
79F
  8
0
  0
POLYLINE
  5
1E5
  8
0
 66
     1
 10
0.0
 20
0.0
 30
0.0
  0
VERTEX
  5
702
  8
0
 10
1360.4797509
 20
315.2494402814957
 30
0.0
  0
VERTEX
  5
703
  8
0
 10
1360.503769298675
 20
315.1681526480148
 30
0.0
  0
VERTEX
  5
704
  8
0
 10
1360.574901482858
 20
315.0899888526515
 30
0.0
  0
VERTEX
  5
705
  8
0
 10
1360.690413882596
 20
315.0179526862339
 30
0.0
  0
VERTEX
  5
706
  8
0
 10
1360.845867421137
 20
314.9548124582451
 30
0.0
  0
VERTEX
  5
707
  8
0
 10
1361.03528810616
 20
314.902994612243
 30
0.0
  0
VERTEX
  5
708
  8
0
 10
1361.251396606953
 20
314.8644904789942
 30
0.0
  0
VERTEX
  5
709
  8
0
 10
1361.485887995004
 20
314.8407797507494
 30
0.0
  0
VERTEX
  5
70A
  8
0
 10
1361.729750897756
 20
314.8327736175
 30
0.0
  0
VERTEX
  5
70B
  8
0
 10
1361.973613800595
 20
314.8407797504576
 30
0.0
  0
VERTEX
  5
70C
  8
0
 10
1362.208105188902
 20
314.8644904784218
 30
0.0
  0
VERTEX
  5
70D
  8
0
 10
1362.424213690109
 20
314.9029946114121
 30
0.0
  0
VERTEX
  5
70E
  8
0
 10
1362.61363437569
 20
314.9548124571875
 30
0.0
  0
VERTEX
  5
70F
  8
0
 10
1362.769087914911
 20
315.0179526849902
 30
0.0
  0
VERTEX
  5
710
  8
0
 10
1362.884600315424
 20
315.0899888512697
 30
0.0
  0
VERTEX
  5
711
  8
0
 10
1362.955732500449
 20
315.1681526465478
 30
0.0
  0
VERTEX
  5
712
  8
0
 10
1362.9797509
 20
315.24944028
 30
0.0
  0
SEQEND
  5
7A0
  8
0
  0
POLYLINE
  5
1E6
  8
0
 66
     1
 10
0.0
 20
0.0
 30
0.0
  0
VERTEX
  5
713
  8
0
 10
1362.9797509
 20
315.24944028
 30
0.0
  0
VERTEX
  5
714
  8
0
 10
1362.955732500559
 20
315.3307279132688
 30
0.0
  0
VERTEX
  5
715
  8
0
 10
1362.884600315854
 20
315.4088917083849
 30
0.0
  0
VERTEX
  5
716
  8
0
 10
1362.769087915846
 20
315.4809278745434
 30
0.0
  0
VERTEX
  5
717
  8
0
 10
1362.613634377276
 20
315.5440681022837
 30
0.0
  0
VERTEX
  5
718
  8
0
 10
1362.42421369244
 20
315.5958859480686
 30
0.0
  0
VERTEX
  5
719
  8
0
 10
1362.208105192011
 20
315.6343900811489
 30
0.0
  0
VERTEX
  5
71A
  8
0
 10
1361.973613804446
 20
315.6581008092871
 30
0.0
  0
VERTEX
  5
71B
  8
0
 10
1361.729750902244
 20
315.6661069425
 30
0.0
  0
VERTEX
  5
71C
  8
0
 10
1361.485887999955
 20
315.6581008095789
 30
0.0
  0
VERTEX
  5
71D
  8
0
 10
1361.251396612135
 20
315.6343900817213
 30
0.0
  0
VERTEX
  5
71E
  8
0
 10
1361.035288111291
 20
315.5958859488996
 30
0.0
  0
VERTEX
  5
71F
  8
0
 10
1360.845867425897
 20
315.5440681033413
 30
0.0
  0
VERTEX
  5
720
  8
0
 10
1360.690413886647
 20
315.4809278757871
 30
0.0
  0
VERTEX
  5
721
  8
0
 10
1360.574901485863
 20
315.4088917097667
 30
0.0
  0
VERTEX
  5
722
  8
0
 10
1360.503769300317
 20
315.3307279147358
 30
0.0
  0
VERTEX
  5
723
  8
0
 10
1360.4797509
 20
315.2494402814957
 30
0.0
  0
SEQEND
  5
7A1
  8
0
  0
POLYLINE
  5
1E7
  8
0
 66
     1
 10
0.0
 20
0.0
 30
0.0
  0
VERTEX
  5
724
  8
0
 10
1383.86510957
 20
312.3031620214957
 30
0.0
  0
VERTEX
  5
725
  8
0
 10
1383.889127968675
 20
312.2218743880148
 30
0.0
  0
VERTEX
  5
726
  8
0
 10
1383.960260152858
 20
312.1437105926515
 30
0.0
  0
VERTEX
  5
727
  8
0
 10
1384.075772552596
 20
312.0716744262339
 30
0.0
  0
VERTEX
  5
728
  8
0
 10
1384.231226091137
 20
312.0085341982451
 30
0.0
  0
VERTEX
  5
729
  8
0
 10
1384.42064677616
 20
311.9567163522431
 30
0.0
  0
VERTEX
  5
72A
  8
0
 10
1384.636755276952
 20
311.9182122189942
 30
0.0
  0
VERTEX
  5
72B
  8
0
 10
1384.871246665004
 20
311.8945014907494
 30
0.0
  0
VERTEX
  5
72C
  8
0
 10
1385.115109567756
 20
311.8864953575
 30
0.0
  0
VERTEX
  5
72D
  8
0
 10
1385.358972470595
 20
311.8945014904576
 30
0.0
  0
VERTEX
  5
72E
  8
0
 10
1385.593463858902
 20
311.9182122184218
 30
0.0
  0
VERTEX
  5
72F
  8
0
 10
1385.809572360109
 20
311.9567163514121
 30
0.0
  0
VERTEX
  5
730
  8
0
 10
1385.99899304569
 20
312.0085341971875
 30
0.0
  0
VERTEX
  5
731
  8
0
 10
1386.154446584911
 20
312.0716744249902
 30
0.0
  0
VERTEX
  5
732
  8
0
 10
1386.269958985424
 20
312.1437105912697
 30
0.0
  0
VERTEX
  5
733
  8
0
 10
1386.341091170449
 20
312.2218743865478
 30
0.0
  0
VERTEX
  5
734
  8
0
 10
1386.36510957
 20
312.30316202
 30
0.0
  0
SEQEND
  5
7A2
  8
0
  0
POLYLINE
  5
1E8
  8
0
 66
     1
 10
0.0
 20
0.0
 30
0.0
  0
VERTEX
  5
735
  8
0
 10
1386.36510957
 20
312.30316202
 30
0.0
  0
VERTEX
  5
736
  8
0
 10
1386.341091170559
 20
312.3844496532688
 30
0.0
  0
VERTEX
  5
737
  8
0
 10
1386.269958985854
 20
312.4626134483849
 30
0.0
  0
VERTEX
  5
738
  8
0
 10
1386.154446585846
 20
312.5346496145434
 30
0.0
  0
VERTEX
  5
739
  8
0
 10
1385.998993047276
 20
312.5977898422837
 30
0.0
  0
VERTEX
  5
73A
  8
0
 10
1385.80957236244
 20
312.6496076880686
 30
0.0
  0
VERTEX
  5
73B
  8
0
 10
1385.593463862011
 20
312.6881118211489
 30
0.0
  0
VERTEX
  5
73C
  8
0
 10
1385.358972474446
 20
312.7118225492871
 30
0.0
  0
VERTEX
  5
73D
  8
0
 10
1385.115109572244
 20
312.7198286825
 30
0.0
  0
VERTEX
  5
73E
  8
0
 10
1384.871246669955
 20
312.7118225495789
 30
0.0
  0
VERTEX
  5
73F
  8
0
 10
1384.636755282135
 20
312.6881118217213
 30
0.0
  0
VERTEX
  5
740
  8
0
 10
1384.420646781291
 20
312.6496076888996
 30
0.0
  0
VERTEX
  5
741
  8
0
 10
1384.231226095897
 20
312.5977898433413
 30
0.0
  0
VERTEX
  5
742
  8
0
 10
1384.075772556647
 20
312.5346496157871
 30
0.0
  0
VERTEX
  5
743
  8
0
 10
1383.960260155863
 20
312.4626134497668
 30
0.0
  0
VERTEX
  5
744
  8
0
 10
1383.889127970317
 20
312.3844496547358
 30
0.0
  0
VERTEX
  5
745
  8
0
 10
1383.86510957
 20
312.3031620214957
 30
0.0
  0
SEQEND
  5
7A3
  8
0
  0
POLYLINE
  5
1E9
  8
0
 66
     1
 10
0.0
 20
0.0
 30
0.0
  0
VERTEX
  5
746
  8
0
 10
1407.25046824
 20
309.3568837714957
 30
0.0
  0
VERTEX
  5
747
  8
0
 10
1407.274486638675
 20
309.2755961380148
 30
0.0
  0
VERTEX
  5
748
  8
0
 10
1407.345618822858
 20
309.1974323426516
 30
0.0
  0
VERTEX
  5
749
  8
0
 10
1407.461131222596
 20
309.1253961762339
 30
0.0
  0
VERTEX
  5
74A
  8
0
 10
1407.616584761137
 20
309.0622559482451
 30
0.0
  0
VERTEX
  5
74B
  8
0
 10
1407.80600544616
 20
309.0104381022431
 30
0.0
  0
VERTEX
  5
74C
  8
0
 10
1408.022113946952
 20
308.9719339689942
 30
0.0
  0
VERTEX
  5
74D
  8
0
 10
1408.256605335004
 20
308.9482232407494
 30
0.0
  0
VERTEX
  5
74E
  8
0
 10
1408.500468237756
 20
308.9402171075
 30
0.0
  0
VERTEX
  5
74F
  8
0
 10
1408.744331140595
 20
308.9482232404576
 30
0.0
  0
VERTEX
  5
750
  8
0
 10
1408.978822528902
 20
308.9719339684219
 30
0.0
  0
VERTEX
  5
751
  8
0
 10
1409.194931030109
 20
309.0104381014121
 30
0.0
  0
VERTEX
  5
752
  8
0
 10
1409.38435171569
 20
309.0622559471875
 30
0.0
  0
VERTEX
  5
753
  8
0
 10
1409.539805254911
 20
309.1253961749902
 30
0.0
  0
VERTEX
  5
754
  8
0
 10
1409.655317655424
 20
309.1974323412697
 30
0.0
  0
VERTEX
  5
755
  8
0
 10
1409.726449840449
 20
309.2755961365478
 30
0.0
  0
VERTEX
  5
756
  8
0
 10
1409.75046824
 20
309.35688377
 30
0.0
  0
SEQEND
  5
7A4
  8
0
  0
POLYLINE
  5
1EA
  8
0
 66
     1
 10
0.0
 20
0.0
 30
0.0
  0
VERTEX
  5
757
  8
0
 10
1409.75046824
 20
309.35688377
 30
0.0
  0
VERTEX
  5
758
  8
0
 10
1409.726449840559
 20
309.4381714032688
 30
0.0
  0
VERTEX
  5
759
  8
0
 10
1409.655317655854
 20
309.5163351983849
 30
0.0
  0
VERTEX
  5
75A
  8
0
 10
1409.539805255846
 20
309.5883713645434
 30
0.0
  0
VERTEX
  5
75B
  8
0
 10
1409.384351717276
 20
309.6515115922837
 30
0.0
  0
VERTEX
  5
75C
  8
0
 10
1409.19493103244
 20
309.7033294380686
 30
0.0
  0
VERTEX
  5
75D
  8
0
 10
1408.978822532011
 20
309.7418335711489
 30
0.0
  0
VERTEX
  5
75E
  8
0
 10
1408.744331144446
 20
309.7655442992871
 30
0.0
  0
VERTEX
  5
75F
  8
0
 10
1408.500468242244
 20
309.7735504325
 30
0.0
  0
VERTEX
  5
760
  8
0
 10
1408.256605339955
 20
309.7655442995789
 30
0.0
  0
VERTEX
  5
761
  8
0
 10
1408.022113952135
 20
309.7418335717213
 30
0.0
  0
VERTEX
  5
762
  8
0
 10
1407.806005451291
 20
309.7033294388996
 30
0.0
  0
VERTEX
  5
763
  8
0
 10
1407.616584765897
 20
309.6515115933414
 30
0.0
  0
VERTEX
  5
764
  8
0
 10
1407.461131226647
 20
309.5883713657871
 30
0.0
  0
VERTEX
  5
765
  8
0
 10
1407.345618825863
 20
309.5163351997668
 30
0.0
  0
VERTEX
  5
766
  8
0
 10
1407.274486640317
 20
309.4381714047358
 30
0.0
  0
VERTEX
  5
767
  8
0
 10
1407.25046824
 20
309.3568837714957
 30
0.0
  0
SEQEND
  5
7A5
  8
0
  0
POLYLINE
  5
1EB
  8
0
 66
     1
 10
0.0
 20
0.0
 30
0.0
  0
VERTEX
  5
1EC
  8
0
 10
1424.24399018
 20
302.0281616
 30
0.0
  0
VERTEX
  5
1ED
  8
0
 10
1434.8505919
 20
311.38230507
 30
0.0
  0
VERTEX
  5
1EE
  8
0
 10
1434.8505919
 20
310.43949603
 30
0.0
  0
SEQEND
  5
1EF
  8
0
  0
LINE
  5
1F0
  8
0
 10
1424.24399018
 20
301.08535256
 30
0.0
 11
1434.8505919
 21
310.43949603
 31
0.0
  0
LINE
  5
1F1
  8
0
 10
1424.24399018
 20
302.0281616
 30
0.0
 11
1424.24399018
 21
301.08535256
 31
0.0
  0
POLYLINE
  5
1F2
  8
0
 66
     1
 10
0.0
 20
0.0
 30
0.0
  0
VERTEX
  5
1F3
  8
0
 10
1424.24399018
 20
302.0281616
 30
0.0
  0
VERTEX
  5
1F4
  8
0
 10
1253.06316474
 20
323.59491843
 30
0.0
  0
VERTEX
  5
1F5
  8
0
 10
1253.53087191
 20
324.00739738
 30
0.0
  0
SEQEND
  5
1F6
  8
0
  0
LINE
  5
1F7
  8
0
 10
1269.28225253
 20
332.24195511
 30
0.0
 11
1434.8505919
 21
311.38230507
 31
0.0
  0
LINE
  5
1F8
  8
0
 10
1424.24399018
 20
301.08535256
 30
0.0
 11
1253.06316474
 21
322.65210939
 31
0.0
  0
LINE
  5
1F9
  8
0
  6
STRICHPUNKT2
 62
     1
 10
1408.50046824
 20
309.94613942
 30
0.0
 11
1408.50046824
 21
308.9402171
 31
0.0
  0
LINE
  5
1FA
  8
0
  6
STRICHPUNKT2
 62
     1
 10
1408.50046824
 20
309.35688377
 30
0.0
 11
1406.74656634
 21
309.57785463
 31
0.0
  0
LINE
  5
1FB
  8
0
  6
STRICHPUNKT2
 62
     1
 10
1408.50046824
 20
309.35688377
 30
0.0
 11
1410.25437014
 21
309.1359129
 31
0.0
  0
LINE
  5
1FC
  8
0
  6
STRICHPUNKT2
 62
     1
 10
1408.50046824
 20
309.35688377
 30
0.0
 11
1407.83755563
 21
308.7722498
 31
0.0
  0
LINE
  5
1FD
  8
0
  6
STRICHPUNKT2
 62
     1
 10
1408.50046824
 20
309.35688377
 30
0.0
 11
1409.16338085
 21
309.94151773
 31
0.0
  0
LINE
  5
1FE
  8
0
  6
STRICHPUNKT2
 62
     1
 10
1385.11510957
 20
312.89241767
 30
0.0
 11
1385.11510957
 21
311.88649535
 31
0.0
  0
LINE
  5
1FF
  8
0
  6
STRICHPUNKT2
 62
     1
 10
1385.11510957
 20
312.30316202
 30
0.0
 11
1383.36120767
 21
312.52413289
 31
0.0
  0
LINE
  5
200
  8
0
  6
STRICHPUNKT2
 62
     1
 10
1385.11510957
 20
312.30316202
 30
0.0
 11
1386.86901147
 21
312.08219115
 31
0.0
  0
LINE
  5
201
  8
0
  6
STRICHPUNKT2
 62
     1
 10
1385.11510957
 20
312.30316202
 30
0.0
 11
1384.45219696
 21
311.71852805
 31
0.0
  0
LINE
  5
202
  8
0
  6
STRICHPUNKT2
 62
     1
 10
1385.11510957
 20
312.30316202
 30
0.0
 11
1385.77802218
 21
312.88779599
 31
0.0
  0
LINE
  5
203
  8
0
  6
STRICHPUNKT2
 62
     1
 10
1361.7297509
 20
315.83869593
 30
0.0
 11
1361.7297509
 21
314.83277361
 31
0.0
  0
LINE
  5
204
  8
0
  6
STRICHPUNKT2
 62
     1
 10
1361.7297509
 20
315.24944028
 30
0.0
 11
1359.975849
 21
315.47041114
 31
0.0
  0
LINE
  5
205
  8
0
  6
STRICHPUNKT2
 62
     1
 10
1361.7297509
 20
315.24944028
 30
0.0
 11
1363.4836528
 21
315.02846941
 31
0.0
  0
LINE
  5
206
  8
0
  6
STRICHPUNKT2
 62
     1
 10
1361.7297509
 20
315.24944028
 30
0.0
 11
1361.0668383
 21
314.66480631
 31
0.0
  0
LINE
  5
207
  8
0
  6
STRICHPUNKT2
 62
     1
 10
1361.7297509
 20
315.24944028
 30
0.0
 11
1362.39266351
 21
315.83407424
 31
0.0
  0
LINE
  5
208
  8
0
  6
STRICHPUNKT2
 62
     1
 10
1338.34439224
 20
318.78497418
 30
0.0
 11
1338.34439224
 21
317.77905186
 31
0.0
  0
LINE
  5
209
  8
0
  6
STRICHPUNKT2
 62
     1
 10
1338.34439224
 20
318.19571853
 30
0.0
 11
1336.59049034
 21
318.4166894
 31
0.0
  0
LINE
  5
20A
  8
0
  6
STRICHPUNKT2
 62
     1
 10
1338.34439224
 20
318.19571853
 30
0.0
 11
1340.09829414
 21
317.97474766
 31
0.0
  0
LINE
  5
20B
  8
0
  6
STRICHPUNKT2
 62
     1
 10
1338.34439224
 20
318.19571853
 30
0.0
 11
1337.68147963
 21
317.61108456
 31
0.0
  0
LINE
  5
20C
  8
0
  6
STRICHPUNKT2
 62
     1
 10
1338.34439224
 20
318.19571853
 30
0.0
 11
1339.00730484
 21
318.7803525
 31
0.0
  0
LINE
  5
20D
  8
0
  6
STRICHPUNKT2
 62
     1
 10
1314.95903357
 20
321.73125244
 30
0.0
 11
1314.95903357
 21
320.72533012
 31
0.0
  0
LINE
  5
20E
  8
0
  6
STRICHPUNKT2
 62
     1
 10
1314.95903357
 20
321.14199679
 30
0.0
 11
1313.20513167
 21
321.36296765
 31
0.0
  0
LINE
  5
20F
  8
0
  6
STRICHPUNKT2
 62
     1
 10
1314.95903357
 20
321.14199679
 30
0.0
 11
1316.71293547
 21
320.92102592
 31
0.0
  0
LINE
  5
210
  8
0
  6
STRICHPUNKT2
 62
     1
 10
1314.95903357
 20
321.14199679
 30
0.0
 11
1314.29612096
 21
320.55736282
 31
0.0
  0
LINE
  5
211
  8
0
  6
STRICHPUNKT2
 62
     1
 10
1314.95903357
 20
321.14199679
 30
0.0
 11
1315.62194618
 21
321.72663075
 31
0.0
  0
LINE
  5
212
  8
0
  6
STRICHPUNKT2
 62
     1
 10
1291.5736749
 20
324.67753069
 30
0.0
 11
1291.5736749
 21
323.67160837
 31
0.0
  0
LINE
  5
213
  8
0
  6
STRICHPUNKT2
 62
     1
 10
1291.5736749
 20
324.08827504
 30
0.0
 11
1289.819773
 21
324.30924591
 31
0.0
  0
LINE
  5
214
  8
0
  6
STRICHPUNKT2
 62
     1
 10
1291.5736749
 20
324.08827504
 30
0.0
 11
1293.3275768
 21
323.86730417
 31
0.0
  0
LINE
  5
215
  8
0
  6
STRICHPUNKT2
 62
     1
 10
1291.5736749
 20
324.08827504
 30
0.0
 11
1290.9107623
 21
323.50364107
 31
0.0
  0
LINE
  5
216
  8
0
  6
STRICHPUNKT2
 62
     1
 10
1291.5736749
 20
324.08827504
 30
0.0
 11
1292.23658751
 21
324.67290901
 31
0.0
  0
LINE
  5
217
  8
0
  6
STRICHPUNKT2
 62
     1
 10
1268.18831624
 20
327.62380895
 30
0.0
 11
1268.18831624
 21
326.61788663
 31
0.0
  0
LINE
  5
218
  8
0
  6
STRICHPUNKT2
 62
     1
 10
1268.18831624
 20
327.0345533
 30
0.0
 11
1266.43441434
 21
327.25552416
 31
0.0
  0
LINE
  5
219
  8
0
  6
STRICHPUNKT2
 62
     1
 10
1268.18831624
 20
327.0345533
 30
0.0
 11
1269.94221814
 21
326.81358243
 31
0.0
  0
LINE
  5
21A
  8
0
  6
STRICHPUNKT2
 62
     1
 10
1268.18831624
 20
327.0345533
 30
0.0
 11
1267.52540363
 21
326.44991933
 31
0.0
  0
LINE
  5
21B
  8
0
  6
STRICHPUNKT2
 62
     1
 10
1268.18831624
 20
327.0345533
 30
0.0
 11
1268.85122884
 21
327.61918726
 31
0.0
  0
LINE
  5
21C
  8
0
  6
STRICHPUNKT2
 62
     1
 10
1423.55190478
 20
311.43514572
 30
0.0
 11
1423.55190478
 21
310.4292234
 31
0.0
  0
LINE
  5
21D
  8
0
  6
STRICHPUNKT2
 62
     1
 10
1423.55190478
 20
310.84589007
 30
0.0
 11
1421.79800288
 21
311.06686094
 31
0.0
  0
LINE
  5
21E
  8
0
  6
STRICHPUNKT2
 62
     1
 10
1423.55190478
 20
310.84589007
 30
0.0
 11
1425.30580668
 21
310.6249192
 31
0.0
  0
LINE
  5
21F
  8
0
  6
STRICHPUNKT2
 62
     1
 10
1423.55190478
 20
310.84589007
 30
0.0
 11
1422.88899218
 21
310.2612561
 31
0.0
  0
LINE
  5
220
  8
0
  6
STRICHPUNKT2
 62
     1
 10
1423.55190478
 20
310.84589007
 30
0.0
 11
1424.21481739
 21
311.43052404
 31
0.0
  0
LINE
  5
221
  8
0
  6
STRICHPUNKT2
 62
     1
 10
1400.16654612
 20
314.38142398
 30
0.0
 11
1400.16654612
 21
313.37550166
 31
0.0
  0
LINE
  5
222
  8
0
  6
STRICHPUNKT2
 62
     1
 10
1400.16654612
 20
313.79216832
 30
0.0
 11
1398.41264422
 21
314.01313919
 31
0.0
  0
LINE
  5
223
  8
0
  6
STRICHPUNKT2
 62
     1
 10
1400.16654612
 20
313.79216832
 30
0.0
 11
1401.92044802
 21
313.57119746
 31
0.0
  0
LINE
  5
224
  8
0
  6
STRICHPUNKT2
 62
     1
 10
1400.16654612
 20
313.79216832
 30
0.0
 11
1399.50363351
 21
313.20753436
 31
0.0
  0
LINE
  5
225
  8
0
  6
STRICHPUNKT2
 62
     1
 10
1400.16654612
 20
313.79216832
 30
0.0
 11
1400.82945872
 21
314.37680229
 31
0.0
  0
LINE
  5
226
  8
0
  6
STRICHPUNKT2
 62
     1
 10
1376.78118745
 20
317.32770223
 30
0.0
 11
1376.78118745
 21
316.32177991
 31
0.0
  0
LINE
  5
227
  8
0
  6
STRICHPUNKT2
 62
     1
 10
1376.78118745
 20
316.73844658
 30
0.0
 11
1375.02728555
 21
316.95941745
 31
0.0
  0
LINE
  5
228
  8
0
  6
STRICHPUNKT2
 62
     1
 10
1376.78118745
 20
316.73844658
 30
0.0
 11
1378.53508935
 21
316.51747571
 31
0.0
  0
LINE
  5
229
  8
0
  6
STRICHPUNKT2
 62
     1
 10
1376.78118745
 20
316.73844658
 30
0.0
 11
1376.11827484
 21
316.15381261
 31
0.0
  0
LINE
  5
22A
  8
0
  6
STRICHPUNKT2
 62
     1
 10
1376.78118745
 20
316.73844658
 30
0.0
 11
1377.44410006
 21
317.32308055
 31
0.0
  0
LINE
  5
22B
  8
0
  6
STRICHPUNKT2
 62
     1
 10
1353.39582878
 20
320.27398049
 30
0.0
 11
1353.39582878
 21
319.26805817
 31
0.0
  0
LINE
  5
22C
  8
0
  6
STRICHPUNKT2
 62
     1
 10
1353.39582878
 20
319.68472483
 30
0.0
 11
1351.64192688
 21
319.9056957
 31
0.0
  0
LINE
  5
22D
  8
0
  6
STRICHPUNKT2
 62
     1
 10
1353.39582878
 20
319.68472483
 30
0.0
 11
1355.14973068
 21
319.46375396
 31
0.0
  0
LINE
  5
22E
  8
0
  6
STRICHPUNKT2
 62
     1
 10
1353.39582878
 20
319.68472483
 30
0.0
 11
1352.73291617
 21
319.10009087
 31
0.0
  0
LINE
  5
22F
  8
0
  6
STRICHPUNKT2
 62
     1
 10
1353.39582878
 20
319.68472483
 30
0.0
 11
1354.05874139
 21
320.2693588
 31
0.0
  0
LINE
  5
230
  8
0
  6
STRICHPUNKT2
 62
     1
 10
1330.01047011
 20
323.22025874
 30
0.0
 11
1330.01047011
 21
322.21433642
 31
0.0
  0
LINE
  5
231
  8
0
  6
STRICHPUNKT2
 62
     1
 10
1330.01047011
 20
322.63100309
 30
0.0
 11
1328.25656821
 21
322.85197396
 31
0.0
  0
LINE
  5
232
  8
0
  6
STRICHPUNKT2
 62
     1
 10
1330.01047011
 20
322.63100309
 30
0.0
 11
1331.76437201
 21
322.41003222
 31
0.0
  0
LINE
  5
233
  8
0
  6
STRICHPUNKT2
 62
     1
 10
1330.01047011
 20
322.63100309
 30
0.0
 11
1329.34755751
 21
322.04636912
 31
0.0
  0
LINE
  5
234
  8
0
  6
STRICHPUNKT2
 62
     1
 10
1330.01047011
 20
322.63100309
 30
0.0
 11
1330.67338272
 21
323.21563706
 31
0.0
  0
LINE
  5
235
  8
0
  6
STRICHPUNKT2
 62
     1
 10
1306.62511145
 20
326.16653699
 30
0.0
 11
1306.62511145
 21
325.16061468
 31
0.0
  0
LINE
  5
236
  8
0
  6
STRICHPUNKT2
 62
     1
 10
1306.62511145
 20
325.57728134
 30
0.0
 11
1304.87120955
 21
325.79825221
 31
0.0
  0
LINE
  5
237
  8
0
  6
STRICHPUNKT2
 62
     1
 10
1306.62511145
 20
325.57728134
 30
0.0
 11
1308.37901335
 21
325.35631047
 31
0.0
  0
LINE
  5
238
  8
0
  6
STRICHPUNKT2
 62
     1
 10
1306.62511145
 20
325.57728134
 30
0.0
 11
1305.96219884
 21
324.99264738
 31
0.0
  0
LINE
  5
239
  8
0
  6
STRICHPUNKT2
 62
     1
 10
1306.62511145
 20
325.57728134
 30
0.0
 11
1307.28802405
 21
326.16191531
 31
0.0
  0
LINE
  5
23A
  8
0
  6
STRICHPUNKT2
 62
     1
 10
1283.23975278
 20
329.11281525
 30
0.0
 11
1283.23975278
 21
328.10689293
 31
0.0
  0
LINE
  5
23B
  8
0
  6
STRICHPUNKT2
 62
     1
 10
1283.23975278
 20
328.5235596
 30
0.0
 11
1281.48585088
 21
328.74453047
 31
0.0
  0
LINE
  5
23C
  8
0
  6
STRICHPUNKT2
 62
     1
 10
1283.23975278
 20
328.5235596
 30
0.0
 11
1284.99365468
 21
328.30258873
 31
0.0
  0
LINE
  5
23D
  8
0
  6
STRICHPUNKT2
 62
     1
 10
1283.23975278
 20
328.5235596
 30
0.0
 11
1282.57684017
 21
327.93892563
 31
0.0
  0
LINE
  5
23E
  8
0
  6
STRICHPUNKT2
 62
     1
 10
1283.23975278
 20
328.5235596
 30
0.0
 11
1283.90266539
 21
329.10819357
 31
0.0
  0
LINE
  5
23F
  8
0
  6
STRICHPUNKT2
 62
     1
 10
1416.83439036
 20
305.51085486
 30
0.0
 11
1416.83439036
 21
304.50493254
 31
0.0
  0
LINE
  5
240
  8
0
  6
STRICHPUNKT2
 62
     1
 10
1416.83439036
 20
304.92159921
 30
0.0
 11
1415.08048846
 21
305.14257008
 31
0.0
  0
LINE
  5
241
  8
0
  6
STRICHPUNKT2
 62
     1
 10
1416.83439036
 20
304.92159921
 30
0.0
 11
1418.58829226
 21
304.70062834
 31
0.0
  0
LINE
  5
242
  8
0
  6
STRICHPUNKT2
 62
     1
 10
1416.83439036
 20
304.92159921
 30
0.0
 11
1416.17147776
 21
304.33696524
 31
0.0
  0
LINE
  5
243
  8
0
  6
STRICHPUNKT2
 62
     1
 10
1416.83439036
 20
304.92159921
 30
0.0
 11
1417.49730297
 21
305.50623317
 31
0.0
  0
LINE
  5
244
  8
0
  6
STRICHPUNKT2
 62
     1
 10
1393.4490317
 20
308.45713311
 30
0.0
 11
1393.4490317
 21
307.4512108
 31
0.0
  0
LINE
  5
245
  8
0
  6
STRICHPUNKT2
 62
     1
 10
1393.4490317
 20
307.86787746
 30
0.0
 11
1391.6951298
 21
308.08884833
 31
0.0
  0
LINE
  5
246
  8
0
  6
STRICHPUNKT2
 62
     1
 10
1393.4490317
 20
307.86787746
 30
0.0
 11
1395.2029336
 21
307.64690659
 31
0.0
  0
LINE
  5
247
  8
0
  6
STRICHPUNKT2
 62
     1
 10
1393.4490317
 20
307.86787746
 30
0.0
 11
1392.78611909
 21
307.2832435
 31
0.0
  0
LINE
  5
248
  8
0
  6
STRICHPUNKT2
 62
     1
 10
1393.4490317
 20
307.86787746
 30
0.0
 11
1394.1119443
 21
308.45251143
 31
0.0
  0
LINE
  5
249
  8
0
  6
STRICHPUNKT2
 62
     1
 10
1370.06367303
 20
311.40341137
 30
0.0
 11
1370.06367303
 21
310.39748905
 31
0.0
  0
LINE
  5
24A
  8
0
  6
STRICHPUNKT2
 62
     1
 10
1370.06367303
 20
310.81415572
 30
0.0
 11
1368.30977113
 21
311.03512659
 31
0.0
  0
LINE
  5
24B
  8
0
  6
STRICHPUNKT2
 62
     1
 10
1370.06367303
 20
310.81415572
 30
0.0
 11
1371.81757493
 21
310.59318485
 31
0.0
  0
LINE
  5
24C
  8
0
  6
STRICHPUNKT2
 62
     1
 10
1370.06367303
 20
310.81415572
 30
0.0
 11
1369.40076042
 21
310.22952175
 31
0.0
  0
LINE
  5
24D
  8
0
  6
STRICHPUNKT2
 62
     1
 10
1370.06367303
 20
310.81415572
 30
0.0
 11
1370.72658564
 21
311.39878968
 31
0.0
  0
LINE
  5
24E
  8
0
  6
STRICHPUNKT2
 62
     1
 10
1346.67831436
 20
314.34968962
 30
0.0
 11
1346.67831436
 21
313.3437673
 31
0.0
  0
LINE
  5
24F
  8
0
  6
STRICHPUNKT2
 62
     1
 10
1346.67831436
 20
313.76043397
 30
0.0
 11
1344.92441246
 21
313.98140484
 31
0.0
  0
LINE
  5
250
  8
0
  6
STRICHPUNKT2
 62
     1
 10
1346.67831436
 20
313.76043397
 30
0.0
 11
1348.43221626
 21
313.5394631
 31
0.0
  0
LINE
  5
251
  8
0
  6
STRICHPUNKT2
 62
     1
 10
1346.67831436
 20
313.76043397
 30
0.0
 11
1346.01540175
 21
313.1758
 31
0.0
  0
LINE
  5
252
  8
0
  6
STRICHPUNKT2
 62
     1
 10
1346.67831436
 20
313.76043397
 30
0.0
 11
1347.34122697
 21
314.34506794
 31
0.0
  0
LINE
  5
253
  8
0
  6
STRICHPUNKT2
 62
     1
 10
1323.29295569
 20
317.29596788
 30
0.0
 11
1323.29295569
 21
316.29004556
 31
0.0
  0
LINE
  5
254
  8
0
  6
STRICHPUNKT2
 62
     1
 10
1323.29295569
 20
316.70671223
 30
0.0
 11
1321.53905379
 21
316.9276831
 31
0.0
  0
LINE
  5
255
  8
0
  6
STRICHPUNKT2
 62
     1
 10
1323.29295569
 20
316.70671223
 30
0.0
 11
1325.04685759
 21
316.48574136
 31
0.0
  0
LINE
  5
256
  8
0
  6
STRICHPUNKT2
 62
     1
 10
1323.29295569
 20
316.70671223
 30
0.0
 11
1322.63004309
 21
316.12207826
 31
0.0
  0
LINE
  5
257
  8
0
  6
STRICHPUNKT2
 62
     1
 10
1323.29295569
 20
316.70671223
 30
0.0
 11
1323.9558683
 21
317.29134619
 31
0.0
  0
LINE
  5
258
  8
0
  6
STRICHPUNKT2
 62
     1
 10
1299.90759703
 20
320.24224613
 30
0.0
 11
1299.90759703
 21
319.23632381
 31
0.0
  0
LINE
  5
259
  8
0
  6
STRICHPUNKT2
 62
     1
 10
1299.90759703
 20
319.65299048
 30
0.0
 11
1298.15369513
 21
319.87396135
 31
0.0
  0
LINE
  5
25A
  8
0
  6
STRICHPUNKT2
 62
     1
 10
1299.90759703
 20
319.65299048
 30
0.0
 11
1301.66149893
 21
319.43201961
 31
0.0
  0
LINE
  5
25B
  8
0
  6
STRICHPUNKT2
 62
     1
 10
1299.90759703
 20
319.65299048
 30
0.0
 11
1299.24468442
 21
319.06835651
 31
0.0
  0
LINE
  5
25C
  8
0
  6
STRICHPUNKT2
 62
     1
 10
1299.90759703
 20
319.65299048
 30
0.0
 11
1300.57050963
 21
320.23762445
 31
0.0
  0
LINE
  5
25D
  8
0
  6
STRICHPUNKT2
 62
     1
 10
1276.52223836
 20
323.18852439
 30
0.0
 11
1276.52223836
 21
322.18260207
 31
0.0
  0
LINE
  5
25E
  8
0
  6
STRICHPUNKT2
 62
     1
 10
1276.52223836
 20
322.59926874
 30
0.0
 11
1274.76833646
 21
322.82023961
 31
0.0
  0
LINE
  5
25F
  8
0
  6
STRICHPUNKT2
 62
     1
 10
1276.52223836
 20
322.59926874
 30
0.0
 11
1278.27614026
 21
322.37829787
 31
0.0
  0
LINE
  5
260
  8
0
  6
STRICHPUNKT2
 62
     1
 10
1276.52223836
 20
322.59926874
 30
0.0
 11
1275.85932575
 21
322.01463477
 31
0.0
  0
LINE
  5
261
  8
0
  6
STRICHPUNKT2
 62
     1
 10
1276.52223836
 20
322.59926874
 30
0.0
 11
1277.18515097
 21
323.1839027
 31
0.0
  0
LINE
  5
262
  8
0
 10
1253.06316474
 20
323.59491843
 30
0.0
 11
1253.53087191
 21
324.00739738
 31
0.0
  0
POLYLINE
  5
263
  8
0
 66
     1
 10
0.0
 20
0.0
 30
0.0
  0
VERTEX
  5
768
  8
0
 10
1252.127750393683
 20
324.6555785976892
 30
0.0
  0
VERTEX
  5
769
  8
0
 10
1252.145724119139
 20
324.469381202595
 30
0.0
  0
VERTEX
  5
76A
  8
0
 10
1252.198954572844
 20
324.2858103162054
 30
0.0
  0
VERTEX
  5
76B
  8
0
 10
1252.285396138331
 20
324.1119204646759
 30
0.0
  0
VERTEX
  5
76C
  8
0
 10
1252.401726914746
 20
323.9543941374246
 30
0.0
  0
VERTEX
  5
76D
  8
0
 10
1252.543476375627
 20
323.8192849828138
 30
0.0
  0
VERTEX
  5
76E
  8
0
 10
1252.705197168734
 20
323.7117851698402
 30
0.0
  0
VERTEX
  5
76F
  8
0
 10
1252.880674454736
 20
323.6360258559942
 30
0.0
  0
VERTEX
  5
770
  8
0
 10
1253.063164739998
 20
323.5949184291956
 30
0.0
  0
SEQEND
  5
7A6
  8
0
  0
POLYLINE
  5
264
  8
0
 66
     1
 10
0.0
 20
0.0
 30
0.0
  0
VERTEX
  5
771
  8
0
 10
1251.192336047366
 20
324.7734297253785
 30
0.0
  0
VERTEX
  5
772
  8
0
 10
1251.228283498278
 20
324.40103493519
 30
0.0
  0
VERTEX
  5
773
  8
0
 10
1251.334744405687
 20
324.0338931624108
 30
0.0
  0
VERTEX
  5
774
  8
0
 10
1251.507627536662
 20
323.6861134593519
 30
0.0
  0
VERTEX
  5
775
  8
0
 10
1251.740289089491
 20
323.3710608048492
 30
0.0
  0
VERTEX
  5
776
  8
0
 10
1252.023788011253
 20
323.1008424956275
 30
0.0
  0
VERTEX
  5
777
  8
0
 10
1252.347229597468
 20
322.8858428696803
 30
0.0
  0
VERTEX
  5
778
  8
0
 10
1252.698184169471
 20
322.7343242419885
 30
0.0
  0
VERTEX
  5
779
  8
0
 10
1253.063164739995
 20
322.6521093883912
 30
0.0
  0
SEQEND
  5
7A7
  8
0
  0
LINE
  5
265
  8
0
 10
1426.05785838
 20
504.61781904
 30
0.0
 11
1418.55785838
 21
504.61781904
 31
0.0
  0
LINE
  5
266
  8
0
 10
1418.55785838
 20
454.61781904
 30
0.0
 11
1418.55785838
 21
504.61781904
 31
0.0
  0
LINE
  5
267
  8
0
 10
1426.05785838
 20
454.61781904
 30
0.0
 11
1418.55785838
 21
454.61781904
 31
0.0
  0
LINE
  5
268
  8
0
 10
1426.05785838
 20
454.61781904
 30
0.0
 11
1426.05785838
 21
504.61781904
 31
0.0
  0
LINE
  5
269
  8
0
  6
STRICHPUNKT2
 62
     1
 10
1417.55785838
 20
465.61781904
 30
0.0
 11
1417.05785838
 21
465.61781904
 31
0.0
  0
LINE
  5
26A
  8
0
  6
STRICHPUNKT2
 62
     1
 10
1427.55785838
 20
465.61781904
 30
0.0
 11
1426.05785838
 21
465.61781904
 31
0.0
  0
POLYLINE
  5
26B
  8
0
 66
     1
 10
0.0
 20
0.0
 30
0.0
  0
VERTEX
  5
26C
  8
0
 10
1418.55785838
 20
455.11781904
 30
0.0
  0
VERTEX
  5
26D
  8
0
 10
1418.55785838
 20
478.11781904
 30
0.0
  0
VERTEX
  5
26E
  8
0
 10
1417.55785838
 20
478.11781904
 30
0.0
  0
SEQEND
  5
26F
  8
0
  0
LINE
  5
270
  8
0
 10
1417.55785838
 20
455.11781904
 30
0.0
 11
1417.55785838
 21
478.11781904
 31
0.0
  0
LINE
  5
271
  8
0
  6
STRICHPUNKT2
 62
     1
 10
1417.55785838
 20
465.61781904
 30
0.0
 11
1416.05785838
 21
465.61781904
 31
0.0
  0
LINE
  5
272
  8
0
 10
1602.55785838
 20
454.11781904
 30
0.0
 11
1419.55785838
 21
454.11781904
 31
0.0
  0
LINE
  5
273
  8
0
 10
1602.55785838
 20
453.11781904
 30
0.0
 11
1419.55785838
 21
453.11781904
 31
0.0
  0
LINE
  5
274
  8
0
 10
1602.55785838
 20
454.11781904
 30
0.0
 11
1602.55785838
 21
453.11781904
 31
0.0
  0
LINE
  5
275
  8
0
  6
STRICHPUNKT2
 62
     1
 10
1580.05785838
 20
453.11781904
 30
0.0
 11
1580.05785838
 21
452.49281904
 31
0.0
  0
LINE
  5
276
  8
0
  6
STRICHPUNKT2
 62
     1
 10
1580.05785838
 20
454.74281904
 30
0.0
 11
1580.05785838
 21
454.11781904
 31
0.0
  0
LINE
  5
277
  8
0
  6
STRICHPUNKT2
 62
     1
 10
1592.55785838
 20
453.11781904
 30
0.0
 11
1592.55785838
 21
452.49281904
 31
0.0
  0
LINE
  5
278
  8
0
  6
STRICHPUNKT2
 62
     1
 10
1592.55785838
 20
454.74281904
 30
0.0
 11
1592.55785838
 21
454.11781904
 31
0.0
  0
LINE
  5
279
  8
0
  6
STRICHPUNKT2
 62
     1
 10
1567.55785838
 20
453.11781904
 30
0.0
 11
1567.55785838
 21
452.49281904
 31
0.0
  0
LINE
  5
27A
  8
0
  6
STRICHPUNKT2
 62
     1
 10
1567.55785838
 20
454.74281904
 30
0.0
 11
1567.55785838
 21
454.11781904
 31
0.0
  0
LINE
  5
27B
  8
0
  6
STRICHPUNKT2
 62
     1
 10
1555.05785838
 20
453.11781904
 30
0.0
 11
1555.05785838
 21
452.49281904
 31
0.0
  0
LINE
  5
27C
  8
0
  6
STRICHPUNKT2
 62
     1
 10
1555.05785838
 20
454.74281904
 30
0.0
 11
1555.05785838
 21
454.11781904
 31
0.0
  0
LINE
  5
27D
  8
0
  6
STRICHPUNKT2
 62
     1
 10
1542.55785838
 20
453.11781904
 30
0.0
 11
1542.55785838
 21
452.49281904
 31
0.0
  0
LINE
  5
27E
  8
0
  6
STRICHPUNKT2
 62
     1
 10
1542.55785838
 20
454.74281904
 30
0.0
 11
1542.55785838
 21
454.11781904
 31
0.0
  0
LINE
  5
27F
  8
0
  6
STRICHPUNKT2
 62
     1
 10
1517.55785838
 20
453.11781904
 30
0.0
 11
1517.55785838
 21
452.49281904
 31
0.0
  0
LINE
  5
280
  8
0
  6
STRICHPUNKT2
 62
     1
 10
1517.55785838
 20
454.74281904
 30
0.0
 11
1517.55785838
 21
454.11781904
 31
0.0
  0
LINE
  5
281
  8
0
  6
STRICHPUNKT2
 62
     1
 10
1492.55785838
 20
453.11781904
 30
0.0
 11
1492.55785838
 21
452.49281904
 31
0.0
  0
LINE
  5
282
  8
0
  6
STRICHPUNKT2
 62
     1
 10
1492.55785838
 20
454.74281904
 30
0.0
 11
1492.55785838
 21
454.11781904
 31
0.0
  0
LINE
  5
283
  8
0
  6
STRICHPUNKT2
 62
     1
 10
1467.55785838
 20
453.11781904
 30
0.0
 11
1467.55785838
 21
452.49281904
 31
0.0
  0
LINE
  5
284
  8
0
  6
STRICHPUNKT2
 62
     1
 10
1467.55785838
 20
454.74281904
 30
0.0
 11
1467.55785838
 21
454.11781904
 31
0.0
  0
LINE
  5
285
  8
0
  6
STRICHPUNKT2
 62
     1
 10
1442.55785838
 20
453.11781904
 30
0.0
 11
1442.55785838
 21
452.49281904
 31
0.0
  0
LINE
  5
286
  8
0
  6
STRICHPUNKT2
 62
     1
 10
1442.55785838
 20
454.74281904
 30
0.0
 11
1442.55785838
 21
454.11781904
 31
0.0
  0
LINE
  5
287
  8
0
  6
STRICHPUNKT2
 62
     1
 10
1430.05785838
 20
453.11781904
 30
0.0
 11
1430.05785838
 21
452.49281904
 31
0.0
  0
LINE
  5
288
  8
0
  6
STRICHPUNKT2
 62
     1
 10
1430.05785838
 20
454.74281904
 30
0.0
 11
1430.05785838
 21
454.11781904
 31
0.0
  0
LINE
  5
289
  8
0
  6
STRICHPUNKT2
 62
     1
 10
1455.05785838
 20
453.11781904
 30
0.0
 11
1455.05785838
 21
452.49281904
 31
0.0
  0
LINE
  5
28A
  8
0
  6
STRICHPUNKT2
 62
     1
 10
1455.05785838
 20
454.74281904
 30
0.0
 11
1455.05785838
 21
454.11781904
 31
0.0
  0
LINE
  5
28B
  8
0
  6
STRICHPUNKT2
 62
     1
 10
1530.05785838
 20
453.11781904
 30
0.0
 11
1530.05785838
 21
452.49281904
 31
0.0
  0
LINE
  5
28C
  8
0
  6
STRICHPUNKT2
 62
     1
 10
1530.05785838
 20
454.74281904
 30
0.0
 11
1530.05785838
 21
454.11781904
 31
0.0
  0
LINE
  5
28D
  8
0
  6
STRICHPUNKT2
 62
     1
 10
1480.05785838
 20
453.11781904
 30
0.0
 11
1480.05785838
 21
452.49281904
 31
0.0
  0
LINE
  5
28E
  8
0
  6
STRICHPUNKT2
 62
     1
 10
1480.05785838
 20
454.74281904
 30
0.0
 11
1480.05785838
 21
454.11781904
 31
0.0
  0
LINE
  5
28F
  8
0
  6
STRICHPUNKT2
 62
     1
 10
1505.05785838
 20
453.11781904
 30
0.0
 11
1505.05785838
 21
452.49281904
 31
0.0
  0
LINE
  5
290
  8
0
  6
STRICHPUNKT2
 62
     1
 10
1505.05785838
 20
454.74281904
 30
0.0
 11
1505.05785838
 21
454.11781904
 31
0.0
  0
ARC
  5
291
  8
0
 10
1419.55785838
 20
455.11781904
 30
0.0
 40
1.0
 50
180.0
 51
-90.0
  0
ARC
  5
292
  8
0
 10
1419.55785838
 20
455.11781904
 30
0.0
 40
2.0
 50
180.0
 51
-90.0
  0
POLYLINE
  5
293
  8
0
 66
     1
 10
0.0
 20
0.0
 30
0.0
  0
VERTEX
  5
294
  8
0
 10
1367.25983502
 20
478.11781904
 30
0.0
  0
VERTEX
  5
295
  8
0
 10
1367.25983502
 20
504.61781904
 30
0.0
  0
VERTEX
  5
296
  8
0
 10
1337.25983502
 20
504.61781904
 30
0.0
  0
VERTEX
  5
297
  8
0
 10
1337.25983502
 20
478.11781904
 30
0.0
  0
SEQEND
  5
298
  8
0
  0
CIRCLE
  5
299
  8
0
 10
1352.25983502
 20
465.61781904
 30
0.0
 40
3.5
  0
LINE
  5
29A
  8
0
 10
1367.25983502
 20
455.11781904
 30
0.0
 11
1337.25983502
 21
455.11781904
 31
0.0
  0
LINE
  5
29B
  8
0
 10
1337.25983502
 20
478.11781904
 30
0.0
 11
1337.25983502
 21
455.11781904
 31
0.0
  0
LINE
  5
29C
  8
0
 10
1367.25983502
 20
478.11781904
 30
0.0
 11
1337.25983502
 21
478.11781904
 31
0.0
  0
LINE
  5
29D
  8
0
 10
1367.25983502
 20
455.11781904
 30
0.0
 11
1367.25983502
 21
478.11781904
 31
0.0
  0
LINE
  5
29E
  8
0
  6
STRICHPUNKT2
 62
     1
 10
1352.25983502
 20
465.61781904
 30
0.0
 11
1357.25983502
 21
465.61781904
 31
0.0
  0
LINE
  5
29F
  8
0
  6
STRICHPUNKT2
 62
     1
 10
1352.25983502
 20
465.61781904
 30
0.0
 11
1347.25983502
 21
465.61781904
 31
0.0
  0
LINE
  5
2A0
  8
0
  6
STRICHPUNKT2
 62
     1
 10
1352.25983502
 20
465.61781904
 30
0.0
 11
1352.25983502
 21
460.61781904
 31
0.0
  0
LINE
  5
2A1
  8
0
  6
STRICHPUNKT2
 62
     1
 10
1352.25983502
 20
465.61781904
 30
0.0
 11
1352.25983502
 21
470.61781904
 31
0.0
  0
LINE
  5
2A2
  8
0
 10
1367.25983502
 20
453.11781904
 30
0.0
 11
1337.25983502
 21
453.11781904
 31
0.0
  0
LINE
  5
2A3
  8
0
  6
STRICHPUNKT2
 62
     1
 10
1342.75983502
 20
453.11781904
 30
0.0
 11
1342.75983502
 21
452.49281904
 31
0.0
  0
LINE
  5
2A4
  8
0
  6
STRICHPUNKT2
 62
     1
 10
1361.75983502
 20
453.11781904
 30
0.0
 11
1361.75983502
 21
452.49281904
 31
0.0
  0
LINE
  5
2A5
  8
0
  6
STRICHPUNKT2
 62
     1
 10
1352.25983502
 20
453.11781904
 30
0.0
 11
1352.25983502
 21
452.49281904
 31
0.0
  0
LINE
  5
2A6
  8
0
 10
1367.25983502
 20
453.11781904
 30
0.0
 11
1337.25983502
 21
453.11781904
 31
0.0
  0
LINE
  5
2A7
  8
0
 10
1337.25983502
 20
455.11781904
 30
0.0
 11
1337.25983502
 21
453.11781904
 31
0.0
  0
LINE
  5
2A8
  8
0
 10
1367.25983502
 20
455.11781904
 30
0.0
 11
1337.25983502
 21
455.11781904
 31
0.0
  0
LINE
  5
2A9
  8
0
 10
1367.25983502
 20
453.11781904
 30
0.0
 11
1367.25983502
 21
455.11781904
 31
0.0
  0
POLYLINE
  5
2AA
  8
0
 66
     1
 10
0.0
 20
0.0
 30
0.0
  0
VERTEX
  5
2AB
  8
0
 10
1426.05785838
 20
382.67765762
 30
0.0
  0
VERTEX
  5
2AC
  8
0
 10
1418.55785838
 20
382.67765762
 30
0.0
  0
VERTEX
  5
2AD
  8
0
 10
1418.55785838
 20
412.67765762
 30
0.0
  0
SEQEND
  5
2AE
  8
0
  0
LINE
  5
2AF
  8
0
 10
1426.05785838
 20
412.67765762
 30
0.0
 11
1418.55785838
 21
412.67765762
 31
0.0
  0
LINE
  5
2B0
  8
0
 10
1426.05785838
 20
382.67765762
 30
0.0
 11
1426.05785838
 21
412.67765762
 31
0.0
  0
LINE
  5
2B1
  8
0
  6
STRICHPUNKT2
 62
     1
 10
1417.55785838
 20
397.67765762
 30
0.0
 11
1417.05785838
 21
397.67765762
 31
0.0
  0
LINE
  5
2B2
  8
0
  6
STRICHPUNKT2
 62
     1
 10
1427.55785838
 20
397.67765762
 30
0.0
 11
1426.05785838
 21
397.67765762
 31
0.0
  0
POLYLINE
  5
2B3
  8
0
 66
     1
 10
0.0
 20
0.0
 30
0.0
  0
VERTEX
  5
2B4
  8
0
 10
1418.55785838
 20
382.67765762
 30
0.0
  0
VERTEX
  5
2B5
  8
0
 10
1418.55785838
 20
412.67765762
 30
0.0
  0
VERTEX
  5
2B6
  8
0
 10
1417.55785838
 20
412.67765762
 30
0.0
  0
SEQEND
  5
2B7
  8
0
  0
LINE
  5
2B8
  8
0
 10
1417.55785838
 20
382.67765762
 30
0.0
 11
1417.55785838
 21
412.67765762
 31
0.0
  0
LINE
  5
2B9
  8
0
 10
1418.55785838
 20
382.67765762
 30
0.0
 11
1417.55785838
 21
382.67765762
 31
0.0
  0
LINE
  5
2BA
  8
0
  6
STRICHPUNKT2
 62
     1
 10
1417.55785838
 20
397.67765762
 30
0.0
 11
1416.05785838
 21
397.67765762
 31
0.0
  0
CIRCLE
  5
2BB
  8
0
 10
1442.55785838
 20
388.17765762
 30
0.0
 40
1.25
  0
CIRCLE
  5
2BC
  8
0
 10
1467.55785838
 20
388.17765762
 30
0.0
 40
1.25
  0
CIRCLE
  5
2BD
  8
0
 10
1492.55785838
 20
388.17765762
 30
0.0
 40
1.25
  0
CIRCLE
  5
2BE
  8
0
 10
1517.55785838
 20
388.17765762
 30
0.0
 40
1.25
  0
CIRCLE
  5
2BF
  8
0
 10
1542.55785838
 20
388.17765762
 30
0.0
 40
1.25
  0
CIRCLE
  5
2C0
  8
0
 10
1567.55785838
 20
388.17765762
 30
0.0
 40
1.25
  0
CIRCLE
  5
2C1
  8
0
 10
1592.55785838
 20
388.17765762
 30
0.0
 40
1.25
  0
CIRCLE
  5
2C2
  8
0
 10
1442.55785838
 20
407.17765762
 30
0.0
 40
1.25
  0
CIRCLE
  5
2C3
  8
0
 10
1467.55785838
 20
407.17765762
 30
0.0
 40
1.25
  0
CIRCLE
  5
2C4
  8
0
 10
1492.55785838
 20
407.17765762
 30
0.0
 40
1.25
  0
CIRCLE
  5
2C5
  8
0
 10
1517.55785838
 20
407.17765762
 30
0.0
 40
1.25
  0
CIRCLE
  5
2C6
  8
0
 10
1542.55785838
 20
407.17765762
 30
0.0
 40
1.25
  0
CIRCLE
  5
2C7
  8
0
 10
1567.55785838
 20
407.17765762
 30
0.0
 40
1.25
  0
CIRCLE
  5
2C8
  8
0
 10
1592.55785838
 20
407.17765762
 30
0.0
 40
1.25
  0
CIRCLE
  5
2C9
  8
0
 10
1430.05785838
 20
397.67765762
 30
0.0
 40
1.25
  0
CIRCLE
  5
2CA
  8
0
 10
1455.05785838
 20
397.67765762
 30
0.0
 40
1.25
  0
CIRCLE
  5
2CB
  8
0
 10
1480.05785838
 20
397.67765762
 30
0.0
 40
1.25
  0
CIRCLE
  5
2CC
  8
0
 10
1505.05785838
 20
397.67765762
 30
0.0
 40
1.25
  0
CIRCLE
  5
2CD
  8
0
 10
1530.05785838
 20
397.67765762
 30
0.0
 40
1.25
  0
CIRCLE
  5
2CE
  8
0
 10
1555.05785838
 20
397.67765762
 30
0.0
 40
1.25
  0
CIRCLE
  5
2CF
  8
0
 10
1580.05785838
 20
397.67765762
 30
0.0
 40
1.25
  0
LINE
  5
2D0
  8
0
 10
1426.05785838
 20
412.67765762
 30
0.0
 11
1602.55785838
 21
412.67765762
 31
0.0
  0
LINE
  5
2D1
  8
0
 10
1602.55785838
 20
382.67765762
 30
0.0
 11
1602.55785838
 21
412.67765762
 31
0.0
  0
LINE
  5
2D2
  8
0
 10
1602.55785838
 20
382.67765762
 30
0.0
 11
1426.05785838
 21
382.67765762
 31
0.0
  0
LINE
  5
2D3
  8
0
  6
STRICHPUNKT2
 62
     1
 10
1580.05785838
 20
397.67765762
 30
0.0
 11
1578.18285838
 21
397.67765762
 31
0.0
  0
LINE
  5
2D4
  8
0
  6
STRICHPUNKT2
 62
     1
 10
1580.05785838
 20
397.67765762
 30
0.0
 11
1581.93285838
 21
397.67765762
 31
0.0
  0
LINE
  5
2D5
  8
0
  6
STRICHPUNKT2
 62
     1
 10
1580.05785838
 20
397.67765762
 30
0.0
 11
1580.05785838
 21
395.80265762
 31
0.0
  0
LINE
  5
2D6
  8
0
  6
STRICHPUNKT2
 62
     1
 10
1580.05785838
 20
397.67765762
 30
0.0
 11
1580.05785838
 21
399.55265762
 31
0.0
  0
LINE
  5
2D7
  8
0
  6
STRICHPUNKT2
 62
     1
 10
1555.05785838
 20
397.67765762
 30
0.0
 11
1553.18285838
 21
397.67765762
 31
0.0
  0
LINE
  5
2D8
  8
0
  6
STRICHPUNKT2
 62
     1
 10
1555.05785838
 20
397.67765762
 30
0.0
 11
1556.93285838
 21
397.67765762
 31
0.0
  0
LINE
  5
2D9
  8
0
  6
STRICHPUNKT2
 62
     1
 10
1555.05785838
 20
397.67765762
 30
0.0
 11
1555.05785838
 21
395.80265762
 31
0.0
  0
LINE
  5
2DA
  8
0
  6
STRICHPUNKT2
 62
     1
 10
1555.05785838
 20
397.67765762
 30
0.0
 11
1555.05785838
 21
399.55265762
 31
0.0
  0
LINE
  5
2DB
  8
0
  6
STRICHPUNKT2
 62
     1
 10
1530.05785838
 20
397.67765762
 30
0.0
 11
1528.18285838
 21
397.67765762
 31
0.0
  0
LINE
  5
2DC
  8
0
  6
STRICHPUNKT2
 62
     1
 10
1530.05785838
 20
397.67765762
 30
0.0
 11
1531.93285838
 21
397.67765762
 31
0.0
  0
LINE
  5
2DD
  8
0
  6
STRICHPUNKT2
 62
     1
 10
1530.05785838
 20
397.67765762
 30
0.0
 11
1530.05785838
 21
395.80265762
 31
0.0
  0
LINE
  5
2DE
  8
0
  6
STRICHPUNKT2
 62
     1
 10
1530.05785838
 20
397.67765762
 30
0.0
 11
1530.05785838
 21
399.55265762
 31
0.0
  0
LINE
  5
2DF
  8
0
  6
STRICHPUNKT2
 62
     1
 10
1505.05785838
 20
397.67765762
 30
0.0
 11
1503.18285838
 21
397.67765762
 31
0.0
  0
LINE
  5
2E0
  8
0
  6
STRICHPUNKT2
 62
     1
 10
1505.05785838
 20
397.67765762
 30
0.0
 11
1506.93285838
 21
397.67765762
 31
0.0
  0
LINE
  5
2E1
  8
0
  6
STRICHPUNKT2
 62
     1
 10
1505.05785838
 20
397.67765762
 30
0.0
 11
1505.05785838
 21
395.80265762
 31
0.0
  0
LINE
  5
2E2
  8
0
  6
STRICHPUNKT2
 62
     1
 10
1505.05785838
 20
397.67765762
 30
0.0
 11
1505.05785838
 21
399.55265762
 31
0.0
  0
LINE
  5
2E3
  8
0
  6
STRICHPUNKT2
 62
     1
 10
1480.05785838
 20
397.67765762
 30
0.0
 11
1478.18285838
 21
397.67765762
 31
0.0
  0
LINE
  5
2E4
  8
0
  6
STRICHPUNKT2
 62
     1
 10
1480.05785838
 20
397.67765762
 30
0.0
 11
1481.93285838
 21
397.67765762
 31
0.0
  0
LINE
  5
2E5
  8
0
  6
STRICHPUNKT2
 62
     1
 10
1480.05785838
 20
397.67765762
 30
0.0
 11
1480.05785838
 21
395.80265762
 31
0.0
  0
LINE
  5
2E6
  8
0
  6
STRICHPUNKT2
 62
     1
 10
1480.05785838
 20
397.67765762
 30
0.0
 11
1480.05785838
 21
399.55265762
 31
0.0
  0
LINE
  5
2E7
  8
0
  6
STRICHPUNKT2
 62
     1
 10
1455.05785838
 20
397.67765762
 30
0.0
 11
1453.18285838
 21
397.67765762
 31
0.0
  0
LINE
  5
2E8
  8
0
  6
STRICHPUNKT2
 62
     1
 10
1455.05785838
 20
397.67765762
 30
0.0
 11
1456.93285838
 21
397.67765762
 31
0.0
  0
LINE
  5
2E9
  8
0
  6
STRICHPUNKT2
 62
     1
 10
1455.05785838
 20
397.67765762
 30
0.0
 11
1455.05785838
 21
395.80265762
 31
0.0
  0
LINE
  5
2EA
  8
0
  6
STRICHPUNKT2
 62
     1
 10
1455.05785838
 20
397.67765762
 30
0.0
 11
1455.05785838
 21
399.55265762
 31
0.0
  0
LINE
  5
2EB
  8
0
  6
STRICHPUNKT2
 62
     1
 10
1430.05785838
 20
397.67765762
 30
0.0
 11
1428.18285838
 21
397.67765762
 31
0.0
  0
LINE
  5
2EC
  8
0
  6
STRICHPUNKT2
 62
     1
 10
1430.05785838
 20
397.67765762
 30
0.0
 11
1431.93285838
 21
397.67765762
 31
0.0
  0
LINE
  5
2ED
  8
0
  6
STRICHPUNKT2
 62
     1
 10
1430.05785838
 20
397.67765762
 30
0.0
 11
1430.05785838
 21
395.80265762
 31
0.0
  0
LINE
  5
2EE
  8
0
  6
STRICHPUNKT2
 62
     1
 10
1430.05785838
 20
397.67765762
 30
0.0
 11
1430.05785838
 21
399.55265762
 31
0.0
  0
LINE
  5
2EF
  8
0
  6
STRICHPUNKT2
 62
     1
 10
1592.55785838
 20
407.17765762
 30
0.0
 11
1590.68285838
 21
407.17765762
 31
0.0
  0
LINE
  5
2F0
  8
0
  6
STRICHPUNKT2
 62
     1
 10
1592.55785838
 20
407.17765762
 30
0.0
 11
1594.43285838
 21
407.17765762
 31
0.0
  0
LINE
  5
2F1
  8
0
  6
STRICHPUNKT2
 62
     1
 10
1592.55785838
 20
407.17765762
 30
0.0
 11
1592.55785838
 21
405.30265762
 31
0.0
  0
LINE
  5
2F2
  8
0
  6
STRICHPUNKT2
 62
     1
 10
1592.55785838
 20
407.17765762
 30
0.0
 11
1592.55785838
 21
409.05265762
 31
0.0
  0
LINE
  5
2F3
  8
0
  6
STRICHPUNKT2
 62
     1
 10
1567.55785838
 20
407.17765762
 30
0.0
 11
1565.68285838
 21
407.17765762
 31
0.0
  0
LINE
  5
2F4
  8
0
  6
STRICHPUNKT2
 62
     1
 10
1567.55785838
 20
407.17765762
 30
0.0
 11
1569.43285838
 21
407.17765762
 31
0.0
  0
LINE
  5
2F5
  8
0
  6
STRICHPUNKT2
 62
     1
 10
1567.55785838
 20
407.17765762
 30
0.0
 11
1567.55785838
 21
405.30265762
 31
0.0
  0
LINE
  5
2F6
  8
0
  6
STRICHPUNKT2
 62
     1
 10
1567.55785838
 20
407.17765762
 30
0.0
 11
1567.55785838
 21
409.05265762
 31
0.0
  0
LINE
  5
2F7
  8
0
  6
STRICHPUNKT2
 62
     1
 10
1542.55785838
 20
407.17765762
 30
0.0
 11
1540.68285838
 21
407.17765762
 31
0.0
  0
LINE
  5
2F8
  8
0
  6
STRICHPUNKT2
 62
     1
 10
1542.55785838
 20
407.17765762
 30
0.0
 11
1544.43285838
 21
407.17765762
 31
0.0
  0
LINE
  5
2F9
  8
0
  6
STRICHPUNKT2
 62
     1
 10
1542.55785838
 20
407.17765762
 30
0.0
 11
1542.55785838
 21
405.30265762
 31
0.0
  0
LINE
  5
2FA
  8
0
  6
STRICHPUNKT2
 62
     1
 10
1542.55785838
 20
407.17765762
 30
0.0
 11
1542.55785838
 21
409.05265762
 31
0.0
  0
LINE
  5
2FB
  8
0
  6
STRICHPUNKT2
 62
     1
 10
1517.55785838
 20
407.17765762
 30
0.0
 11
1515.68285838
 21
407.17765762
 31
0.0
  0
LINE
  5
2FC
  8
0
  6
STRICHPUNKT2
 62
     1
 10
1517.55785838
 20
407.17765762
 30
0.0
 11
1519.43285838
 21
407.17765762
 31
0.0
  0
LINE
  5
2FD
  8
0
  6
STRICHPUNKT2
 62
     1
 10
1517.55785838
 20
407.17765762
 30
0.0
 11
1517.55785838
 21
405.30265762
 31
0.0
  0
LINE
  5
2FE
  8
0
  6
STRICHPUNKT2
 62
     1
 10
1517.55785838
 20
407.17765762
 30
0.0
 11
1517.55785838
 21
409.05265762
 31
0.0
  0
LINE
  5
2FF
  8
0
  6
STRICHPUNKT2
 62
     1
 10
1492.55785838
 20
407.17765762
 30
0.0
 11
1490.68285838
 21
407.17765762
 31
0.0
  0
LINE
  5
300
  8
0
  6
STRICHPUNKT2
 62
     1
 10
1492.55785838
 20
407.17765762
 30
0.0
 11
1494.43285838
 21
407.17765762
 31
0.0
  0
LINE
  5
301
  8
0
  6
STRICHPUNKT2
 62
     1
 10
1492.55785838
 20
407.17765762
 30
0.0
 11
1492.55785838
 21
405.30265762
 31
0.0
  0
LINE
  5
302
  8
0
  6
STRICHPUNKT2
 62
     1
 10
1492.55785838
 20
407.17765762
 30
0.0
 11
1492.55785838
 21
409.05265762
 31
0.0
  0
LINE
  5
303
  8
0
  6
STRICHPUNKT2
 62
     1
 10
1467.55785838
 20
407.17765762
 30
0.0
 11
1465.68285838
 21
407.17765762
 31
0.0
  0
LINE
  5
304
  8
0
  6
STRICHPUNKT2
 62
     1
 10
1467.55785838
 20
407.17765762
 30
0.0
 11
1469.43285838
 21
407.17765762
 31
0.0
  0
LINE
  5
305
  8
0
  6
STRICHPUNKT2
 62
     1
 10
1467.55785838
 20
407.17765762
 30
0.0
 11
1467.55785838
 21
405.30265762
 31
0.0
  0
LINE
  5
306
  8
0
  6
STRICHPUNKT2
 62
     1
 10
1467.55785838
 20
407.17765762
 30
0.0
 11
1467.55785838
 21
409.05265762
 31
0.0
  0
LINE
  5
307
  8
0
  6
STRICHPUNKT2
 62
     1
 10
1442.55785838
 20
407.17765762
 30
0.0
 11
1440.68285838
 21
407.17765762
 31
0.0
  0
LINE
  5
308
  8
0
  6
STRICHPUNKT2
 62
     1
 10
1442.55785838
 20
407.17765762
 30
0.0
 11
1444.43285838
 21
407.17765762
 31
0.0
  0
LINE
  5
309
  8
0
  6
STRICHPUNKT2
 62
     1
 10
1442.55785838
 20
407.17765762
 30
0.0
 11
1442.55785838
 21
405.30265762
 31
0.0
  0
LINE
  5
30A
  8
0
  6
STRICHPUNKT2
 62
     1
 10
1442.55785838
 20
407.17765762
 30
0.0
 11
1442.55785838
 21
409.05265762
 31
0.0
  0
LINE
  5
30B
  8
0
  6
STRICHPUNKT2
 62
     1
 10
1592.55785838
 20
388.17765762
 30
0.0
 11
1590.68285838
 21
388.17765762
 31
0.0
  0
LINE
  5
30C
  8
0
  6
STRICHPUNKT2
 62
     1
 10
1592.55785838
 20
388.17765762
 30
0.0
 11
1594.43285838
 21
388.17765762
 31
0.0
  0
LINE
  5
30D
  8
0
  6
STRICHPUNKT2
 62
     1
 10
1592.55785838
 20
388.17765762
 30
0.0
 11
1592.55785838
 21
386.30265762
 31
0.0
  0
LINE
  5
30E
  8
0
  6
STRICHPUNKT2
 62
     1
 10
1592.55785838
 20
388.17765762
 30
0.0
 11
1592.55785838
 21
390.05265762
 31
0.0
  0
LINE
  5
30F
  8
0
  6
STRICHPUNKT2
 62
     1
 10
1567.55785838
 20
388.17765762
 30
0.0
 11
1565.68285838
 21
388.17765762
 31
0.0
  0
LINE
  5
310
  8
0
  6
STRICHPUNKT2
 62
     1
 10
1567.55785838
 20
388.17765762
 30
0.0
 11
1569.43285838
 21
388.17765762
 31
0.0
  0
LINE
  5
311
  8
0
  6
STRICHPUNKT2
 62
     1
 10
1567.55785838
 20
388.17765762
 30
0.0
 11
1567.55785838
 21
386.30265762
 31
0.0
  0
LINE
  5
312
  8
0
  6
STRICHPUNKT2
 62
     1
 10
1567.55785838
 20
388.17765762
 30
0.0
 11
1567.55785838
 21
390.05265762
 31
0.0
  0
LINE
  5
313
  8
0
  6
STRICHPUNKT2
 62
     1
 10
1542.55785838
 20
388.17765762
 30
0.0
 11
1540.68285838
 21
388.17765762
 31
0.0
  0
LINE
  5
314
  8
0
  6
STRICHPUNKT2
 62
     1
 10
1542.55785838
 20
388.17765762
 30
0.0
 11
1544.43285838
 21
388.17765762
 31
0.0
  0
LINE
  5
315
  8
0
  6
STRICHPUNKT2
 62
     1
 10
1542.55785838
 20
388.17765762
 30
0.0
 11
1542.55785838
 21
386.30265762
 31
0.0
  0
LINE
  5
316
  8
0
  6
STRICHPUNKT2
 62
     1
 10
1542.55785838
 20
388.17765762
 30
0.0
 11
1542.55785838
 21
390.05265762
 31
0.0
  0
LINE
  5
317
  8
0
  6
STRICHPUNKT2
 62
     1
 10
1517.55785838
 20
388.17765762
 30
0.0
 11
1515.68285838
 21
388.17765762
 31
0.0
  0
LINE
  5
318
  8
0
  6
STRICHPUNKT2
 62
     1
 10
1517.55785838
 20
388.17765762
 30
0.0
 11
1519.43285838
 21
388.17765762
 31
0.0
  0
LINE
  5
319
  8
0
  6
STRICHPUNKT2
 62
     1
 10
1517.55785838
 20
388.17765762
 30
0.0
 11
1517.55785838
 21
386.30265762
 31
0.0
  0
LINE
  5
31A
  8
0
  6
STRICHPUNKT2
 62
     1
 10
1517.55785838
 20
388.17765762
 30
0.0
 11
1517.55785838
 21
390.05265762
 31
0.0
  0
LINE
  5
31B
  8
0
  6
STRICHPUNKT2
 62
     1
 10
1492.55785838
 20
388.17765762
 30
0.0
 11
1490.68285838
 21
388.17765762
 31
0.0
  0
LINE
  5
31C
  8
0
  6
STRICHPUNKT2
 62
     1
 10
1492.55785838
 20
388.17765762
 30
0.0
 11
1494.43285838
 21
388.17765762
 31
0.0
  0
LINE
  5
31D
  8
0
  6
STRICHPUNKT2
 62
     1
 10
1492.55785838
 20
388.17765762
 30
0.0
 11
1492.55785838
 21
386.30265762
 31
0.0
  0
LINE
  5
31E
  8
0
  6
STRICHPUNKT2
 62
     1
 10
1492.55785838
 20
388.17765762
 30
0.0
 11
1492.55785838
 21
390.05265762
 31
0.0
  0
LINE
  5
31F
  8
0
  6
STRICHPUNKT2
 62
     1
 10
1467.55785838
 20
388.17765762
 30
0.0
 11
1465.68285838
 21
388.17765762
 31
0.0
  0
LINE
  5
320
  8
0
  6
STRICHPUNKT2
 62
     1
 10
1467.55785838
 20
388.17765762
 30
0.0
 11
1469.43285838
 21
388.17765762
 31
0.0
  0
LINE
  5
321
  8
0
  6
STRICHPUNKT2
 62
     1
 10
1467.55785838
 20
388.17765762
 30
0.0
 11
1467.55785838
 21
386.30265762
 31
0.0
  0
LINE
  5
322
  8
0
  6
STRICHPUNKT2
 62
     1
 10
1467.55785838
 20
388.17765762
 30
0.0
 11
1467.55785838
 21
390.05265762
 31
0.0
  0
LINE
  5
323
  8
0
  6
STRICHPUNKT2
 62
     1
 10
1442.55785838
 20
388.17765762
 30
0.0
 11
1440.68285838
 21
388.17765762
 31
0.0
  0
LINE
  5
324
  8
0
  6
STRICHPUNKT2
 62
     1
 10
1442.55785838
 20
388.17765762
 30
0.0
 11
1444.43285838
 21
388.17765762
 31
0.0
  0
LINE
  5
325
  8
0
  6
STRICHPUNKT2
 62
     1
 10
1442.55785838
 20
388.17765762
 30
0.0
 11
1442.55785838
 21
386.30265762
 31
0.0
  0
LINE
  5
326
  8
0
  6
STRICHPUNKT2
 62
     1
 10
1442.55785838
 20
388.17765762
 30
0.0
 11
1442.55785838
 21
390.05265762
 31
0.0
  0
TEXT
  5
327
  8
TXT_DIM49
 10
1406.05785838
 20
463.69798359
 30
0.0
 40
2.5
  1
50
 50
90.00020741
  7
ARIAL
  0
LINE
  5
328
  8
0
 62
     4
 10
1408.55785838
 20
477.11781904
 30
0.0
 11
1406.55785838
 21
479.11781904
 31
0.0
  0
LINE
  5
329
  8
0
 62
     4
 10
1406.80785838
 20
453.86781904
 30
0.0
 11
1408.30785838
 21
452.36781904
 31
0.0
  0
LINE
  5
32A
  8
0
 62
     4
 10
1407.55785838
 20
478.11781904
 30
0.0
 11
1407.55785838
 21
453.11781904
 31
0.0
  0
LINE
  5
32B
  8
0
 62
     4
 10
1409.55785838
 20
478.11781904
 30
0.0
 11
1405.55785838
 21
478.11781904
 31
0.0
  0
LINE
  5
32C
  8
0
 62
     4
 10
1409.55785838
 20
453.11781904
 30
0.0
 11
1405.55785838
 21
453.11781904
 31
0.0
  0
TEXT
  5
32D
  8
TXT_DIM49
 10
1435.24734155
 20
476.73806592
 30
0.0
 40
2.5
  1
100
 50
90.00020741
  7
ARIAL
  0
LINE
  5
32E
  8
0
 62
     4
 10
1437.74734155
 20
503.61781904
 30
0.0
 11
1435.74734155
 21
505.61781904
 31
0.0
  0
LINE
  5
32F
  8
0
 62
     4
 10
1435.99734155
 20
455.36781904
 30
0.0
 11
1437.49734155
 21
453.86781904
 31
0.0
  0
LINE
  5
330
  8
0
 62
     4
 10
1436.74734155
 20
504.61781904
 30
0.0
 11
1436.74734155
 21
454.61781904
 31
0.0
  0
LINE
  5
331
  8
0
 62
     4
 10
1434.74734155
 20
504.61781904
 30
0.0
 11
1438.74734155
 21
504.61781904
 31
0.0
  0
LINE
  5
332
  8
0
 62
     4
 10
1434.74734155
 20
454.61781904
 30
0.0
 11
1438.74734155
 21
454.61781904
 31
0.0
  0
TEXT
  5
333
  8
TXT_DIM49
 10
1420.38802293
 20
512.15604315
 30
0.0
 40
2.5
  1
15
  7
ARIAL
  0
LINE
  5
334
  8
0
 62
     4
 10
1419.55785838
 20
511.65604315
 30
0.0
 11
1417.55785838
 21
509.65604315
 31
0.0
  0
LINE
  5
335
  8
0
 62
     4
 10
1425.30785838
 20
509.90604315
 30
0.0
 11
1426.80785838
 21
511.40604315
 31
0.0
  0
LINE
  5
336
  8
0
 62
     4
 10
1418.55785838
 20
510.65604315
 30
0.0
 11
1426.05785838
 21
510.65604315
 31
0.0
  0
LINE
  5
337
  8
0
 62
     4
 10
1418.55785838
 20
508.65604315
 30
0.0
 11
1418.55785838
 21
512.65604315
 31
0.0
  0
LINE
  5
338
  8
0
 62
     4
 10
1426.05785838
 20
508.65604315
 30
0.0
 11
1426.05785838
 21
512.65604315
 31
0.0
  0
TEXT
  5
339
  8
TXT_DIM49
 10
1417.09794066
 20
482.15604315
 30
0.0
 40
2.5
  1
2
  7
ARIAL
  0
LINE
  5
33A
  8
0
 62
     4
 10
1418.55785838
 20
481.65604315
 30
0.0
 11
1416.55785838
 21
479.65604315
 31
0.0
  0
LINE
  5
33B
  8
0
 62
     4
 10
1417.80785838
 20
479.90604315
 30
0.0
 11
1419.30785838
 21
481.40604315
 31
0.0
  0
LINE
  5
33C
  8
0
 62
     4
 10
1417.55785838
 20
480.65604315
 30
0.0
 11
1418.55785838
 21
480.65604315
 31
0.0
  0
LINE
  5
33D
  8
0
 62
     4
 10
1417.55785838
 20
478.65604315
 30
0.0
 11
1417.55785838
 21
482.65604315
 31
0.0
  0
LINE
  5
33E
  8
0
 62
     4
 10
1418.55785838
 20
478.65604315
 30
0.0
 11
1418.55785838
 21
482.65604315
 31
0.0
  0
TEXT
  5
33F
  8
TXT_DIM49
 10
1507.17810527
 20
445.41051849
 30
0.0
 40
2.5
  1
370
  7
ARIAL
  0
LINE
  5
340
  8
0
 62
     4
 10
1418.55785838
 20
444.91051849
 30
0.0
 11
1416.55785838
 21
442.91051849
 31
0.0
  0
LINE
  5
341
  8
0
 62
     4
 10
1601.80785838
 20
443.16051849
 30
0.0
 11
1603.30785838
 21
444.66051849
 31
0.0
  0
LINE
  5
342
  8
0
 62
     4
 10
1417.55785838
 20
443.91051849
 30
0.0
 11
1602.55785838
 21
443.91051849
 31
0.0
  0
LINE
  5
343
  8
0
 62
     4
 10
1417.55785838
 20
445.91051849
 30
0.0
 11
1417.55785838
 21
441.91051849
 31
0.0
  0
LINE
  5
344
  8
0
 62
     4
 10
1602.55785838
 20
445.91051849
 30
0.0
 11
1602.55785838
 21
441.91051849
 31
0.0
  0
TEXT
  5
345
  8
TXT_DIM49
 10
1606.0817635
 20
452.65790131
 30
0.0
 40
2.5
  1
2
 50
90.00020741
  7
ARIAL
  0
LINE
  5
346
  8
0
 62
     4
 10
1606.5817635
 20
454.11781904
 30
0.0
 11
1608.5817635
 21
452.11781904
 31
0.0
  0
LINE
  5
347
  8
0
 62
     4
 10
1608.3317635
 20
453.36781904
 30
0.0
 11
1606.8317635
 21
454.86781904
 31
0.0
  0
LINE
  5
348
  8
0
 62
     4
 10
1607.5817635
 20
453.11781904
 30
0.0
 11
1607.5817635
 21
454.11781904
 31
0.0
  0
LINE
  5
349
  8
0
 62
     4
 10
1605.5817635
 20
453.11781904
 30
0.0
 11
1609.5817635
 21
453.11781904
 31
0.0
  0
LINE
  5
34A
  8
0
 62
     4
 10
1605.5817635
 20
454.11781904
 30
0.0
 11
1609.5817635
 21
454.11781904
 31
0.0
  0
TEXT
  5
34B
  8
TXT_DIM49
 10
1357.83999957
 20
449.13875852
 30
0.0
 40
2.5
  1
30
  7
ARIAL
  0
LINE
  5
34C
  8
0
 62
     4
 10
1366.25983502
 20
446.63875852
 30
0.0
 11
1368.25983502
 21
448.63875852
 31
0.0
  0
LINE
  5
34D
  8
0
 62
     4
 10
1353.00983502
 20
448.38875852
 30
0.0
 11
1351.50983502
 21
446.88875852
 31
0.0
  0
LINE
  5
34E
  8
0
 62
     4
 10
1367.25983502
 20
447.63875852
 30
0.0
 11
1352.25983502
 21
447.63875852
 31
0.0
  0
LINE
  5
34F
  8
0
 62
     4
 10
1367.25983502
 20
449.63875852
 30
0.0
 11
1367.25983502
 21
445.63875852
 31
0.0
  0
LINE
  5
350
  8
0
 62
     4
 10
1352.25983502
 20
449.63875852
 30
0.0
 11
1352.25983502
 21
445.63875852
 31
0.0
  0
TEXT
  5
351
  8
TXT_DIM49
 10
1342.83999957
 20
449.13875852
 30
0.0
 40
2.5
  1
30
  7
ARIAL
  0
LINE
  5
352
  8
0
 62
     4
 10
1351.25983502
 20
446.63875852
 30
0.0
 11
1353.25983502
 21
448.63875852
 31
0.0
  0
LINE
  5
353
  8
0
 62
     4
 10
1338.00983502
 20
448.38875852
 30
0.0
 11
1336.50983502
 21
446.88875852
 31
0.0
  0
LINE
  5
354
  8
0
 62
     4
 10
1352.25983502
 20
447.63875852
 30
0.0
 11
1337.25983502
 21
447.63875852
 31
0.0
  0
LINE
  5
355
  8
0
 62
     4
 10
1352.25983502
 20
449.63875852
 30
0.0
 11
1352.25983502
 21
445.63875852
 31
0.0
  0
LINE
  5
356
  8
0
 62
     4
 10
1337.25983502
 20
449.63875852
 30
0.0
 11
1337.25983502
 21
445.63875852
 31
0.0
  0
TEXT
  5
357
  8
TXT_DIM49
 10
1328.49946609
 20
489.44798359
 30
0.0
 40
2.5
  1
53
 50
90.00020741
  7
ARIAL
  0
LINE
  5
358
  8
0
 62
     4
 10
1330.99946609
 20
503.61781904
 30
0.0
 11
1328.99946609
 21
505.61781904
 31
0.0
  0
LINE
  5
359
  8
0
 62
     4
 10
1329.24946609
 20
478.86781904
 30
0.0
 11
1330.74946609
 21
477.36781904
 31
0.0
  0
LINE
  5
35A
  8
0
 62
     4
 10
1329.99946609
 20
504.61781904
 30
0.0
 11
1329.99946609
 21
478.11781904
 31
0.0
  0
LINE
  5
35B
  8
0
 62
     4
 10
1331.99946609
 20
504.61781904
 30
0.0
 11
1327.99946609
 21
504.61781904
 31
0.0
  0
LINE
  5
35C
  8
0
 62
     4
 10
1331.99946609
 20
478.11781904
 30
0.0
 11
1327.99946609
 21
478.11781904
 31
0.0
  0
TEXT
  5
35D
  8
TXT_DIM49
 10
1328.49946609
 20
469.94798359
 30
0.0
 40
2.5
  1
25
 50
90.00020741
  7
ARIAL
  0
LINE
  5
35E
  8
0
 62
     4
 10
1330.99946609
 20
477.11781904
 30
0.0
 11
1328.99946609
 21
479.11781904
 31
0.0
  0
LINE
  5
35F
  8
0
 62
     4
 10
1329.24946609
 20
466.36781904
 30
0.0
 11
1330.74946609
 21
464.86781904
 31
0.0
  0
LINE
  5
360
  8
0
 62
     4
 10
1329.99946609
 20
478.11781904
 30
0.0
 11
1329.99946609
 21
465.61781904
 31
0.0
  0
LINE
  5
361
  8
0
 62
     4
 10
1331.99946609
 20
478.11781904
 30
0.0
 11
1327.99946609
 21
478.11781904
 31
0.0
  0
LINE
  5
362
  8
0
 62
     4
 10
1331.99946609
 20
465.61781904
 30
0.0
 11
1327.99946609
 21
465.61781904
 31
0.0
  0
TEXT
  5
363
  8
TXT_DIM49
 10
1328.49946609
 20
458.44798359
 30
0.0
 40
2.5
  1
21
 50
90.00020741
  7
ARIAL
  0
LINE
  5
364
  8
0
 62
     4
 10
1330.99946609
 20
464.61781904
 30
0.0
 11
1328.99946609
 21
466.61781904
 31
0.0
  0
LINE
  5
365
  8
0
 62
     4
 10
1329.24946609
 20
455.86781904
 30
0.0
 11
1330.74946609
 21
454.36781904
 31
0.0
  0
LINE
  5
366
  8
0
 62
     4
 10
1329.99946609
 20
465.61781904
 30
0.0
 11
1329.99946609
 21
455.11781904
 31
0.0
  0
LINE
  5
367
  8
0
 62
     4
 10
1331.99946609
 20
465.61781904
 30
0.0
 11
1327.99946609
 21
465.61781904
 31
0.0
  0
LINE
  5
368
  8
0
 62
     4
 10
1331.99946609
 20
455.11781904
 30
0.0
 11
1327.99946609
 21
455.11781904
 31
0.0
  0
TEXT
  5
369
  8
TXT_DIM49
 10
1328.49946609
 20
453.15790131
 30
0.0
 40
2.5
  1
4
 50
90.00020741
  7
ARIAL
  0
LINE
  5
36A
  8
0
 62
     4
 10
1330.99946609
 20
454.11781904
 30
0.0
 11
1328.99946609
 21
456.11781904
 31
0.0
  0
LINE
  5
36B
  8
0
 62
     4
 10
1329.24946609
 20
453.86781904
 30
0.0
 11
1330.74946609
 21
452.36781904
 31
0.0
  0
LINE
  5
36C
  8
0
 62
     4
 10
1329.99946609
 20
455.11781904
 30
0.0
 11
1329.99946609
 21
453.11781904
 31
0.0
  0
LINE
  5
36D
  8
0
 62
     4
 10
1331.99946609
 20
455.11781904
 30
0.0
 11
1327.99946609
 21
455.11781904
 31
0.0
  0
LINE
  5
36E
  8
0
 62
     4
 10
1331.99946609
 20
453.11781904
 30
0.0
 11
1327.99946609
 21
453.11781904
 31
0.0
  0
LINE
  5
36F
  8
0
 62
     5
 10
1352.25983502
 20
469.11781904
 30
0.0
 11
1350.00455846
 21
471.7792475
 31
0.0
  0
TEXT
  5
370
  8
TXT_DIM49
 10
1343.47981466
 20
470.5292475
 30
0.0
 40
2.5
  1
Ø14
  7
ARIAL
  0
TEXT
  5
371
  8
TXT_DIM49
 10
1595.63802293
 20
421.06665645
 30
0.0
 40
2.5
  1
20
  7
ARIAL
  0
LINE
  5
372
  8
0
 62
     4
 10
1601.55785838
 20
418.56665645
 30
0.0
 11
1603.55785838
 21
420.56665645
 31
0.0
  0
LINE
  5
373
  8
0
 62
     4
 10
1593.30785838
 20
420.31665645
 30
0.0
 11
1591.80785838
 21
418.81665645
 31
0.0
  0
LINE
  5
374
  8
0
 62
     4
 10
1602.55785838
 20
419.56665645
 30
0.0
 11
1592.55785838
 21
419.56665645
 31
0.0
  0
LINE
  5
375
  8
0
 62
     4
 10
1602.55785838
 20
417.56665645
 30
0.0
 11
1602.55785838
 21
421.56665645
 31
0.0
  0
LINE
  5
376
  8
0
 62
     4
 10
1592.55785838
 20
417.56665645
 30
0.0
 11
1592.55785838
 21
421.56665645
 31
0.0
  0
TEXT
  5
377
  8
TXT_DIM49
 10
1584.38802293
 20
421.06665645
 30
0.0
 40
2.5
  1
25
  7
ARIAL
  0
LINE
  5
378
  8
0
 62
     4
 10
1591.55785838
 20
418.56665645
 30
0.0
 11
1593.55785838
 21
420.56665645
 31
0.0
  0
LINE
  5
379
  8
0
 62
     4
 10
1580.80785838
 20
420.31665645
 30
0.0
 11
1579.30785838
 21
418.81665645
 31
0.0
  0
LINE
  5
37A
  8
0
 62
     4
 10
1592.55785838
 20
419.56665645
 30
0.0
 11
1580.05785838
 21
419.56665645
 31
0.0
  0
LINE
  5
37B
  8
0
 62
     4
 10
1592.55785838
 20
417.56665645
 30
0.0
 11
1592.55785838
 21
421.56665645
 31
0.0
  0
LINE
  5
37C
  8
0
 62
     4
 10
1580.05785838
 20
417.56665645
 30
0.0
 11
1580.05785838
 21
421.56665645
 31
0.0
  0
TEXT
  5
37D
  8
TXT_DIM49
 10
1571.88802293
 20
421.06665645
 30
0.0
 40
2.5
  1
25
  7
ARIAL
  0
LINE
  5
37E
  8
0
 62
     4
 10
1579.05785838
 20
418.56665645
 30
0.0
 11
1581.05785838
 21
420.56665645
 31
0.0
  0
LINE
  5
37F
  8
0
 62
     4
 10
1568.30785838
 20
420.31665645
 30
0.0
 11
1566.80785838
 21
418.81665645
 31
0.0
  0
LINE
  5
380
  8
0
 62
     4
 10
1580.05785838
 20
419.56665645
 30
0.0
 11
1567.55785838
 21
419.56665645
 31
0.0
  0
LINE
  5
381
  8
0
 62
     4
 10
1580.05785838
 20
417.56665645
 30
0.0
 11
1580.05785838
 21
421.56665645
 31
0.0
  0
LINE
  5
382
  8
0
 62
     4
 10
1567.55785838
 20
417.56665645
 30
0.0
 11
1567.55785838
 21
421.56665645
 31
0.0
  0
TEXT
  5
383
  8
TXT_DIM49
 10
1559.38802293
 20
421.06665645
 30
0.0
 40
2.5
  1
25
  7
ARIAL
  0
LINE
  5
384
  8
0
 62
     4
 10
1566.55785838
 20
418.56665645
 30
0.0
 11
1568.55785838
 21
420.56665645
 31
0.0
  0
LINE
  5
385
  8
0
 62
     4
 10
1555.80785838
 20
420.31665645
 30
0.0
 11
1554.30785838
 21
418.81665645
 31
0.0
  0
LINE
  5
386
  8
0
 62
     4
 10
1567.55785838
 20
419.56665645
 30
0.0
 11
1555.05785838
 21
419.56665645
 31
0.0
  0
LINE
  5
387
  8
0
 62
     4
 10
1567.55785838
 20
417.56665645
 30
0.0
 11
1567.55785838
 21
421.56665645
 31
0.0
  0
LINE
  5
388
  8
0
 62
     4
 10
1555.05785838
 20
417.56665645
 30
0.0
 11
1555.05785838
 21
421.56665645
 31
0.0
  0
TEXT
  5
389
  8
TXT_DIM49
 10
1546.88802293
 20
421.06665645
 30
0.0
 40
2.5
  1
25
  7
ARIAL
  0
LINE
  5
38A
  8
0
 62
     4
 10
1554.05785838
 20
418.56665645
 30
0.0
 11
1556.05785838
 21
420.56665645
 31
0.0
  0
LINE
  5
38B
  8
0
 62
     4
 10
1543.30785838
 20
420.31665645
 30
0.0
 11
1541.80785838
 21
418.81665645
 31
0.0
  0
LINE
  5
38C
  8
0
 62
     4
 10
1555.05785838
 20
419.56665645
 30
0.0
 11
1542.55785838
 21
419.56665645
 31
0.0
  0
LINE
  5
38D
  8
0
 62
     4
 10
1555.05785838
 20
417.56665645
 30
0.0
 11
1555.05785838
 21
421.56665645
 31
0.0
  0
LINE
  5
38E
  8
0
 62
     4
 10
1542.55785838
 20
417.56665645
 30
0.0
 11
1542.55785838
 21
421.56665645
 31
0.0
  0
TEXT
  5
38F
  8
TXT_DIM49
 10
1534.38802293
 20
421.06665645
 30
0.0
 40
2.5
  1
25
  7
ARIAL
  0
LINE
  5
390
  8
0
 62
     4
 10
1541.55785838
 20
418.56665645
 30
0.0
 11
1543.55785838
 21
420.56665645
 31
0.0
  0
LINE
  5
391
  8
0
 62
     4
 10
1530.80785838
 20
420.31665645
 30
0.0
 11
1529.30785838
 21
418.81665645
 31
0.0
  0
LINE
  5
392
  8
0
 62
     4
 10
1542.55785838
 20
419.56665645
 30
0.0
 11
1530.05785838
 21
419.56665645
 31
0.0
  0
LINE
  5
393
  8
0
 62
     4
 10
1542.55785838
 20
417.56665645
 30
0.0
 11
1542.55785838
 21
421.56665645
 31
0.0
  0
LINE
  5
394
  8
0
 62
     4
 10
1530.05785838
 20
417.56665645
 30
0.0
 11
1530.05785838
 21
421.56665645
 31
0.0
  0
TEXT
  5
395
  8
TXT_DIM49
 10
1521.88802293
 20
421.06665645
 30
0.0
 40
2.5
  1
25
  7
ARIAL
  0
LINE
  5
396
  8
0
 62
     4
 10
1529.05785838
 20
418.56665645
 30
0.0
 11
1531.05785838
 21
420.56665645
 31
0.0
  0
LINE
  5
397
  8
0
 62
     4
 10
1518.30785838
 20
420.31665645
 30
0.0
 11
1516.80785838
 21
418.81665645
 31
0.0
  0
LINE
  5
398
  8
0
 62
     4
 10
1530.05785838
 20
419.56665645
 30
0.0
 11
1517.55785838
 21
419.56665645
 31
0.0
  0
LINE
  5
399
  8
0
 62
     4
 10
1530.05785838
 20
417.56665645
 30
0.0
 11
1530.05785838
 21
421.56665645
 31
0.0
  0
LINE
  5
39A
  8
0
 62
     4
 10
1517.55785838
 20
417.56665645
 30
0.0
 11
1517.55785838
 21
421.56665645
 31
0.0
  0
TEXT
  5
39B
  8
TXT_DIM49
 10
1509.38802293
 20
421.06665645
 30
0.0
 40
2.5
  1
25
  7
ARIAL
  0
LINE
  5
39C
  8
0
 62
     4
 10
1516.55785838
 20
418.56665645
 30
0.0
 11
1518.55785838
 21
420.56665645
 31
0.0
  0
LINE
  5
39D
  8
0
 62
     4
 10
1505.80785838
 20
420.31665645
 30
0.0
 11
1504.30785838
 21
418.81665645
 31
0.0
  0
LINE
  5
39E
  8
0
 62
     4
 10
1517.55785838
 20
419.56665645
 30
0.0
 11
1505.05785838
 21
419.56665645
 31
0.0
  0
LINE
  5
39F
  8
0
 62
     4
 10
1517.55785838
 20
417.56665645
 30
0.0
 11
1517.55785838
 21
421.56665645
 31
0.0
  0
LINE
  5
3A0
  8
0
 62
     4
 10
1505.05785838
 20
417.56665645
 30
0.0
 11
1505.05785838
 21
421.56665645
 31
0.0
  0
TEXT
  5
3A1
  8
TXT_DIM49
 10
1496.88802293
 20
421.06665645
 30
0.0
 40
2.5
  1
25
  7
ARIAL
  0
LINE
  5
3A2
  8
0
 62
     4
 10
1504.05785838
 20
418.56665645
 30
0.0
 11
1506.05785838
 21
420.56665645
 31
0.0
  0
LINE
  5
3A3
  8
0
 62
     4
 10
1493.30785838
 20
420.31665645
 30
0.0
 11
1491.80785838
 21
418.81665645
 31
0.0
  0
LINE
  5
3A4
  8
0
 62
     4
 10
1505.05785838
 20
419.56665645
 30
0.0
 11
1492.55785838
 21
419.56665645
 31
0.0
  0
LINE
  5
3A5
  8
0
 62
     4
 10
1505.05785838
 20
417.56665645
 30
0.0
 11
1505.05785838
 21
421.56665645
 31
0.0
  0
LINE
  5
3A6
  8
0
 62
     4
 10
1492.55785838
 20
417.56665645
 30
0.0
 11
1492.55785838
 21
421.56665645
 31
0.0
  0
TEXT
  5
3A7
  8
TXT_DIM49
 10
1484.38802293
 20
421.06665645
 30
0.0
 40
2.5
  1
25
  7
ARIAL
  0
LINE
  5
3A8
  8
0
 62
     4
 10
1491.55785838
 20
418.56665645
 30
0.0
 11
1493.55785838
 21
420.56665645
 31
0.0
  0
LINE
  5
3A9
  8
0
 62
     4
 10
1480.80785838
 20
420.31665645
 30
0.0
 11
1479.30785838
 21
418.81665645
 31
0.0
  0
LINE
  5
3AA
  8
0
 62
     4
 10
1492.55785838
 20
419.56665645
 30
0.0
 11
1480.05785838
 21
419.56665645
 31
0.0
  0
LINE
  5
3AB
  8
0
 62
     4
 10
1492.55785838
 20
417.56665645
 30
0.0
 11
1492.55785838
 21
421.56665645
 31
0.0
  0
LINE
  5
3AC
  8
0
 62
     4
 10
1480.05785838
 20
417.56665645
 30
0.0
 11
1480.05785838
 21
421.56665645
 31
0.0
  0
TEXT
  5
3AD
  8
TXT_DIM49
 10
1471.88802293
 20
421.06665645
 30
0.0
 40
2.5
  1
25
  7
ARIAL
  0
LINE
  5
3AE
  8
0
 62
     4
 10
1479.05785838
 20
418.56665645
 30
0.0
 11
1481.05785838
 21
420.56665645
 31
0.0
  0
LINE
  5
3AF
  8
0
 62
     4
 10
1468.30785838
 20
420.31665645
 30
0.0
 11
1466.80785838
 21
418.81665645
 31
0.0
  0
LINE
  5
3B0
  8
0
 62
     4
 10
1480.05785838
 20
419.56665645
 30
0.0
 11
1467.55785838
 21
419.56665645
 31
0.0
  0
LINE
  5
3B1
  8
0
 62
     4
 10
1480.05785838
 20
417.56665645
 30
0.0
 11
1480.05785838
 21
421.56665645
 31
0.0
  0
LINE
  5
3B2
  8
0
 62
     4
 10
1467.55785838
 20
417.56665645
 30
0.0
 11
1467.55785838
 21
421.56665645
 31
0.0
  0
TEXT
  5
3B3
  8
TXT_DIM49
 10
1459.38802293
 20
421.06665645
 30
0.0
 40
2.5
  1
25
  7
ARIAL
  0
LINE
  5
3B4
  8
0
 62
     4
 10
1466.55785838
 20
418.56665645
 30
0.0
 11
1468.55785838
 21
420.56665645
 31
0.0
  0
LINE
  5
3B5
  8
0
 62
     4
 10
1455.80785838
 20
420.31665645
 30
0.0
 11
1454.30785838
 21
418.81665645
 31
0.0
  0
LINE
  5
3B6
  8
0
 62
     4
 10
1467.55785838
 20
419.56665645
 30
0.0
 11
1455.05785838
 21
419.56665645
 31
0.0
  0
LINE
  5
3B7
  8
0
 62
     4
 10
1467.55785838
 20
417.56665645
 30
0.0
 11
1467.55785838
 21
421.56665645
 31
0.0
  0
LINE
  5
3B8
  8
0
 62
     4
 10
1455.05785838
 20
417.56665645
 30
0.0
 11
1455.05785838
 21
421.56665645
 31
0.0
  0
TEXT
  5
3B9
  8
TXT_DIM49
 10
1446.88802293
 20
421.06665645
 30
0.0
 40
2.5
  1
25
  7
ARIAL
  0
LINE
  5
3BA
  8
0
 62
     4
 10
1454.05785838
 20
418.56665645
 30
0.0
 11
1456.05785838
 21
420.56665645
 31
0.0
  0
LINE
  5
3BB
  8
0
 62
     4
 10
1443.30785838
 20
420.31665645
 30
0.0
 11
1441.80785838
 21
418.81665645
 31
0.0
  0
LINE
  5
3BC
  8
0
 62
     4
 10
1455.05785838
 20
419.56665645
 30
0.0
 11
1442.55785838
 21
419.56665645
 31
0.0
  0
LINE
  5
3BD
  8
0
 62
     4
 10
1455.05785838
 20
417.56665645
 30
0.0
 11
1455.05785838
 21
421.56665645
 31
0.0
  0
LINE
  5
3BE
  8
0
 62
     4
 10
1442.55785838
 20
417.56665645
 30
0.0
 11
1442.55785838
 21
421.56665645
 31
0.0
  0
TEXT
  5
3BF
  8
TXT_DIM49
 10
1434.38802293
 20
421.06665645
 30
0.0
 40
2.5
  1
25
  7
ARIAL
  0
LINE
  5
3C0
  8
0
 62
     4
 10
1441.55785838
 20
418.56665645
 30
0.0
 11
1443.55785838
 21
420.56665645
 31
0.0
  0
LINE
  5
3C1
  8
0
 62
     4
 10
1430.80785838
 20
420.31665645
 30
0.0
 11
1429.30785838
 21
418.81665645
 31
0.0
  0
LINE
  5
3C2
  8
0
 62
     4
 10
1442.55785838
 20
419.56665645
 30
0.0
 11
1430.05785838
 21
419.56665645
 31
0.0
  0
LINE
  5
3C3
  8
0
 62
     4
 10
1442.55785838
 20
417.56665645
 30
0.0
 11
1442.55785838
 21
421.56665645
 31
0.0
  0
LINE
  5
3C4
  8
0
 62
     4
 10
1430.05785838
 20
417.56665645
 30
0.0
 11
1430.05785838
 21
421.56665645
 31
0.0
  0
TEXT
  5
3C5
  8
TXT_DIM49
 10
1421.88802293
 20
421.06665645
 30
0.0
 40
2.5
  1
25
  7
ARIAL
  0
LINE
  5
3C6
  8
0
 62
     4
 10
1429.05785838
 20
418.56665645
 30
0.0
 11
1431.05785838
 21
420.56665645
 31
0.0
  0
LINE
  5
3C7
  8
0
 62
     4
 10
1418.30785838
 20
420.31665645
 30
0.0
 11
1416.80785838
 21
418.81665645
 31
0.0
  0
LINE
  5
3C8
  8
0
 62
     4
 10
1430.05785838
 20
419.56665645
 30
0.0
 11
1417.55785838
 21
419.56665645
 31
0.0
  0
LINE
  5
3C9
  8
0
 62
     4
 10
1430.05785838
 20
417.56665645
 30
0.0
 11
1430.05785838
 21
421.56665645
 31
0.0
  0
LINE
  5
3CA
  8
0
 62
     4
 10
1417.55785838
 20
417.56665645
 30
0.0
 11
1417.55785838
 21
421.56665645
 31
0.0
  0
TEXT
  5
3CB
  8
TXT_DIM49
 10
1608.27971411
 20
408.00782218
 30
0.0
 40
2.5
  1
11
 50
90.00020741
  7
ARIAL
  0
LINE
  5
3CC
  8
0
 62
     4
 10
1610.77971411
 20
411.67765762
 30
0.0
 11
1608.77971411
 21
413.67765762
 31
0.0
  0
LINE
  5
3CD
  8
0
 62
     4
 10
1609.02971411
 20
407.92765762
 30
0.0
 11
1610.52971411
 21
406.42765762
 31
0.0
  0
LINE
  5
3CE
  8
0
 62
     4
 10
1609.77971411
 20
412.67765762
 30
0.0
 11
1609.77971411
 21
407.17765762
 31
0.0
  0
LINE
  5
3CF
  8
0
 62
     4
 10
1607.77971411
 20
412.67765762
 30
0.0
 11
1611.77971411
 21
412.67765762
 31
0.0
  0
LINE
  5
3D0
  8
0
 62
     4
 10
1607.77971411
 20
407.17765762
 30
0.0
 11
1611.77971411
 21
407.17765762
 31
0.0
  0
TEXT
  5
3D1
  8
TXT_DIM49
 10
1608.27971411
 20
400.50782218
 30
0.0
 40
2.5
  1
19
 50
90.00020741
  7
ARIAL
  0
LINE
  5
3D2
  8
0
 62
     4
 10
1610.77971411
 20
406.17765762
 30
0.0
 11
1608.77971411
 21
408.17765762
 31
0.0
  0
LINE
  5
3D3
  8
0
 62
     4
 10
1609.02971411
 20
398.42765762
 30
0.0
 11
1610.52971411
 21
396.92765762
 31
0.0
  0
LINE
  5
3D4
  8
0
 62
     4
 10
1609.77971411
 20
407.17765762
 30
0.0
 11
1609.77971411
 21
397.67765762
 31
0.0
  0
LINE
  5
3D5
  8
0
 62
     4
 10
1607.77971411
 20
407.17765762
 30
0.0
 11
1611.77971411
 21
407.17765762
 31
0.0
  0
LINE
  5
3D6
  8
0
 62
     4
 10
1607.77971411
 20
397.67765762
 30
0.0
 11
1611.77971411
 21
397.67765762
 31
0.0
  0
TEXT
  5
3D7
  8
TXT_DIM49
 10
1608.27971411
 20
391.00782218
 30
0.0
 40
2.5
  1
19
 50
90.00020741
  7
ARIAL
  0
LINE
  5
3D8
  8
0
 62
     4
 10
1610.77971411
 20
396.67765762
 30
0.0
 11
1608.77971411
 21
398.67765762
 31
0.0
  0
LINE
  5
3D9
  8
0
 62
     4
 10
1609.02971411
 20
388.92765762
 30
0.0
 11
1610.52971411
 21
387.42765762
 31
0.0
  0
LINE
  5
3DA
  8
0
 62
     4
 10
1609.77971411
 20
397.67765762
 30
0.0
 11
1609.77971411
 21
388.17765762
 31
0.0
  0
LINE
  5
3DB
  8
0
 62
     4
 10
1607.77971411
 20
397.67765762
 30
0.0
 11
1611.77971411
 21
397.67765762
 31
0.0
  0
LINE
  5
3DC
  8
0
 62
     4
 10
1607.77971411
 20
388.17765762
 30
0.0
 11
1611.77971411
 21
388.17765762
 31
0.0
  0
TEXT
  5
3DD
  8
TXT_DIM49
 10
1608.27971411
 20
383.50782218
 30
0.0
 40
2.5
  1
11
 50
90.00020741
  7
ARIAL
  0
LINE
  5
3DE
  8
0
 62
     4
 10
1610.77971411
 20
387.17765762
 30
0.0
 11
1608.77971411
 21
389.17765762
 31
0.0
  0
LINE
  5
3DF
  8
0
 62
     4
 10
1609.02971411
 20
383.42765762
 30
0.0
 11
1610.52971411
 21
381.92765762
 31
0.0
  0
LINE
  5
3E0
  8
0
 62
     4
 10
1609.77971411
 20
388.17765762
 30
0.0
 11
1609.77971411
 21
382.67765762
 31
0.0
  0
LINE
  5
3E1
  8
0
 62
     4
 10
1607.77971411
 20
388.17765762
 30
0.0
 11
1611.77971411
 21
388.17765762
 31
0.0
  0
LINE
  5
3E2
  8
0
 62
     4
 10
1607.77971411
 20
382.67765762
 30
0.0
 11
1611.77971411
 21
382.67765762
 31
0.0
  0
TEXT
  5
3E3
  8
TXT_DIM49
 10
1407.1125331
 20
395.75782218
 30
0.0
 40
2.5
  1
60
 50
90.00020741
  7
ARIAL
  0
LINE
  5
3E4
  8
0
 62
     4
 10
1409.6125331
 20
411.67765762
 30
0.0
 11
1407.6125331
 21
413.67765762
 31
0.0
  0
LINE
  5
3E5
  8
0
 62
     4
 10
1407.8625331
 20
383.42765762
 30
0.0
 11
1409.3625331
 21
381.92765762
 31
0.0
  0
LINE
  5
3E6
  8
0
 62
     4
 10
1408.6125331
 20
412.67765762
 30
0.0
 11
1408.6125331
 21
382.67765762
 31
0.0
  0
LINE
  5
3E7
  8
0
 62
     4
 10
1410.6125331
 20
412.67765762
 30
0.0
 11
1406.6125331
 21
412.67765762
 31
0.0
  0
LINE
  5
3E8
  8
0
 62
     4
 10
1410.6125331
 20
382.67765762
 30
0.0
 11
1406.6125331
 21
382.67765762
 31
0.0
  0
LINE
  5
3E9
  8
0
 62
     5
 10
1581.30785838
 20
397.67765762
 30
0.0
 11
1586.8928898
 21
397.65714538
 31
0.0
  0
LINE
  5
3EA
  8
0
 62
     5
 10
1591.30785838
 20
407.17765762
 30
0.0
 11
1586.8928898
 21
397.65714538
 31
0.0
  0
LINE
  5
3EB
  8
0
 62
     5
 10
1591.30785838
 20
388.17765762
 30
0.0
 11
1586.8928898
 21
397.65714538
 31
0.0
  0
TEXT
  5
3EC
  8
TXT_DIM49
 10
1586.8928898
 20
396.40714538
 30
0.0
 40
2.5
  1
Ø5
  7
ARIAL
  0
LINE
  5
3ED
  8
0
 62
     5
 10
1556.30785838
 20
397.67765762
 30
0.0
 11
1561.61650647
 21
397.65549572
 31
0.0
  0
LINE
  5
3EE
  8
0
 62
     5
 10
1566.30785838
 20
407.17765762
 30
0.0
 11
1561.61650647
 21
397.65549572
 31
0.0
  0
LINE
  5
3EF
  8
0
 62
     5
 10
1566.30785838
 20
388.17765762
 30
0.0
 11
1561.61650647
 21
397.65549572
 31
0.0
  0
TEXT
  5
3F0
  8
TXT_DIM49
 10
1561.61650647
 20
396.40549572
 30
0.0
 40
2.5
  1
Ø5
  7
ARIAL
  0
LINE
  5
3F1
  8
0
 62
     5
 10
1531.30785838
 20
397.67765762
 30
0.0
 11
1536.45416302
 21
397.65549572
 31
0.0
  0
LINE
  5
3F2
  8
0
 62
     5
 10
1541.30785838
 20
407.17765762
 30
0.0
 11
1536.45416302
 21
397.65549572
 31
0.0
  0
LINE
  5
3F3
  8
0
 62
     5
 10
1541.30785838
 20
388.17765762
 30
0.0
 11
1536.45416302
 21
397.65549572
 31
0.0
  0
TEXT
  5
3F4
  8
TXT_DIM49
 10
1536.45416302
 20
396.40549572
 30
0.0
 40
2.5
  1
Ø5
  7
ARIAL
  0
LINE
  5
3F5
  8
0
 62
     5
 10
1506.30785838
 20
397.67765762
 30
0.0
 11
1510.66363186
 21
397.65549572
 31
0.0
  0
LINE
  5
3F6
  8
0
 62
     5
 10
1516.30785838
 20
407.17765762
 30
0.0
 11
1510.66363186
 21
397.65549572
 31
0.0
  0
LINE
  5
3F7
  8
0
 62
     5
 10
1516.30785838
 20
388.17765762
 30
0.0
 11
1510.66363186
 21
397.65549572
 31
0.0
  0
TEXT
  5
3F8
  8
TXT_DIM49
 10
1510.66363186
 20
396.40549572
 30
0.0
 40
2.5
  1
Ø5
  7
ARIAL
  0
LINE
  5
3F9
  8
0
 62
     5
 10
1481.30785838
 20
397.67765762
 30
0.0
 11
1485.72984041
 21
397.65416009
 31
0.0
  0
LINE
  5
3FA
  8
0
 62
     5
 10
1491.30785838
 20
407.17765762
 30
0.0
 11
1485.72984041
 21
397.65416009
 31
0.0
  0
LINE
  5
3FB
  8
0
 62
     5
 10
1491.30785838
 20
388.17765762
 30
0.0
 11
1485.72984041
 21
397.65416009
 31
0.0
  0
TEXT
  5
3FC
  8
TXT_DIM49
 10
1485.72984041
 20
396.40416009
 30
0.0
 40
2.5
  1
Ø5
  7
ARIAL
  0
LINE
  5
3FD
  8
0
 62
     5
 10
1456.30785838
 20
397.67765762
 30
0.0
 11
1462.11125957
 21
397.65416009
 31
0.0
  0
LINE
  5
3FE
  8
0
 62
     5
 10
1466.30785838
 20
388.17765762
 30
0.0
 11
1462.11125957
 21
397.65416009
 31
0.0
  0
LINE
  5
3FF
  8
0
 62
     5
 10
1466.30785838
 20
407.17765762
 30
0.0
 11
1462.11125957
 21
397.65416009
 31
0.0
  0
TEXT
  5
400
  8
TXT_DIM49
 10
1462.11125957
 20
396.40416009
 30
0.0
 40
2.5
  1
Ø5
  7
ARIAL
  0
LINE
  5
401
  8
0
 62
     5
 10
1431.30785838
 20
397.67765762
 30
0.0
 11
1437.92993439
 21
397.68359616
 31
0.0
  0
LINE
  5
402
  8
0
 62
     5
 10
1441.30785838
 20
407.17765762
 30
0.0
 11
1437.92993439
 21
397.68359616
 31
0.0
  0
LINE
  5
403
  8
0
 62
     5
 10
1441.30785838
 20
388.17765762
 30
0.0
 11
1437.92993439
 21
397.68359616
 31
0.0
  0
TEXT
  5
404
  8
TXT_DIM49
 10
1437.92993439
 20
396.43359616
 30
0.0
 40
2.5
  1
Ø5
  7
ARIAL
  0
ENDSEC
  0
EOF
