  0
SECTION
  2
HEADER
  9
$ACADVER
  1
AC1006
  9
$DWGCODEPAGE
  3
ansi_1252
  9
$INSBASE
 10
0.0
 20
0.0
 30
0.0
  9
$EXTMIN
 10
578.19380185
 20
260.44619248
  9
$EXTMAX
 10
1430.31322341
 20
653.0469016
  9
$LIMMIN
 10
578.19380185
 20
260.44619248
  9
$LIMMAX
 10
1430.31322341
 20
653.0469016
  9
$ORTHOMODE
 70
     0
  9
$REGENMODE
 70
     1
  9
$FILLMODE
 70
     1
  9
$QTEXTMODE
 70
     0
  9
$MIRRTEXT
 70
     1
  9
$DRAGMODE
 70
     2
  9
$LTSCALE
 40
1.0
  9
$OSMODE
 70
    37
  9
$ATTMODE
 70
     1
  9
$TEXTSIZE
 40
1.0
  9
$TRACEWID
 40
0.05
  9
$TEXTSTYLE
  7
STANDARD
  9
$CLAYER
  8
0
  9
$CELTYPE
  6
BYBLOCK
  9
$CECOLOR
 62
   256
  9
$DIMSCALE
 40
1.0
  9
$DIMASZ
 40
0.18
  9
$DIMEXO
 40
0.0625
  9
$DIMDLI
 40
0.38
  9
$DIMRND
 40
0.0
  9
$DIMDLE
 40
0.0
  9
$DIMEXE
 40
0.18
  9
$DIMTP
 40
0.0
  9
$DIMTM
 40
0.0
  9
$DIMTXT
 40
0.18
  9
$DIMCEN
 40
0.09
  9
$DIMTSZ
 40
0.0
  9
$DIMTOL
 70
     0
  9
$DIMLIM
 70
     0
  9
$DIMTIH
 70
     1
  9
$DIMTOH
 70
     1
  9
$DIMSE1
 70
     0
  9
$DIMSE2
 70
     0
  9
$DIMTAD
 70
     0
  9
$DIMZIN
 70
     0
  9
$DIMBLK
  1

  9
$DIMASO
 70
     1
  9
$DIMSHO
 70
     1
  9
$DIMPOST
  1

  9
$DIMAPOST
  1

  9
$DIMALT
 70
     0
  9
$DIMALTD
 70
     2
  9
$DIMALTF
 40
25.4
  9
$DIMLFAC
 40
1.0
  9
$DIMTOFL
 70
     0
  9
$DIMTVP
 40
0.0
  9
$DIMTIX
 70
     0
  9
$DIMSOXD
 70
     0
  9
$DIMSAH
 70
     0
  9
$DIMBLK1
  1

  9
$DIMBLK2
  1

  9
$LUNITS
 70
     2
  9
$LUPREC
 70
     4
  9
$SKETCHINC
 40
0.1
  9
$FILLETRAD
 40
0.5
  9
$AUNITS
 70
     0
  9
$AUPREC
 70
     0
  9
$MENU
  1
.
  9
$ELEVATION
 40
0.0
  9
$THICKNESS
 40
0.0
  9
$LIMCHECK
 70
     0
  9
$CHAMFERA
 40
0.0
  9
$CHAMFERB
 40
0.0
  9
$SKPOLY
 70
     0
  9
$TDCREATE
 40
2447893.125
  9
$TDUPDATE
 40
2460791.512858588
  9
$TDINDWG
 40
0.0
  9
$TDUSRTIMER
 40
0.0
  9
$USRTIMER
 70
     1
  9
$ANGBASE
 50
0.0
  9
$ANGDIR
 70
     0
  9
$PDMODE
 70
     0
  9
$PDSIZE
 40
0.0
  9
$PLINEWID
 40
0.0
  9
$COORDS
 70
     1
  9
$SPLFRAME
 70
     0
  9
$SPLINETYPE
 70
     6
  9
$SPLINESEGS
 70
     8
  9
$ATTDIA
 70
     0
  9
$ATTREQ
 70
     1
  9
$HANDLING
 70
     1
  9
$HANDSEED
  5
847
  9
$SURFTAB1
 70
     6
  9
$SURFTAB2
 70
     6
  9
$SURFTYPE
 70
     6
  9
$SURFU
 70
     6
  9
$SURFV
 70
     6
  9
$UCSNAME
  2

  9
$UCSORG
 10
0.0
 20
0.0
 30
0.0
  9
$UCSXDIR
 10
1.0
 20
0.0
 30
0.0
  9
$UCSYDIR
 10
0.0
 20
1.0
 30
0.0
  9
$USERI1
 70
     0
  9
$USERI2
 70
     0
  9
$USERI3
 70
     0
  9
$USERI4
 70
     0
  9
$USERI5
 70
     0
  9
$USERR1
 40
0.0
  9
$USERR2
 40
0.0
  9
$USERR3
 40
0.0
  9
$USERR4
 40
0.0
  9
$USERR5
 40
0.0
  9
$WORLDVIEW
 70
     1
  0
ENDSEC
  0
SECTION
  2
TABLES
  0
TABLE
  2
VPORT
 70
     1
  0
VPORT
  2
*ACTIVE
 70
     0
 10
0.0
 20
0.0
 11
1.0
 21
1.0
 12
1004.25351263
 22
456.74654704
 13
0.0
 23
0.0
 14
1.0
 24
1.0
 15
0.0
 25
0.0
 16
0.0
 26
0.0
 36
1.0
 17
0.0
 27
0.0
 37
0.0
 40
392.60070912
 41
2.170447994
 42
50.0
 43
0.0
 44
0.0
 50
0.0
 51
0.0
 71
     0
 72
   100
 73
     1
 74
     1
 75
     0
 76
     0
 77
     0
 78
     0
  0
ENDTAB
  0
TABLE
  2
LTYPE
 70
    19
  0
LTYPE
  2
CONTINUOUS
 70
     0
  3
Solid line
 72
    65
 73
     0
 40
0.0
  0
LTYPE
  2
DOT
 70
     0
  3
..............
 72
    65
 73
     2
 40
2.0
 49
0.5
 49
-1.5
  0
LTYPE
  2
HIDDEN
 70
     0
  3
-- -- -- -- --
 72
    65
 73
     2
 40
7.0
 49
4.0
 49
-3.0
  0
LTYPE
  2
DASHDOT
 70
     0
  3
--.--.--.--.--
 72
    65
 73
     4
 40
8.5
 49
4.0
 49
-2.0
 49
0.5
 49
-2.0
  0
LTYPE
  2
STRICHPUNKT2
 70
     0
  3
--.--.--.--.--
 72
    65
 73
     4
 40
18.5
 49
10.0
 49
-4.0
 49
0.5
 49
-4.0
  0
LTYPE
  2
STRICHPUNKT3
 70
     0
  3
--.--.--.--.--
 72
    65
 73
     4
 40
35.5
 49
25.0
 49
-5.0
 49
0.5
 49
-5.0
  0
LTYPE
  2
PHANTOM
 70
     0
  3
--..--..--..--
 72
    65
 73
     6
 40
23.0
 49
10.0
 49
-4.0
 49
0.5
 49
-4.0
 49
0.5
 49
-4.0
  0
LTYPE
  2
PHANTOM2
 70
     0
  3
--..--..--..--
 72
    65
 73
     6
 40
33.0
 49
20.0
 49
-4.0
 49
0.5
 49
-4.0
 49
0.5
 49
-4.0
  0
LTYPE
  2
PHANTOM3
 70
     0
  3
--..--..--..--
 72
    65
 73
     6
 40
50.0
 49
37.0
 49
-4.0
 49
0.5
 49
-4.0
 49
0.5
 49
-4.0
  0
LTYPE
  2
STR3PKT
 70
     0
  3
--...--...--...
 72
    65
 73
     8
 40
31.5
 49
20.0
 49
-2.5
 49
0.5
 49
-2.5
 49
0.5
 49
-2.5
 49
0.5
 49
-2.5
  0
LTYPE
  2
2STRPKT
 70
     0
  3
--.--.--.--.--
 72
    65
 73
     6
 40
28.0
 49
10.0
 49
-2.5
 49
10.0
 49
-2.5
 49
0.5
 49
-2.5
  0
LTYPE
  2
GESTRICHELT2
 70
     0
  3
-- -- -- -- --
 72
    65
 73
     2
 40
25.0
 49
10.0
 49
-15.0
  0
LTYPE
  2
2STR2PKT
 70
     0
  3
--..--..--..--
 72
    65
 73
     8
 40
31.0
 49
10.0
 49
-2.5
 49
10.0
 49
-2.5
 49
0.5
 49
-2.5
 49
0.5
 49
-2.5
  0
LTYPE
  2
STR3PKT2
 70
     0
  3
--...--...--...
 72
    65
 73
     8
 40
21.0
 49
10.0
 49
-2.5
 49
0.5
 49
-2.5
 49
0.5
 49
-2.5
 49
0.5
 49
-2.0
  0
LTYPE
  2
2STR3PKT
 70
     0
  3
--...--...--...
 72
    65
 73
    10
 40
34.0
 49
10.0
 49
-2.5
 49
10.0
 49
-2.5
 49
0.5
 49
-2.5
 49
0.5
 49
-2.5
 49
0.5
 49
-2.5
  0
LTYPE
  2
STRKSTR
 70
     0
  3
-- - -- - -- -
 72
    65
 73
     4
 40
30.0
 49
20.0
 49
-2.5
 49
5.0
 49
-2.5
  0
LTYPE
  2
STRKSTR2
 70
     0
  3
-- - -- - -- -
 72
    65
 73
     6
 40
37.5
 49
20.0
 49
-2.5
 49
5.0
 49
-2.5
 49
5.0
 49
-2.5
  0
LTYPE
  2
STRKSTR3
 70
     0
  3
-- - -- - -- -
 72
    65
 73
     8
 40
45.0
 49
20.0
 49
-2.5
 49
5.0
 49
-2.5
 49
5.0
 49
-2.5
 49
5.0
 49
-2.5
  0
LTYPE
  2
PUNKT2
 70
     0
  3
..............
 72
    65
 73
     2
 40
3.5
 49
0.5
 49
-3.0
  0
ENDTAB
  0
TABLE
  2
LAYER
 70
    17
  0
LAYER
  2
0
 70
     0
 62
     7
  6
CONTINUOUS
  0
LAYER
  2
LE_GREEN
 70
     0
 62
     3
  6
CONTINUOUS
  0
LAYER
  2
LE_RED
 70
     0
 62
     1
  6
CONTINUOUS
  0
LAYER
  2
LE_ALL
 70
     0
 62
     7
  6
CONTINUOUS
  0
LAYER
  2
LE_HIDDEN1
 70
     0
 62
     3
  6
HIDDEN
  0
LAYER
  2
LE_HIDDEN
 70
     0
 62
     7
  6
CONTINUOUS
  0
LAYER
  2
LE_MIDDLE
 70
     0
 62
     7
  6
CONTINUOUS
  0
LAYER
  2
TXT_YELLOW
 70
     0
 62
     2
  6
CONTINUOUS
  0
LAYER
  2
TXT_DIM49
 70
     0
 62
     2
  6
CONTINUOUS
  0
LAYER
  2
TXT_ALL
 70
     0
 62
     7
  6
CONTINUOUS
  0
LAYER
  2
DIM49
 70
     0
 62
     4
  6
CONTINUOUS
  0
LAYER
  2
HATCH
 70
     0
 62
     3
  6
CONTINUOUS
  0
LAYER
  2
APPLE
 70
     0
 62
     7
  6
CONTINUOUS
  0
LAYER
  2
10
 70
     0
 62
     7
  6
CONTINUOUS
  0
LAYER
  2
20
 70
     0
 62
     7
  6
CONTINUOUS
  0
LAYER
  2
47
 70
     0
 62
     7
  6
CONTINUOUS
  0
LAYER
  2
49
 70
     0
 62
     7
  6
CONTINUOUS
  0
ENDTAB
  0
TABLE
  2
STYLE
 70
     5
  0
STYLE
  2
MONOTXT
 70
     0
 40
0.0
 41
1.0
 50
0.0
 71
     0
 42
1.0
  3
monotxt.shx
  4

  0
STYLE
  2
STANDARD
 70
     0
 40
0.0
 41
1.0
 50
0.0
 71
     0
 42
1.0
  3
txt
  4

  0
STYLE
  2
ARIAL
 70
     0
 40
0.0
 41
1.0
 50
0.0
 71
     0
 42
1.0
  3
arial.ttf
  4

  0
STYLE
  2
ARIAL_NARROW
 70
     0
 40
0.0
 41
1.0
 50
0.0
 71
     0
 42
1.0
  3
ArialN.ttf
  4

  0
STYLE
  2
ISOCPEUR
 70
     0
 40
0.0
 41
1.0
 50
0.0
 71
     0
 42
1.0
  3
ISOCPEUR.ttf
  4

  0
ENDTAB
  0
TABLE
  2
VIEW
 70
     0
  0
ENDTAB
  0
TABLE
  2
UCS
 70
     0
  0
ENDTAB
  0
ENDSEC
  0
SECTION
  2
BLOCKS
  0
ENDSEC
  0
SECTION
  2
ENTITIES
  0
POLYLINE
  5
16E
  8
0
 66
     1
 10
0.0
 20
0.0
 30
0.0
 70
     1
  0
VERTEX
  5
16F
  8
0
 10
794.16548967
 20
315.79060336
 30
0.0
  0
VERTEX
  5
170
  8
0
 10
1214.16548967
 20
315.79060336
 30
0.0
  0
VERTEX
  5
171
  8
0
 10
1214.16548967
 20
612.79060336
 30
0.0
  0
VERTEX
  5
172
  8
0
 10
794.16548967
 20
612.79060336
 30
0.0
  0
SEQEND
  5
173
  8
0
  0
POLYLINE
  5
174
  8
0
 66
     1
 10
0.0
 20
0.0
 30
0.0
 70
     1
  0
VERTEX
  5
175
  8
0
 10
799.16548967
 20
320.79060336
 30
0.0
  0
VERTEX
  5
176
  8
0
 10
1209.16548967
 20
320.79060336
 30
0.0
  0
VERTEX
  5
177
  8
0
 10
1209.16548967
 20
607.79060336
 30
0.0
  0
VERTEX
  5
178
  8
0
 10
799.16548967
 20
607.79060336
 30
0.0
  0
SEQEND
  5
179
  8
0
  0
LINE
  5
17A
  8
0
 10
1024.16548967
 20
320.79060336
 30
0.0
 11
1024.16548967
 21
315.79060336
 31
0.0
  0
LINE
  5
17B
  8
0
 10
1024.16548967
 20
607.79060336
 30
0.0
 11
1024.16548967
 21
612.79060336
 31
0.0
  0
LINE
  5
17C
  8
0
 10
814.16548967
 20
320.79060336
 30
0.0
 11
814.16548967
 21
315.79060336
 31
0.0
  0
LINE
  5
17D
  8
0
 10
814.16548967
 20
607.79060336
 30
0.0
 11
814.16548967
 21
612.79060336
 31
0.0
  0
TEXT
  5
17E
  8
TXT_ALL
 62
     4
 10
1213.16548967
 20
316.79060336
 30
0.0
 40
2.5
  1

 50
90.00020741
  0
POLYLINE
  5
17F
  8
0
 66
     1
 10
0.0
 20
0.0
 30
0.0
  0
VERTEX
  5
180
  8
0
 10
1209.16548967
 20
597.79060336
 30
0.0
  0
VERTEX
  5
181
  8
0
 10
1140.17218967
 20
597.79060336
 30
0.0
  0
VERTEX
  5
182
  8
0
 10
1140.17218967
 20
607.79060336
 30
0.0
  0
SEQEND
  5
183
  8
0
  0
LINE
  5
184
  8
0
 10
1142.07548967
 20
340.29060336
 30
0.0
 11
1002.18548967
 21
340.29060336
 31
0.0
  0
LINE
  5
185
  8
0
 10
1002.18548967
 20
330.54060336
 30
0.0
 11
1142.07548967
 21
330.54060336
 31
0.0
  0
POLYLINE
  5
186
  8
0
 66
     1
 10
0.0
 20
0.0
 30
0.0
  0
VERTEX
  5
187
  8
0
 10
1002.18548967
 20
340.29060336
 30
0.0
  0
VERTEX
  5
188
  8
0
 10
1002.18548967
 20
330.54060336
 30
0.0
  0
VERTEX
  5
189
  8
0
 10
1002.18548967
 20
320.79060336
 30
0.0
  0
SEQEND
  5
18A
  8
0
  0
POLYLINE
  5
18B
  8
0
 66
     1
 10
0.0
 20
0.0
 30
0.0
  0
VERTEX
  5
18C
  8
0
 10
1072.13048967
 20
340.29060336
 30
0.0
  0
VERTEX
  5
18D
  8
0
 10
1072.13048967
 20
330.54060336
 30
0.0
  0
VERTEX
  5
18E
  8
0
 10
1072.13048967
 20
320.79060336
 30
0.0
  0
SEQEND
  5
18F
  8
0
  0
TEXT
  5
190
  8
TXT_ALL
 10
1004.18548967
 20
334.11560341
 30
0.0
 40
2.5999999
  1
E-mail: verkoop@jonkers-bouwmetaal.nl
  7
ARIAL
  0
TEXT
  5
191
  8
TXT_ALL
 10
1004.18548967
 20
324.36560341
 30
0.0
 40
2.5999999
  1
Telefoon: 0527-685156
  7
ARIAL
  0
TEXT
  5
192
  8
TXT_ALL
 10
1074.13048967
 20
324.36560341
 30
0.0
 40
2.5999999
  1
Website: www.jonkers-bouwmetaal.nl
  7
ARIAL
  0
TEXT
  5
193
  8
TXT_ALL
 10
1074.13048967
 20
334.11560341
 30
0.0
 40
2.5999999
  1
Adres: Hoornse Hop 10, 8321 WX Urk
  7
ARIAL
  0
TEXT
  5
194
  8
TXT_ALL
 10
802.60744993
 20
601.54060336
 30
0.0
 40
2.5
  1
Art. nr. 91013328-01
  7
ARIAL
  0
TEXT
  5
195
  8
TXT_ALL
 10
845.34548674
 20
601.54060336
 30
0.0
 40
2.5
  1
Omschrijving: Trekanker-02 420x50 40x2 incl. opvulstrip-01
  7
ARIAL
  0
LINE
  5
196
  8
0
 10
1209.16548967
 20
597.79060336
 30
0.0
 11
799.16548967
 21
597.79060336
 31
0.0
  0
LINE
  5
197
  8
0
 10
842.18548967
 20
597.79060336
 30
0.0
 11
842.18548967
 21
607.79060336
 31
0.0
  0
LINE
  5
198
  8
0
 10
1002.18548967
 20
597.79060336
 30
0.0
 11
1002.18548967
 21
607.79060336
 31
0.0
  0
TEXT
  5
199
  8
TXT_ALL
 10
1073.17918967
 20
601.54060336
 30
0.0
 40
2.5
  1
Behandeling: n.v.t.
  7
ARIAL
  0
LINE
  5
19A
  8
0
 10
1142.07548967
 20
340.29060336
 30
0.0
 11
1209.16548967
 21
340.29060336
 31
0.0
  0
LINE
  5
19B
  8
0
 10
1142.07548967
 20
320.79060336
 30
0.0
 11
1142.07548967
 21
340.29060336
 31
0.0
  0
LINE
  5
19C
  8
0
 10
1142.07548967
 20
320.79060336
 30
0.0
 11
1142.07548967
 21
340.29060336
 31
0.0
  0
TEXT
  5
19D
  8
TXT_ALL
 10
936.53068776
 20
321.94513677
 30
0.0
 40
2.5
  1

  0
TEXT
  5
19E
  8
TXT_ALL
 10
1057.66587073
 20
332.04060336
 30
0.0
 40
2.5
  1

  0
POLYLINE
  5
19F
  8
0
 66
     1
 10
0.0
 20
0.0
 30
0.0
  0
VERTEX
  5
1A0
  8
0
 10
1140.17218967
 20
597.79060336
 30
0.0
  0
VERTEX
  5
1A1
  8
0
 10
1071.17918967
 20
597.79060336
 30
0.0
  0
VERTEX
  5
1A2
  8
0
 10
1071.17918967
 20
607.79060336
 30
0.0
  0
SEQEND
  5
1A3
  8
0
  0
TEXT
  5
1A4
  8
TXT_ALL
 10
1142.17218967
 20
601.54060336
 30
0.0
 40
2.5
  1
Verpakkingshoeveelheid: 10 st.
  7
ARIAL
  0
TEXT
  5
1A5
  8
TXT_ALL
 10
1004.18548967
 20
601.54060336
 30
0.0
 40
2.5
  1
Materiaal: Sendzimir Verzinkt
  7
ARIAL
  0
TEXT
  5
1A6
  8
TXT_ALL
 10
1176.9471369
 20
317.54109351
 30
0.0
 40
1.5
  1
Onderdeel van
  7
ARIAL
  0
POLYLINE
  5
1A7
  8
0
 66
     1
 10
0.0
 20
0.0
 30
0.0
  0
VERTEX
  5
4AF
  8
0
 10
827.8174535155403
 20
412.260933259302
 30
0.0
  0
VERTEX
  5
4B0
  8
0
 10
827.505151321555
 20
412.2099020943026
 30
0.0
  0
VERTEX
  5
4B1
  8
0
 10
827.1824335527534
 20
411.9829012343571
 30
0.0
  0
VERTEX
  5
4B2
  8
0
 10
826.8617020720587
 20
411.5886541952451
 30
0.0
  0
VERTEX
  5
4B3
  8
0
 10
826.555282410456
 20
411.0423116696451
 30
0.0
  0
VERTEX
  5
4B4
  8
0
 10
826.2749501037463
 20
410.3648692945088
 30
0.0
  0
VERTEX
  5
4B5
  8
0
 10
826.0314781653084
 20
409.5823608005045
 30
0.0
  0
VERTEX
  5
4B6
  8
0
 10
825.8342230852335
 20
408.7248575503435
 30
0.0
  0
VERTEX
  5
4B7
  8
0
 10
825.690765265658
 20
407.82531291317
 30
0.0
  0
VERTEX
  5
4B8
  8
0
 10
825.6066177101585
 20
406.9182958850608
 30
0.0
  0
VERTEX
  5
4B9
  8
0
 10
825.5850141621156
 20
406.0386626218869
 30
0.0
  0
VERTEX
  5
4BA
  8
0
 10
825.6267848337684
 20
405.2202169367854
 30
0.0
  0
VERTEX
  5
4BB
  8
0
 10
825.7303245016241
 20
404.4944112385734
 30
0.0
  0
VERTEX
  5
4BC
  8
0
 10
825.8916541942965
 20
403.8891378333099
 30
0.0
  0
VERTEX
  5
4BD
  8
0
 10
826.1045741021458
 20
403.4276570386125
 30
0.0
  0
VERTEX
  5
4BE
  8
0
 10
826.3609018324869
 20
403.1277033026923
 30
0.0
  0
VERTEX
  5
4BF
  8
0
 10
826.650786854353
 20
403.0008036794516
 30
0.0
  0
SEQEND
  5
813
  8
0
  0
POLYLINE
  5
1A8
  8
0
 66
     1
 10
0.0
 20
0.0
 30
0.0
  0
VERTEX
  5
4C0
  8
0
 10
826.65078685
 20
403.00080368
 30
0.0
  0
VERTEX
  5
4C1
  8
0
 10
826.9630890432702
 20
403.05183484781
 30
0.0
  0
VERTEX
  5
4C2
  8
0
 10
827.2858068111052
 20
403.2788357093684
 30
0.0
  0
VERTEX
  5
4C3
  8
0
 10
827.6065382906975
 20
403.6730827488887
 30
0.0
  0
VERTEX
  5
4C4
  8
0
 10
827.9129579511828
 20
404.219425273773
 30
0.0
  0
VERTEX
  5
4C5
  8
0
 10
828.1932902568776
 20
404.8968676472304
 30
0.0
  0
VERTEX
  5
4C6
  8
0
 10
828.4367621945107
 20
405.679376138822
 30
0.0
  0
VERTEX
  5
4C7
  8
0
 10
828.6340172740809
 20
406.5368793861206
 30
0.0
  0
VERTEX
  5
4C8
  8
0
 10
828.7774750935193
 20
407.4364240203006
 30
0.0
  0
VERTEX
  5
4C9
  8
0
 10
828.8616226492899
 20
408.34344104562
 30
0.0
  0
VERTEX
  5
4CA
  8
0
 10
828.8832261980219
 20
409.2230743065359
 30
0.0
  0
VERTEX
  5
4CB
  8
0
 10
828.8414555274551
 20
410.0415199902124
 30
0.0
  0
VERTEX
  5
4CC
  8
0
 10
828.7379158610303
 20
410.7673256880872
 30
0.0
  0
VERTEX
  5
4CD
  8
0
 10
828.5765861700535
 20
411.3725990942909
 30
0.0
  0
VERTEX
  5
4CE
  8
0
 10
828.36366626406
 20
411.8340798913174
 30
0.0
  0
VERTEX
  5
4CF
  8
0
 10
828.1073385356118
 20
412.1340336309788
 30
0.0
  0
VERTEX
  5
4D0
  8
0
 10
827.8174535155403
 20
412.260933259302
 30
0.0
  0
SEQEND
  5
814
  8
0
  0
POLYLINE
  5
1A9
  8
0
 66
     1
 10
0.0
 20
0.0
 30
0.0
  0
VERTEX
  5
1AA
  8
0
 10
822.52007498
 20
419.1869554
 30
0.0
  0
VERTEX
  5
1AB
  8
0
 10
831.94816539
 20
427.50174959
 30
0.0
  0
VERTEX
  5
1AC
  8
0
 10
831.94816539
 20
397.96039962
 30
0.0
  0
SEQEND
  5
1AD
  8
0
  0
LINE
  5
1AE
  8
0
 10
822.52007498
 20
389.64560543
 30
0.0
 11
831.94816539
 21
397.96039962
 31
0.0
  0
POLYLINE
  5
1AF
  8
0
 66
     1
 10
0.0
 20
0.0
 30
0.0
  0
VERTEX
  5
1B0
  8
0
 10
822.52007498
 20
389.64560543
 30
0.0
  0
VERTEX
  5
1B1
  8
0
 10
822.52007498
 20
419.1869554
 30
0.0
  0
VERTEX
  5
1B2
  8
0
 10
816.28397933
 20
419.9726296
 30
0.0
  0
VERTEX
  5
1B3
  8
0
 10
825.71206975
 20
428.28742379
 30
0.0
  0
SEQEND
  5
1B4
  8
0
  0
LINE
  5
1B5
  8
0
 10
831.94816539
 20
427.50174959
 30
0.0
 11
825.71206975
 21
428.28742379
 31
0.0
  0
LINE
  5
1B6
  8
0
 10
816.28397933
 20
390.43127963
 30
0.0
 11
816.28397933
 21
419.9726296
 31
0.0
  0
LINE
  5
1B7
  8
0
 10
822.52007498
 20
389.64560543
 30
0.0
 11
816.28397933
 21
390.43127963
 31
0.0
  0
LINE
  5
1B8
  8
0
  6
STRICHPUNKT2
 62
     1
 10
829.10494888
 20
407.39516621
 30
0.0
 11
825.69076525
 21
407.82531291
 31
0.0
  0
LINE
  5
1B9
  8
0
  6
STRICHPUNKT2
 62
     1
 10
827.23412018
 20
407.63086847
 30
0.0
 11
827.23412018
 21
413.91626208
 31
0.0
  0
LINE
  5
1BA
  8
0
  6
STRICHPUNKT2
 62
     1
 10
827.23412018
 20
407.63086847
 30
0.0
 11
827.23412018
 21
401.34547486
 31
0.0
  0
LINE
  5
1BB
  8
0
  6
STRICHPUNKT2
 62
     1
 10
827.23412018
 20
407.63086847
 30
0.0
 11
824.87709758
 21
405.55216992
 31
0.0
  0
LINE
  5
1BC
  8
0
  6
STRICHPUNKT2
 62
     1
 10
827.23412018
 20
407.63086847
 30
0.0
 11
829.59114279
 21
409.70956702
 31
0.0
  0
POLYLINE
  5
1BD
  8
0
 66
     1
 10
0.0
 20
0.0
 30
0.0
  0
VERTEX
  5
1BE
  8
0
 10
816.28397933
 20
391.05981899
 30
0.0
  0
VERTEX
  5
1BF
  8
0
 10
816.28397933
 20
419.9726296
 30
0.0
  0
VERTEX
  5
1C0
  8
0
 10
825.71206975
 20
428.28742379
 30
0.0
  0
VERTEX
  5
1C1
  8
0
 10
824.46485062
 20
428.44455863
 30
0.0
  0
SEQEND
  5
1C2
  8
0
  0
LINE
  5
1C3
  8
0
 10
815.0367602
 20
420.12976444
 30
0.0
 11
824.46485062
 21
428.44455863
 31
0.0
  0
LINE
  5
1C4
  8
0
 10
816.28397933
 20
419.9726296
 30
0.0
 11
815.0367602
 21
420.12976444
 31
0.0
  0
LINE
  5
1C5
  8
0
 10
815.0367602
 20
391.21695383
 30
0.0
 11
815.0367602
 21
420.12976444
 31
0.0
  0
POLYLINE
  5
1C6
  8
0
 66
     1
 10
0.0
 20
0.0
 30
0.0
  0
VERTEX
  5
4D1
  8
0
 10
830.7280996
 20
389.5547135219944
 30
0.0
  0
VERTEX
  5
4D2
  8
0
 10
830.7601241316311
 20
389.4463300104696
 30
0.0
  0
VERTEX
  5
4D3
  8
0
 10
830.8549670440649
 20
389.3421116164436
 30
0.0
  0
VERTEX
  5
4D4
  8
0
 10
831.0089835773568
 20
389.2460633943612
 30
0.0
  0
VERTEX
  5
4D5
  8
0
 10
831.2162549624925
 20
389.1618764235412
 30
0.0
  0
VERTEX
  5
4D6
  8
0
 10
831.468815876362
 20
389.0927859620668
 30
0.0
  0
VERTEX
  5
4D7
  8
0
 10
831.7569605446612
 20
389.0414471176324
 30
0.0
  0
VERTEX
  5
4D8
  8
0
 10
832.0696157293554
 20
389.0098328132428
 30
0.0
  0
VERTEX
  5
4D9
  8
0
 10
832.3947662670085
 20
388.9991579688889
 30
0.0
  0
VERTEX
  5
4DA
  8
0
 10
832.7199168047766
 20
389.0098328128537
 30
0.0
  0
VERTEX
  5
4DB
  8
0
 10
833.0325719898112
 20
389.0414471168692
 30
0.0
  0
VERTEX
  5
4DC
  8
0
 10
833.3207166586633
 20
389.0927859609588
 30
0.0
  0
VERTEX
  5
4DD
  8
0
 10
833.573277573277
 20
389.1618764221309
 30
0.0
  0
VERTEX
  5
4DE
  8
0
 10
833.7805489593193
 20
389.246063392703
 30
0.0
  0
VERTEX
  5
4DF
  8
0
 10
833.9345654936456
 20
389.342111614601
 30
0.0
  0
VERTEX
  5
4E0
  8
0
 10
834.0294084072017
 20
389.4463300085137
 30
0.0
  0
VERTEX
  5
4E1
  8
0
 10
834.06143294
 20
389.55471352
 30
0.0
  0
SEQEND
  5
815
  8
0
  0
POLYLINE
  5
1C7
  8
0
 66
     1
 10
0.0
 20
0.0
 30
0.0
  0
VERTEX
  5
4E2
  8
0
 10
834.06143294
 20
389.55471352
 30
0.0
  0
VERTEX
  5
4E3
  8
0
 10
834.0294084073477
 20
389.6630970312419
 30
0.0
  0
VERTEX
  5
4E4
  8
0
 10
833.934565494218
 20
389.7673154249384
 30
0.0
  0
VERTEX
  5
4E5
  8
0
 10
833.7805489605657
 20
389.8633636466752
 30
0.0
  0
VERTEX
  5
4E6
  8
0
 10
833.5732775753922
 20
389.9475506171639
 30
0.0
  0
VERTEX
  5
4E7
  8
0
 10
833.3207166617725
 20
390.0166410783486
 30
0.0
  0
VERTEX
  5
4E8
  8
0
 10
833.0325719939569
 20
390.0679799225584
 30
0.0
  0
VERTEX
  5
4E9
  8
0
 10
832.7199168099111
 20
390.0995942268059
 30
0.0
  0
VERTEX
  5
4EA
  8
0
 10
832.3947662729914
 20
390.1102690711111
 30
0.0
  0
VERTEX
  5
4EB
  8
0
 10
832.0696157359569
 20
390.0995942271949
 30
0.0
  0
VERTEX
  5
4EC
  8
0
 10
831.7569605515706
 20
390.0679799233216
 30
0.0
  0
VERTEX
  5
4ED
  8
0
 10
831.4688158832022
 20
390.0166410794566
 30
0.0
  0
VERTEX
  5
4EE
  8
0
 10
831.2162549688384
 20
389.9475506185742
 30
0.0
  0
VERTEX
  5
4EF
  8
0
 10
831.0089835827582
 20
389.8633636483335
 30
0.0
  0
VERTEX
  5
4F0
  8
0
 10
830.8549670480717
 20
389.7673154267809
 30
0.0
  0
VERTEX
  5
4F1
  8
0
 10
830.7601241338195
 20
389.6630970331979
 30
0.0
  0
VERTEX
  5
4F2
  8
0
 10
830.7280996
 20
389.5547135219944
 30
0.0
  0
SEQEND
  5
816
  8
0
  0
POLYLINE
  5
1C8
  8
0
 66
     1
 10
0.0
 20
0.0
 30
0.0
  0
VERTEX
  5
4F3
  8
0
 10
861.90857782
 20
385.6263425119943
 30
0.0
  0
VERTEX
  5
4F4
  8
0
 10
861.9406023516311
 20
385.5179590004696
 30
0.0
  0
VERTEX
  5
4F5
  8
0
 10
862.035445264065
 20
385.4137406064435
 30
0.0
  0
VERTEX
  5
4F6
  8
0
 10
862.1894617973569
 20
385.3176923843611
 30
0.0
  0
VERTEX
  5
4F7
  8
0
 10
862.3967331824925
 20
385.2335054135411
 30
0.0
  0
VERTEX
  5
4F8
  8
0
 10
862.649294096362
 20
385.1644149520668
 30
0.0
  0
VERTEX
  5
4F9
  8
0
 10
862.9374387646612
 20
385.1130761076324
 30
0.0
  0
VERTEX
  5
4FA
  8
0
 10
863.2500939493555
 20
385.0814618032427
 30
0.0
  0
VERTEX
  5
4FB
  8
0
 10
863.5752444870086
 20
385.0707869588888
 30
0.0
  0
VERTEX
  5
4FC
  8
0
 10
863.9003950247767
 20
385.0814618028537
 30
0.0
  0
VERTEX
  5
4FD
  8
0
 10
864.2130502098113
 20
385.1130761068692
 30
0.0
  0
VERTEX
  5
4FE
  8
0
 10
864.5011948786633
 20
385.1644149509588
 30
0.0
  0
VERTEX
  5
4FF
  8
0
 10
864.753755793277
 20
385.2335054121309
 30
0.0
  0
VERTEX
  5
500
  8
0
 10
864.9610271793193
 20
385.3176923827029
 30
0.0
  0
VERTEX
  5
501
  8
0
 10
865.1150437136456
 20
385.413740604601
 30
0.0
  0
VERTEX
  5
502
  8
0
 10
865.2098866272017
 20
385.5179589985136
 30
0.0
  0
VERTEX
  5
503
  8
0
 10
865.2419111600001
 20
385.62634251
 30
0.0
  0
SEQEND
  5
817
  8
0
  0
POLYLINE
  5
1C9
  8
0
 66
     1
 10
0.0
 20
0.0
 30
0.0
  0
VERTEX
  5
504
  8
0
 10
865.2419111600001
 20
385.62634251
 30
0.0
  0
VERTEX
  5
505
  8
0
 10
865.2098866273477
 20
385.7347260212418
 30
0.0
  0
VERTEX
  5
506
  8
0
 10
865.115043714218
 20
385.8389444149383
 30
0.0
  0
VERTEX
  5
507
  8
0
 10
864.9610271805658
 20
385.9349926366752
 30
0.0
  0
VERTEX
  5
508
  8
0
 10
864.7537557953923
 20
386.0191796071639
 30
0.0
  0
VERTEX
  5
509
  8
0
 10
864.5011948817726
 20
386.0882700683486
 30
0.0
  0
VERTEX
  5
50A
  8
0
 10
864.213050213957
 20
386.1396089125583
 30
0.0
  0
VERTEX
  5
50B
  8
0
 10
863.9003950299111
 20
386.1712232168059
 30
0.0
  0
VERTEX
  5
50C
  8
0
 10
863.5752444929915
 20
386.1818980611111
 30
0.0
  0
VERTEX
  5
50D
  8
0
 10
863.2500939559569
 20
386.1712232171949
 30
0.0
  0
VERTEX
  5
50E
  8
0
 10
862.9374387715707
 20
386.1396089133216
 30
0.0
  0
VERTEX
  5
50F
  8
0
 10
862.6492941032022
 20
386.0882700694566
 30
0.0
  0
VERTEX
  5
510
  8
0
 10
862.3967331888384
 20
386.0191796085741
 30
0.0
  0
VERTEX
  5
511
  8
0
 10
862.1894618027583
 20
385.9349926383334
 30
0.0
  0
VERTEX
  5
512
  8
0
 10
862.0354452680717
 20
385.8389444167809
 30
0.0
  0
VERTEX
  5
513
  8
0
 10
861.9406023538196
 20
385.7347260231978
 30
0.0
  0
VERTEX
  5
514
  8
0
 10
861.90857782
 20
385.6263425119943
 30
0.0
  0
SEQEND
  5
818
  8
0
  0
POLYLINE
  5
1CA
  8
0
 66
     1
 10
0.0
 20
0.0
 30
0.0
  0
VERTEX
  5
515
  8
0
 10
893.08905604
 20
381.6979715019943
 30
0.0
  0
VERTEX
  5
516
  8
0
 10
893.1210805716311
 20
381.5895879904696
 30
0.0
  0
VERTEX
  5
517
  8
0
 10
893.2159234840649
 20
381.4853695964435
 30
0.0
  0
VERTEX
  5
518
  8
0
 10
893.3699400173568
 20
381.3893213743611
 30
0.0
  0
VERTEX
  5
519
  8
0
 10
893.5772114024925
 20
381.3051344035412
 30
0.0
  0
VERTEX
  5
51A
  8
0
 10
893.829772316362
 20
381.2360439420668
 30
0.0
  0
VERTEX
  5
51B
  8
0
 10
894.1179169846612
 20
381.1847050976324
 30
0.0
  0
VERTEX
  5
51C
  8
0
 10
894.4305721693554
 20
381.1530907932428
 30
0.0
  0
VERTEX
  5
51D
  8
0
 10
894.7557227070085
 20
381.1424159488889
 30
0.0
  0
VERTEX
  5
51E
  8
0
 10
895.0808732447766
 20
381.1530907928537
 30
0.0
  0
VERTEX
  5
51F
  8
0
 10
895.3935284298112
 20
381.1847050968692
 30
0.0
  0
VERTEX
  5
520
  8
0
 10
895.6816730986633
 20
381.2360439409588
 30
0.0
  0
VERTEX
  5
521
  8
0
 10
895.934234013277
 20
381.3051344021309
 30
0.0
  0
VERTEX
  5
522
  8
0
 10
896.1415053993193
 20
381.389321372703
 30
0.0
  0
VERTEX
  5
523
  8
0
 10
896.2955219336455
 20
381.485369594601
 30
0.0
  0
VERTEX
  5
524
  8
0
 10
896.3903648472017
 20
381.5895879885136
 30
0.0
  0
VERTEX
  5
525
  8
0
 10
896.42238938
 20
381.6979715
 30
0.0
  0
SEQEND
  5
819
  8
0
  0
POLYLINE
  5
1CB
  8
0
 66
     1
 10
0.0
 20
0.0
 30
0.0
  0
VERTEX
  5
526
  8
0
 10
896.42238938
 20
381.6979715
 30
0.0
  0
VERTEX
  5
527
  8
0
 10
896.3903648473477
 20
381.8063550112419
 30
0.0
  0
VERTEX
  5
528
  8
0
 10
896.295521934218
 20
381.9105734049384
 30
0.0
  0
VERTEX
  5
529
  8
0
 10
896.1415054005657
 20
382.0066216266752
 30
0.0
  0
VERTEX
  5
52A
  8
0
 10
895.9342340153922
 20
382.0908085971639
 30
0.0
  0
VERTEX
  5
52B
  8
0
 10
895.6816731017725
 20
382.1598990583486
 30
0.0
  0
VERTEX
  5
52C
  8
0
 10
895.3935284339569
 20
382.2112379025584
 30
0.0
  0
VERTEX
  5
52D
  8
0
 10
895.0808732499111
 20
382.2428522068059
 30
0.0
  0
VERTEX
  5
52E
  8
0
 10
894.7557227129914
 20
382.2535270511111
 30
0.0
  0
VERTEX
  5
52F
  8
0
 10
894.4305721759569
 20
382.2428522071949
 30
0.0
  0
VERTEX
  5
530
  8
0
 10
894.1179169915706
 20
382.2112379033216
 30
0.0
  0
VERTEX
  5
531
  8
0
 10
893.8297723232022
 20
382.1598990594566
 30
0.0
  0
VERTEX
  5
532
  8
0
 10
893.5772114088384
 20
382.0908085985741
 30
0.0
  0
VERTEX
  5
533
  8
0
 10
893.3699400227582
 20
382.0066216283334
 30
0.0
  0
VERTEX
  5
534
  8
0
 10
893.2159234880717
 20
381.9105734067809
 30
0.0
  0
VERTEX
  5
535
  8
0
 10
893.1210805738195
 20
381.8063550131978
 30
0.0
  0
VERTEX
  5
536
  8
0
 10
893.08905604
 20
381.6979715019943
 30
0.0
  0
SEQEND
  5
81A
  8
0
  0
POLYLINE
  5
1CC
  8
0
 66
     1
 10
0.0
 20
0.0
 30
0.0
  0
VERTEX
  5
537
  8
0
 10
924.26953427
 20
377.7696005019944
 30
0.0
  0
VERTEX
  5
538
  8
0
 10
924.3015588016311
 20
377.6612169904697
 30
0.0
  0
VERTEX
  5
539
  8
0
 10
924.396401714065
 20
377.5569985964436
 30
0.0
  0
VERTEX
  5
53A
  8
0
 10
924.5504182473569
 20
377.4609503743612
 30
0.0
  0
VERTEX
  5
53B
  8
0
 10
924.7576896324925
 20
377.3767634035412
 30
0.0
  0
VERTEX
  5
53C
  8
0
 10
925.010250546362
 20
377.3076729420669
 30
0.0
  0
VERTEX
  5
53D
  8
0
 10
925.2983952146612
 20
377.2563340976324
 30
0.0
  0
VERTEX
  5
53E
  8
0
 10
925.6110503993555
 20
377.2247197932428
 30
0.0
  0
VERTEX
  5
53F
  8
0
 10
925.9362009370086
 20
377.2140449488889
 30
0.0
  0
VERTEX
  5
540
  8
0
 10
926.2613514747767
 20
377.2247197928537
 30
0.0
  0
VERTEX
  5
541
  8
0
 10
926.5740066598113
 20
377.2563340968692
 30
0.0
  0
VERTEX
  5
542
  8
0
 10
926.8621513286633
 20
377.3076729409589
 30
0.0
  0
VERTEX
  5
543
  8
0
 10
927.114712243277
 20
377.376763402131
 30
0.0
  0
VERTEX
  5
544
  8
0
 10
927.3219836293193
 20
377.460950372703
 30
0.0
  0
VERTEX
  5
545
  8
0
 10
927.4760001636456
 20
377.5569985946011
 30
0.0
  0
VERTEX
  5
546
  8
0
 10
927.5708430772017
 20
377.6612169885137
 30
0.0
  0
VERTEX
  5
547
  8
0
 10
927.6028676100001
 20
377.7696005
 30
0.0
  0
SEQEND
  5
81B
  8
0
  0
POLYLINE
  5
1CD
  8
0
 66
     1
 10
0.0
 20
0.0
 30
0.0
  0
VERTEX
  5
548
  8
0
 10
927.6028676100001
 20
377.7696005
 30
0.0
  0
VERTEX
  5
549
  8
0
 10
927.5708430773477
 20
377.8779840112419
 30
0.0
  0
VERTEX
  5
54A
  8
0
 10
927.476000164218
 20
377.9822024049384
 30
0.0
  0
VERTEX
  5
54B
  8
0
 10
927.3219836305658
 20
378.0782506266752
 30
0.0
  0
VERTEX
  5
54C
  8
0
 10
927.1147122453923
 20
378.1624375971639
 30
0.0
  0
VERTEX
  5
54D
  8
0
 10
926.8621513317726
 20
378.2315280583487
 30
0.0
  0
VERTEX
  5
54E
  8
0
 10
926.574006663957
 20
378.2828669025584
 30
0.0
  0
VERTEX
  5
54F
  8
0
 10
926.2613514799111
 20
378.3144812068059
 30
0.0
  0
VERTEX
  5
550
  8
0
 10
925.9362009429915
 20
378.3251560511112
 30
0.0
  0
VERTEX
  5
551
  8
0
 10
925.6110504059569
 20
378.3144812071949
 30
0.0
  0
VERTEX
  5
552
  8
0
 10
925.2983952215707
 20
378.2828669033216
 30
0.0
  0
VERTEX
  5
553
  8
0
 10
925.0102505532022
 20
378.2315280594567
 30
0.0
  0
VERTEX
  5
554
  8
0
 10
924.7576896388384
 20
378.1624375985742
 30
0.0
  0
VERTEX
  5
555
  8
0
 10
924.5504182527583
 20
378.0782506283335
 30
0.0
  0
VERTEX
  5
556
  8
0
 10
924.3964017180717
 20
377.9822024067809
 30
0.0
  0
VERTEX
  5
557
  8
0
 10
924.3015588038196
 20
377.8779840131979
 30
0.0
  0
VERTEX
  5
558
  8
0
 10
924.26953427
 20
377.7696005019944
 30
0.0
  0
SEQEND
  5
81C
  8
0
  0
POLYLINE
  5
1CE
  8
0
 66
     1
 10
0.0
 20
0.0
 30
0.0
  0
VERTEX
  5
559
  8
0
 10
955.45001249
 20
373.8412294919943
 30
0.0
  0
VERTEX
  5
55A
  8
0
 10
955.4820370216311
 20
373.7328459804696
 30
0.0
  0
VERTEX
  5
55B
  8
0
 10
955.5768799340649
 20
373.6286275864435
 30
0.0
  0
VERTEX
  5
55C
  8
0
 10
955.7308964673568
 20
373.5325793643611
 30
0.0
  0
VERTEX
  5
55D
  8
0
 10
955.9381678524925
 20
373.4483923935412
 30
0.0
  0
VERTEX
  5
55E
  8
0
 10
956.190728766362
 20
373.3793019320668
 30
0.0
  0
VERTEX
  5
55F
  8
0
 10
956.4788734346612
 20
373.3279630876324
 30
0.0
  0
VERTEX
  5
560
  8
0
 10
956.7915286193554
 20
373.2963487832428
 30
0.0
  0
VERTEX
  5
561
  8
0
 10
957.1166791570085
 20
373.2856739388889
 30
0.0
  0
VERTEX
  5
562
  8
0
 10
957.4418296947766
 20
373.2963487828537
 30
0.0
  0
VERTEX
  5
563
  8
0
 10
957.7544848798112
 20
373.3279630868692
 30
0.0
  0
VERTEX
  5
564
  8
0
 10
958.0426295486633
 20
373.3793019309588
 30
0.0
  0
VERTEX
  5
565
  8
0
 10
958.295190463277
 20
373.4483923921309
 30
0.0
  0
VERTEX
  5
566
  8
0
 10
958.5024618493193
 20
373.532579362703
 30
0.0
  0
VERTEX
  5
567
  8
0
 10
958.6564783836455
 20
373.628627584601
 30
0.0
  0
VERTEX
  5
568
  8
0
 10
958.7513212972017
 20
373.7328459785136
 30
0.0
  0
VERTEX
  5
569
  8
0
 10
958.78334583
 20
373.84122949
 30
0.0
  0
SEQEND
  5
81D
  8
0
  0
POLYLINE
  5
1CF
  8
0
 66
     1
 10
0.0
 20
0.0
 30
0.0
  0
VERTEX
  5
56A
  8
0
 10
958.78334583
 20
373.84122949
 30
0.0
  0
VERTEX
  5
56B
  8
0
 10
958.7513212973477
 20
373.9496130012419
 30
0.0
  0
VERTEX
  5
56C
  8
0
 10
958.656478384218
 20
374.0538313949384
 30
0.0
  0
VERTEX
  5
56D
  8
0
 10
958.5024618505657
 20
374.1498796166752
 30
0.0
  0
VERTEX
  5
56E
  8
0
 10
958.2951904653922
 20
374.2340665871639
 30
0.0
  0
VERTEX
  5
56F
  8
0
 10
958.0426295517725
 20
374.3031570483486
 30
0.0
  0
VERTEX
  5
570
  8
0
 10
957.7544848839569
 20
374.3544958925584
 30
0.0
  0
VERTEX
  5
571
  8
0
 10
957.4418296999111
 20
374.3861101968059
 30
0.0
  0
VERTEX
  5
572
  8
0
 10
957.1166791629914
 20
374.3967850411111
 30
0.0
  0
VERTEX
  5
573
  8
0
 10
956.7915286259569
 20
374.3861101971949
 30
0.0
  0
VERTEX
  5
574
  8
0
 10
956.4788734415706
 20
374.3544958933216
 30
0.0
  0
VERTEX
  5
575
  8
0
 10
956.1907287732022
 20
374.3031570494566
 30
0.0
  0
VERTEX
  5
576
  8
0
 10
955.9381678588384
 20
374.2340665885741
 30
0.0
  0
VERTEX
  5
577
  8
0
 10
955.7308964727582
 20
374.1498796183334
 30
0.0
  0
VERTEX
  5
578
  8
0
 10
955.5768799380717
 20
374.0538313967809
 30
0.0
  0
VERTEX
  5
579
  8
0
 10
955.4820370238195
 20
373.9496130031978
 30
0.0
  0
VERTEX
  5
57A
  8
0
 10
955.45001249
 20
373.8412294919943
 30
0.0
  0
SEQEND
  5
81E
  8
0
  0
POLYLINE
  5
1D0
  8
0
 66
     1
 10
0.0
 20
0.0
 30
0.0
  0
VERTEX
  5
57B
  8
0
 10
986.63049071
 20
369.9128584819944
 30
0.0
  0
VERTEX
  5
57C
  8
0
 10
986.6625152416311
 20
369.8044749704696
 30
0.0
  0
VERTEX
  5
57D
  8
0
 10
986.757358154065
 20
369.7002565764436
 30
0.0
  0
VERTEX
  5
57E
  8
0
 10
986.9113746873569
 20
369.6042083543612
 30
0.0
  0
VERTEX
  5
57F
  8
0
 10
987.1186460724925
 20
369.5200213835412
 30
0.0
  0
VERTEX
  5
580
  8
0
 10
987.371206986362
 20
369.4509309220668
 30
0.0
  0
VERTEX
  5
581
  8
0
 10
987.6593516546612
 20
369.3995920776324
 30
0.0
  0
VERTEX
  5
582
  8
0
 10
987.9720068393555
 20
369.3679777732428
 30
0.0
  0
VERTEX
  5
583
  8
0
 10
988.2971573770086
 20
369.3573029288889
 30
0.0
  0
VERTEX
  5
584
  8
0
 10
988.6223079147767
 20
369.3679777728537
 30
0.0
  0
VERTEX
  5
585
  8
0
 10
988.9349630998113
 20
369.3995920768692
 30
0.0
  0
VERTEX
  5
586
  8
0
 10
989.2231077686633
 20
369.4509309209589
 30
0.0
  0
VERTEX
  5
587
  8
0
 10
989.475668683277
 20
369.5200213821309
 30
0.0
  0
VERTEX
  5
588
  8
0
 10
989.6829400693193
 20
369.604208352703
 30
0.0
  0
VERTEX
  5
589
  8
0
 10
989.8369566036456
 20
369.700256574601
 30
0.0
  0
VERTEX
  5
58A
  8
0
 10
989.9317995172017
 20
369.8044749685137
 30
0.0
  0
VERTEX
  5
58B
  8
0
 10
989.9638240500001
 20
369.91285848
 30
0.0
  0
SEQEND
  5
81F
  8
0
  0
POLYLINE
  5
1D1
  8
0
 66
     1
 10
0.0
 20
0.0
 30
0.0
  0
VERTEX
  5
58C
  8
0
 10
989.9638240500001
 20
369.91285848
 30
0.0
  0
VERTEX
  5
58D
  8
0
 10
989.9317995173477
 20
370.0212419912419
 30
0.0
  0
VERTEX
  5
58E
  8
0
 10
989.836956604218
 20
370.1254603849384
 30
0.0
  0
VERTEX
  5
58F
  8
0
 10
989.6829400705658
 20
370.2215086066752
 30
0.0
  0
VERTEX
  5
590
  8
0
 10
989.4756686853923
 20
370.3056955771639
 30
0.0
  0
VERTEX
  5
591
  8
0
 10
989.2231077717726
 20
370.3747860383486
 30
0.0
  0
VERTEX
  5
592
  8
0
 10
988.934963103957
 20
370.4261248825584
 30
0.0
  0
VERTEX
  5
593
  8
0
 10
988.6223079199111
 20
370.4577391868059
 30
0.0
  0
VERTEX
  5
594
  8
0
 10
988.2971573829915
 20
370.4684140311111
 30
0.0
  0
VERTEX
  5
595
  8
0
 10
987.9720068459569
 20
370.4577391871949
 30
0.0
  0
VERTEX
  5
596
  8
0
 10
987.6593516615707
 20
370.4261248833216
 30
0.0
  0
VERTEX
  5
597
  8
0
 10
987.3712069932022
 20
370.3747860394566
 30
0.0
  0
VERTEX
  5
598
  8
0
 10
987.1186460788384
 20
370.3056955785742
 30
0.0
  0
VERTEX
  5
599
  8
0
 10
986.9113746927583
 20
370.2215086083335
 30
0.0
  0
VERTEX
  5
59A
  8
0
 10
986.7573581580717
 20
370.1254603867809
 30
0.0
  0
VERTEX
  5
59B
  8
0
 10
986.6625152438196
 20
370.0212419931979
 30
0.0
  0
VERTEX
  5
59C
  8
0
 10
986.63049071
 20
369.9128584819944
 30
0.0
  0
SEQEND
  5
820
  8
0
  0
POLYLINE
  5
1D2
  8
0
 66
     1
 10
0.0
 20
0.0
 30
0.0
  0
VERTEX
  5
59D
  8
0
 10
1017.81096894
 20
365.9844874819943
 30
0.0
  0
VERTEX
  5
59E
  8
0
 10
1017.842993471631
 20
365.8761039704696
 30
0.0
  0
VERTEX
  5
59F
  8
0
 10
1017.937836384065
 20
365.7718855764435
 30
0.0
  0
VERTEX
  5
5A0
  8
0
 10
1018.091852917357
 20
365.6758373543611
 30
0.0
  0
VERTEX
  5
5A1
  8
0
 10
1018.299124302492
 20
365.5916503835412
 30
0.0
  0
VERTEX
  5
5A2
  8
0
 10
1018.551685216362
 20
365.5225599220668
 30
0.0
  0
VERTEX
  5
5A3
  8
0
 10
1018.839829884661
 20
365.4712210776324
 30
0.0
  0
VERTEX
  5
5A4
  8
0
 10
1019.152485069355
 20
365.4396067732428
 30
0.0
  0
VERTEX
  5
5A5
  8
0
 10
1019.477635607009
 20
365.4289319288889
 30
0.0
  0
VERTEX
  5
5A6
  8
0
 10
1019.802786144777
 20
365.4396067728537
 30
0.0
  0
VERTEX
  5
5A7
  8
0
 10
1020.115441329811
 20
365.4712210768692
 30
0.0
  0
VERTEX
  5
5A8
  8
0
 10
1020.403585998663
 20
365.5225599209588
 30
0.0
  0
VERTEX
  5
5A9
  8
0
 10
1020.656146913277
 20
365.5916503821309
 30
0.0
  0
VERTEX
  5
5AA
  8
0
 10
1020.863418299319
 20
365.675837352703
 30
0.0
  0
VERTEX
  5
5AB
  8
0
 10
1021.017434833646
 20
365.771885574601
 30
0.0
  0
VERTEX
  5
5AC
  8
0
 10
1021.112277747202
 20
365.8761039685136
 30
0.0
  0
VERTEX
  5
5AD
  8
0
 10
1021.14430228
 20
365.98448748
 30
0.0
  0
SEQEND
  5
821
  8
0
  0
POLYLINE
  5
1D3
  8
0
 66
     1
 10
0.0
 20
0.0
 30
0.0
  0
VERTEX
  5
5AE
  8
0
 10
1021.14430228
 20
365.98448748
 30
0.0
  0
VERTEX
  5
5AF
  8
0
 10
1021.112277747348
 20
366.0928709912419
 30
0.0
  0
VERTEX
  5
5B0
  8
0
 10
1021.017434834218
 20
366.1970893849384
 30
0.0
  0
VERTEX
  5
5B1
  8
0
 10
1020.863418300566
 20
366.2931376066752
 30
0.0
  0
VERTEX
  5
5B2
  8
0
 10
1020.656146915392
 20
366.3773245771639
 30
0.0
  0
VERTEX
  5
5B3
  8
0
 10
1020.403586001773
 20
366.4464150383486
 30
0.0
  0
VERTEX
  5
5B4
  8
0
 10
1020.115441333957
 20
366.4977538825584
 30
0.0
  0
VERTEX
  5
5B5
  8
0
 10
1019.802786149911
 20
366.5293681868059
 30
0.0
  0
VERTEX
  5
5B6
  8
0
 10
1019.477635612991
 20
366.5400430311111
 30
0.0
  0
VERTEX
  5
5B7
  8
0
 10
1019.152485075957
 20
366.5293681871949
 30
0.0
  0
VERTEX
  5
5B8
  8
0
 10
1018.839829891571
 20
366.4977538833216
 30
0.0
  0
VERTEX
  5
5B9
  8
0
 10
1018.551685223202
 20
366.4464150394566
 30
0.0
  0
VERTEX
  5
5BA
  8
0
 10
1018.299124308838
 20
366.3773245785741
 30
0.0
  0
VERTEX
  5
5BB
  8
0
 10
1018.091852922758
 20
366.2931376083334
 30
0.0
  0
VERTEX
  5
5BC
  8
0
 10
1017.937836388072
 20
366.1970893867809
 30
0.0
  0
VERTEX
  5
5BD
  8
0
 10
1017.84299347382
 20
366.0928709931978
 30
0.0
  0
VERTEX
  5
5BE
  8
0
 10
1017.81096894
 20
365.9844874819943
 30
0.0
  0
SEQEND
  5
822
  8
0
  0
POLYLINE
  5
1D4
  8
0
 66
     1
 10
0.0
 20
0.0
 30
0.0
  0
VERTEX
  5
5BF
  8
0
 10
1048.99144716
 20
362.0561164719944
 30
0.0
  0
VERTEX
  5
5C0
  8
0
 10
1049.023471691631
 20
361.9477329604696
 30
0.0
  0
VERTEX
  5
5C1
  8
0
 10
1049.118314604065
 20
361.8435145664436
 30
0.0
  0
VERTEX
  5
5C2
  8
0
 10
1049.272331137357
 20
361.7474663443612
 30
0.0
  0
VERTEX
  5
5C3
  8
0
 10
1049.479602522493
 20
361.6632793735412
 30
0.0
  0
VERTEX
  5
5C4
  8
0
 10
1049.732163436362
 20
361.5941889120668
 30
0.0
  0
VERTEX
  5
5C5
  8
0
 10
1050.020308104661
 20
361.5428500676324
 30
0.0
  0
VERTEX
  5
5C6
  8
0
 10
1050.332963289355
 20
361.5112357632428
 30
0.0
  0
VERTEX
  5
5C7
  8
0
 10
1050.658113827008
 20
361.5005609188889
 30
0.0
  0
VERTEX
  5
5C8
  8
0
 10
1050.983264364777
 20
361.5112357628537
 30
0.0
  0
VERTEX
  5
5C9
  8
0
 10
1051.295919549811
 20
361.5428500668692
 30
0.0
  0
VERTEX
  5
5CA
  8
0
 10
1051.584064218663
 20
361.5941889109588
 30
0.0
  0
VERTEX
  5
5CB
  8
0
 10
1051.836625133277
 20
361.6632793721309
 30
0.0
  0
VERTEX
  5
5CC
  8
0
 10
1052.043896519319
 20
361.747466342703
 30
0.0
  0
VERTEX
  5
5CD
  8
0
 10
1052.197913053646
 20
361.843514564601
 30
0.0
  0
VERTEX
  5
5CE
  8
0
 10
1052.292755967202
 20
361.9477329585137
 30
0.0
  0
VERTEX
  5
5CF
  8
0
 10
1052.3247805
 20
362.05611647
 30
0.0
  0
SEQEND
  5
823
  8
0
  0
POLYLINE
  5
1D5
  8
0
 66
     1
 10
0.0
 20
0.0
 30
0.0
  0
VERTEX
  5
5D0
  8
0
 10
1052.3247805
 20
362.05611647
 30
0.0
  0
VERTEX
  5
5D1
  8
0
 10
1052.292755967348
 20
362.1644999812419
 30
0.0
  0
VERTEX
  5
5D2
  8
0
 10
1052.197913054218
 20
362.2687183749384
 30
0.0
  0
VERTEX
  5
5D3
  8
0
 10
1052.043896520566
 20
362.3647665966752
 30
0.0
  0
VERTEX
  5
5D4
  8
0
 10
1051.836625135392
 20
362.4489535671639
 30
0.0
  0
VERTEX
  5
5D5
  8
0
 10
1051.584064221772
 20
362.5180440283486
 30
0.0
  0
VERTEX
  5
5D6
  8
0
 10
1051.295919553957
 20
362.5693828725584
 30
0.0
  0
VERTEX
  5
5D7
  8
0
 10
1050.983264369911
 20
362.6009971768059
 30
0.0
  0
VERTEX
  5
5D8
  8
0
 10
1050.658113832992
 20
362.6116720211111
 30
0.0
  0
VERTEX
  5
5D9
  8
0
 10
1050.332963295957
 20
362.6009971771949
 30
0.0
  0
VERTEX
  5
5DA
  8
0
 10
1050.020308111571
 20
362.5693828733216
 30
0.0
  0
VERTEX
  5
5DB
  8
0
 10
1049.732163443202
 20
362.5180440294566
 30
0.0
  0
VERTEX
  5
5DC
  8
0
 10
1049.479602528838
 20
362.4489535685742
 30
0.0
  0
VERTEX
  5
5DD
  8
0
 10
1049.272331142758
 20
362.3647665983335
 30
0.0
  0
VERTEX
  5
5DE
  8
0
 10
1049.118314608072
 20
362.2687183767809
 30
0.0
  0
VERTEX
  5
5DF
  8
0
 10
1049.02347169382
 20
362.1644999831979
 30
0.0
  0
VERTEX
  5
5E0
  8
0
 10
1048.99144716
 20
362.0561164719944
 30
0.0
  0
SEQEND
  5
824
  8
0
  0
POLYLINE
  5
1D6
  8
0
 66
     1
 10
0.0
 20
0.0
 30
0.0
  0
VERTEX
  5
5E1
  8
0
 10
836.6206561099999
 20
394.7514598919943
 30
0.0
  0
VERTEX
  5
5E2
  8
0
 10
836.652680641631
 20
394.6430763804696
 30
0.0
  0
VERTEX
  5
5E3
  8
0
 10
836.7475235540649
 20
394.5388579864435
 30
0.0
  0
VERTEX
  5
5E4
  8
0
 10
836.9015400873568
 20
394.4428097643611
 30
0.0
  0
VERTEX
  5
5E5
  8
0
 10
837.1088114724924
 20
394.3586227935411
 30
0.0
  0
VERTEX
  5
5E6
  8
0
 10
837.361372386362
 20
394.2895323320668
 30
0.0
  0
VERTEX
  5
5E7
  8
0
 10
837.6495170546611
 20
394.2381934876324
 30
0.0
  0
VERTEX
  5
5E8
  8
0
 10
837.9621722393554
 20
394.2065791832428
 30
0.0
  0
VERTEX
  5
5E9
  8
0
 10
838.2873227770085
 20
394.1959043388889
 30
0.0
  0
VERTEX
  5
5EA
  8
0
 10
838.6124733147766
 20
394.2065791828537
 30
0.0
  0
VERTEX
  5
5EB
  8
0
 10
838.9251284998112
 20
394.2381934868692
 30
0.0
  0
VERTEX
  5
5EC
  8
0
 10
839.2132731686632
 20
394.2895323309588
 30
0.0
  0
VERTEX
  5
5ED
  8
0
 10
839.465834083277
 20
394.3586227921309
 30
0.0
  0
VERTEX
  5
5EE
  8
0
 10
839.6731054693192
 20
394.442809762703
 30
0.0
  0
VERTEX
  5
5EF
  8
0
 10
839.8271220036455
 20
394.538857984601
 30
0.0
  0
VERTEX
  5
5F0
  8
0
 10
839.9219649172016
 20
394.6430763785136
 30
0.0
  0
VERTEX
  5
5F1
  8
0
 10
839.95398945
 20
394.75145989
 30
0.0
  0
SEQEND
  5
825
  8
0
  0
POLYLINE
  5
1D7
  8
0
 66
     1
 10
0.0
 20
0.0
 30
0.0
  0
VERTEX
  5
5F2
  8
0
 10
839.95398945
 20
394.75145989
 30
0.0
  0
VERTEX
  5
5F3
  8
0
 10
839.9219649173476
 20
394.8598434012418
 30
0.0
  0
VERTEX
  5
5F4
  8
0
 10
839.8271220042179
 20
394.9640617949383
 30
0.0
  0
VERTEX
  5
5F5
  8
0
 10
839.6731054705657
 20
395.0601100166752
 30
0.0
  0
VERTEX
  5
5F6
  8
0
 10
839.4658340853922
 20
395.1442969871639
 30
0.0
  0
VERTEX
  5
5F7
  8
0
 10
839.2132731717725
 20
395.2133874483486
 30
0.0
  0
VERTEX
  5
5F8
  8
0
 10
838.9251285039569
 20
395.2647262925584
 30
0.0
  0
VERTEX
  5
5F9
  8
0
 10
838.612473319911
 20
395.2963405968059
 30
0.0
  0
VERTEX
  5
5FA
  8
0
 10
838.2873227829914
 20
395.3070154411111
 30
0.0
  0
VERTEX
  5
5FB
  8
0
 10
837.9621722459568
 20
395.2963405971949
 30
0.0
  0
VERTEX
  5
5FC
  8
0
 10
837.6495170615706
 20
395.2647262933216
 30
0.0
  0
VERTEX
  5
5FD
  8
0
 10
837.3613723932021
 20
395.2133874494566
 30
0.0
  0
VERTEX
  5
5FE
  8
0
 10
837.1088114788383
 20
395.1442969885741
 30
0.0
  0
VERTEX
  5
5FF
  8
0
 10
836.9015400927582
 20
395.0601100183334
 30
0.0
  0
VERTEX
  5
600
  8
0
 10
836.7475235580716
 20
394.9640617967809
 30
0.0
  0
VERTEX
  5
601
  8
0
 10
836.6526806438195
 20
394.8598434031978
 30
0.0
  0
VERTEX
  5
602
  8
0
 10
836.6206561099999
 20
394.7514598919943
 30
0.0
  0
SEQEND
  5
826
  8
0
  0
POLYLINE
  5
1D8
  8
0
 66
     1
 10
0.0
 20
0.0
 30
0.0
  0
VERTEX
  5
603
  8
0
 10
867.80113433
 20
390.8230888819944
 30
0.0
  0
VERTEX
  5
604
  8
0
 10
867.8331588616311
 20
390.7147053704696
 30
0.0
  0
VERTEX
  5
605
  8
0
 10
867.9280017740649
 20
390.6104869764436
 30
0.0
  0
VERTEX
  5
606
  8
0
 10
868.0820183073569
 20
390.5144387543612
 30
0.0
  0
VERTEX
  5
607
  8
0
 10
868.2892896924925
 20
390.4302517835412
 30
0.0
  0
VERTEX
  5
608
  8
0
 10
868.541850606362
 20
390.3611613220668
 30
0.0
  0
VERTEX
  5
609
  8
0
 10
868.8299952746612
 20
390.3098224776324
 30
0.0
  0
VERTEX
  5
60A
  8
0
 10
869.1426504593554
 20
390.2782081732428
 30
0.0
  0
VERTEX
  5
60B
  8
0
 10
869.4678009970086
 20
390.2675333288889
 30
0.0
  0
VERTEX
  5
60C
  8
0
 10
869.7929515347766
 20
390.2782081728537
 30
0.0
  0
VERTEX
  5
60D
  8
0
 10
870.1056067198112
 20
390.3098224768692
 30
0.0
  0
VERTEX
  5
60E
  8
0
 10
870.3937513886633
 20
390.3611613209588
 30
0.0
  0
VERTEX
  5
60F
  8
0
 10
870.646312303277
 20
390.4302517821309
 30
0.0
  0
VERTEX
  5
610
  8
0
 10
870.8535836893193
 20
390.514438752703
 30
0.0
  0
VERTEX
  5
611
  8
0
 10
871.0076002236456
 20
390.610486974601
 30
0.0
  0
VERTEX
  5
612
  8
0
 10
871.1024431372017
 20
390.7147053685136
 30
0.0
  0
VERTEX
  5
613
  8
0
 10
871.13446767
 20
390.82308888
 30
0.0
  0
SEQEND
  5
827
  8
0
  0
POLYLINE
  5
1D9
  8
0
 66
     1
 10
0.0
 20
0.0
 30
0.0
  0
VERTEX
  5
614
  8
0
 10
871.13446767
 20
390.82308888
 30
0.0
  0
VERTEX
  5
615
  8
0
 10
871.1024431373477
 20
390.9314723912419
 30
0.0
  0
VERTEX
  5
616
  8
0
 10
871.007600224218
 20
391.0356907849384
 30
0.0
  0
VERTEX
  5
617
  8
0
 10
870.8535836905658
 20
391.1317390066752
 30
0.0
  0
VERTEX
  5
618
  8
0
 10
870.6463123053923
 20
391.2159259771639
 30
0.0
  0
VERTEX
  5
619
  8
0
 10
870.3937513917725
 20
391.2850164383486
 30
0.0
  0
VERTEX
  5
61A
  8
0
 10
870.105606723957
 20
391.3363552825584
 30
0.0
  0
VERTEX
  5
61B
  8
0
 10
869.7929515399111
 20
391.3679695868059
 30
0.0
  0
VERTEX
  5
61C
  8
0
 10
869.4678010029915
 20
391.3786444311111
 30
0.0
  0
VERTEX
  5
61D
  8
0
 10
869.1426504659569
 20
391.3679695871949
 30
0.0
  0
VERTEX
  5
61E
  8
0
 10
868.8299952815706
 20
391.3363552833216
 30
0.0
  0
VERTEX
  5
61F
  8
0
 10
868.5418506132022
 20
391.2850164394566
 30
0.0
  0
VERTEX
  5
620
  8
0
 10
868.2892896988384
 20
391.2159259785741
 30
0.0
  0
VERTEX
  5
621
  8
0
 10
868.0820183127582
 20
391.1317390083335
 30
0.0
  0
VERTEX
  5
622
  8
0
 10
867.9280017780717
 20
391.0356907867809
 30
0.0
  0
VERTEX
  5
623
  8
0
 10
867.8331588638196
 20
390.9314723931979
 30
0.0
  0
VERTEX
  5
624
  8
0
 10
867.80113433
 20
390.8230888819944
 30
0.0
  0
SEQEND
  5
828
  8
0
  0
POLYLINE
  5
1DA
  8
0
 66
     1
 10
0.0
 20
0.0
 30
0.0
  0
VERTEX
  5
625
  8
0
 10
898.9816125499999
 20
386.8947178819943
 30
0.0
  0
VERTEX
  5
626
  8
0
 10
899.013637081631
 20
386.7863343704696
 30
0.0
  0
VERTEX
  5
627
  8
0
 10
899.1084799940649
 20
386.6821159764435
 30
0.0
  0
VERTEX
  5
628
  8
0
 10
899.2624965273568
 20
386.5860677543611
 30
0.0
  0
VERTEX
  5
629
  8
0
 10
899.4697679124924
 20
386.5018807835411
 30
0.0
  0
VERTEX
  5
62A
  8
0
 10
899.722328826362
 20
386.4327903220668
 30
0.0
  0
VERTEX
  5
62B
  8
0
 10
900.0104734946611
 20
386.3814514776324
 30
0.0
  0
VERTEX
  5
62C
  8
0
 10
900.3231286793554
 20
386.3498371732427
 30
0.0
  0
VERTEX
  5
62D
  8
0
 10
900.6482792170085
 20
386.3391623288888
 30
0.0
  0
VERTEX
  5
62E
  8
0
 10
900.9734297547766
 20
386.3498371728537
 30
0.0
  0
VERTEX
  5
62F
  8
0
 10
901.2860849398112
 20
386.3814514768692
 30
0.0
  0
VERTEX
  5
630
  8
0
 10
901.5742296086632
 20
386.4327903209588
 30
0.0
  0
VERTEX
  5
631
  8
0
 10
901.8267905232769
 20
386.5018807821309
 30
0.0
  0
VERTEX
  5
632
  8
0
 10
902.0340619093192
 20
386.5860677527029
 30
0.0
  0
VERTEX
  5
633
  8
0
 10
902.1880784436455
 20
386.682115974601
 30
0.0
  0
VERTEX
  5
634
  8
0
 10
902.2829213572016
 20
386.7863343685136
 30
0.0
  0
VERTEX
  5
635
  8
0
 10
902.31494589
 20
386.89471788
 30
0.0
  0
SEQEND
  5
829
  8
0
  0
POLYLINE
  5
1DB
  8
0
 66
     1
 10
0.0
 20
0.0
 30
0.0
  0
VERTEX
  5
636
  8
0
 10
902.31494589
 20
386.89471788
 30
0.0
  0
VERTEX
  5
637
  8
0
 10
902.2829213573476
 20
387.0031013912418
 30
0.0
  0
VERTEX
  5
638
  8
0
 10
902.1880784442179
 20
387.1073197849383
 30
0.0
  0
VERTEX
  5
639
  8
0
 10
902.0340619105657
 20
387.2033680066752
 30
0.0
  0
VERTEX
  5
63A
  8
0
 10
901.8267905253922
 20
387.2875549771639
 30
0.0
  0
VERTEX
  5
63B
  8
0
 10
901.5742296117725
 20
387.3566454383486
 30
0.0
  0
VERTEX
  5
63C
  8
0
 10
901.2860849439569
 20
387.4079842825583
 30
0.0
  0
VERTEX
  5
63D
  8
0
 10
900.973429759911
 20
387.4395985868059
 30
0.0
  0
VERTEX
  5
63E
  8
0
 10
900.6482792229914
 20
387.4502734311111
 30
0.0
  0
VERTEX
  5
63F
  8
0
 10
900.3231286859568
 20
387.4395985871949
 30
0.0
  0
VERTEX
  5
640
  8
0
 10
900.0104735015706
 20
387.4079842833216
 30
0.0
  0
VERTEX
  5
641
  8
0
 10
899.7223288332021
 20
387.3566454394566
 30
0.0
  0
VERTEX
  5
642
  8
0
 10
899.4697679188383
 20
387.2875549785741
 30
0.0
  0
VERTEX
  5
643
  8
0
 10
899.2624965327582
 20
387.2033680083334
 30
0.0
  0
VERTEX
  5
644
  8
0
 10
899.1084799980716
 20
387.1073197867809
 30
0.0
  0
VERTEX
  5
645
  8
0
 10
899.0136370838195
 20
387.0031013931978
 30
0.0
  0
VERTEX
  5
646
  8
0
 10
898.9816125499999
 20
386.8947178819943
 30
0.0
  0
SEQEND
  5
82A
  8
0
  0
POLYLINE
  5
1DC
  8
0
 66
     1
 10
0.0
 20
0.0
 30
0.0
  0
VERTEX
  5
647
  8
0
 10
930.16209078
 20
382.9663468719943
 30
0.0
  0
VERTEX
  5
648
  8
0
 10
930.1941153116311
 20
382.8579633604696
 30
0.0
  0
VERTEX
  5
649
  8
0
 10
930.2889582240649
 20
382.7537449664435
 30
0.0
  0
VERTEX
  5
64A
  8
0
 10
930.4429747573569
 20
382.6576967443611
 30
0.0
  0
VERTEX
  5
64B
  8
0
 10
930.6502461424925
 20
382.5735097735412
 30
0.0
  0
VERTEX
  5
64C
  8
0
 10
930.902807056362
 20
382.5044193120668
 30
0.0
  0
VERTEX
  5
64D
  8
0
 10
931.1909517246612
 20
382.4530804676324
 30
0.0
  0
VERTEX
  5
64E
  8
0
 10
931.5036069093554
 20
382.4214661632428
 30
0.0
  0
VERTEX
  5
64F
  8
0
 10
931.8287574470086
 20
382.4107913188889
 30
0.0
  0
VERTEX
  5
650
  8
0
 10
932.1539079847767
 20
382.4214661628537
 30
0.0
  0
VERTEX
  5
651
  8
0
 10
932.4665631698113
 20
382.4530804668692
 30
0.0
  0
VERTEX
  5
652
  8
0
 10
932.7547078386633
 20
382.5044193109588
 30
0.0
  0
VERTEX
  5
653
  8
0
 10
933.007268753277
 20
382.5735097721309
 30
0.0
  0
VERTEX
  5
654
  8
0
 10
933.2145401393193
 20
382.657696742703
 30
0.0
  0
VERTEX
  5
655
  8
0
 10
933.3685566736456
 20
382.753744964601
 30
0.0
  0
VERTEX
  5
656
  8
0
 10
933.4633995872017
 20
382.8579633585136
 30
0.0
  0
VERTEX
  5
657
  8
0
 10
933.49542412
 20
382.96634687
 30
0.0
  0
SEQEND
  5
82B
  8
0
  0
POLYLINE
  5
1DD
  8
0
 66
     1
 10
0.0
 20
0.0
 30
0.0
  0
VERTEX
  5
658
  8
0
 10
933.49542412
 20
382.96634687
 30
0.0
  0
VERTEX
  5
659
  8
0
 10
933.4633995873477
 20
383.0747303812419
 30
0.0
  0
VERTEX
  5
65A
  8
0
 10
933.368556674218
 20
383.1789487749384
 30
0.0
  0
VERTEX
  5
65B
  8
0
 10
933.2145401405658
 20
383.2749969966752
 30
0.0
  0
VERTEX
  5
65C
  8
0
 10
933.0072687553923
 20
383.3591839671639
 30
0.0
  0
VERTEX
  5
65D
  8
0
 10
932.7547078417725
 20
383.4282744283486
 30
0.0
  0
VERTEX
  5
65E
  8
0
 10
932.466563173957
 20
383.4796132725584
 30
0.0
  0
VERTEX
  5
65F
  8
0
 10
932.1539079899111
 20
383.5112275768059
 30
0.0
  0
VERTEX
  5
660
  8
0
 10
931.8287574529915
 20
383.5219024211111
 30
0.0
  0
VERTEX
  5
661
  8
0
 10
931.5036069159569
 20
383.5112275771949
 30
0.0
  0
VERTEX
  5
662
  8
0
 10
931.1909517315706
 20
383.4796132733216
 30
0.0
  0
VERTEX
  5
663
  8
0
 10
930.9028070632022
 20
383.4282744294566
 30
0.0
  0
VERTEX
  5
664
  8
0
 10
930.6502461488384
 20
383.3591839685741
 30
0.0
  0
VERTEX
  5
665
  8
0
 10
930.4429747627582
 20
383.2749969983334
 30
0.0
  0
VERTEX
  5
666
  8
0
 10
930.2889582280717
 20
383.1789487767809
 30
0.0
  0
VERTEX
  5
667
  8
0
 10
930.1941153138196
 20
383.0747303831978
 30
0.0
  0
VERTEX
  5
668
  8
0
 10
930.16209078
 20
382.9663468719943
 30
0.0
  0
SEQEND
  5
82C
  8
0
  0
POLYLINE
  5
1DE
  8
0
 66
     1
 10
0.0
 20
0.0
 30
0.0
  0
VERTEX
  5
669
  8
0
 10
961.3425689999999
 20
379.0379758619944
 30
0.0
  0
VERTEX
  5
66A
  8
0
 10
961.374593531631
 20
378.9295923504696
 30
0.0
  0
VERTEX
  5
66B
  8
0
 10
961.4694364440649
 20
378.8253739564436
 30
0.0
  0
VERTEX
  5
66C
  8
0
 10
961.6234529773568
 20
378.7293257343612
 30
0.0
  0
VERTEX
  5
66D
  8
0
 10
961.8307243624924
 20
378.6451387635412
 30
0.0
  0
VERTEX
  5
66E
  8
0
 10
962.083285276362
 20
378.5760483020669
 30
0.0
  0
VERTEX
  5
66F
  8
0
 10
962.3714299446611
 20
378.5247094576324
 30
0.0
  0
VERTEX
  5
670
  8
0
 10
962.6840851293554
 20
378.4930951532428
 30
0.0
  0
VERTEX
  5
671
  8
0
 10
963.0092356670085
 20
378.4824203088889
 30
0.0
  0
VERTEX
  5
672
  8
0
 10
963.3343862047766
 20
378.4930951528537
 30
0.0
  0
VERTEX
  5
673
  8
0
 10
963.6470413898112
 20
378.5247094568692
 30
0.0
  0
VERTEX
  5
674
  8
0
 10
963.9351860586632
 20
378.5760483009589
 30
0.0
  0
VERTEX
  5
675
  8
0
 10
964.187746973277
 20
378.645138762131
 30
0.0
  0
VERTEX
  5
676
  8
0
 10
964.3950183593192
 20
378.729325732703
 30
0.0
  0
VERTEX
  5
677
  8
0
 10
964.5490348936455
 20
378.825373954601
 30
0.0
  0
VERTEX
  5
678
  8
0
 10
964.6438778072016
 20
378.9295923485137
 30
0.0
  0
VERTEX
  5
679
  8
0
 10
964.67590234
 20
379.03797586
 30
0.0
  0
SEQEND
  5
82D
  8
0
  0
POLYLINE
  5
1DF
  8
0
 66
     1
 10
0.0
 20
0.0
 30
0.0
  0
VERTEX
  5
67A
  8
0
 10
964.67590234
 20
379.03797586
 30
0.0
  0
VERTEX
  5
67B
  8
0
 10
964.6438778073476
 20
379.1463593712419
 30
0.0
  0
VERTEX
  5
67C
  8
0
 10
964.5490348942179
 20
379.2505777649384
 30
0.0
  0
VERTEX
  5
67D
  8
0
 10
964.3950183605657
 20
379.3466259866752
 30
0.0
  0
VERTEX
  5
67E
  8
0
 10
964.1877469753922
 20
379.4308129571639
 30
0.0
  0
VERTEX
  5
67F
  8
0
 10
963.9351860617725
 20
379.4999034183487
 30
0.0
  0
VERTEX
  5
680
  8
0
 10
963.6470413939569
 20
379.5512422625584
 30
0.0
  0
VERTEX
  5
681
  8
0
 10
963.334386209911
 20
379.5828565668059
 30
0.0
  0
VERTEX
  5
682
  8
0
 10
963.0092356729914
 20
379.5935314111111
 30
0.0
  0
VERTEX
  5
683
  8
0
 10
962.6840851359568
 20
379.5828565671949
 30
0.0
  0
VERTEX
  5
684
  8
0
 10
962.3714299515706
 20
379.5512422633216
 30
0.0
  0
VERTEX
  5
685
  8
0
 10
962.0832852832021
 20
379.4999034194566
 30
0.0
  0
VERTEX
  5
686
  8
0
 10
961.8307243688383
 20
379.4308129585742
 30
0.0
  0
VERTEX
  5
687
  8
0
 10
961.6234529827582
 20
379.3466259883335
 30
0.0
  0
VERTEX
  5
688
  8
0
 10
961.4694364480716
 20
379.2505777667809
 30
0.0
  0
VERTEX
  5
689
  8
0
 10
961.3745935338195
 20
379.1463593731979
 30
0.0
  0
VERTEX
  5
68A
  8
0
 10
961.3425689999999
 20
379.0379758619944
 30
0.0
  0
SEQEND
  5
82E
  8
0
  0
POLYLINE
  5
1E0
  8
0
 66
     1
 10
0.0
 20
0.0
 30
0.0
  0
VERTEX
  5
68B
  8
0
 10
992.52304722
 20
375.1096048619943
 30
0.0
  0
VERTEX
  5
68C
  8
0
 10
992.5550717516311
 20
375.0012213504696
 30
0.0
  0
VERTEX
  5
68D
  8
0
 10
992.6499146640649
 20
374.8970029564435
 30
0.0
  0
VERTEX
  5
68E
  8
0
 10
992.8039311973569
 20
374.8009547343611
 30
0.0
  0
VERTEX
  5
68F
  8
0
 10
993.0112025824925
 20
374.7167677635412
 30
0.0
  0
VERTEX
  5
690
  8
0
 10
993.263763496362
 20
374.6476773020668
 30
0.0
  0
VERTEX
  5
691
  8
0
 10
993.5519081646612
 20
374.5963384576324
 30
0.0
  0
VERTEX
  5
692
  8
0
 10
993.8645633493554
 20
374.5647241532428
 30
0.0
  0
VERTEX
  5
693
  8
0
 10
994.1897138870086
 20
374.5540493088889
 30
0.0
  0
VERTEX
  5
694
  8
0
 10
994.5148644247766
 20
374.5647241528537
 30
0.0
  0
VERTEX
  5
695
  8
0
 10
994.8275196098112
 20
374.5963384568692
 30
0.0
  0
VERTEX
  5
696
  8
0
 10
995.1156642786633
 20
374.6476773009588
 30
0.0
  0
VERTEX
  5
697
  8
0
 10
995.368225193277
 20
374.7167677621309
 30
0.0
  0
VERTEX
  5
698
  8
0
 10
995.5754965793193
 20
374.800954732703
 30
0.0
  0
VERTEX
  5
699
  8
0
 10
995.7295131136456
 20
374.897002954601
 30
0.0
  0
VERTEX
  5
69A
  8
0
 10
995.8243560272017
 20
375.0012213485136
 30
0.0
  0
VERTEX
  5
69B
  8
0
 10
995.85638056
 20
375.10960486
 30
0.0
  0
SEQEND
  5
82F
  8
0
  0
POLYLINE
  5
1E1
  8
0
 66
     1
 10
0.0
 20
0.0
 30
0.0
  0
VERTEX
  5
69C
  8
0
 10
995.85638056
 20
375.10960486
 30
0.0
  0
VERTEX
  5
69D
  8
0
 10
995.8243560273477
 20
375.2179883712419
 30
0.0
  0
VERTEX
  5
69E
  8
0
 10
995.729513114218
 20
375.3222067649384
 30
0.0
  0
VERTEX
  5
69F
  8
0
 10
995.5754965805658
 20
375.4182549866752
 30
0.0
  0
VERTEX
  5
6A0
  8
0
 10
995.3682251953923
 20
375.5024419571639
 30
0.0
  0
VERTEX
  5
6A1
  8
0
 10
995.1156642817725
 20
375.5715324183486
 30
0.0
  0
VERTEX
  5
6A2
  8
0
 10
994.827519613957
 20
375.6228712625584
 30
0.0
  0
VERTEX
  5
6A3
  8
0
 10
994.5148644299111
 20
375.6544855668059
 30
0.0
  0
VERTEX
  5
6A4
  8
0
 10
994.1897138929914
 20
375.6651604111111
 30
0.0
  0
VERTEX
  5
6A5
  8
0
 10
993.8645633559569
 20
375.6544855671949
 30
0.0
  0
VERTEX
  5
6A6
  8
0
 10
993.5519081715706
 20
375.6228712633216
 30
0.0
  0
VERTEX
  5
6A7
  8
0
 10
993.2637635032022
 20
375.5715324194566
 30
0.0
  0
VERTEX
  5
6A8
  8
0
 10
993.0112025888384
 20
375.5024419585741
 30
0.0
  0
VERTEX
  5
6A9
  8
0
 10
992.8039312027582
 20
375.4182549883334
 30
0.0
  0
VERTEX
  5
6AA
  8
0
 10
992.6499146680717
 20
375.3222067667809
 30
0.0
  0
VERTEX
  5
6AB
  8
0
 10
992.5550717538196
 20
375.2179883731978
 30
0.0
  0
VERTEX
  5
6AC
  8
0
 10
992.52304722
 20
375.1096048619943
 30
0.0
  0
SEQEND
  5
830
  8
0
  0
POLYLINE
  5
1E2
  8
0
 66
     1
 10
0.0
 20
0.0
 30
0.0
  0
VERTEX
  5
6AD
  8
0
 10
1023.70352545
 20
371.1812338519944
 30
0.0
  0
VERTEX
  5
6AE
  8
0
 10
1023.735549981631
 20
371.0728503404696
 30
0.0
  0
VERTEX
  5
6AF
  8
0
 10
1023.830392894065
 20
370.9686319464436
 30
0.0
  0
VERTEX
  5
6B0
  8
0
 10
1023.984409427357
 20
370.8725837243612
 30
0.0
  0
VERTEX
  5
6B1
  8
0
 10
1024.191680812492
 20
370.7883967535412
 30
0.0
  0
VERTEX
  5
6B2
  8
0
 10
1024.444241726362
 20
370.7193062920668
 30
0.0
  0
VERTEX
  5
6B3
  8
0
 10
1024.732386394661
 20
370.6679674476324
 30
0.0
  0
VERTEX
  5
6B4
  8
0
 10
1025.045041579355
 20
370.6363531432428
 30
0.0
  0
VERTEX
  5
6B5
  8
0
 10
1025.370192117008
 20
370.6256782988889
 30
0.0
  0
VERTEX
  5
6B6
  8
0
 10
1025.695342654777
 20
370.6363531428537
 30
0.0
  0
VERTEX
  5
6B7
  8
0
 10
1026.007997839811
 20
370.6679674468692
 30
0.0
  0
VERTEX
  5
6B8
  8
0
 10
1026.296142508663
 20
370.7193062909589
 30
0.0
  0
VERTEX
  5
6B9
  8
0
 10
1026.548703423277
 20
370.788396752131
 30
0.0
  0
VERTEX
  5
6BA
  8
0
 10
1026.755974809319
 20
370.872583722703
 30
0.0
  0
VERTEX
  5
6BB
  8
0
 10
1026.909991343646
 20
370.968631944601
 30
0.0
  0
VERTEX
  5
6BC
  8
0
 10
1027.004834257202
 20
371.0728503385137
 30
0.0
  0
VERTEX
  5
6BD
  8
0
 10
1027.03685879
 20
371.18123385
 30
0.0
  0
SEQEND
  5
831
  8
0
  0
POLYLINE
  5
1E3
  8
0
 66
     1
 10
0.0
 20
0.0
 30
0.0
  0
VERTEX
  5
6BE
  8
0
 10
1027.03685879
 20
371.18123385
 30
0.0
  0
VERTEX
  5
6BF
  8
0
 10
1027.004834257348
 20
371.2896173612419
 30
0.0
  0
VERTEX
  5
6C0
  8
0
 10
1026.909991344218
 20
371.3938357549384
 30
0.0
  0
VERTEX
  5
6C1
  8
0
 10
1026.755974810566
 20
371.4898839766752
 30
0.0
  0
VERTEX
  5
6C2
  8
0
 10
1026.548703425392
 20
371.5740709471639
 30
0.0
  0
VERTEX
  5
6C3
  8
0
 10
1026.296142511772
 20
371.6431614083486
 30
0.0
  0
VERTEX
  5
6C4
  8
0
 10
1026.007997843957
 20
371.6945002525584
 30
0.0
  0
VERTEX
  5
6C5
  8
0
 10
1025.695342659911
 20
371.7261145568059
 30
0.0
  0
VERTEX
  5
6C6
  8
0
 10
1025.370192122992
 20
371.7367894011111
 30
0.0
  0
VERTEX
  5
6C7
  8
0
 10
1025.045041585957
 20
371.7261145571949
 30
0.0
  0
VERTEX
  5
6C8
  8
0
 10
1024.732386401571
 20
371.6945002533216
 30
0.0
  0
VERTEX
  5
6C9
  8
0
 10
1024.444241733202
 20
371.6431614094566
 30
0.0
  0
VERTEX
  5
6CA
  8
0
 10
1024.191680818838
 20
371.5740709485742
 30
0.0
  0
VERTEX
  5
6CB
  8
0
 10
1023.984409432758
 20
371.4898839783335
 30
0.0
  0
VERTEX
  5
6CC
  8
0
 10
1023.830392898072
 20
371.3938357567809
 30
0.0
  0
VERTEX
  5
6CD
  8
0
 10
1023.73554998382
 20
371.2896173631979
 30
0.0
  0
VERTEX
  5
6CE
  8
0
 10
1023.70352545
 20
371.1812338519944
 30
0.0
  0
SEQEND
  5
832
  8
0
  0
POLYLINE
  5
1E4
  8
0
 66
     1
 10
0.0
 20
0.0
 30
0.0
  0
VERTEX
  5
6CF
  8
0
 10
1054.88400367
 20
367.2528628419943
 30
0.0
  0
VERTEX
  5
6D0
  8
0
 10
1054.916028201631
 20
367.1444793304696
 30
0.0
  0
VERTEX
  5
6D1
  8
0
 10
1055.010871114065
 20
367.0402609364435
 30
0.0
  0
VERTEX
  5
6D2
  8
0
 10
1055.164887647357
 20
366.9442127143611
 30
0.0
  0
VERTEX
  5
6D3
  8
0
 10
1055.372159032492
 20
366.8600257435411
 30
0.0
  0
VERTEX
  5
6D4
  8
0
 10
1055.624719946362
 20
366.7909352820668
 30
0.0
  0
VERTEX
  5
6D5
  8
0
 10
1055.912864614661
 20
366.7395964376324
 30
0.0
  0
VERTEX
  5
6D6
  8
0
 10
1056.225519799355
 20
366.7079821332428
 30
0.0
  0
VERTEX
  5
6D7
  8
0
 10
1056.550670337008
 20
366.6973072888889
 30
0.0
  0
VERTEX
  5
6D8
  8
0
 10
1056.875820874777
 20
366.7079821328537
 30
0.0
  0
VERTEX
  5
6D9
  8
0
 10
1057.188476059811
 20
366.7395964368692
 30
0.0
  0
VERTEX
  5
6DA
  8
0
 10
1057.476620728663
 20
366.7909352809588
 30
0.0
  0
VERTEX
  5
6DB
  8
0
 10
1057.729181643277
 20
366.8600257421309
 30
0.0
  0
VERTEX
  5
6DC
  8
0
 10
1057.936453029319
 20
366.9442127127029
 30
0.0
  0
VERTEX
  5
6DD
  8
0
 10
1058.090469563645
 20
367.040260934601
 30
0.0
  0
VERTEX
  5
6DE
  8
0
 10
1058.185312477202
 20
367.1444793285136
 30
0.0
  0
VERTEX
  5
6DF
  8
0
 10
1058.21733701
 20
367.25286284
 30
0.0
  0
SEQEND
  5
833
  8
0
  0
POLYLINE
  5
1E5
  8
0
 66
     1
 10
0.0
 20
0.0
 30
0.0
  0
VERTEX
  5
6E0
  8
0
 10
1058.21733701
 20
367.25286284
 30
0.0
  0
VERTEX
  5
6E1
  8
0
 10
1058.185312477347
 20
367.3612463512418
 30
0.0
  0
VERTEX
  5
6E2
  8
0
 10
1058.090469564218
 20
367.4654647449383
 30
0.0
  0
VERTEX
  5
6E3
  8
0
 10
1057.936453030566
 20
367.5615129666752
 30
0.0
  0
VERTEX
  5
6E4
  8
0
 10
1057.729181645392
 20
367.6456999371639
 30
0.0
  0
VERTEX
  5
6E5
  8
0
 10
1057.476620731772
 20
367.7147903983486
 30
0.0
  0
VERTEX
  5
6E6
  8
0
 10
1057.188476063957
 20
367.7661292425583
 30
0.0
  0
VERTEX
  5
6E7
  8
0
 10
1056.875820879911
 20
367.7977435468059
 30
0.0
  0
VERTEX
  5
6E8
  8
0
 10
1056.550670342991
 20
367.8084183911111
 30
0.0
  0
VERTEX
  5
6E9
  8
0
 10
1056.225519805957
 20
367.7977435471949
 30
0.0
  0
VERTEX
  5
6EA
  8
0
 10
1055.912864621571
 20
367.7661292433216
 30
0.0
  0
VERTEX
  5
6EB
  8
0
 10
1055.624719953202
 20
367.7147903994566
 30
0.0
  0
VERTEX
  5
6EC
  8
0
 10
1055.372159038838
 20
367.6456999385741
 30
0.0
  0
VERTEX
  5
6ED
  8
0
 10
1055.164887652758
 20
367.5615129683334
 30
0.0
  0
VERTEX
  5
6EE
  8
0
 10
1055.010871118071
 20
367.4654647467809
 30
0.0
  0
VERTEX
  5
6EF
  8
0
 10
1054.916028203819
 20
367.3612463531978
 30
0.0
  0
VERTEX
  5
6F0
  8
0
 10
1054.88400367
 20
367.2528628419943
 30
0.0
  0
SEQEND
  5
834
  8
0
  0
POLYLINE
  5
1E6
  8
0
 66
     1
 10
0.0
 20
0.0
 30
0.0
  0
VERTEX
  5
6F1
  8
0
 10
849.26461696
 20
390.1889012019943
 30
0.0
  0
VERTEX
  5
6F2
  8
0
 10
849.2966414916311
 20
390.0805176904696
 30
0.0
  0
VERTEX
  5
6F3
  8
0
 10
849.391484404065
 20
389.9762992964435
 30
0.0
  0
VERTEX
  5
6F4
  8
0
 10
849.5455009373569
 20
389.8802510743611
 30
0.0
  0
VERTEX
  5
6F5
  8
0
 10
849.7527723224925
 20
389.7960641035411
 30
0.0
  0
VERTEX
  5
6F6
  8
0
 10
850.005333236362
 20
389.7269736420668
 30
0.0
  0
VERTEX
  5
6F7
  8
0
 10
850.2934779046612
 20
389.6756347976324
 30
0.0
  0
VERTEX
  5
6F8
  8
0
 10
850.6061330893555
 20
389.6440204932427
 30
0.0
  0
VERTEX
  5
6F9
  8
0
 10
850.9312836270086
 20
389.6333456488888
 30
0.0
  0
VERTEX
  5
6FA
  8
0
 10
851.2564341647767
 20
389.6440204928537
 30
0.0
  0
VERTEX
  5
6FB
  8
0
 10
851.5690893498113
 20
389.6756347968692
 30
0.0
  0
VERTEX
  5
6FC
  8
0
 10
851.8572340186633
 20
389.7269736409588
 30
0.0
  0
VERTEX
  5
6FD
  8
0
 10
852.109794933277
 20
389.7960641021309
 30
0.0
  0
VERTEX
  5
6FE
  8
0
 10
852.3170663193193
 20
389.8802510727029
 30
0.0
  0
VERTEX
  5
6FF
  8
0
 10
852.4710828536456
 20
389.976299294601
 30
0.0
  0
VERTEX
  5
700
  8
0
 10
852.5659257672017
 20
390.0805176885136
 30
0.0
  0
VERTEX
  5
701
  8
0
 10
852.5979503000001
 20
390.1889012
 30
0.0
  0
SEQEND
  5
835
  8
0
  0
POLYLINE
  5
1E7
  8
0
 66
     1
 10
0.0
 20
0.0
 30
0.0
  0
VERTEX
  5
702
  8
0
 10
852.5979503000001
 20
390.1889012
 30
0.0
  0
VERTEX
  5
703
  8
0
 10
852.5659257673477
 20
390.2972847112418
 30
0.0
  0
VERTEX
  5
704
  8
0
 10
852.471082854218
 20
390.4015031049383
 30
0.0
  0
VERTEX
  5
705
  8
0
 10
852.3170663205658
 20
390.4975513266752
 30
0.0
  0
VERTEX
  5
706
  8
0
 10
852.1097949353923
 20
390.5817382971639
 30
0.0
  0
VERTEX
  5
707
  8
0
 10
851.8572340217726
 20
390.6508287583486
 30
0.0
  0
VERTEX
  5
708
  8
0
 10
851.569089353957
 20
390.7021676025583
 30
0.0
  0
VERTEX
  5
709
  8
0
 10
851.2564341699111
 20
390.7337819068059
 30
0.0
  0
VERTEX
  5
70A
  8
0
 10
850.9312836329915
 20
390.7444567511111
 30
0.0
  0
VERTEX
  5
70B
  8
0
 10
850.6061330959569
 20
390.7337819071949
 30
0.0
  0
VERTEX
  5
70C
  8
0
 10
850.2934779115707
 20
390.7021676033216
 30
0.0
  0
VERTEX
  5
70D
  8
0
 10
850.0053332432022
 20
390.6508287594566
 30
0.0
  0
VERTEX
  5
70E
  8
0
 10
849.7527723288384
 20
390.5817382985741
 30
0.0
  0
VERTEX
  5
70F
  8
0
 10
849.5455009427583
 20
390.4975513283334
 30
0.0
  0
VERTEX
  5
710
  8
0
 10
849.3914844080717
 20
390.4015031067809
 30
0.0
  0
VERTEX
  5
711
  8
0
 10
849.2966414938196
 20
390.2972847131978
 30
0.0
  0
VERTEX
  5
712
  8
0
 10
849.26461696
 20
390.1889012019943
 30
0.0
  0
SEQEND
  5
836
  8
0
  0
POLYLINE
  5
1E8
  8
0
 66
     1
 10
0.0
 20
0.0
 30
0.0
  0
VERTEX
  5
713
  8
0
 10
880.44509519
 20
386.2605301919943
 30
0.0
  0
VERTEX
  5
714
  8
0
 10
880.4771197216311
 20
386.1521466804696
 30
0.0
  0
VERTEX
  5
715
  8
0
 10
880.5719626340649
 20
386.0479282864436
 30
0.0
  0
VERTEX
  5
716
  8
0
 10
880.7259791673569
 20
385.9518800643611
 30
0.0
  0
VERTEX
  5
717
  8
0
 10
880.9332505524925
 20
385.8676930935412
 30
0.0
  0
VERTEX
  5
718
  8
0
 10
881.185811466362
 20
385.7986026320668
 30
0.0
  0
VERTEX
  5
719
  8
0
 10
881.4739561346612
 20
385.7472637876324
 30
0.0
  0
VERTEX
  5
71A
  8
0
 10
881.7866113193554
 20
385.7156494832428
 30
0.0
  0
VERTEX
  5
71B
  8
0
 10
882.1117618570086
 20
385.7049746388889
 30
0.0
  0
VERTEX
  5
71C
  8
0
 10
882.4369123947766
 20
385.7156494828537
 30
0.0
  0
VERTEX
  5
71D
  8
0
 10
882.7495675798112
 20
385.7472637868692
 30
0.0
  0
VERTEX
  5
71E
  8
0
 10
883.0377122486633
 20
385.7986026309588
 30
0.0
  0
VERTEX
  5
71F
  8
0
 10
883.290273163277
 20
385.8676930921309
 30
0.0
  0
VERTEX
  5
720
  8
0
 10
883.4975445493193
 20
385.951880062703
 30
0.0
  0
VERTEX
  5
721
  8
0
 10
883.6515610836456
 20
386.047928284601
 30
0.0
  0
VERTEX
  5
722
  8
0
 10
883.7464039972017
 20
386.1521466785136
 30
0.0
  0
VERTEX
  5
723
  8
0
 10
883.77842853
 20
386.26053019
 30
0.0
  0
SEQEND
  5
837
  8
0
  0
POLYLINE
  5
1E9
  8
0
 66
     1
 10
0.0
 20
0.0
 30
0.0
  0
VERTEX
  5
724
  8
0
 10
883.77842853
 20
386.26053019
 30
0.0
  0
VERTEX
  5
725
  8
0
 10
883.7464039973477
 20
386.3689137012419
 30
0.0
  0
VERTEX
  5
726
  8
0
 10
883.651561084218
 20
386.4731320949384
 30
0.0
  0
VERTEX
  5
727
  8
0
 10
883.4975445505657
 20
386.5691803166752
 30
0.0
  0
VERTEX
  5
728
  8
0
 10
883.2902731653923
 20
386.6533672871639
 30
0.0
  0
VERTEX
  5
729
  8
0
 10
883.0377122517725
 20
386.7224577483486
 30
0.0
  0
VERTEX
  5
72A
  8
0
 10
882.749567583957
 20
386.7737965925584
 30
0.0
  0
VERTEX
  5
72B
  8
0
 10
882.4369123999111
 20
386.8054108968059
 30
0.0
  0
VERTEX
  5
72C
  8
0
 10
882.1117618629914
 20
386.8160857411111
 30
0.0
  0
VERTEX
  5
72D
  8
0
 10
881.7866113259569
 20
386.8054108971949
 30
0.0
  0
VERTEX
  5
72E
  8
0
 10
881.4739561415706
 20
386.7737965933216
 30
0.0
  0
VERTEX
  5
72F
  8
0
 10
881.1858114732022
 20
386.7224577494566
 30
0.0
  0
VERTEX
  5
730
  8
0
 10
880.9332505588384
 20
386.6533672885741
 30
0.0
  0
VERTEX
  5
731
  8
0
 10
880.7259791727582
 20
386.5691803183335
 30
0.0
  0
VERTEX
  5
732
  8
0
 10
880.5719626380717
 20
386.4731320967809
 30
0.0
  0
VERTEX
  5
733
  8
0
 10
880.4771197238196
 20
386.3689137031978
 30
0.0
  0
VERTEX
  5
734
  8
0
 10
880.44509519
 20
386.2605301919943
 30
0.0
  0
SEQEND
  5
838
  8
0
  0
POLYLINE
  5
1EA
  8
0
 66
     1
 10
0.0
 20
0.0
 30
0.0
  0
VERTEX
  5
735
  8
0
 10
911.62557341
 20
382.3321591919944
 30
0.0
  0
VERTEX
  5
736
  8
0
 10
911.6575979416311
 20
382.2237756804697
 30
0.0
  0
VERTEX
  5
737
  8
0
 10
911.752440854065
 20
382.1195572864436
 30
0.0
  0
VERTEX
  5
738
  8
0
 10
911.9064573873569
 20
382.0235090643612
 30
0.0
  0
VERTEX
  5
739
  8
0
 10
912.1137287724925
 20
381.9393220935412
 30
0.0
  0
VERTEX
  5
73A
  8
0
 10
912.366289686362
 20
381.8702316320669
 30
0.0
  0
VERTEX
  5
73B
  8
0
 10
912.6544343546612
 20
381.8188927876324
 30
0.0
  0
VERTEX
  5
73C
  8
0
 10
912.9670895393555
 20
381.7872784832428
 30
0.0
  0
VERTEX
  5
73D
  8
0
 10
913.2922400770086
 20
381.7766036388889
 30
0.0
  0
VERTEX
  5
73E
  8
0
 10
913.6173906147767
 20
381.7872784828537
 30
0.0
  0
VERTEX
  5
73F
  8
0
 10
913.9300457998113
 20
381.8188927868692
 30
0.0
  0
VERTEX
  5
740
  8
0
 10
914.2181904686634
 20
381.8702316309589
 30
0.0
  0
VERTEX
  5
741
  8
0
 10
914.470751383277
 20
381.939322092131
 30
0.0
  0
VERTEX
  5
742
  8
0
 10
914.6780227693193
 20
382.023509062703
 30
0.0
  0
VERTEX
  5
743
  8
0
 10
914.8320393036456
 20
382.1195572846011
 30
0.0
  0
VERTEX
  5
744
  8
0
 10
914.9268822172018
 20
382.2237756785137
 30
0.0
  0
VERTEX
  5
745
  8
0
 10
914.9589067500001
 20
382.33215919
 30
0.0
  0
SEQEND
  5
839
  8
0
  0
POLYLINE
  5
1EB
  8
0
 66
     1
 10
0.0
 20
0.0
 30
0.0
  0
VERTEX
  5
746
  8
0
 10
914.9589067500001
 20
382.33215919
 30
0.0
  0
VERTEX
  5
747
  8
0
 10
914.9268822173477
 20
382.4405427012419
 30
0.0
  0
VERTEX
  5
748
  8
0
 10
914.832039304218
 20
382.5447610949384
 30
0.0
  0
VERTEX
  5
749
  8
0
 10
914.6780227705658
 20
382.6408093166752
 30
0.0
  0
VERTEX
  5
74A
  8
0
 10
914.4707513853923
 20
382.7249962871639
 30
0.0
  0
VERTEX
  5
74B
  8
0
 10
914.2181904717726
 20
382.7940867483487
 30
0.0
  0
VERTEX
  5
74C
  8
0
 10
913.930045803957
 20
382.8454255925584
 30
0.0
  0
VERTEX
  5
74D
  8
0
 10
913.6173906199111
 20
382.8770398968059
 30
0.0
  0
VERTEX
  5
74E
  8
0
 10
913.2922400829915
 20
382.8877147411112
 30
0.0
  0
VERTEX
  5
74F
  8
0
 10
912.9670895459569
 20
382.8770398971949
 30
0.0
  0
VERTEX
  5
750
  8
0
 10
912.6544343615707
 20
382.8454255933216
 30
0.0
  0
VERTEX
  5
751
  8
0
 10
912.3662896932022
 20
382.7940867494567
 30
0.0
  0
VERTEX
  5
752
  8
0
 10
912.1137287788384
 20
382.7249962885742
 30
0.0
  0
VERTEX
  5
753
  8
0
 10
911.9064573927583
 20
382.6408093183335
 30
0.0
  0
VERTEX
  5
754
  8
0
 10
911.7524408580717
 20
382.5447610967809
 30
0.0
  0
VERTEX
  5
755
  8
0
 10
911.6575979438196
 20
382.4405427031979
 30
0.0
  0
VERTEX
  5
756
  8
0
 10
911.62557341
 20
382.3321591919944
 30
0.0
  0
SEQEND
  5
83A
  8
0
  0
POLYLINE
  5
1EC
  8
0
 66
     1
 10
0.0
 20
0.0
 30
0.0
  0
VERTEX
  5
757
  8
0
 10
942.80605163
 20
378.4037881819943
 30
0.0
  0
VERTEX
  5
758
  8
0
 10
942.8380761616311
 20
378.2954046704696
 30
0.0
  0
VERTEX
  5
759
  8
0
 10
942.9329190740649
 20
378.1911862764435
 30
0.0
  0
VERTEX
  5
75A
  8
0
 10
943.0869356073568
 20
378.0951380543611
 30
0.0
  0
VERTEX
  5
75B
  8
0
 10
943.2942069924925
 20
378.0109510835412
 30
0.0
  0
VERTEX
  5
75C
  8
0
 10
943.546767906362
 20
377.9418606220668
 30
0.0
  0
VERTEX
  5
75D
  8
0
 10
943.8349125746612
 20
377.8905217776324
 30
0.0
  0
VERTEX
  5
75E
  8
0
 10
944.1475677593554
 20
377.8589074732428
 30
0.0
  0
VERTEX
  5
75F
  8
0
 10
944.4727182970086
 20
377.8482326288889
 30
0.0
  0
VERTEX
  5
760
  8
0
 10
944.7978688347766
 20
377.8589074728537
 30
0.0
  0
VERTEX
  5
761
  8
0
 10
945.1105240198112
 20
377.8905217768692
 30
0.0
  0
VERTEX
  5
762
  8
0
 10
945.3986686886633
 20
377.9418606209588
 30
0.0
  0
VERTEX
  5
763
  8
0
 10
945.651229603277
 20
378.0109510821309
 30
0.0
  0
VERTEX
  5
764
  8
0
 10
945.8585009893193
 20
378.095138052703
 30
0.0
  0
VERTEX
  5
765
  8
0
 10
946.0125175236456
 20
378.191186274601
 30
0.0
  0
VERTEX
  5
766
  8
0
 10
946.1073604372017
 20
378.2954046685136
 30
0.0
  0
VERTEX
  5
767
  8
0
 10
946.13938497
 20
378.40378818
 30
0.0
  0
SEQEND
  5
83B
  8
0
  0
POLYLINE
  5
1ED
  8
0
 66
     1
 10
0.0
 20
0.0
 30
0.0
  0
VERTEX
  5
768
  8
0
 10
946.13938497
 20
378.40378818
 30
0.0
  0
VERTEX
  5
769
  8
0
 10
946.1073604373477
 20
378.5121716912419
 30
0.0
  0
VERTEX
  5
76A
  8
0
 10
946.012517524218
 20
378.6163900849384
 30
0.0
  0
VERTEX
  5
76B
  8
0
 10
945.8585009905657
 20
378.7124383066752
 30
0.0
  0
VERTEX
  5
76C
  8
0
 10
945.6512296053922
 20
378.7966252771639
 30
0.0
  0
VERTEX
  5
76D
  8
0
 10
945.3986686917725
 20
378.8657157383486
 30
0.0
  0
VERTEX
  5
76E
  8
0
 10
945.1105240239569
 20
378.9170545825584
 30
0.0
  0
VERTEX
  5
76F
  8
0
 10
944.7978688399111
 20
378.9486688868059
 30
0.0
  0
VERTEX
  5
770
  8
0
 10
944.4727183029914
 20
378.9593437311111
 30
0.0
  0
VERTEX
  5
771
  8
0
 10
944.1475677659569
 20
378.9486688871949
 30
0.0
  0
VERTEX
  5
772
  8
0
 10
943.8349125815706
 20
378.9170545833216
 30
0.0
  0
VERTEX
  5
773
  8
0
 10
943.5467679132022
 20
378.8657157394566
 30
0.0
  0
VERTEX
  5
774
  8
0
 10
943.2942069988384
 20
378.7966252785741
 30
0.0
  0
VERTEX
  5
775
  8
0
 10
943.0869356127582
 20
378.7124383083334
 30
0.0
  0
VERTEX
  5
776
  8
0
 10
942.9329190780717
 20
378.6163900867809
 30
0.0
  0
VERTEX
  5
777
  8
0
 10
942.8380761638196
 20
378.5121716931978
 30
0.0
  0
VERTEX
  5
778
  8
0
 10
942.80605163
 20
378.4037881819943
 30
0.0
  0
SEQEND
  5
83C
  8
0
  0
POLYLINE
  5
1EE
  8
0
 66
     1
 10
0.0
 20
0.0
 30
0.0
  0
VERTEX
  5
779
  8
0
 10
973.9865298599999
 20
374.4754171719944
 30
0.0
  0
VERTEX
  5
77A
  8
0
 10
974.018554391631
 20
374.3670336604696
 30
0.0
  0
VERTEX
  5
77B
  8
0
 10
974.1133973040648
 20
374.2628152664436
 30
0.0
  0
VERTEX
  5
77C
  8
0
 10
974.2674138373568
 20
374.1667670443612
 30
0.0
  0
VERTEX
  5
77D
  8
0
 10
974.4746852224924
 20
374.0825800735412
 30
0.0
  0
VERTEX
  5
77E
  8
0
 10
974.7272461363619
 20
374.0134896120668
 30
0.0
  0
VERTEX
  5
77F
  8
0
 10
975.0153908046611
 20
373.9621507676324
 30
0.0
  0
VERTEX
  5
780
  8
0
 10
975.3280459893554
 20
373.9305364632428
 30
0.0
  0
VERTEX
  5
781
  8
0
 10
975.6531965270085
 20
373.9198616188889
 30
0.0
  0
VERTEX
  5
782
  8
0
 10
975.9783470647766
 20
373.9305364628537
 30
0.0
  0
VERTEX
  5
783
  8
0
 10
976.2910022498112
 20
373.9621507668692
 30
0.0
  0
VERTEX
  5
784
  8
0
 10
976.5791469186632
 20
374.0134896109589
 30
0.0
  0
VERTEX
  5
785
  8
0
 10
976.8317078332769
 20
374.082580072131
 30
0.0
  0
VERTEX
  5
786
  8
0
 10
977.0389792193192
 20
374.166767042703
 30
0.0
  0
VERTEX
  5
787
  8
0
 10
977.1929957536455
 20
374.262815264601
 30
0.0
  0
VERTEX
  5
788
  8
0
 10
977.2878386672016
 20
374.3670336585137
 30
0.0
  0
VERTEX
  5
789
  8
0
 10
977.3198632
 20
374.47541717
 30
0.0
  0
SEQEND
  5
83D
  8
0
  0
POLYLINE
  5
1EF
  8
0
 66
     1
 10
0.0
 20
0.0
 30
0.0
  0
VERTEX
  5
78A
  8
0
 10
977.3198632
 20
374.47541717
 30
0.0
  0
VERTEX
  5
78B
  8
0
 10
977.2878386673476
 20
374.5838006812419
 30
0.0
  0
VERTEX
  5
78C
  8
0
 10
977.1929957542179
 20
374.6880190749384
 30
0.0
  0
VERTEX
  5
78D
  8
0
 10
977.0389792205657
 20
374.7840672966752
 30
0.0
  0
VERTEX
  5
78E
  8
0
 10
976.8317078353922
 20
374.8682542671639
 30
0.0
  0
VERTEX
  5
78F
  8
0
 10
976.5791469217725
 20
374.9373447283486
 30
0.0
  0
VERTEX
  5
790
  8
0
 10
976.2910022539569
 20
374.9886835725584
 30
0.0
  0
VERTEX
  5
791
  8
0
 10
975.978347069911
 20
375.0202978768059
 30
0.0
  0
VERTEX
  5
792
  8
0
 10
975.6531965329914
 20
375.0309727211111
 30
0.0
  0
VERTEX
  5
793
  8
0
 10
975.3280459959568
 20
375.0202978771949
 30
0.0
  0
VERTEX
  5
794
  8
0
 10
975.0153908115706
 20
374.9886835733216
 30
0.0
  0
VERTEX
  5
795
  8
0
 10
974.7272461432021
 20
374.9373447294566
 30
0.0
  0
VERTEX
  5
796
  8
0
 10
974.4746852288383
 20
374.8682542685742
 30
0.0
  0
VERTEX
  5
797
  8
0
 10
974.2674138427582
 20
374.7840672983335
 30
0.0
  0
VERTEX
  5
798
  8
0
 10
974.1133973080716
 20
374.6880190767809
 30
0.0
  0
VERTEX
  5
799
  8
0
 10
974.0185543938195
 20
374.5838006831979
 30
0.0
  0
VERTEX
  5
79A
  8
0
 10
973.9865298599999
 20
374.4754171719944
 30
0.0
  0
SEQEND
  5
83E
  8
0
  0
POLYLINE
  5
1F0
  8
0
 66
     1
 10
0.0
 20
0.0
 30
0.0
  0
VERTEX
  5
79B
  8
0
 10
1005.16700808
 20
370.5470461719943
 30
0.0
  0
VERTEX
  5
79C
  8
0
 10
1005.199032611631
 20
370.4386626604696
 30
0.0
  0
VERTEX
  5
79D
  8
0
 10
1005.293875524065
 20
370.3344442664435
 30
0.0
  0
VERTEX
  5
79E
  8
0
 10
1005.447892057357
 20
370.2383960443611
 30
0.0
  0
VERTEX
  5
79F
  8
0
 10
1005.655163442492
 20
370.1542090735412
 30
0.0
  0
VERTEX
  5
7A0
  8
0
 10
1005.907724356362
 20
370.0851186120668
 30
0.0
  0
VERTEX
  5
7A1
  8
0
 10
1006.195869024661
 20
370.0337797676324
 30
0.0
  0
VERTEX
  5
7A2
  8
0
 10
1006.508524209355
 20
370.0021654632428
 30
0.0
  0
VERTEX
  5
7A3
  8
0
 10
1006.833674747009
 20
369.9914906188889
 30
0.0
  0
VERTEX
  5
7A4
  8
0
 10
1007.158825284777
 20
370.0021654628537
 30
0.0
  0
VERTEX
  5
7A5
  8
0
 10
1007.471480469811
 20
370.0337797668692
 30
0.0
  0
VERTEX
  5
7A6
  8
0
 10
1007.759625138663
 20
370.0851186109588
 30
0.0
  0
VERTEX
  5
7A7
  8
0
 10
1008.012186053277
 20
370.1542090721309
 30
0.0
  0
VERTEX
  5
7A8
  8
0
 10
1008.219457439319
 20
370.238396042703
 30
0.0
  0
VERTEX
  5
7A9
  8
0
 10
1008.373473973646
 20
370.334444264601
 30
0.0
  0
VERTEX
  5
7AA
  8
0
 10
1008.468316887202
 20
370.4386626585136
 30
0.0
  0
VERTEX
  5
7AB
  8
0
 10
1008.50034142
 20
370.54704617
 30
0.0
  0
SEQEND
  5
83F
  8
0
  0
POLYLINE
  5
1F1
  8
0
 66
     1
 10
0.0
 20
0.0
 30
0.0
  0
VERTEX
  5
7AC
  8
0
 10
1008.50034142
 20
370.54704617
 30
0.0
  0
VERTEX
  5
7AD
  8
0
 10
1008.468316887348
 20
370.6554296812419
 30
0.0
  0
VERTEX
  5
7AE
  8
0
 10
1008.373473974218
 20
370.7596480749384
 30
0.0
  0
VERTEX
  5
7AF
  8
0
 10
1008.219457440566
 20
370.8556962966752
 30
0.0
  0
VERTEX
  5
7B0
  8
0
 10
1008.012186055392
 20
370.9398832671639
 30
0.0
  0
VERTEX
  5
7B1
  8
0
 10
1007.759625141773
 20
371.0089737283486
 30
0.0
  0
VERTEX
  5
7B2
  8
0
 10
1007.471480473957
 20
371.0603125725584
 30
0.0
  0
VERTEX
  5
7B3
  8
0
 10
1007.158825289911
 20
371.0919268768059
 30
0.0
  0
VERTEX
  5
7B4
  8
0
 10
1006.833674752991
 20
371.1026017211111
 30
0.0
  0
VERTEX
  5
7B5
  8
0
 10
1006.508524215957
 20
371.0919268771949
 30
0.0
  0
VERTEX
  5
7B6
  8
0
 10
1006.195869031571
 20
371.0603125733216
 30
0.0
  0
VERTEX
  5
7B7
  8
0
 10
1005.907724363202
 20
371.0089737294566
 30
0.0
  0
VERTEX
  5
7B8
  8
0
 10
1005.655163448838
 20
370.9398832685741
 30
0.0
  0
VERTEX
  5
7B9
  8
0
 10
1005.447892062758
 20
370.8556962983334
 30
0.0
  0
VERTEX
  5
7BA
  8
0
 10
1005.293875528072
 20
370.7596480767809
 30
0.0
  0
VERTEX
  5
7BB
  8
0
 10
1005.19903261382
 20
370.6554296831978
 30
0.0
  0
VERTEX
  5
7BC
  8
0
 10
1005.16700808
 20
370.5470461719943
 30
0.0
  0
SEQEND
  5
840
  8
0
  0
POLYLINE
  5
1F2
  8
0
 66
     1
 10
0.0
 20
0.0
 30
0.0
  0
VERTEX
  5
7BD
  8
0
 10
1036.3474863
 20
366.6186751619944
 30
0.0
  0
VERTEX
  5
7BE
  8
0
 10
1036.379510831631
 20
366.5102916504696
 30
0.0
  0
VERTEX
  5
7BF
  8
0
 10
1036.474353744065
 20
366.4060732564436
 30
0.0
  0
VERTEX
  5
7C0
  8
0
 10
1036.628370277357
 20
366.3100250343612
 30
0.0
  0
VERTEX
  5
7C1
  8
0
 10
1036.835641662492
 20
366.2258380635412
 30
0.0
  0
VERTEX
  5
7C2
  8
0
 10
1037.088202576362
 20
366.1567476020668
 30
0.0
  0
VERTEX
  5
7C3
  8
0
 10
1037.376347244661
 20
366.1054087576324
 30
0.0
  0
VERTEX
  5
7C4
  8
0
 10
1037.689002429355
 20
366.0737944532428
 30
0.0
  0
VERTEX
  5
7C5
  8
0
 10
1038.014152967008
 20
366.0631196088889
 30
0.0
  0
VERTEX
  5
7C6
  8
0
 10
1038.339303504777
 20
366.0737944528537
 30
0.0
  0
VERTEX
  5
7C7
  8
0
 10
1038.651958689811
 20
366.1054087568692
 30
0.0
  0
VERTEX
  5
7C8
  8
0
 10
1038.940103358663
 20
366.1567476009589
 30
0.0
  0
VERTEX
  5
7C9
  8
0
 10
1039.192664273277
 20
366.2258380621309
 30
0.0
  0
VERTEX
  5
7CA
  8
0
 10
1039.399935659319
 20
366.310025032703
 30
0.0
  0
VERTEX
  5
7CB
  8
0
 10
1039.553952193646
 20
366.406073254601
 30
0.0
  0
VERTEX
  5
7CC
  8
0
 10
1039.648795107202
 20
366.5102916485137
 30
0.0
  0
VERTEX
  5
7CD
  8
0
 10
1039.68081964
 20
366.61867516
 30
0.0
  0
SEQEND
  5
841
  8
0
  0
POLYLINE
  5
1F3
  8
0
 66
     1
 10
0.0
 20
0.0
 30
0.0
  0
VERTEX
  5
7CE
  8
0
 10
1039.68081964
 20
366.61867516
 30
0.0
  0
VERTEX
  5
7CF
  8
0
 10
1039.648795107347
 20
366.7270586712419
 30
0.0
  0
VERTEX
  5
7D0
  8
0
 10
1039.553952194218
 20
366.8312770649384
 30
0.0
  0
VERTEX
  5
7D1
  8
0
 10
1039.399935660566
 20
366.9273252866752
 30
0.0
  0
VERTEX
  5
7D2
  8
0
 10
1039.192664275392
 20
367.0115122571639
 30
0.0
  0
VERTEX
  5
7D3
  8
0
 10
1038.940103361772
 20
367.0806027183486
 30
0.0
  0
VERTEX
  5
7D4
  8
0
 10
1038.651958693957
 20
367.1319415625584
 30
0.0
  0
VERTEX
  5
7D5
  8
0
 10
1038.339303509911
 20
367.1635558668059
 30
0.0
  0
VERTEX
  5
7D6
  8
0
 10
1038.014152972991
 20
367.1742307111111
 30
0.0
  0
VERTEX
  5
7D7
  8
0
 10
1037.689002435957
 20
367.1635558671949
 30
0.0
  0
VERTEX
  5
7D8
  8
0
 10
1037.376347251571
 20
367.1319415633216
 30
0.0
  0
VERTEX
  5
7D9
  8
0
 10
1037.088202583202
 20
367.0806027194566
 30
0.0
  0
VERTEX
  5
7DA
  8
0
 10
1036.835641668838
 20
367.0115122585742
 30
0.0
  0
VERTEX
  5
7DB
  8
0
 10
1036.628370282758
 20
366.9273252883335
 30
0.0
  0
VERTEX
  5
7DC
  8
0
 10
1036.474353748072
 20
366.8312770667809
 30
0.0
  0
VERTEX
  5
7DD
  8
0
 10
1036.379510833819
 20
366.7270586731979
 30
0.0
  0
VERTEX
  5
7DE
  8
0
 10
1036.3474863
 20
366.6186751619944
 30
0.0
  0
SEQEND
  5
842
  8
0
  0
POLYLINE
  5
1F4
  8
0
 66
     1
 10
0.0
 20
0.0
 30
0.0
  0
VERTEX
  5
7DF
  8
0
 10
1067.52796453
 20
362.6903041519943
 30
0.0
  0
VERTEX
  5
7E0
  8
0
 10
1067.559989061631
 20
362.5819206404696
 30
0.0
  0
VERTEX
  5
7E1
  8
0
 10
1067.654831974065
 20
362.4777022464435
 30
0.0
  0
VERTEX
  5
7E2
  8
0
 10
1067.808848507357
 20
362.3816540243611
 30
0.0
  0
VERTEX
  5
7E3
  8
0
 10
1068.016119892492
 20
362.2974670535411
 30
0.0
  0
VERTEX
  5
7E4
  8
0
 10
1068.268680806362
 20
362.2283765920668
 30
0.0
  0
VERTEX
  5
7E5
  8
0
 10
1068.556825474661
 20
362.1770377476324
 30
0.0
  0
VERTEX
  5
7E6
  8
0
 10
1068.869480659355
 20
362.1454234432427
 30
0.0
  0
VERTEX
  5
7E7
  8
0
 10
1069.194631197008
 20
362.1347485988888
 30
0.0
  0
VERTEX
  5
7E8
  8
0
 10
1069.519781734777
 20
362.1454234428537
 30
0.0
  0
VERTEX
  5
7E9
  8
0
 10
1069.832436919811
 20
362.1770377468692
 30
0.0
  0
VERTEX
  5
7EA
  8
0
 10
1070.120581588663
 20
362.2283765909588
 30
0.0
  0
VERTEX
  5
7EB
  8
0
 10
1070.373142503277
 20
362.2974670521309
 30
0.0
  0
VERTEX
  5
7EC
  8
0
 10
1070.580413889319
 20
362.3816540227029
 30
0.0
  0
VERTEX
  5
7ED
  8
0
 10
1070.734430423646
 20
362.477702244601
 30
0.0
  0
VERTEX
  5
7EE
  8
0
 10
1070.829273337202
 20
362.5819206385136
 30
0.0
  0
VERTEX
  5
7EF
  8
0
 10
1070.86129787
 20
362.69030415
 30
0.0
  0
SEQEND
  5
843
  8
0
  0
POLYLINE
  5
1F5
  8
0
 66
     1
 10
0.0
 20
0.0
 30
0.0
  0
VERTEX
  5
7F0
  8
0
 10
1070.86129787
 20
362.69030415
 30
0.0
  0
VERTEX
  5
7F1
  8
0
 10
1070.829273337348
 20
362.7986876612418
 30
0.0
  0
VERTEX
  5
7F2
  8
0
 10
1070.734430424218
 20
362.9029060549383
 30
0.0
  0
VERTEX
  5
7F3
  8
0
 10
1070.580413890566
 20
362.9989542766752
 30
0.0
  0
VERTEX
  5
7F4
  8
0
 10
1070.373142505392
 20
363.0831412471639
 30
0.0
  0
VERTEX
  5
7F5
  8
0
 10
1070.120581591772
 20
363.1522317083486
 30
0.0
  0
VERTEX
  5
7F6
  8
0
 10
1069.832436923957
 20
363.2035705525583
 30
0.0
  0
VERTEX
  5
7F7
  8
0
 10
1069.519781739911
 20
363.2351848568059
 30
0.0
  0
VERTEX
  5
7F8
  8
0
 10
1069.194631202992
 20
363.2458597011111
 30
0.0
  0
VERTEX
  5
7F9
  8
0
 10
1068.869480665957
 20
363.2351848571949
 30
0.0
  0
VERTEX
  5
7FA
  8
0
 10
1068.556825481571
 20
363.2035705533216
 30
0.0
  0
VERTEX
  5
7FB
  8
0
 10
1068.268680813202
 20
363.1522317094566
 30
0.0
  0
VERTEX
  5
7FC
  8
0
 10
1068.016119898838
 20
363.0831412485741
 30
0.0
  0
VERTEX
  5
7FD
  8
0
 10
1067.808848512758
 20
362.9989542783334
 30
0.0
  0
VERTEX
  5
7FE
  8
0
 10
1067.654831978072
 20
362.9029060567809
 30
0.0
  0
VERTEX
  5
7FF
  8
0
 10
1067.55998906382
 20
362.7986876631978
 30
0.0
  0
VERTEX
  5
800
  8
0
 10
1067.52796453
 20
362.6903041519943
 30
0.0
  0
SEQEND
  5
844
  8
0
  0
POLYLINE
  5
1F6
  8
0
 66
     1
 10
0.0
 20
0.0
 30
0.0
  0
VERTEX
  5
1F7
  8
0
 10
1076.95277728
 20
356.96155865
 30
0.0
  0
VERTEX
  5
1F8
  8
0
 10
1086.38086769
 20
365.27635285
 30
0.0
  0
VERTEX
  5
1F9
  8
0
 10
1086.38086769
 20
364.01927413
 30
0.0
  0
SEQEND
  5
1FA
  8
0
  0
LINE
  5
1FB
  8
0
 10
1076.95277728
 20
355.70447993
 30
0.0
 11
1086.38086769
 21
364.01927413
 31
0.0
  0
LINE
  5
1FC
  8
0
 10
1076.95277728
 20
356.96155865
 30
0.0
 11
1076.95277728
 21
355.70447993
 31
0.0
  0
POLYLINE
  5
1FD
  8
0
 66
     1
 10
0.0
 20
0.0
 30
0.0
  0
VERTEX
  5
1FE
  8
0
 10
1076.95277728
 20
356.96155865
 30
0.0
  0
VERTEX
  5
1FF
  8
0
 10
817.53119846
 20
389.64560543
 30
0.0
  0
VERTEX
  5
200
  8
0
 10
818.15480803
 20
390.19557737
 30
0.0
  0
SEQEND
  5
201
  8
0
  0
LINE
  5
202
  8
0
 10
831.32455583
 20
397.41042768
 30
0.0
 11
1086.38086769
 21
365.27635285
 31
0.0
  0
LINE
  5
203
  8
0
 10
1076.95277728
 20
355.70447993
 30
0.0
 11
817.53119846
 21
388.38852671
 31
0.0
  0
LINE
  5
204
  8
0
  6
STRICHPUNKT2
 62
     1
 10
1069.1946312
 20
363.47597836
 30
0.0
 11
1069.1946312
 21
362.1347486
 31
0.0
  0
LINE
  5
205
  8
0
  6
STRICHPUNKT2
 62
     1
 10
1069.1946312
 20
362.69030415
 30
0.0
 11
1066.85609533
 21
362.98493198
 31
0.0
  0
LINE
  5
206
  8
0
  6
STRICHPUNKT2
 62
     1
 10
1069.1946312
 20
362.69030415
 30
0.0
 11
1071.53316706
 21
362.39567633
 31
0.0
  0
LINE
  5
207
  8
0
  6
STRICHPUNKT2
 62
     1
 10
1069.1946312
 20
362.69030415
 30
0.0
 11
1068.31074772
 21
361.9107922
 31
0.0
  0
LINE
  5
208
  8
0
  6
STRICHPUNKT2
 62
     1
 10
1069.1946312
 20
362.69030415
 30
0.0
 11
1070.07851467
 21
363.46981611
 31
0.0
  0
LINE
  5
209
  8
0
  6
STRICHPUNKT2
 62
     1
 10
1038.01415297
 20
367.40434936
 30
0.0
 11
1038.01415297
 21
366.0631196
 31
0.0
  0
LINE
  5
20A
  8
0
  6
STRICHPUNKT2
 62
     1
 10
1038.01415297
 20
366.61867516
 30
0.0
 11
1035.67561711
 21
366.91330299
 31
0.0
  0
LINE
  5
20B
  8
0
  6
STRICHPUNKT2
 62
     1
 10
1038.01415297
 20
366.61867516
 30
0.0
 11
1040.35268884
 21
366.32404733
 31
0.0
  0
LINE
  5
20C
  8
0
  6
STRICHPUNKT2
 62
     1
 10
1038.01415297
 20
366.61867516
 30
0.0
 11
1037.1302695
 21
365.8391632
 31
0.0
  0
LINE
  5
20D
  8
0
  6
STRICHPUNKT2
 62
     1
 10
1038.01415297
 20
366.61867516
 30
0.0
 11
1038.89803645
 21
367.39818712
 31
0.0
  0
LINE
  5
20E
  8
0
  6
STRICHPUNKT2
 62
     1
 10
1006.83367475
 20
371.33272037
 30
0.0
 11
1006.83367475
 21
369.99149061
 31
0.0
  0
LINE
  5
20F
  8
0
  6
STRICHPUNKT2
 62
     1
 10
1006.83367475
 20
370.54704617
 30
0.0
 11
1004.49513888
 21
370.84167399
 31
0.0
  0
LINE
  5
210
  8
0
  6
STRICHPUNKT2
 62
     1
 10
1006.83367475
 20
370.54704617
 30
0.0
 11
1009.17221062
 21
370.25241834
 31
0.0
  0
LINE
  5
211
  8
0
  6
STRICHPUNKT2
 62
     1
 10
1006.83367475
 20
370.54704617
 30
0.0
 11
1005.94979127
 21
369.76753421
 31
0.0
  0
LINE
  5
212
  8
0
  6
STRICHPUNKT2
 62
     1
 10
1006.83367475
 20
370.54704617
 30
0.0
 11
1007.71755823
 21
371.32655812
 31
0.0
  0
LINE
  5
213
  8
0
  6
STRICHPUNKT2
 62
     1
 10
975.65319653
 20
375.26109137
 30
0.0
 11
975.65319653
 21
373.91986162
 31
0.0
  0
LINE
  5
214
  8
0
  6
STRICHPUNKT2
 62
     1
 10
975.65319653
 20
374.47541717
 30
0.0
 11
973.31466066
 21
374.770045
 31
0.0
  0
LINE
  5
215
  8
0
  6
STRICHPUNKT2
 62
     1
 10
975.65319653
 20
374.47541717
 30
0.0
 11
977.99173239
 21
374.18078935
 31
0.0
  0
LINE
  5
216
  8
0
  6
STRICHPUNKT2
 62
     1
 10
975.65319653
 20
374.47541717
 30
0.0
 11
974.76931305
 21
373.69590522
 31
0.0
  0
LINE
  5
217
  8
0
  6
STRICHPUNKT2
 62
     1
 10
975.65319653
 20
374.47541717
 30
0.0
 11
976.53708
 21
375.25492913
 31
0.0
  0
LINE
  5
218
  8
0
  6
STRICHPUNKT2
 62
     1
 10
944.4727183
 20
379.18946238
 30
0.0
 11
944.4727183
 21
377.84823262
 31
0.0
  0
LINE
  5
219
  8
0
  6
STRICHPUNKT2
 62
     1
 10
944.4727183
 20
378.40378818
 30
0.0
 11
942.13418244
 21
378.69841601
 31
0.0
  0
LINE
  5
21A
  8
0
  6
STRICHPUNKT2
 62
     1
 10
944.4727183
 20
378.40378818
 30
0.0
 11
946.81125417
 21
378.10916035
 31
0.0
  0
LINE
  5
21B
  8
0
  6
STRICHPUNKT2
 62
     1
 10
944.4727183
 20
378.40378818
 30
0.0
 11
943.58883483
 21
377.62427622
 31
0.0
  0
LINE
  5
21C
  8
0
  6
STRICHPUNKT2
 62
     1
 10
944.4727183
 20
378.40378818
 30
0.0
 11
945.35660178
 21
379.18330014
 31
0.0
  0
LINE
  5
21D
  8
0
  6
STRICHPUNKT2
 62
     1
 10
913.29224008
 20
383.11783339
 30
0.0
 11
913.29224008
 21
381.77660363
 31
0.0
  0
LINE
  5
21E
  8
0
  6
STRICHPUNKT2
 62
     1
 10
913.29224008
 20
382.33215919
 30
0.0
 11
910.95370421
 21
382.62678701
 31
0.0
  0
LINE
  5
21F
  8
0
  6
STRICHPUNKT2
 62
     1
 10
913.29224008
 20
382.33215919
 30
0.0
 11
915.63077595
 21
382.03753136
 31
0.0
  0
LINE
  5
220
  8
0
  6
STRICHPUNKT2
 62
     1
 10
913.29224008
 20
382.33215919
 30
0.0
 11
912.4083566
 21
381.55264723
 31
0.0
  0
LINE
  5
221
  8
0
  6
STRICHPUNKT2
 62
     1
 10
913.29224008
 20
382.33215919
 30
0.0
 11
914.17612356
 21
383.11167114
 31
0.0
  0
LINE
  5
222
  8
0
  6
STRICHPUNKT2
 62
     1
 10
882.11176186
 20
387.04620439
 30
0.0
 11
882.11176186
 21
385.70497464
 31
0.0
  0
LINE
  5
223
  8
0
  6
STRICHPUNKT2
 62
     1
 10
882.11176186
 20
386.26053019
 30
0.0
 11
879.77322599
 21
386.55515802
 31
0.0
  0
LINE
  5
224
  8
0
  6
STRICHPUNKT2
 62
     1
 10
882.11176186
 20
386.26053019
 30
0.0
 11
884.45029772
 21
385.96590237
 31
0.0
  0
LINE
  5
225
  8
0
  6
STRICHPUNKT2
 62
     1
 10
882.11176186
 20
386.26053019
 30
0.0
 11
881.22787838
 21
385.48101824
 31
0.0
  0
LINE
  5
226
  8
0
  6
STRICHPUNKT2
 62
     1
 10
882.11176186
 20
386.26053019
 30
0.0
 11
882.99564533
 21
387.04004215
 31
0.0
  0
LINE
  5
227
  8
0
  6
STRICHPUNKT2
 62
     1
 10
850.93128363
 20
390.9745754
 30
0.0
 11
850.93128363
 21
389.63334564
 31
0.0
  0
LINE
  5
228
  8
0
  6
STRICHPUNKT2
 62
     1
 10
850.93128363
 20
390.1889012
 30
0.0
 11
848.59274777
 21
390.48352903
 31
0.0
  0
LINE
  5
229
  8
0
  6
STRICHPUNKT2
 62
     1
 10
850.93128363
 20
390.1889012
 30
0.0
 11
853.2698195
 21
389.89427337
 31
0.0
  0
LINE
  5
22A
  8
0
  6
STRICHPUNKT2
 62
     1
 10
850.93128363
 20
390.1889012
 30
0.0
 11
850.04740016
 21
389.40938924
 31
0.0
  0
LINE
  5
22B
  8
0
  6
STRICHPUNKT2
 62
     1
 10
850.93128363
 20
390.1889012
 30
0.0
 11
851.81516711
 21
390.96841316
 31
0.0
  0
LINE
  5
22C
  8
0
  6
STRICHPUNKT2
 62
     1
 10
1056.55067034
 20
368.03853704
 30
0.0
 11
1056.55067034
 21
366.69730729
 31
0.0
  0
LINE
  5
22D
  8
0
  6
STRICHPUNKT2
 62
     1
 10
1056.55067034
 20
367.25286284
 30
0.0
 11
1054.21213447
 21
367.54749067
 31
0.0
  0
LINE
  5
22E
  8
0
  6
STRICHPUNKT2
 62
     1
 10
1056.55067034
 20
367.25286284
 30
0.0
 11
1058.88920621
 21
366.95823502
 31
0.0
  0
LINE
  5
22F
  8
0
  6
STRICHPUNKT2
 62
     1
 10
1056.55067034
 20
367.25286284
 30
0.0
 11
1055.66678686
 21
366.47335089
 31
0.0
  0
LINE
  5
230
  8
0
  6
STRICHPUNKT2
 62
     1
 10
1056.55067034
 20
367.25286284
 30
0.0
 11
1057.43455382
 21
368.0323748
 31
0.0
  0
LINE
  5
231
  8
0
  6
STRICHPUNKT2
 62
     1
 10
1025.37019212
 20
371.96690805
 30
0.0
 11
1025.37019212
 21
370.62567829
 31
0.0
  0
LINE
  5
232
  8
0
  6
STRICHPUNKT2
 62
     1
 10
1025.37019212
 20
371.18123385
 30
0.0
 11
1023.03165625
 21
371.47586167
 31
0.0
  0
LINE
  5
233
  8
0
  6
STRICHPUNKT2
 62
     1
 10
1025.37019212
 20
371.18123385
 30
0.0
 11
1027.70872798
 21
370.88660602
 31
0.0
  0
LINE
  5
234
  8
0
  6
STRICHPUNKT2
 62
     1
 10
1025.37019212
 20
371.18123385
 30
0.0
 11
1024.48630864
 21
370.40172189
 31
0.0
  0
LINE
  5
235
  8
0
  6
STRICHPUNKT2
 62
     1
 10
1025.37019212
 20
371.18123385
 30
0.0
 11
1026.25407559
 21
371.9607458
 31
0.0
  0
LINE
  5
236
  8
0
  6
STRICHPUNKT2
 62
     1
 10
994.18971389
 20
375.89527906
 30
0.0
 11
994.18971389
 21
374.5540493
 31
0.0
  0
LINE
  5
237
  8
0
  6
STRICHPUNKT2
 62
     1
 10
994.18971389
 20
375.10960486
 30
0.0
 11
991.85117803
 21
375.40423268
 31
0.0
  0
LINE
  5
238
  8
0
  6
STRICHPUNKT2
 62
     1
 10
994.18971389
 20
375.10960486
 30
0.0
 11
996.52824976
 21
374.81497703
 31
0.0
  0
LINE
  5
239
  8
0
  6
STRICHPUNKT2
 62
     1
 10
994.18971389
 20
375.10960486
 30
0.0
 11
993.30583042
 21
374.3300929
 31
0.0
  0
LINE
  5
23A
  8
0
  6
STRICHPUNKT2
 62
     1
 10
994.18971389
 20
375.10960486
 30
0.0
 11
995.07359737
 21
375.88911681
 31
0.0
  0
LINE
  5
23B
  8
0
  6
STRICHPUNKT2
 62
     1
 10
963.00923567
 20
379.82365006
 30
0.0
 11
963.00923567
 21
378.48242031
 31
0.0
  0
LINE
  5
23C
  8
0
  6
STRICHPUNKT2
 62
     1
 10
963.00923567
 20
379.03797586
 30
0.0
 11
960.6706998
 21
379.33260369
 31
0.0
  0
LINE
  5
23D
  8
0
  6
STRICHPUNKT2
 62
     1
 10
963.00923567
 20
379.03797586
 30
0.0
 11
965.34777154
 21
378.74334804
 31
0.0
  0
LINE
  5
23E
  8
0
  6
STRICHPUNKT2
 62
     1
 10
963.00923567
 20
379.03797586
 30
0.0
 11
962.12535219
 21
378.25846391
 31
0.0
  0
LINE
  5
23F
  8
0
  6
STRICHPUNKT2
 62
     1
 10
963.00923567
 20
379.03797586
 30
0.0
 11
963.89311915
 21
379.81748782
 31
0.0
  0
LINE
  5
240
  8
0
  6
STRICHPUNKT2
 62
     1
 10
931.82875745
 20
383.75202107
 30
0.0
 11
931.82875745
 21
382.41079131
 31
0.0
  0
LINE
  5
241
  8
0
  6
STRICHPUNKT2
 62
     1
 10
931.82875745
 20
382.96634687
 30
0.0
 11
929.49022158
 21
383.26097469
 31
0.0
  0
LINE
  5
242
  8
0
  6
STRICHPUNKT2
 62
     1
 10
931.82875745
 20
382.96634687
 30
0.0
 11
934.16729331
 21
382.67171904
 31
0.0
  0
LINE
  5
243
  8
0
  6
STRICHPUNKT2
 62
     1
 10
931.82875745
 20
382.96634687
 30
0.0
 11
930.94487397
 21
382.18683491
 31
0.0
  0
LINE
  5
244
  8
0
  6
STRICHPUNKT2
 62
     1
 10
931.82875745
 20
382.96634687
 30
0.0
 11
932.71264092
 21
383.74585882
 31
0.0
  0
LINE
  5
245
  8
0
  6
STRICHPUNKT2
 62
     1
 10
900.64827922
 20
387.68039208
 30
0.0
 11
900.64827922
 21
386.33916232
 31
0.0
  0
LINE
  5
246
  8
0
  6
STRICHPUNKT2
 62
     1
 10
900.64827922
 20
386.89471788
 30
0.0
 11
898.30974336
 21
387.1893457
 31
0.0
  0
LINE
  5
247
  8
0
  6
STRICHPUNKT2
 62
     1
 10
900.64827922
 20
386.89471788
 30
0.0
 11
902.98681509
 21
386.60009005
 31
0.0
  0
LINE
  5
248
  8
0
  6
STRICHPUNKT2
 62
     1
 10
900.64827922
 20
386.89471788
 30
0.0
 11
899.76439575
 21
386.11520592
 31
0.0
  0
LINE
  5
249
  8
0
  6
STRICHPUNKT2
 62
     1
 10
900.64827922
 20
386.89471788
 30
0.0
 11
901.5321627
 21
387.67422983
 31
0.0
  0
LINE
  5
24A
  8
0
  6
STRICHPUNKT2
 62
     1
 10
869.467801
 20
391.60876308
 30
0.0
 11
869.467801
 21
390.26753333
 31
0.0
  0
LINE
  5
24B
  8
0
  6
STRICHPUNKT2
 62
     1
 10
869.467801
 20
390.82308888
 30
0.0
 11
867.12926513
 21
391.11771671
 31
0.0
  0
LINE
  5
24C
  8
0
  6
STRICHPUNKT2
 62
     1
 10
869.467801
 20
390.82308888
 30
0.0
 11
871.80633687
 21
390.52846106
 31
0.0
  0
LINE
  5
24D
  8
0
  6
STRICHPUNKT2
 62
     1
 10
869.467801
 20
390.82308888
 30
0.0
 11
868.58391752
 21
390.04357693
 31
0.0
  0
LINE
  5
24E
  8
0
  6
STRICHPUNKT2
 62
     1
 10
869.467801
 20
390.82308888
 30
0.0
 11
870.35168448
 21
391.60260084
 31
0.0
  0
LINE
  5
24F
  8
0
  6
STRICHPUNKT2
 62
     1
 10
838.28732278
 20
395.53713409
 30
0.0
 11
838.28732278
 21
394.19590433
 31
0.0
  0
LINE
  5
250
  8
0
  6
STRICHPUNKT2
 62
     1
 10
838.28732278
 20
394.75145989
 30
0.0
 11
835.94878691
 21
395.04608771
 31
0.0
  0
LINE
  5
251
  8
0
  6
STRICHPUNKT2
 62
     1
 10
838.28732278
 20
394.75145989
 30
0.0
 11
840.62585864
 21
394.45683206
 31
0.0
  0
LINE
  5
252
  8
0
  6
STRICHPUNKT2
 62
     1
 10
838.28732278
 20
394.75145989
 30
0.0
 11
837.4034393
 21
393.97194793
 31
0.0
  0
LINE
  5
253
  8
0
  6
STRICHPUNKT2
 62
     1
 10
838.28732278
 20
394.75145989
 30
0.0
 11
839.17120625
 21
395.53097184
 31
0.0
  0
LINE
  5
254
  8
0
  6
STRICHPUNKT2
 62
     1
 10
1050.65811383
 20
362.84179067
 30
0.0
 11
1050.65811383
 21
361.50056092
 31
0.0
  0
LINE
  5
255
  8
0
  6
STRICHPUNKT2
 62
     1
 10
1050.65811383
 20
362.05611647
 30
0.0
 11
1048.31957796
 21
362.3507443
 31
0.0
  0
LINE
  5
256
  8
0
  6
STRICHPUNKT2
 62
     1
 10
1050.65811383
 20
362.05611647
 30
0.0
 11
1052.9966497
 21
361.76148865
 31
0.0
  0
LINE
  5
257
  8
0
  6
STRICHPUNKT2
 62
     1
 10
1050.65811383
 20
362.05611647
 30
0.0
 11
1049.77423035
 21
361.27660452
 31
0.0
  0
LINE
  5
258
  8
0
  6
STRICHPUNKT2
 62
     1
 10
1050.65811383
 20
362.05611647
 30
0.0
 11
1051.54199731
 21
362.83562843
 31
0.0
  0
LINE
  5
259
  8
0
  6
STRICHPUNKT2
 62
     1
 10
1019.47763561
 20
366.77016168
 30
0.0
 11
1019.47763561
 21
365.42893192
 31
0.0
  0
LINE
  5
25A
  8
0
  6
STRICHPUNKT2
 62
     1
 10
1019.47763561
 20
365.98448748
 30
0.0
 11
1017.13909974
 21
366.2791153
 31
0.0
  0
LINE
  5
25B
  8
0
  6
STRICHPUNKT2
 62
     1
 10
1019.47763561
 20
365.98448748
 30
0.0
 11
1021.81617147
 21
365.68985965
 31
0.0
  0
LINE
  5
25C
  8
0
  6
STRICHPUNKT2
 62
     1
 10
1019.47763561
 20
365.98448748
 30
0.0
 11
1018.59375213
 21
365.20497552
 31
0.0
  0
LINE
  5
25D
  8
0
  6
STRICHPUNKT2
 62
     1
 10
1019.47763561
 20
365.98448748
 30
0.0
 11
1020.36151908
 21
366.76399943
 31
0.0
  0
LINE
  5
25E
  8
0
  6
STRICHPUNKT2
 62
     1
 10
988.29715738
 20
370.69853269
 30
0.0
 11
988.29715738
 21
369.35730293
 31
0.0
  0
LINE
  5
25F
  8
0
  6
STRICHPUNKT2
 62
     1
 10
988.29715738
 20
369.91285848
 30
0.0
 11
985.95862152
 21
370.20748631
 31
0.0
  0
LINE
  5
260
  8
0
  6
STRICHPUNKT2
 62
     1
 10
988.29715738
 20
369.91285848
 30
0.0
 11
990.63569325
 21
369.61823066
 31
0.0
  0
LINE
  5
261
  8
0
  6
STRICHPUNKT2
 62
     1
 10
988.29715738
 20
369.91285848
 30
0.0
 11
987.41327391
 21
369.13334653
 31
0.0
  0
LINE
  5
262
  8
0
  6
STRICHPUNKT2
 62
     1
 10
988.29715738
 20
369.91285848
 30
0.0
 11
989.18104086
 21
370.69237044
 31
0.0
  0
LINE
  5
263
  8
0
  6
STRICHPUNKT2
 62
     1
 10
957.11667916
 20
374.62690369
 30
0.0
 11
957.11667916
 21
373.28567394
 31
0.0
  0
LINE
  5
264
  8
0
  6
STRICHPUNKT2
 62
     1
 10
957.11667916
 20
373.84122949
 30
0.0
 11
954.77814329
 21
374.13585732
 31
0.0
  0
LINE
  5
265
  8
0
  6
STRICHPUNKT2
 62
     1
 10
957.11667916
 20
373.84122949
 30
0.0
 11
959.45521503
 21
373.54660167
 31
0.0
  0
LINE
  5
266
  8
0
  6
STRICHPUNKT2
 62
     1
 10
957.11667916
 20
373.84122949
 30
0.0
 11
956.23279568
 21
373.06171754
 31
0.0
  0
LINE
  5
267
  8
0
  6
STRICHPUNKT2
 62
     1
 10
957.11667916
 20
373.84122949
 30
0.0
 11
958.00056264
 21
374.62074145
 31
0.0
  0
LINE
  5
268
  8
0
  6
STRICHPUNKT2
 62
     1
 10
925.93620094
 20
378.5552747
 30
0.0
 11
925.93620094
 21
377.21404494
 31
0.0
  0
LINE
  5
269
  8
0
  6
STRICHPUNKT2
 62
     1
 10
925.93620094
 20
377.7696005
 30
0.0
 11
923.59766507
 21
378.06422832
 31
0.0
  0
LINE
  5
26A
  8
0
  6
STRICHPUNKT2
 62
     1
 10
925.93620094
 20
377.7696005
 30
0.0
 11
928.2747368
 21
377.47497267
 31
0.0
  0
LINE
  5
26B
  8
0
  6
STRICHPUNKT2
 62
     1
 10
925.93620094
 20
377.7696005
 30
0.0
 11
925.05231746
 21
376.99008854
 31
0.0
  0
LINE
  5
26C
  8
0
  6
STRICHPUNKT2
 62
     1
 10
925.93620094
 20
377.7696005
 30
0.0
 11
926.82008441
 21
378.54911245
 31
0.0
  0
LINE
  5
26D
  8
0
  6
STRICHPUNKT2
 62
     1
 10
894.75572271
 20
382.48364571
 30
0.0
 11
894.75572271
 21
381.14241595
 31
0.0
  0
LINE
  5
26E
  8
0
  6
STRICHPUNKT2
 62
     1
 10
894.75572271
 20
381.6979715
 30
0.0
 11
892.41718685
 21
381.99259933
 31
0.0
  0
LINE
  5
26F
  8
0
  6
STRICHPUNKT2
 62
     1
 10
894.75572271
 20
381.6979715
 30
0.0
 11
897.09425858
 21
381.40334368
 31
0.0
  0
LINE
  5
270
  8
0
  6
STRICHPUNKT2
 62
     1
 10
894.75572271
 20
381.6979715
 30
0.0
 11
893.87183924
 21
380.91845955
 31
0.0
  0
LINE
  5
271
  8
0
  6
STRICHPUNKT2
 62
     1
 10
894.75572271
 20
381.6979715
 30
0.0
 11
895.63960619
 21
382.47748346
 31
0.0
  0
LINE
  5
272
  8
0
  6
STRICHPUNKT2
 62
     1
 10
863.57524449
 20
386.41201671
 30
0.0
 11
863.57524449
 21
385.07078696
 31
0.0
  0
LINE
  5
273
  8
0
  6
STRICHPUNKT2
 62
     1
 10
863.57524449
 20
385.62634251
 30
0.0
 11
861.23670862
 21
385.92097034
 31
0.0
  0
LINE
  5
274
  8
0
  6
STRICHPUNKT2
 62
     1
 10
863.57524449
 20
385.62634251
 30
0.0
 11
865.91378036
 21
385.33171469
 31
0.0
  0
LINE
  5
275
  8
0
  6
STRICHPUNKT2
 62
     1
 10
863.57524449
 20
385.62634251
 30
0.0
 11
862.69136101
 21
384.84683056
 31
0.0
  0
LINE
  5
276
  8
0
  6
STRICHPUNKT2
 62
     1
 10
863.57524449
 20
385.62634251
 30
0.0
 11
864.45912797
 21
386.40585447
 31
0.0
  0
LINE
  5
277
  8
0
  6
STRICHPUNKT2
 62
     1
 10
832.39476627
 20
390.34038772
 30
0.0
 11
832.39476627
 21
388.99915796
 31
0.0
  0
LINE
  5
278
  8
0
  6
STRICHPUNKT2
 62
     1
 10
832.39476627
 20
389.55471352
 30
0.0
 11
830.0562304
 21
389.84934134
 31
0.0
  0
LINE
  5
279
  8
0
  6
STRICHPUNKT2
 62
     1
 10
832.39476627
 20
389.55471352
 30
0.0
 11
834.73330213
 21
389.26008569
 31
0.0
  0
LINE
  5
27A
  8
0
  6
STRICHPUNKT2
 62
     1
 10
832.39476627
 20
389.55471352
 30
0.0
 11
831.51088279
 21
388.77520156
 31
0.0
  0
LINE
  5
27B
  8
0
  6
STRICHPUNKT2
 62
     1
 10
832.39476627
 20
389.55471352
 30
0.0
 11
833.27864974
 21
390.33422547
 31
0.0
  0
LINE
  5
27C
  8
0
 10
817.53119846
 20
389.64560543
 30
0.0
 11
818.15480803
 21
390.19557737
 31
0.0
  0
POLYLINE
  5
27D
  8
0
 66
     1
 10
0.0
 20
0.0
 30
0.0
  0
VERTEX
  5
801
  8
0
 10
816.2839793362914
 20
391.0598189910764
 30
0.0
  0
VERTEX
  5
802
  8
0
 10
816.3079443025555
 20
390.8115557983486
 30
0.0
  0
VERTEX
  5
803
  8
0
 10
816.3789182396761
 20
390.5667946170391
 30
0.0
  0
VERTEX
  5
804
  8
0
 10
816.4941736590756
 20
390.3349414820011
 30
0.0
  0
VERTEX
  5
805
  8
0
 10
816.6492813596608
 20
390.1249063791124
 30
0.0
  0
VERTEX
  5
806
  8
0
 10
816.8382806395349
 20
389.9447608395182
 30
0.0
  0
VERTEX
  5
807
  8
0
 10
817.0539083624271
 20
389.8014277552189
 30
0.0
  0
VERTEX
  5
808
  8
0
 10
817.2878780759435
 20
389.7004153362142
 30
0.0
  0
VERTEX
  5
809
  8
0
 10
817.5311984552828
 20
389.6456054330849
 30
0.0
  0
SEQEND
  5
845
  8
0
  0
POLYLINE
  5
27E
  8
0
 66
     1
 10
0.0
 20
0.0
 30
0.0
  0
VERTEX
  5
80A
  8
0
 10
815.0367602055114
 20
391.2169538259167
 30
0.0
  0
VERTEX
  5
80B
  8
0
 10
815.0846901395553
 20
390.7204274393643
 30
0.0
  0
VERTEX
  5
80C
  8
0
 10
815.2266380155253
 20
390.2309050759305
 30
0.0
  0
VERTEX
  5
80D
  8
0
 10
815.4571488562002
 20
389.7671988053524
 30
0.0
  0
VERTEX
  5
80E
  8
0
 10
815.7673642593215
 20
389.3471285994054
 30
0.0
  0
VERTEX
  5
80F
  8
0
 10
816.1453628210206
 20
388.9868375203866
 30
0.0
  0
VERTEX
  5
810
  8
0
 10
816.576618268681
 20
388.7001713522898
 30
0.0
  0
VERTEX
  5
811
  8
0
 10
817.0445576974427
 20
388.4981465150956
 30
0.0
  0
VERTEX
  5
812
  8
0
 10
817.5311984576368
 20
388.3885267099337
 30
0.0
  0
SEQEND
  5
846
  8
0
  0
LINE
  5
27F
  8
0
 10
911.03045838
 20
564.47619401
 30
0.0
 11
904.36379172
 21
564.47619401
 31
0.0
  0
LINE
  5
280
  8
0
 10
904.36379172
 20
533.14286068
 30
0.0
 11
904.36379172
 21
564.47619401
 31
0.0
  0
LINE
  5
281
  8
0
 10
911.03045838
 20
533.14286068
 30
0.0
 11
904.36379172
 21
533.14286068
 31
0.0
  0
LINE
  5
282
  8
0
 10
911.03045838
 20
533.14286068
 30
0.0
 11
911.03045838
 21
564.47619401
 31
0.0
  0
LINE
  5
283
  8
0
  6
STRICHPUNKT2
 62
     1
 10
903.03045838
 20
547.80952734
 30
0.0
 11
902.36379172
 21
547.80952734
 31
0.0
  0
LINE
  5
284
  8
0
  6
STRICHPUNKT2
 62
     1
 10
913.03045838
 20
547.80952734
 30
0.0
 11
911.03045838
 21
547.80952734
 31
0.0
  0
POLYLINE
  5
285
  8
0
 66
     1
 10
0.0
 20
0.0
 30
0.0
  0
VERTEX
  5
286
  8
0
 10
904.36379172
 20
533.80952734
 30
0.0
  0
VERTEX
  5
287
  8
0
 10
904.36379172
 20
564.47619401
 30
0.0
  0
VERTEX
  5
288
  8
0
 10
903.03045838
 20
564.47619401
 30
0.0
  0
SEQEND
  5
289
  8
0
  0
LINE
  5
28A
  8
0
 10
903.03045838
 20
533.80952734
 30
0.0
 11
903.03045838
 21
564.47619401
 31
0.0
  0
LINE
  5
28B
  8
0
  6
STRICHPUNKT2
 62
     1
 10
903.03045838
 20
547.80952734
 30
0.0
 11
901.03045838
 21
547.80952734
 31
0.0
  0
LINE
  5
28C
  8
0
 10
1183.03045838
 20
532.47619401
 30
0.0
 11
905.69712505
 21
532.47619401
 31
0.0
  0
LINE
  5
28D
  8
0
 10
1183.03045838
 20
531.14286068
 30
0.0
 11
905.69712505
 21
531.14286068
 31
0.0
  0
LINE
  5
28E
  8
0
 10
1183.03045838
 20
532.47619401
 30
0.0
 11
1183.03045838
 21
531.14286068
 31
0.0
  0
LINE
  5
28F
  8
0
  6
STRICHPUNKT2
 62
     1
 10
1169.69712505
 20
531.14286068
 30
0.0
 11
1169.69712505
 21
530.30952734
 31
0.0
  0
LINE
  5
290
  8
0
  6
STRICHPUNKT2
 62
     1
 10
1169.69712505
 20
533.30952734
 30
0.0
 11
1169.69712505
 21
532.47619401
 31
0.0
  0
LINE
  5
291
  8
0
  6
STRICHPUNKT2
 62
     1
 10
1153.03045838
 20
531.14286068
 30
0.0
 11
1153.03045838
 21
530.30952734
 31
0.0
  0
LINE
  5
292
  8
0
  6
STRICHPUNKT2
 62
     1
 10
1153.03045838
 20
533.30952734
 30
0.0
 11
1153.03045838
 21
532.47619401
 31
0.0
  0
LINE
  5
293
  8
0
  6
STRICHPUNKT2
 62
     1
 10
1136.36379172
 20
531.14286068
 30
0.0
 11
1136.36379172
 21
530.30952734
 31
0.0
  0
LINE
  5
294
  8
0
  6
STRICHPUNKT2
 62
     1
 10
1136.36379172
 20
533.30952734
 30
0.0
 11
1136.36379172
 21
532.47619401
 31
0.0
  0
LINE
  5
295
  8
0
  6
STRICHPUNKT2
 62
     1
 10
1119.69712505
 20
531.14286068
 30
0.0
 11
1119.69712505
 21
530.30952734
 31
0.0
  0
LINE
  5
296
  8
0
  6
STRICHPUNKT2
 62
     1
 10
1119.69712505
 20
533.30952734
 30
0.0
 11
1119.69712505
 21
532.47619401
 31
0.0
  0
LINE
  5
297
  8
0
  6
STRICHPUNKT2
 62
     1
 10
1086.36379172
 20
531.14286068
 30
0.0
 11
1086.36379172
 21
530.30952734
 31
0.0
  0
LINE
  5
298
  8
0
  6
STRICHPUNKT2
 62
     1
 10
1086.36379172
 20
533.30952734
 30
0.0
 11
1086.36379172
 21
532.47619401
 31
0.0
  0
LINE
  5
299
  8
0
  6
STRICHPUNKT2
 62
     1
 10
1053.03045838
 20
531.14286068
 30
0.0
 11
1053.03045838
 21
530.30952734
 31
0.0
  0
LINE
  5
29A
  8
0
  6
STRICHPUNKT2
 62
     1
 10
1053.03045838
 20
533.30952734
 30
0.0
 11
1053.03045838
 21
532.47619401
 31
0.0
  0
LINE
  5
29B
  8
0
  6
STRICHPUNKT2
 62
     1
 10
1019.69712505
 20
531.14286068
 30
0.0
 11
1019.69712505
 21
530.30952734
 31
0.0
  0
LINE
  5
29C
  8
0
  6
STRICHPUNKT2
 62
     1
 10
1019.69712505
 20
533.30952734
 30
0.0
 11
1019.69712505
 21
532.47619401
 31
0.0
  0
LINE
  5
29D
  8
0
  6
STRICHPUNKT2
 62
     1
 10
986.36379172
 20
531.14286068
 30
0.0
 11
986.36379172
 21
530.30952734
 31
0.0
  0
LINE
  5
29E
  8
0
  6
STRICHPUNKT2
 62
     1
 10
986.36379172
 20
533.30952734
 30
0.0
 11
986.36379172
 21
532.47619401
 31
0.0
  0
LINE
  5
29F
  8
0
  6
STRICHPUNKT2
 62
     1
 10
953.03045838
 20
531.14286068
 30
0.0
 11
953.03045838
 21
530.30952734
 31
0.0
  0
LINE
  5
2A0
  8
0
  6
STRICHPUNKT2
 62
     1
 10
953.03045838
 20
533.30952734
 30
0.0
 11
953.03045838
 21
532.47619401
 31
0.0
  0
LINE
  5
2A1
  8
0
  6
STRICHPUNKT2
 62
     1
 10
919.69712505
 20
531.14286068
 30
0.0
 11
919.69712505
 21
530.30952734
 31
0.0
  0
LINE
  5
2A2
  8
0
  6
STRICHPUNKT2
 62
     1
 10
919.69712505
 20
533.30952734
 30
0.0
 11
919.69712505
 21
532.47619401
 31
0.0
  0
LINE
  5
2A3
  8
0
  6
STRICHPUNKT2
 62
     1
 10
1103.03045838
 20
531.14286068
 30
0.0
 11
1103.03045838
 21
530.30952734
 31
0.0
  0
LINE
  5
2A4
  8
0
  6
STRICHPUNKT2
 62
     1
 10
1103.03045838
 20
533.30952734
 30
0.0
 11
1103.03045838
 21
532.47619401
 31
0.0
  0
LINE
  5
2A5
  8
0
  6
STRICHPUNKT2
 62
     1
 10
936.36379172
 20
531.14286068
 30
0.0
 11
936.36379172
 21
530.30952734
 31
0.0
  0
LINE
  5
2A6
  8
0
  6
STRICHPUNKT2
 62
     1
 10
936.36379172
 20
533.30952734
 30
0.0
 11
936.36379172
 21
532.47619401
 31
0.0
  0
LINE
  5
2A7
  8
0
  6
STRICHPUNKT2
 62
     1
 10
969.69712505
 20
531.14286068
 30
0.0
 11
969.69712505
 21
530.30952734
 31
0.0
  0
LINE
  5
2A8
  8
0
  6
STRICHPUNKT2
 62
     1
 10
969.69712505
 20
533.30952734
 30
0.0
 11
969.69712505
 21
532.47619401
 31
0.0
  0
LINE
  5
2A9
  8
0
  6
STRICHPUNKT2
 62
     1
 10
1003.03045838
 20
531.14286068
 30
0.0
 11
1003.03045838
 21
530.30952734
 31
0.0
  0
LINE
  5
2AA
  8
0
  6
STRICHPUNKT2
 62
     1
 10
1003.03045838
 20
533.30952734
 30
0.0
 11
1003.03045838
 21
532.47619401
 31
0.0
  0
LINE
  5
2AB
  8
0
  6
STRICHPUNKT2
 62
     1
 10
1036.36379172
 20
531.14286068
 30
0.0
 11
1036.36379172
 21
530.30952734
 31
0.0
  0
LINE
  5
2AC
  8
0
  6
STRICHPUNKT2
 62
     1
 10
1036.36379172
 20
533.30952734
 30
0.0
 11
1036.36379172
 21
532.47619401
 31
0.0
  0
LINE
  5
2AD
  8
0
  6
STRICHPUNKT2
 62
     1
 10
1069.69712505
 20
531.14286068
 30
0.0
 11
1069.69712505
 21
530.30952734
 31
0.0
  0
LINE
  5
2AE
  8
0
  6
STRICHPUNKT2
 62
     1
 10
1069.69712505
 20
533.30952734
 30
0.0
 11
1069.69712505
 21
532.47619401
 31
0.0
  0
ARC
  5
2AF
  8
0
 10
905.69712505
 20
533.80952734
 30
0.0
 40
1.33333333
 50
180.0
 51
-90.0
  0
ARC
  5
2B0
  8
0
 10
905.69712505
 20
533.80952734
 30
0.0
 40
2.66666667
 50
180.0
 51
-90.0
  0
CIRCLE
  5
2B1
  8
0
 10
859.80972231
 20
547.80952734
 30
0.0
 40
4.66666667
  0
LINE
  5
2B2
  8
0
 10
873.14305564
 20
533.80952734
 30
0.0
 11
846.47638897
 21
533.80952734
 31
0.0
  0
LINE
  5
2B3
  8
0
 10
846.47638897
 20
564.47619401
 30
0.0
 11
846.47638897
 21
533.80952734
 31
0.0
  0
LINE
  5
2B4
  8
0
 10
873.14305564
 20
564.47619401
 30
0.0
 11
846.47638897
 21
564.47619401
 31
0.0
  0
LINE
  5
2B5
  8
0
 10
873.14305564
 20
533.80952734
 30
0.0
 11
873.14305564
 21
564.47619401
 31
0.0
  0
LINE
  5
2B6
  8
0
  6
STRICHPUNKT2
 62
     1
 10
859.80972231
 20
547.80952734
 30
0.0
 11
866.47638897
 21
547.80952734
 31
0.0
  0
LINE
  5
2B7
  8
0
  6
STRICHPUNKT2
 62
     1
 10
859.80972231
 20
547.80952734
 30
0.0
 11
853.14305564
 21
547.80952734
 31
0.0
  0
LINE
  5
2B8
  8
0
  6
STRICHPUNKT2
 62
     1
 10
859.80972231
 20
547.80952734
 30
0.0
 11
859.80972231
 21
541.14286068
 31
0.0
  0
LINE
  5
2B9
  8
0
  6
STRICHPUNKT2
 62
     1
 10
859.80972231
 20
547.80952734
 30
0.0
 11
859.80972231
 21
554.47619401
 31
0.0
  0
LINE
  5
2BA
  8
0
 10
873.14305564
 20
531.14286068
 30
0.0
 11
846.47638897
 21
531.14286068
 31
0.0
  0
LINE
  5
2BB
  8
0
  6
STRICHPUNKT2
 62
     1
 10
851.47638897
 20
531.14286068
 30
0.0
 11
851.47638897
 21
530.30952734
 31
0.0
  0
LINE
  5
2BC
  8
0
  6
STRICHPUNKT2
 62
     1
 10
868.14305564
 20
531.14286068
 30
0.0
 11
868.14305564
 21
530.30952734
 31
0.0
  0
LINE
  5
2BD
  8
0
  6
STRICHPUNKT2
 62
     1
 10
859.80972231
 20
531.14286068
 30
0.0
 11
859.80972231
 21
530.30952734
 31
0.0
  0
LINE
  5
2BE
  8
0
 10
873.14305564
 20
531.14286068
 30
0.0
 11
846.47638897
 21
531.14286068
 31
0.0
  0
LINE
  5
2BF
  8
0
 10
846.47638897
 20
533.80952734
 30
0.0
 11
846.47638897
 21
531.14286068
 31
0.0
  0
LINE
  5
2C0
  8
0
 10
873.14305564
 20
533.80952734
 30
0.0
 11
846.47638897
 21
533.80952734
 31
0.0
  0
LINE
  5
2C1
  8
0
 10
873.14305564
 20
531.14286068
 30
0.0
 11
873.14305564
 21
533.80952734
 31
0.0
  0
POLYLINE
  5
2C2
  8
0
 66
     1
 10
0.0
 20
0.0
 30
0.0
  0
VERTEX
  5
2C3
  8
0
 10
911.03045838
 20
466.04370965
 30
0.0
  0
VERTEX
  5
2C4
  8
0
 10
904.36379172
 20
466.04370965
 30
0.0
  0
VERTEX
  5
2C5
  8
0
 10
904.36379172
 20
492.71037632
 30
0.0
  0
SEQEND
  5
2C6
  8
0
  0
LINE
  5
2C7
  8
0
 10
911.03045838
 20
492.71037632
 30
0.0
 11
904.36379172
 21
492.71037632
 31
0.0
  0
LINE
  5
2C8
  8
0
 10
911.03045838
 20
466.04370965
 30
0.0
 11
911.03045838
 21
492.71037632
 31
0.0
  0
LINE
  5
2C9
  8
0
  6
STRICHPUNKT2
 62
     1
 10
903.03045838
 20
479.37704299
 30
0.0
 11
902.36379172
 21
479.37704299
 31
0.0
  0
LINE
  5
2CA
  8
0
  6
STRICHPUNKT2
 62
     1
 10
913.03045838
 20
479.37704299
 30
0.0
 11
911.03045838
 21
479.37704299
 31
0.0
  0
POLYLINE
  5
2CB
  8
0
 66
     1
 10
0.0
 20
0.0
 30
0.0
  0
VERTEX
  5
2CC
  8
0
 10
904.36379172
 20
466.04370965
 30
0.0
  0
VERTEX
  5
2CD
  8
0
 10
904.36379172
 20
492.71037632
 30
0.0
  0
VERTEX
  5
2CE
  8
0
 10
903.03045838
 20
492.71037632
 30
0.0
  0
SEQEND
  5
2CF
  8
0
  0
LINE
  5
2D0
  8
0
 10
903.03045838
 20
466.04370965
 30
0.0
 11
903.03045838
 21
492.71037632
 31
0.0
  0
LINE
  5
2D1
  8
0
 10
904.36379172
 20
466.04370965
 30
0.0
 11
903.03045838
 21
466.04370965
 31
0.0
  0
LINE
  5
2D2
  8
0
  6
STRICHPUNKT2
 62
     1
 10
903.03045838
 20
479.37704299
 30
0.0
 11
901.03045838
 21
479.37704299
 31
0.0
  0
CIRCLE
  5
2D3
  8
0
 10
919.69712505
 20
471.04370965
 30
0.0
 40
1.66666667
  0
CIRCLE
  5
2D4
  8
0
 10
953.03045838
 20
471.04370965
 30
0.0
 40
1.66666667
  0
CIRCLE
  5
2D5
  8
0
 10
986.36379172
 20
471.04370965
 30
0.0
 40
1.66666667
  0
CIRCLE
  5
2D6
  8
0
 10
1019.69712505
 20
471.04370965
 30
0.0
 40
1.66666667
  0
CIRCLE
  5
2D7
  8
0
 10
1053.03045838
 20
471.04370965
 30
0.0
 40
1.66666667
  0
CIRCLE
  5
2D8
  8
0
 10
1086.36379172
 20
471.04370965
 30
0.0
 40
1.66666667
  0
CIRCLE
  5
2D9
  8
0
 10
1119.69712505
 20
471.04370965
 30
0.0
 40
1.66666667
  0
CIRCLE
  5
2DA
  8
0
 10
1153.03045838
 20
471.04370965
 30
0.0
 40
1.66666667
  0
CIRCLE
  5
2DB
  8
0
 10
919.69712505
 20
487.71037632
 30
0.0
 40
1.66666667
  0
CIRCLE
  5
2DC
  8
0
 10
953.03045838
 20
487.71037632
 30
0.0
 40
1.66666667
  0
CIRCLE
  5
2DD
  8
0
 10
986.36379172
 20
487.71037632
 30
0.0
 40
1.66666667
  0
CIRCLE
  5
2DE
  8
0
 10
1019.69712505
 20
487.71037632
 30
0.0
 40
1.66666667
  0
CIRCLE
  5
2DF
  8
0
 10
1053.03045838
 20
487.71037632
 30
0.0
 40
1.66666667
  0
CIRCLE
  5
2E0
  8
0
 10
1086.36379172
 20
487.71037632
 30
0.0
 40
1.66666667
  0
CIRCLE
  5
2E1
  8
0
 10
1119.69712505
 20
487.71037632
 30
0.0
 40
1.66666667
  0
CIRCLE
  5
2E2
  8
0
 10
1153.03045838
 20
487.71037632
 30
0.0
 40
1.66666667
  0
CIRCLE
  5
2E3
  8
0
 10
936.36379172
 20
479.37704299
 30
0.0
 40
1.66666667
  0
CIRCLE
  5
2E4
  8
0
 10
969.69712505
 20
479.37704299
 30
0.0
 40
1.66666667
  0
CIRCLE
  5
2E5
  8
0
 10
1003.03045838
 20
479.37704299
 30
0.0
 40
1.66666667
  0
CIRCLE
  5
2E6
  8
0
 10
1036.36379172
 20
479.37704299
 30
0.0
 40
1.66666667
  0
CIRCLE
  5
2E7
  8
0
 10
1069.69712505
 20
479.37704299
 30
0.0
 40
1.66666667
  0
CIRCLE
  5
2E8
  8
0
 10
1103.03045838
 20
479.37704299
 30
0.0
 40
1.66666667
  0
CIRCLE
  5
2E9
  8
0
 10
1136.36379172
 20
479.37704299
 30
0.0
 40
1.66666667
  0
CIRCLE
  5
2EA
  8
0
 10
1169.69712505
 20
479.37704299
 30
0.0
 40
1.66666667
  0
LINE
  5
2EB
  8
0
 10
911.03045838
 20
492.71037632
 30
0.0
 11
1183.03045838
 21
492.71037632
 31
0.0
  0
LINE
  5
2EC
  8
0
 10
1183.03045838
 20
466.04370965
 30
0.0
 11
1183.03045838
 21
492.71037632
 31
0.0
  0
LINE
  5
2ED
  8
0
 10
1183.03045838
 20
466.04370965
 30
0.0
 11
911.03045838
 21
466.04370965
 31
0.0
  0
LINE
  5
2EE
  8
0
  6
STRICHPUNKT2
 62
     1
 10
1169.69712505
 20
479.37704299
 30
0.0
 11
1167.19712505
 21
479.37704299
 31
0.0
  0
LINE
  5
2EF
  8
0
  6
STRICHPUNKT2
 62
     1
 10
1169.69712505
 20
479.37704299
 30
0.0
 11
1172.19712505
 21
479.37704299
 31
0.0
  0
LINE
  5
2F0
  8
0
  6
STRICHPUNKT2
 62
     1
 10
1169.69712505
 20
479.37704299
 30
0.0
 11
1169.69712505
 21
476.87704299
 31
0.0
  0
LINE
  5
2F1
  8
0
  6
STRICHPUNKT2
 62
     1
 10
1169.69712505
 20
479.37704299
 30
0.0
 11
1169.69712505
 21
481.87704299
 31
0.0
  0
LINE
  5
2F2
  8
0
  6
STRICHPUNKT2
 62
     1
 10
1136.36379172
 20
479.37704299
 30
0.0
 11
1133.86379172
 21
479.37704299
 31
0.0
  0
LINE
  5
2F3
  8
0
  6
STRICHPUNKT2
 62
     1
 10
1136.36379172
 20
479.37704299
 30
0.0
 11
1138.86379172
 21
479.37704299
 31
0.0
  0
LINE
  5
2F4
  8
0
  6
STRICHPUNKT2
 62
     1
 10
1136.36379172
 20
479.37704299
 30
0.0
 11
1136.36379172
 21
476.87704299
 31
0.0
  0
LINE
  5
2F5
  8
0
  6
STRICHPUNKT2
 62
     1
 10
1136.36379172
 20
479.37704299
 30
0.0
 11
1136.36379172
 21
481.87704299
 31
0.0
  0
LINE
  5
2F6
  8
0
  6
STRICHPUNKT2
 62
     1
 10
1103.03045838
 20
479.37704299
 30
0.0
 11
1100.53045838
 21
479.37704299
 31
0.0
  0
LINE
  5
2F7
  8
0
  6
STRICHPUNKT2
 62
     1
 10
1103.03045838
 20
479.37704299
 30
0.0
 11
1105.53045838
 21
479.37704299
 31
0.0
  0
LINE
  5
2F8
  8
0
  6
STRICHPUNKT2
 62
     1
 10
1103.03045838
 20
479.37704299
 30
0.0
 11
1103.03045838
 21
476.87704299
 31
0.0
  0
LINE
  5
2F9
  8
0
  6
STRICHPUNKT2
 62
     1
 10
1103.03045838
 20
479.37704299
 30
0.0
 11
1103.03045838
 21
481.87704299
 31
0.0
  0
LINE
  5
2FA
  8
0
  6
STRICHPUNKT2
 62
     1
 10
1069.69712505
 20
479.37704299
 30
0.0
 11
1067.19712505
 21
479.37704299
 31
0.0
  0
LINE
  5
2FB
  8
0
  6
STRICHPUNKT2
 62
     1
 10
1069.69712505
 20
479.37704299
 30
0.0
 11
1072.19712505
 21
479.37704299
 31
0.0
  0
LINE
  5
2FC
  8
0
  6
STRICHPUNKT2
 62
     1
 10
1069.69712505
 20
479.37704299
 30
0.0
 11
1069.69712505
 21
476.87704299
 31
0.0
  0
LINE
  5
2FD
  8
0
  6
STRICHPUNKT2
 62
     1
 10
1069.69712505
 20
479.37704299
 30
0.0
 11
1069.69712505
 21
481.87704299
 31
0.0
  0
LINE
  5
2FE
  8
0
  6
STRICHPUNKT2
 62
     1
 10
1036.36379172
 20
479.37704299
 30
0.0
 11
1033.86379172
 21
479.37704299
 31
0.0
  0
LINE
  5
2FF
  8
0
  6
STRICHPUNKT2
 62
     1
 10
1036.36379172
 20
479.37704299
 30
0.0
 11
1038.86379172
 21
479.37704299
 31
0.0
  0
LINE
  5
300
  8
0
  6
STRICHPUNKT2
 62
     1
 10
1036.36379172
 20
479.37704299
 30
0.0
 11
1036.36379172
 21
476.87704299
 31
0.0
  0
LINE
  5
301
  8
0
  6
STRICHPUNKT2
 62
     1
 10
1036.36379172
 20
479.37704299
 30
0.0
 11
1036.36379172
 21
481.87704299
 31
0.0
  0
LINE
  5
302
  8
0
  6
STRICHPUNKT2
 62
     1
 10
1003.03045838
 20
479.37704299
 30
0.0
 11
1000.53045838
 21
479.37704299
 31
0.0
  0
LINE
  5
303
  8
0
  6
STRICHPUNKT2
 62
     1
 10
1003.03045838
 20
479.37704299
 30
0.0
 11
1005.53045838
 21
479.37704299
 31
0.0
  0
LINE
  5
304
  8
0
  6
STRICHPUNKT2
 62
     1
 10
1003.03045838
 20
479.37704299
 30
0.0
 11
1003.03045838
 21
476.87704299
 31
0.0
  0
LINE
  5
305
  8
0
  6
STRICHPUNKT2
 62
     1
 10
1003.03045838
 20
479.37704299
 30
0.0
 11
1003.03045838
 21
481.87704299
 31
0.0
  0
LINE
  5
306
  8
0
  6
STRICHPUNKT2
 62
     1
 10
969.69712505
 20
479.37704299
 30
0.0
 11
967.19712505
 21
479.37704299
 31
0.0
  0
LINE
  5
307
  8
0
  6
STRICHPUNKT2
 62
     1
 10
969.69712505
 20
479.37704299
 30
0.0
 11
972.19712505
 21
479.37704299
 31
0.0
  0
LINE
  5
308
  8
0
  6
STRICHPUNKT2
 62
     1
 10
969.69712505
 20
479.37704299
 30
0.0
 11
969.69712505
 21
476.87704299
 31
0.0
  0
LINE
  5
309
  8
0
  6
STRICHPUNKT2
 62
     1
 10
969.69712505
 20
479.37704299
 30
0.0
 11
969.69712505
 21
481.87704299
 31
0.0
  0
LINE
  5
30A
  8
0
  6
STRICHPUNKT2
 62
     1
 10
936.36379172
 20
479.37704299
 30
0.0
 11
933.86379172
 21
479.37704299
 31
0.0
  0
LINE
  5
30B
  8
0
  6
STRICHPUNKT2
 62
     1
 10
936.36379172
 20
479.37704299
 30
0.0
 11
938.86379172
 21
479.37704299
 31
0.0
  0
LINE
  5
30C
  8
0
  6
STRICHPUNKT2
 62
     1
 10
936.36379172
 20
479.37704299
 30
0.0
 11
936.36379172
 21
476.87704299
 31
0.0
  0
LINE
  5
30D
  8
0
  6
STRICHPUNKT2
 62
     1
 10
936.36379172
 20
479.37704299
 30
0.0
 11
936.36379172
 21
481.87704299
 31
0.0
  0
LINE
  5
30E
  8
0
  6
STRICHPUNKT2
 62
     1
 10
1153.03045838
 20
487.71037632
 30
0.0
 11
1150.53045838
 21
487.71037632
 31
0.0
  0
LINE
  5
30F
  8
0
  6
STRICHPUNKT2
 62
     1
 10
1153.03045838
 20
487.71037632
 30
0.0
 11
1155.53045838
 21
487.71037632
 31
0.0
  0
LINE
  5
310
  8
0
  6
STRICHPUNKT2
 62
     1
 10
1153.03045838
 20
487.71037632
 30
0.0
 11
1153.03045838
 21
485.21037632
 31
0.0
  0
LINE
  5
311
  8
0
  6
STRICHPUNKT2
 62
     1
 10
1153.03045838
 20
487.71037632
 30
0.0
 11
1153.03045838
 21
490.21037632
 31
0.0
  0
LINE
  5
312
  8
0
  6
STRICHPUNKT2
 62
     1
 10
1119.69712505
 20
487.71037632
 30
0.0
 11
1117.19712505
 21
487.71037632
 31
0.0
  0
LINE
  5
313
  8
0
  6
STRICHPUNKT2
 62
     1
 10
1119.69712505
 20
487.71037632
 30
0.0
 11
1122.19712505
 21
487.71037632
 31
0.0
  0
LINE
  5
314
  8
0
  6
STRICHPUNKT2
 62
     1
 10
1119.69712505
 20
487.71037632
 30
0.0
 11
1119.69712505
 21
485.21037632
 31
0.0
  0
LINE
  5
315
  8
0
  6
STRICHPUNKT2
 62
     1
 10
1119.69712505
 20
487.71037632
 30
0.0
 11
1119.69712505
 21
490.21037632
 31
0.0
  0
LINE
  5
316
  8
0
  6
STRICHPUNKT2
 62
     1
 10
1086.36379172
 20
487.71037632
 30
0.0
 11
1083.86379172
 21
487.71037632
 31
0.0
  0
LINE
  5
317
  8
0
  6
STRICHPUNKT2
 62
     1
 10
1086.36379172
 20
487.71037632
 30
0.0
 11
1088.86379172
 21
487.71037632
 31
0.0
  0
LINE
  5
318
  8
0
  6
STRICHPUNKT2
 62
     1
 10
1086.36379172
 20
487.71037632
 30
0.0
 11
1086.36379172
 21
485.21037632
 31
0.0
  0
LINE
  5
319
  8
0
  6
STRICHPUNKT2
 62
     1
 10
1086.36379172
 20
487.71037632
 30
0.0
 11
1086.36379172
 21
490.21037632
 31
0.0
  0
LINE
  5
31A
  8
0
  6
STRICHPUNKT2
 62
     1
 10
1053.03045838
 20
487.71037632
 30
0.0
 11
1050.53045838
 21
487.71037632
 31
0.0
  0
LINE
  5
31B
  8
0
  6
STRICHPUNKT2
 62
     1
 10
1053.03045838
 20
487.71037632
 30
0.0
 11
1055.53045838
 21
487.71037632
 31
0.0
  0
LINE
  5
31C
  8
0
  6
STRICHPUNKT2
 62
     1
 10
1053.03045838
 20
487.71037632
 30
0.0
 11
1053.03045838
 21
485.21037632
 31
0.0
  0
LINE
  5
31D
  8
0
  6
STRICHPUNKT2
 62
     1
 10
1053.03045838
 20
487.71037632
 30
0.0
 11
1053.03045838
 21
490.21037632
 31
0.0
  0
LINE
  5
31E
  8
0
  6
STRICHPUNKT2
 62
     1
 10
1019.69712505
 20
487.71037632
 30
0.0
 11
1017.19712505
 21
487.71037632
 31
0.0
  0
LINE
  5
31F
  8
0
  6
STRICHPUNKT2
 62
     1
 10
1019.69712505
 20
487.71037632
 30
0.0
 11
1022.19712505
 21
487.71037632
 31
0.0
  0
LINE
  5
320
  8
0
  6
STRICHPUNKT2
 62
     1
 10
1019.69712505
 20
487.71037632
 30
0.0
 11
1019.69712505
 21
485.21037632
 31
0.0
  0
LINE
  5
321
  8
0
  6
STRICHPUNKT2
 62
     1
 10
1019.69712505
 20
487.71037632
 30
0.0
 11
1019.69712505
 21
490.21037632
 31
0.0
  0
LINE
  5
322
  8
0
  6
STRICHPUNKT2
 62
     1
 10
986.36379172
 20
487.71037632
 30
0.0
 11
983.86379172
 21
487.71037632
 31
0.0
  0
LINE
  5
323
  8
0
  6
STRICHPUNKT2
 62
     1
 10
986.36379172
 20
487.71037632
 30
0.0
 11
988.86379172
 21
487.71037632
 31
0.0
  0
LINE
  5
324
  8
0
  6
STRICHPUNKT2
 62
     1
 10
986.36379172
 20
487.71037632
 30
0.0
 11
986.36379172
 21
485.21037632
 31
0.0
  0
LINE
  5
325
  8
0
  6
STRICHPUNKT2
 62
     1
 10
986.36379172
 20
487.71037632
 30
0.0
 11
986.36379172
 21
490.21037632
 31
0.0
  0
LINE
  5
326
  8
0
  6
STRICHPUNKT2
 62
     1
 10
953.03045838
 20
487.71037632
 30
0.0
 11
950.53045838
 21
487.71037632
 31
0.0
  0
LINE
  5
327
  8
0
  6
STRICHPUNKT2
 62
     1
 10
953.03045838
 20
487.71037632
 30
0.0
 11
955.53045838
 21
487.71037632
 31
0.0
  0
LINE
  5
328
  8
0
  6
STRICHPUNKT2
 62
     1
 10
953.03045838
 20
487.71037632
 30
0.0
 11
953.03045838
 21
485.21037632
 31
0.0
  0
LINE
  5
329
  8
0
  6
STRICHPUNKT2
 62
     1
 10
953.03045838
 20
487.71037632
 30
0.0
 11
953.03045838
 21
490.21037632
 31
0.0
  0
LINE
  5
32A
  8
0
  6
STRICHPUNKT2
 62
     1
 10
919.69712505
 20
487.71037632
 30
0.0
 11
917.19712505
 21
487.71037632
 31
0.0
  0
LINE
  5
32B
  8
0
  6
STRICHPUNKT2
 62
     1
 10
919.69712505
 20
487.71037632
 30
0.0
 11
922.19712505
 21
487.71037632
 31
0.0
  0
LINE
  5
32C
  8
0
  6
STRICHPUNKT2
 62
     1
 10
919.69712505
 20
487.71037632
 30
0.0
 11
919.69712505
 21
485.21037632
 31
0.0
  0
LINE
  5
32D
  8
0
  6
STRICHPUNKT2
 62
     1
 10
919.69712505
 20
487.71037632
 30
0.0
 11
919.69712505
 21
490.21037632
 31
0.0
  0
LINE
  5
32E
  8
0
  6
STRICHPUNKT2
 62
     1
 10
1153.03045838
 20
471.04370965
 30
0.0
 11
1150.53045838
 21
471.04370965
 31
0.0
  0
LINE
  5
32F
  8
0
  6
STRICHPUNKT2
 62
     1
 10
1153.03045838
 20
471.04370965
 30
0.0
 11
1155.53045838
 21
471.04370965
 31
0.0
  0
LINE
  5
330
  8
0
  6
STRICHPUNKT2
 62
     1
 10
1153.03045838
 20
471.04370965
 30
0.0
 11
1153.03045838
 21
468.54370965
 31
0.0
  0
LINE
  5
331
  8
0
  6
STRICHPUNKT2
 62
     1
 10
1153.03045838
 20
471.04370965
 30
0.0
 11
1153.03045838
 21
473.54370965
 31
0.0
  0
LINE
  5
332
  8
0
  6
STRICHPUNKT2
 62
     1
 10
1119.69712505
 20
471.04370965
 30
0.0
 11
1117.19712505
 21
471.04370965
 31
0.0
  0
LINE
  5
333
  8
0
  6
STRICHPUNKT2
 62
     1
 10
1119.69712505
 20
471.04370965
 30
0.0
 11
1122.19712505
 21
471.04370965
 31
0.0
  0
LINE
  5
334
  8
0
  6
STRICHPUNKT2
 62
     1
 10
1119.69712505
 20
471.04370965
 30
0.0
 11
1119.69712505
 21
468.54370965
 31
0.0
  0
LINE
  5
335
  8
0
  6
STRICHPUNKT2
 62
     1
 10
1119.69712505
 20
471.04370965
 30
0.0
 11
1119.69712505
 21
473.54370965
 31
0.0
  0
LINE
  5
336
  8
0
  6
STRICHPUNKT2
 62
     1
 10
1086.36379172
 20
471.04370965
 30
0.0
 11
1083.86379172
 21
471.04370965
 31
0.0
  0
LINE
  5
337
  8
0
  6
STRICHPUNKT2
 62
     1
 10
1086.36379172
 20
471.04370965
 30
0.0
 11
1088.86379172
 21
471.04370965
 31
0.0
  0
LINE
  5
338
  8
0
  6
STRICHPUNKT2
 62
     1
 10
1086.36379172
 20
471.04370965
 30
0.0
 11
1086.36379172
 21
468.54370965
 31
0.0
  0
LINE
  5
339
  8
0
  6
STRICHPUNKT2
 62
     1
 10
1086.36379172
 20
471.04370965
 30
0.0
 11
1086.36379172
 21
473.54370965
 31
0.0
  0
LINE
  5
33A
  8
0
  6
STRICHPUNKT2
 62
     1
 10
1053.03045838
 20
471.04370965
 30
0.0
 11
1050.53045838
 21
471.04370965
 31
0.0
  0
LINE
  5
33B
  8
0
  6
STRICHPUNKT2
 62
     1
 10
1053.03045838
 20
471.04370965
 30
0.0
 11
1055.53045838
 21
471.04370965
 31
0.0
  0
LINE
  5
33C
  8
0
  6
STRICHPUNKT2
 62
     1
 10
1053.03045838
 20
471.04370965
 30
0.0
 11
1053.03045838
 21
468.54370965
 31
0.0
  0
LINE
  5
33D
  8
0
  6
STRICHPUNKT2
 62
     1
 10
1053.03045838
 20
471.04370965
 30
0.0
 11
1053.03045838
 21
473.54370965
 31
0.0
  0
LINE
  5
33E
  8
0
  6
STRICHPUNKT2
 62
     1
 10
1019.69712505
 20
471.04370965
 30
0.0
 11
1017.19712505
 21
471.04370965
 31
0.0
  0
LINE
  5
33F
  8
0
  6
STRICHPUNKT2
 62
     1
 10
1019.69712505
 20
471.04370965
 30
0.0
 11
1022.19712505
 21
471.04370965
 31
0.0
  0
LINE
  5
340
  8
0
  6
STRICHPUNKT2
 62
     1
 10
1019.69712505
 20
471.04370965
 30
0.0
 11
1019.69712505
 21
468.54370965
 31
0.0
  0
LINE
  5
341
  8
0
  6
STRICHPUNKT2
 62
     1
 10
1019.69712505
 20
471.04370965
 30
0.0
 11
1019.69712505
 21
473.54370965
 31
0.0
  0
LINE
  5
342
  8
0
  6
STRICHPUNKT2
 62
     1
 10
986.36379172
 20
471.04370965
 30
0.0
 11
983.86379172
 21
471.04370965
 31
0.0
  0
LINE
  5
343
  8
0
  6
STRICHPUNKT2
 62
     1
 10
986.36379172
 20
471.04370965
 30
0.0
 11
988.86379172
 21
471.04370965
 31
0.0
  0
LINE
  5
344
  8
0
  6
STRICHPUNKT2
 62
     1
 10
986.36379172
 20
471.04370965
 30
0.0
 11
986.36379172
 21
468.54370965
 31
0.0
  0
LINE
  5
345
  8
0
  6
STRICHPUNKT2
 62
     1
 10
986.36379172
 20
471.04370965
 30
0.0
 11
986.36379172
 21
473.54370965
 31
0.0
  0
LINE
  5
346
  8
0
  6
STRICHPUNKT2
 62
     1
 10
953.03045838
 20
471.04370965
 30
0.0
 11
950.53045838
 21
471.04370965
 31
0.0
  0
LINE
  5
347
  8
0
  6
STRICHPUNKT2
 62
     1
 10
953.03045838
 20
471.04370965
 30
0.0
 11
955.53045838
 21
471.04370965
 31
0.0
  0
LINE
  5
348
  8
0
  6
STRICHPUNKT2
 62
     1
 10
953.03045838
 20
471.04370965
 30
0.0
 11
953.03045838
 21
468.54370965
 31
0.0
  0
LINE
  5
349
  8
0
  6
STRICHPUNKT2
 62
     1
 10
953.03045838
 20
471.04370965
 30
0.0
 11
953.03045838
 21
473.54370965
 31
0.0
  0
LINE
  5
34A
  8
0
  6
STRICHPUNKT2
 62
     1
 10
919.69712505
 20
471.04370965
 30
0.0
 11
917.19712505
 21
471.04370965
 31
0.0
  0
LINE
  5
34B
  8
0
  6
STRICHPUNKT2
 62
     1
 10
919.69712505
 20
471.04370965
 30
0.0
 11
922.19712505
 21
471.04370965
 31
0.0
  0
LINE
  5
34C
  8
0
  6
STRICHPUNKT2
 62
     1
 10
919.69712505
 20
471.04370965
 30
0.0
 11
919.69712505
 21
468.54370965
 31
0.0
  0
LINE
  5
34D
  8
0
  6
STRICHPUNKT2
 62
     1
 10
919.69712505
 20
471.04370965
 30
0.0
 11
919.69712505
 21
473.54370965
 31
0.0
  0
TEXT
  5
34E
  8
TXT_DIM49
 10
892.53023438
 20
545.88969189
 30
0.0
 40
2.5
  1
50
 50
90.00020741
  7
ARIAL
  0
LINE
  5
34F
  8
0
 62
     4
 10
895.03023438
 20
563.47619401
 30
0.0
 11
893.03023438
 21
565.47619401
 31
0.0
  0
LINE
  5
350
  8
0
 62
     4
 10
893.28023438
 20
531.89286068
 30
0.0
 11
894.78023438
 21
530.39286068
 31
0.0
  0
LINE
  5
351
  8
0
 62
     4
 10
894.03023438
 20
564.47619401
 30
0.0
 11
894.03023438
 21
531.14286068
 31
0.0
  0
LINE
  5
352
  8
0
 62
     4
 10
896.03023438
 20
564.47619401
 30
0.0
 11
892.03023438
 21
564.47619401
 31
0.0
  0
LINE
  5
353
  8
0
 62
     4
 10
896.03023438
 20
531.14286068
 30
0.0
 11
892.03023438
 21
531.14286068
 31
0.0
  0
TEXT
  5
354
  8
TXT_DIM49
 10
905.7772896
 20
574.309551
 30
0.0
 40
2.5
  1
10
  7
ARIAL
  0
LINE
  5
355
  8
0
 62
     4
 10
910.03045838
 20
571.809551
 30
0.0
 11
912.03045838
 21
573.809551
 31
0.0
  0
LINE
  5
356
  8
0
 62
     4
 10
905.11379172
 20
573.559551
 30
0.0
 11
903.61379172
 21
572.059551
 31
0.0
  0
LINE
  5
357
  8
0
 62
     4
 10
911.03045838
 20
572.809551
 30
0.0
 11
904.36379172
 21
572.809551
 31
0.0
  0
LINE
  5
358
  8
0
 62
     4
 10
911.03045838
 20
570.809551
 30
0.0
 11
911.03045838
 21
574.809551
 31
0.0
  0
LINE
  5
359
  8
0
 62
     4
 10
904.36379172
 20
570.809551
 30
0.0
 11
904.36379172
 21
574.809551
 31
0.0
  0
TEXT
  5
35A
  8
TXT_DIM49
 10
902.73720732
 20
567.53207428
 30
0.0
 40
2.5
  1
2
  7
ARIAL
  0
LINE
  5
35B
  8
0
 62
     4
 10
903.36379172
 20
565.03207428
 30
0.0
 11
905.36379172
 21
567.03207428
 31
0.0
  0
LINE
  5
35C
  8
0
 62
     4
 10
903.78045838
 20
566.78207428
 30
0.0
 11
902.28045838
 21
565.28207428
 31
0.0
  0
LINE
  5
35D
  8
0
 62
     4
 10
904.36379172
 20
566.03207428
 30
0.0
 11
903.03045838
 21
566.03207428
 31
0.0
  0
LINE
  5
35E
  8
0
 62
     4
 10
904.36379172
 20
564.47619401
 30
0.0
 11
904.36379172
 21
568.03207428
 31
0.0
  0
LINE
  5
35F
  8
0
 62
     4
 10
903.03045838
 20
564.47619401
 30
0.0
 11
903.03045838
 21
568.03207428
 31
0.0
  0
TEXT
  5
360
  8
TXT_DIM49
 10
1040.15070527
 20
523.07007901
 30
0.0
 40
2.5
  1
420
  7
ARIAL
  0
LINE
  5
361
  8
0
 62
     4
 10
904.03045838
 20
522.57007901
 30
0.0
 11
902.03045838
 21
520.57007901
 31
0.0
  0
LINE
  5
362
  8
0
 62
     4
 10
1182.28045838
 20
520.82007901
 30
0.0
 11
1183.78045838
 21
522.32007901
 31
0.0
  0
LINE
  5
363
  8
0
 62
     4
 10
903.03045838
 20
521.57007901
 30
0.0
 11
1183.03045838
 21
521.57007901
 31
0.0
  0
LINE
  5
364
  8
0
 62
     4
 10
903.03045838
 20
523.57007901
 30
0.0
 11
903.03045838
 21
519.57007901
 31
0.0
  0
LINE
  5
365
  8
0
 62
     4
 10
1183.03045838
 20
523.57007901
 30
0.0
 11
1183.03045838
 21
519.57007901
 31
0.0
  0
TEXT
  5
366
  8
TXT_DIM49
 10
1187.39834037
 20
530.84960962
 30
0.0
 40
2.5
  1
2
 50
90.00020741
  7
ARIAL
  0
LINE
  5
367
  8
0
 62
     4
 10
1187.89834037
 20
532.14286068
 30
0.0
 11
1189.89834037
 21
530.14286068
 31
0.0
  0
LINE
  5
368
  8
0
 62
     4
 10
1189.64834037
 20
531.72619401
 30
0.0
 11
1188.14834037
 21
533.22619401
 31
0.0
  0
LINE
  5
369
  8
0
 62
     4
 10
1188.89834037
 20
531.14286068
 30
0.0
 11
1188.89834037
 21
532.47619401
 31
0.0
  0
LINE
  5
36A
  8
0
 62
     4
 10
1186.89834037
 20
531.14286068
 30
0.0
 11
1190.89834037
 21
531.14286068
 31
0.0
  0
LINE
  5
36B
  8
0
 62
     4
 10
1186.89834037
 20
532.47619401
 30
0.0
 11
1190.89834037
 21
532.47619401
 31
0.0
  0
TEXT
  5
36C
  8
TXT_DIM49
 10
916.47552429
 20
546.88969189
 30
0.0
 40
2.5
  1
47
 50
90.00020741
  7
ARIAL
  0
LINE
  5
36D
  8
0
 62
     4
 10
918.97552429
 20
563.47619401
 30
0.0
 11
916.97552429
 21
565.47619401
 31
0.0
  0
LINE
  5
36E
  8
0
 62
     4
 10
917.22552429
 20
533.89286068
 30
0.0
 11
918.72552429
 21
532.39286068
 31
0.0
  0
LINE
  5
36F
  8
0
 62
     4
 10
917.97552429
 20
564.47619401
 30
0.0
 11
917.97552429
 21
533.14286068
 31
0.0
  0
LINE
  5
370
  8
0
 62
     4
 10
915.97552429
 20
564.47619401
 30
0.0
 11
919.97552429
 21
564.47619401
 31
0.0
  0
LINE
  5
371
  8
0
 62
     4
 10
915.97552429
 20
533.14286068
 30
0.0
 11
919.97552429
 21
533.14286068
 31
0.0
  0
TEXT
  5
372
  8
TXT_DIM49
 10
864.55655353
 20
570.04151257
 30
0.0
 40
2.5
  1
20
  7
ARIAL
  0
LINE
  5
373
  8
0
 62
     4
 10
872.14305564
 20
567.54151257
 30
0.0
 11
874.14305564
 21
569.54151257
 31
0.0
  0
LINE
  5
374
  8
0
 62
     4
 10
860.55972231
 20
569.29151257
 30
0.0
 11
859.05972231
 21
567.79151257
 31
0.0
  0
LINE
  5
375
  8
0
 62
     4
 10
873.14305564
 20
568.54151257
 30
0.0
 11
859.80972231
 21
568.54151257
 31
0.0
  0
LINE
  5
376
  8
0
 62
     4
 10
873.14305564
 20
566.54151257
 30
0.0
 11
873.14305564
 21
570.54151257
 31
0.0
  0
LINE
  5
377
  8
0
 62
     4
 10
859.80972231
 20
566.54151257
 30
0.0
 11
859.80972231
 21
570.54151257
 31
0.0
  0
TEXT
  5
378
  8
TXT_DIM49
 10
851.22322019
 20
570.04151257
 30
0.0
 40
2.5
  1
20
  7
ARIAL
  0
LINE
  5
379
  8
0
 62
     4
 10
858.80972231
 20
567.54151257
 30
0.0
 11
860.80972231
 21
569.54151257
 31
0.0
  0
LINE
  5
37A
  8
0
 62
     4
 10
847.22638897
 20
569.29151257
 30
0.0
 11
845.72638897
 21
567.79151257
 31
0.0
  0
LINE
  5
37B
  8
0
 62
     4
 10
859.80972231
 20
568.54151257
 30
0.0
 11
846.47638897
 21
568.54151257
 31
0.0
  0
LINE
  5
37C
  8
0
 62
     4
 10
859.80972231
 20
566.54151257
 30
0.0
 11
859.80972231
 21
570.54151257
 31
0.0
  0
LINE
  5
37D
  8
0
 62
     4
 10
846.47638897
 20
566.54151257
 30
0.0
 11
846.47638897
 21
570.54151257
 31
0.0
  0
TEXT
  5
37E
  8
TXT_DIM49
 10
837.01261545
 20
554.22302523
 30
0.0
 40
2.5
  1
25
 50
90.00020741
  7
ARIAL
  0
LINE
  5
37F
  8
0
 62
     4
 10
839.51261545
 20
563.47619401
 30
0.0
 11
837.51261545
 21
565.47619401
 31
0.0
  0
LINE
  5
380
  8
0
 62
     4
 10
837.76261545
 20
548.55952734
 30
0.0
 11
839.26261545
 21
547.05952734
 31
0.0
  0
LINE
  5
381
  8
0
 62
     4
 10
838.51261545
 20
564.47619401
 30
0.0
 11
838.51261545
 21
547.80952734
 31
0.0
  0
LINE
  5
382
  8
0
 62
     4
 10
840.51261545
 20
564.47619401
 30
0.0
 11
836.51261545
 21
564.47619401
 31
0.0
  0
LINE
  5
383
  8
0
 62
     4
 10
840.51261545
 20
547.80952734
 30
0.0
 11
836.51261545
 21
547.80952734
 31
0.0
  0
TEXT
  5
384
  8
TXT_DIM49
 10
837.01261545
 20
538.88969189
 30
0.0
 40
2.5
  1
21
 50
90.00020741
  7
ARIAL
  0
LINE
  5
385
  8
0
 62
     4
 10
839.51261545
 20
546.80952734
 30
0.0
 11
837.51261545
 21
548.80952734
 31
0.0
  0
LINE
  5
386
  8
0
 62
     4
 10
837.76261545
 20
534.55952734
 30
0.0
 11
839.26261545
 21
533.05952734
 31
0.0
  0
LINE
  5
387
  8
0
 62
     4
 10
838.51261545
 20
547.80952734
 30
0.0
 11
838.51261545
 21
533.80952734
 31
0.0
  0
LINE
  5
388
  8
0
 62
     4
 10
840.51261545
 20
547.80952734
 30
0.0
 11
836.51261545
 21
547.80952734
 31
0.0
  0
LINE
  5
389
  8
0
 62
     4
 10
840.51261545
 20
533.80952734
 30
0.0
 11
836.51261545
 21
533.80952734
 31
0.0
  0
TEXT
  5
38A
  8
TXT_DIM49
 10
837.01261545
 20
531.51627628
 30
0.0
 40
2.5
  1
4
 50
90.00020741
  7
ARIAL
  0
LINE
  5
38B
  8
0
 62
     4
 10
839.51261545
 20
532.80952734
 30
0.0
 11
837.51261545
 21
534.80952734
 31
0.0
  0
LINE
  5
38C
  8
0
 62
     4
 10
837.76261545
 20
531.89286068
 30
0.0
 11
839.26261545
 21
530.39286068
 31
0.0
  0
LINE
  5
38D
  8
0
 62
     4
 10
838.51261545
 20
533.80952734
 30
0.0
 11
838.51261545
 21
531.14286068
 31
0.0
  0
LINE
  5
38E
  8
0
 62
     4
 10
840.51261545
 20
533.80952734
 30
0.0
 11
836.51261545
 21
533.80952734
 31
0.0
  0
LINE
  5
38F
  8
0
 62
     4
 10
840.51261545
 20
531.14286068
 30
0.0
 11
836.51261545
 21
531.14286068
 31
0.0
  0
LINE
  5
390
  8
0
 62
     5
 10
859.80972231
 20
552.47619401
 30
0.0
 11
857.31283108
 21
555.26287013
 31
0.0
  0
TEXT
  5
391
  8
TXT_DIM49
 10
850.78808729
 20
554.01287013
 30
0.0
 40
2.5
  1
Ø14
  7
ARIAL
  0
TEXT
  5
392
  8
TXT_DIM49
 10
1174.44395627
 20
498.39977781
 30
0.0
 40
2.5
  1
20
  7
ARIAL
  0
LINE
  5
393
  8
0
 62
     4
 10
1182.03045838
 20
495.89977781
 30
0.0
 11
1184.03045838
 21
497.89977781
 31
0.0
  0
LINE
  5
394
  8
0
 62
     4
 10
1170.44712505
 20
497.64977781
 30
0.0
 11
1168.94712505
 21
496.14977781
 31
0.0
  0
LINE
  5
395
  8
0
 62
     4
 10
1183.03045838
 20
496.89977781
 30
0.0
 11
1169.69712505
 21
496.89977781
 31
0.0
  0
LINE
  5
396
  8
0
 62
     4
 10
1183.03045838
 20
494.89977781
 30
0.0
 11
1183.03045838
 21
498.89977781
 31
0.0
  0
LINE
  5
397
  8
0
 62
     4
 10
1169.69712505
 20
494.89977781
 30
0.0
 11
1169.69712505
 21
498.89977781
 31
0.0
  0
TEXT
  5
398
  8
TXT_DIM49
 10
1159.44395627
 20
498.39977781
 30
0.0
 40
2.5
  1
25
  7
ARIAL
  0
LINE
  5
399
  8
0
 62
     4
 10
1168.69712505
 20
495.89977781
 30
0.0
 11
1170.69712505
 21
497.89977781
 31
0.0
  0
LINE
  5
39A
  8
0
 62
     4
 10
1153.78045838
 20
497.64977781
 30
0.0
 11
1152.28045838
 21
496.14977781
 31
0.0
  0
LINE
  5
39B
  8
0
 62
     4
 10
1169.69712505
 20
496.89977781
 30
0.0
 11
1153.03045838
 21
496.89977781
 31
0.0
  0
LINE
  5
39C
  8
0
 62
     4
 10
1169.69712505
 20
494.89977781
 30
0.0
 11
1169.69712505
 21
498.89977781
 31
0.0
  0
LINE
  5
39D
  8
0
 62
     4
 10
1153.03045838
 20
494.89977781
 30
0.0
 11
1153.03045838
 21
498.89977781
 31
0.0
  0
TEXT
  5
39E
  8
TXT_DIM49
 10
1142.7772896
 20
498.39977781
 30
0.0
 40
2.5
  1
25
  7
ARIAL
  0
LINE
  5
39F
  8
0
 62
     4
 10
1152.03045838
 20
495.89977781
 30
0.0
 11
1154.03045838
 21
497.89977781
 31
0.0
  0
LINE
  5
3A0
  8
0
 62
     4
 10
1137.11379172
 20
497.64977781
 30
0.0
 11
1135.61379172
 21
496.14977781
 31
0.0
  0
LINE
  5
3A1
  8
0
 62
     4
 10
1153.03045838
 20
496.89977781
 30
0.0
 11
1136.36379172
 21
496.89977781
 31
0.0
  0
LINE
  5
3A2
  8
0
 62
     4
 10
1153.03045838
 20
494.89977781
 30
0.0
 11
1153.03045838
 21
498.89977781
 31
0.0
  0
LINE
  5
3A3
  8
0
 62
     4
 10
1136.36379172
 20
494.89977781
 30
0.0
 11
1136.36379172
 21
498.89977781
 31
0.0
  0
TEXT
  5
3A4
  8
TXT_DIM49
 10
1126.11062293
 20
498.39977781
 30
0.0
 40
2.5
  1
25
  7
ARIAL
  0
LINE
  5
3A5
  8
0
 62
     4
 10
1135.36379172
 20
495.89977781
 30
0.0
 11
1137.36379172
 21
497.89977781
 31
0.0
  0
LINE
  5
3A6
  8
0
 62
     4
 10
1120.44712505
 20
497.64977781
 30
0.0
 11
1118.94712505
 21
496.14977781
 31
0.0
  0
LINE
  5
3A7
  8
0
 62
     4
 10
1136.36379172
 20
496.89977781
 30
0.0
 11
1119.69712505
 21
496.89977781
 31
0.0
  0
LINE
  5
3A8
  8
0
 62
     4
 10
1136.36379172
 20
494.89977781
 30
0.0
 11
1136.36379172
 21
498.89977781
 31
0.0
  0
LINE
  5
3A9
  8
0
 62
     4
 10
1119.69712505
 20
494.89977781
 30
0.0
 11
1119.69712505
 21
498.89977781
 31
0.0
  0
TEXT
  5
3AA
  8
TXT_DIM49
 10
1109.44395627
 20
498.39977781
 30
0.0
 40
2.5
  1
25
  7
ARIAL
  0
LINE
  5
3AB
  8
0
 62
     4
 10
1118.69712505
 20
495.89977781
 30
0.0
 11
1120.69712505
 21
497.89977781
 31
0.0
  0
LINE
  5
3AC
  8
0
 62
     4
 10
1103.78045838
 20
497.64977781
 30
0.0
 11
1102.28045838
 21
496.14977781
 31
0.0
  0
LINE
  5
3AD
  8
0
 62
     4
 10
1119.69712505
 20
496.89977781
 30
0.0
 11
1103.03045838
 21
496.89977781
 31
0.0
  0
LINE
  5
3AE
  8
0
 62
     4
 10
1119.69712505
 20
494.89977781
 30
0.0
 11
1119.69712505
 21
498.89977781
 31
0.0
  0
LINE
  5
3AF
  8
0
 62
     4
 10
1103.03045838
 20
494.89977781
 30
0.0
 11
1103.03045838
 21
498.89977781
 31
0.0
  0
TEXT
  5
3B0
  8
TXT_DIM49
 10
1092.7772896
 20
498.39977781
 30
0.0
 40
2.5
  1
25
  7
ARIAL
  0
LINE
  5
3B1
  8
0
 62
     4
 10
1102.03045838
 20
495.89977781
 30
0.0
 11
1104.03045838
 21
497.89977781
 31
0.0
  0
LINE
  5
3B2
  8
0
 62
     4
 10
1087.11379172
 20
497.64977781
 30
0.0
 11
1085.61379172
 21
496.14977781
 31
0.0
  0
LINE
  5
3B3
  8
0
 62
     4
 10
1103.03045838
 20
496.89977781
 30
0.0
 11
1086.36379172
 21
496.89977781
 31
0.0
  0
LINE
  5
3B4
  8
0
 62
     4
 10
1103.03045838
 20
494.89977781
 30
0.0
 11
1103.03045838
 21
498.89977781
 31
0.0
  0
LINE
  5
3B5
  8
0
 62
     4
 10
1086.36379172
 20
494.89977781
 30
0.0
 11
1086.36379172
 21
498.89977781
 31
0.0
  0
TEXT
  5
3B6
  8
TXT_DIM49
 10
1076.11062293
 20
498.39977781
 30
0.0
 40
2.5
  1
25
  7
ARIAL
  0
LINE
  5
3B7
  8
0
 62
     4
 10
1085.36379172
 20
495.89977781
 30
0.0
 11
1087.36379172
 21
497.89977781
 31
0.0
  0
LINE
  5
3B8
  8
0
 62
     4
 10
1070.44712505
 20
497.64977781
 30
0.0
 11
1068.94712505
 21
496.14977781
 31
0.0
  0
LINE
  5
3B9
  8
0
 62
     4
 10
1086.36379172
 20
496.89977781
 30
0.0
 11
1069.69712505
 21
496.89977781
 31
0.0
  0
LINE
  5
3BA
  8
0
 62
     4
 10
1086.36379172
 20
494.89977781
 30
0.0
 11
1086.36379172
 21
498.89977781
 31
0.0
  0
LINE
  5
3BB
  8
0
 62
     4
 10
1069.69712505
 20
494.89977781
 30
0.0
 11
1069.69712505
 21
498.89977781
 31
0.0
  0
TEXT
  5
3BC
  8
TXT_DIM49
 10
1059.44395627
 20
498.39977781
 30
0.0
 40
2.5
  1
25
  7
ARIAL
  0
LINE
  5
3BD
  8
0
 62
     4
 10
1068.69712505
 20
495.89977781
 30
0.0
 11
1070.69712505
 21
497.89977781
 31
0.0
  0
LINE
  5
3BE
  8
0
 62
     4
 10
1053.78045838
 20
497.64977781
 30
0.0
 11
1052.28045838
 21
496.14977781
 31
0.0
  0
LINE
  5
3BF
  8
0
 62
     4
 10
1069.69712505
 20
496.89977781
 30
0.0
 11
1053.03045838
 21
496.89977781
 31
0.0
  0
LINE
  5
3C0
  8
0
 62
     4
 10
1069.69712505
 20
494.89977781
 30
0.0
 11
1069.69712505
 21
498.89977781
 31
0.0
  0
LINE
  5
3C1
  8
0
 62
     4
 10
1053.03045838
 20
494.89977781
 30
0.0
 11
1053.03045838
 21
498.89977781
 31
0.0
  0
TEXT
  5
3C2
  8
TXT_DIM49
 10
1042.7772896
 20
498.39977781
 30
0.0
 40
2.5
  1
25
  7
ARIAL
  0
LINE
  5
3C3
  8
0
 62
     4
 10
1052.03045838
 20
495.89977781
 30
0.0
 11
1054.03045838
 21
497.89977781
 31
0.0
  0
LINE
  5
3C4
  8
0
 62
     4
 10
1037.11379172
 20
497.64977781
 30
0.0
 11
1035.61379172
 21
496.14977781
 31
0.0
  0
LINE
  5
3C5
  8
0
 62
     4
 10
1053.03045838
 20
496.89977781
 30
0.0
 11
1036.36379172
 21
496.89977781
 31
0.0
  0
LINE
  5
3C6
  8
0
 62
     4
 10
1053.03045838
 20
494.89977781
 30
0.0
 11
1053.03045838
 21
498.89977781
 31
0.0
  0
LINE
  5
3C7
  8
0
 62
     4
 10
1036.36379172
 20
494.89977781
 30
0.0
 11
1036.36379172
 21
498.89977781
 31
0.0
  0
TEXT
  5
3C8
  8
TXT_DIM49
 10
1026.11062293
 20
498.39977781
 30
0.0
 40
2.5
  1
25
  7
ARIAL
  0
LINE
  5
3C9
  8
0
 62
     4
 10
1035.36379172
 20
495.89977781
 30
0.0
 11
1037.36379172
 21
497.89977781
 31
0.0
  0
LINE
  5
3CA
  8
0
 62
     4
 10
1020.44712505
 20
497.64977781
 30
0.0
 11
1018.94712505
 21
496.14977781
 31
0.0
  0
LINE
  5
3CB
  8
0
 62
     4
 10
1036.36379172
 20
496.89977781
 30
0.0
 11
1019.69712505
 21
496.89977781
 31
0.0
  0
LINE
  5
3CC
  8
0
 62
     4
 10
1036.36379172
 20
494.89977781
 30
0.0
 11
1036.36379172
 21
498.89977781
 31
0.0
  0
LINE
  5
3CD
  8
0
 62
     4
 10
1019.69712505
 20
494.89977781
 30
0.0
 11
1019.69712505
 21
498.89977781
 31
0.0
  0
TEXT
  5
3CE
  8
TXT_DIM49
 10
1009.44395627
 20
498.39977781
 30
0.0
 40
2.5
  1
25
  7
ARIAL
  0
LINE
  5
3CF
  8
0
 62
     4
 10
1018.69712505
 20
495.89977781
 30
0.0
 11
1020.69712505
 21
497.89977781
 31
0.0
  0
LINE
  5
3D0
  8
0
 62
     4
 10
1003.78045838
 20
497.64977781
 30
0.0
 11
1002.28045838
 21
496.14977781
 31
0.0
  0
LINE
  5
3D1
  8
0
 62
     4
 10
1019.69712505
 20
496.89977781
 30
0.0
 11
1003.03045838
 21
496.89977781
 31
0.0
  0
LINE
  5
3D2
  8
0
 62
     4
 10
1019.69712505
 20
494.89977781
 30
0.0
 11
1019.69712505
 21
498.89977781
 31
0.0
  0
LINE
  5
3D3
  8
0
 62
     4
 10
1003.03045838
 20
494.89977781
 30
0.0
 11
1003.03045838
 21
498.89977781
 31
0.0
  0
TEXT
  5
3D4
  8
TXT_DIM49
 10
992.7772896
 20
498.39977781
 30
0.0
 40
2.5
  1
25
  7
ARIAL
  0
LINE
  5
3D5
  8
0
 62
     4
 10
1002.03045838
 20
495.89977781
 30
0.0
 11
1004.03045838
 21
497.89977781
 31
0.0
  0
LINE
  5
3D6
  8
0
 62
     4
 10
987.11379172
 20
497.64977781
 30
0.0
 11
985.61379172
 21
496.14977781
 31
0.0
  0
LINE
  5
3D7
  8
0
 62
     4
 10
1003.03045838
 20
496.89977781
 30
0.0
 11
986.36379172
 21
496.89977781
 31
0.0
  0
LINE
  5
3D8
  8
0
 62
     4
 10
1003.03045838
 20
494.89977781
 30
0.0
 11
1003.03045838
 21
498.89977781
 31
0.0
  0
LINE
  5
3D9
  8
0
 62
     4
 10
986.36379172
 20
494.89977781
 30
0.0
 11
986.36379172
 21
498.89977781
 31
0.0
  0
TEXT
  5
3DA
  8
TXT_DIM49
 10
976.11062293
 20
498.39977781
 30
0.0
 40
2.5
  1
25
  7
ARIAL
  0
LINE
  5
3DB
  8
0
 62
     4
 10
985.36379172
 20
495.89977781
 30
0.0
 11
987.36379172
 21
497.89977781
 31
0.0
  0
LINE
  5
3DC
  8
0
 62
     4
 10
970.44712505
 20
497.64977781
 30
0.0
 11
968.94712505
 21
496.14977781
 31
0.0
  0
LINE
  5
3DD
  8
0
 62
     4
 10
986.36379172
 20
496.89977781
 30
0.0
 11
969.69712505
 21
496.89977781
 31
0.0
  0
LINE
  5
3DE
  8
0
 62
     4
 10
986.36379172
 20
494.89977781
 30
0.0
 11
986.36379172
 21
498.89977781
 31
0.0
  0
LINE
  5
3DF
  8
0
 62
     4
 10
969.69712505
 20
494.89977781
 30
0.0
 11
969.69712505
 21
498.89977781
 31
0.0
  0
TEXT
  5
3E0
  8
TXT_DIM49
 10
959.44395627
 20
498.39977781
 30
0.0
 40
2.5
  1
25
  7
ARIAL
  0
LINE
  5
3E1
  8
0
 62
     4
 10
968.69712505
 20
495.89977781
 30
0.0
 11
970.69712505
 21
497.89977781
 31
0.0
  0
LINE
  5
3E2
  8
0
 62
     4
 10
953.78045838
 20
497.64977781
 30
0.0
 11
952.28045838
 21
496.14977781
 31
0.0
  0
LINE
  5
3E3
  8
0
 62
     4
 10
969.69712505
 20
496.89977781
 30
0.0
 11
953.03045838
 21
496.89977781
 31
0.0
  0
LINE
  5
3E4
  8
0
 62
     4
 10
969.69712505
 20
494.89977781
 30
0.0
 11
969.69712505
 21
498.89977781
 31
0.0
  0
LINE
  5
3E5
  8
0
 62
     4
 10
953.03045838
 20
494.89977781
 30
0.0
 11
953.03045838
 21
498.89977781
 31
0.0
  0
TEXT
  5
3E6
  8
TXT_DIM49
 10
942.7772896
 20
498.39977781
 30
0.0
 40
2.5
  1
25
  7
ARIAL
  0
LINE
  5
3E7
  8
0
 62
     4
 10
952.03045838
 20
495.89977781
 30
0.0
 11
954.03045838
 21
497.89977781
 31
0.0
  0
LINE
  5
3E8
  8
0
 62
     4
 10
937.11379172
 20
497.64977781
 30
0.0
 11
935.61379172
 21
496.14977781
 31
0.0
  0
LINE
  5
3E9
  8
0
 62
     4
 10
953.03045838
 20
496.89977781
 30
0.0
 11
936.36379172
 21
496.89977781
 31
0.0
  0
LINE
  5
3EA
  8
0
 62
     4
 10
953.03045838
 20
494.89977781
 30
0.0
 11
953.03045838
 21
498.89977781
 31
0.0
  0
LINE
  5
3EB
  8
0
 62
     4
 10
936.36379172
 20
494.89977781
 30
0.0
 11
936.36379172
 21
498.89977781
 31
0.0
  0
TEXT
  5
3EC
  8
TXT_DIM49
 10
926.11062293
 20
498.39977781
 30
0.0
 40
2.5
  1
25
  7
ARIAL
  0
LINE
  5
3ED
  8
0
 62
     4
 10
935.36379172
 20
495.89977781
 30
0.0
 11
937.36379172
 21
497.89977781
 31
0.0
  0
LINE
  5
3EE
  8
0
 62
     4
 10
920.44712505
 20
497.64977781
 30
0.0
 11
918.94712505
 21
496.14977781
 31
0.0
  0
LINE
  5
3EF
  8
0
 62
     4
 10
936.36379172
 20
496.89977781
 30
0.0
 11
919.69712505
 21
496.89977781
 31
0.0
  0
LINE
  5
3F0
  8
0
 62
     4
 10
936.36379172
 20
494.89977781
 30
0.0
 11
936.36379172
 21
498.89977781
 31
0.0
  0
LINE
  5
3F1
  8
0
 62
     4
 10
919.69712505
 20
494.89977781
 30
0.0
 11
919.69712505
 21
498.89977781
 31
0.0
  0
TEXT
  5
3F2
  8
TXT_DIM49
 10
909.44395627
 20
498.39977781
 30
0.0
 40
2.5
  1
25
  7
ARIAL
  0
LINE
  5
3F3
  8
0
 62
     4
 10
918.69712505
 20
495.89977781
 30
0.0
 11
920.69712505
 21
497.89977781
 31
0.0
  0
LINE
  5
3F4
  8
0
 62
     4
 10
903.78045838
 20
497.64977781
 30
0.0
 11
902.28045838
 21
496.14977781
 31
0.0
  0
LINE
  5
3F5
  8
0
 62
     4
 10
919.69712505
 20
496.89977781
 30
0.0
 11
903.03045838
 21
496.89977781
 31
0.0
  0
LINE
  5
3F6
  8
0
 62
     4
 10
919.69712505
 20
494.89977781
 30
0.0
 11
919.69712505
 21
498.89977781
 31
0.0
  0
LINE
  5
3F7
  8
0
 62
     4
 10
903.03045838
 20
494.89977781
 30
0.0
 11
903.03045838
 21
498.89977781
 31
0.0
  0
TEXT
  5
3F8
  8
TXT_DIM49
 10
1187.5012872
 20
489.2504586
 30
0.0
 40
2.5
  1
8
 50
90.00020741
  7
ARIAL
  0
LINE
  5
3F9
  8
0
 62
     4
 10
1190.0012872
 20
491.71037632
 30
0.0
 11
1188.0012872
 21
493.71037632
 31
0.0
  0
LINE
  5
3FA
  8
0
 62
     4
 10
1188.2512872
 20
488.46037632
 30
0.0
 11
1189.7512872
 21
486.96037632
 31
0.0
  0
LINE
  5
3FB
  8
0
 62
     4
 10
1189.0012872
 20
492.71037632
 30
0.0
 11
1189.0012872
 21
487.71037632
 31
0.0
  0
LINE
  5
3FC
  8
0
 62
     4
 10
1187.0012872
 20
492.71037632
 30
0.0
 11
1191.0012872
 21
492.71037632
 31
0.0
  0
LINE
  5
3FD
  8
0
 62
     4
 10
1187.0012872
 20
487.71037632
 30
0.0
 11
1191.0012872
 21
487.71037632
 31
0.0
  0
TEXT
  5
3FE
  8
TXT_DIM49
 10
1187.5012872
 20
481.62387421
 30
0.0
 40
2.5
  1
13
 50
90.00020741
  7
ARIAL
  0
LINE
  5
3FF
  8
0
 62
     4
 10
1190.0012872
 20
486.71037632
 30
0.0
 11
1188.0012872
 21
488.71037632
 31
0.0
  0
LINE
  5
400
  8
0
 62
     4
 10
1188.2512872
 20
480.12704299
 30
0.0
 11
1189.7512872
 21
478.62704299
 31
0.0
  0
LINE
  5
401
  8
0
 62
     4
 10
1189.0012872
 20
487.71037632
 30
0.0
 11
1189.0012872
 21
479.37704299
 31
0.0
  0
LINE
  5
402
  8
0
 62
     4
 10
1187.0012872
 20
487.71037632
 30
0.0
 11
1191.0012872
 21
487.71037632
 31
0.0
  0
LINE
  5
403
  8
0
 62
     4
 10
1187.0012872
 20
479.37704299
 30
0.0
 11
1191.0012872
 21
479.37704299
 31
0.0
  0
TEXT
  5
404
  8
TXT_DIM49
 10
1187.5012872
 20
473.29054087
 30
0.0
 40
2.5
  1
13
 50
90.00020741
  7
ARIAL
  0
LINE
  5
405
  8
0
 62
     4
 10
1190.0012872
 20
478.37704299
 30
0.0
 11
1188.0012872
 21
480.37704299
 31
0.0
  0
LINE
  5
406
  8
0
 62
     4
 10
1188.2512872
 20
471.79370965
 30
0.0
 11
1189.7512872
 21
470.29370965
 31
0.0
  0
LINE
  5
407
  8
0
 62
     4
 10
1189.0012872
 20
479.37704299
 30
0.0
 11
1189.0012872
 21
471.04370965
 31
0.0
  0
LINE
  5
408
  8
0
 62
     4
 10
1187.0012872
 20
479.37704299
 30
0.0
 11
1191.0012872
 21
479.37704299
 31
0.0
  0
LINE
  5
409
  8
0
 62
     4
 10
1187.0012872
 20
471.04370965
 30
0.0
 11
1191.0012872
 21
471.04370965
 31
0.0
  0
TEXT
  5
40A
  8
TXT_DIM49
 10
1187.5012872
 20
467.58379193
 30
0.0
 40
2.5
  1
8
 50
90.00020741
  7
ARIAL
  0
LINE
  5
40B
  8
0
 62
     4
 10
1190.0012872
 20
470.04370965
 30
0.0
 11
1188.0012872
 21
472.04370965
 31
0.0
  0
LINE
  5
40C
  8
0
 62
     4
 10
1188.2512872
 20
466.79370965
 30
0.0
 11
1189.7512872
 21
465.29370965
 31
0.0
  0
LINE
  5
40D
  8
0
 62
     4
 10
1189.0012872
 20
471.04370965
 30
0.0
 11
1189.0012872
 21
466.04370965
 31
0.0
  0
LINE
  5
40E
  8
0
 62
     4
 10
1187.0012872
 20
471.04370965
 30
0.0
 11
1191.0012872
 21
471.04370965
 31
0.0
  0
LINE
  5
40F
  8
0
 62
     4
 10
1187.0012872
 20
466.04370965
 30
0.0
 11
1191.0012872
 21
466.04370965
 31
0.0
  0
TEXT
  5
410
  8
TXT_DIM49
 10
895.12255526
 20
477.45720754
 30
0.0
 40
2.5
  1
40
 50
90.00020741
  7
ARIAL
  0
LINE
  5
411
  8
0
 62
     4
 10
897.62255526
 20
491.71037632
 30
0.0
 11
895.62255526
 21
493.71037632
 31
0.0
  0
LINE
  5
412
  8
0
 62
     4
 10
895.87255526
 20
466.79370965
 30
0.0
 11
897.37255526
 21
465.29370965
 31
0.0
  0
LINE
  5
413
  8
0
 62
     4
 10
896.62255526
 20
492.71037632
 30
0.0
 11
896.62255526
 21
466.04370965
 31
0.0
  0
LINE
  5
414
  8
0
 62
     4
 10
898.62255526
 20
492.71037632
 30
0.0
 11
894.62255526
 21
492.71037632
 31
0.0
  0
LINE
  5
415
  8
0
 62
     4
 10
898.62255526
 20
466.04370965
 30
0.0
 11
894.62255526
 21
466.04370965
 31
0.0
  0
LINE
  5
416
  8
0
 62
     5
 10
934.69712505
 20
479.37704299
 30
0.0
 11
925.01831179
 21
479.33533629
 31
0.0
  0
LINE
  5
417
  8
0
 62
     5
 10
921.36379172
 20
487.71037632
 30
0.0
 11
925.01831179
 21
479.33533629
 31
0.0
  0
LINE
  5
418
  8
0
 62
     5
 10
921.36379172
 20
471.04370965
 30
0.0
 11
925.01831179
 21
479.33533629
 31
0.0
  0
TEXT
  5
419
  8
TXT_DIM49
 10
920.41340348
 20
478.08533629
 30
0.0
 40
2.5
  1
Ø5
  7
ARIAL
  0
LINE
  5
41A
  8
0
 62
     5
 10
968.03045838
 20
479.37704299
 30
0.0
 11
959.25390122
 21
479.35658705
 31
0.0
  0
LINE
  5
41B
  8
0
 62
     5
 10
954.69712505
 20
487.71037632
 30
0.0
 11
959.25390122
 21
479.35658705
 31
0.0
  0
LINE
  5
41C
  8
0
 62
     5
 10
954.69712505
 20
471.04370965
 30
0.0
 11
959.25390122
 21
479.35658705
 31
0.0
  0
TEXT
  5
41D
  8
TXT_DIM49
 10
954.64899291
 20
478.10658705
 30
0.0
 40
2.5
  1
Ø5
  7
ARIAL
  0
LINE
  5
41E
  8
0
 62
     5
 10
1001.36379172
 20
479.37704299
 30
0.0
 11
993.62554331
 21
479.37025331
 31
0.0
  0
LINE
  5
41F
  8
0
 62
     5
 10
988.03045838
 20
487.71037632
 30
0.0
 11
993.62554331
 21
479.37025331
 31
0.0
  0
LINE
  5
420
  8
0
 62
     5
 10
988.03045838
 20
471.04370965
 30
0.0
 11
993.62554331
 21
479.37025331
 31
0.0
  0
TEXT
  5
421
  8
TXT_DIM49
 10
989.020635
 20
478.12025331
 30
0.0
 40
2.5
  1
Ø5
  7
ARIAL
  0
LINE
  5
422
  8
0
 62
     5
 10
1034.69712505
 20
479.37704299
 30
0.0
 11
1026.95786233
 21
479.38618505
 31
0.0
  0
LINE
  5
423
  8
0
 62
     5
 10
1021.36379172
 20
487.71037632
 30
0.0
 11
1026.95786233
 21
479.38618505
 31
0.0
  0
LINE
  5
424
  8
0
 62
     5
 10
1021.36379172
 20
471.04370965
 30
0.0
 11
1026.95786233
 21
479.38618505
 31
0.0
  0
TEXT
  5
425
  8
TXT_DIM49
 10
1022.35295402
 20
478.13618505
 30
0.0
 40
2.5
  1
Ø5
  7
ARIAL
  0
LINE
  5
426
  8
0
 62
     5
 10
1068.03045838
 20
479.37704299
 30
0.0
 11
1060.00529622
 21
479.38618505
 31
0.0
  0
LINE
  5
427
  8
0
 62
     5
 10
1054.69712505
 20
487.71037632
 30
0.0
 11
1060.00529622
 21
479.38618505
 31
0.0
  0
LINE
  5
428
  8
0
 62
     5
 10
1054.69712505
 20
471.04370965
 30
0.0
 11
1060.00529622
 21
479.38618505
 31
0.0
  0
TEXT
  5
429
  8
TXT_DIM49
 10
1055.40038791
 20
478.13618505
 30
0.0
 40
2.5
  1
Ø5
  7
ARIAL
  0
LINE
  5
42A
  8
0
 62
     5
 10
1101.36379172
 20
479.37704299
 30
0.0
 11
1093.23555496
 21
479.37319079
 31
0.0
  0
LINE
  5
42B
  8
0
 62
     5
 10
1088.03045838
 20
487.71037632
 30
0.0
 11
1093.23555496
 21
479.37319079
 31
0.0
  0
LINE
  5
42C
  8
0
 62
     5
 10
1088.03045838
 20
471.04370965
 30
0.0
 11
1093.23555496
 21
479.37319079
 31
0.0
  0
TEXT
  5
42D
  8
TXT_DIM49
 10
1088.63064665
 20
478.12319079
 30
0.0
 40
2.5
  1
Ø5
  7
ARIAL
  0
LINE
  5
42E
  8
0
 62
     5
 10
1134.69712505
 20
479.37704299
 30
0.0
 11
1126.67970817
 21
479.37319079
 31
0.0
  0
LINE
  5
42F
  8
0
 62
     5
 10
1121.36379172
 20
487.71037632
 30
0.0
 11
1126.67970817
 21
479.37319079
 31
0.0
  0
LINE
  5
430
  8
0
 62
     5
 10
1121.36379172
 20
471.04370965
 30
0.0
 11
1126.67970817
 21
479.37319079
 31
0.0
  0
TEXT
  5
431
  8
TXT_DIM49
 10
1122.07479986
 20
478.12319079
 30
0.0
 40
2.5
  1
Ø5
  7
ARIAL
  0
LINE
  5
432
  8
0
 62
     5
 10
1168.03045838
 20
479.37704299
 30
0.0
 11
1160.47545834
 21
479.37319079
 31
0.0
  0
LINE
  5
433
  8
0
 62
     5
 10
1154.69712505
 20
487.71037632
 30
0.0
 11
1160.47545834
 21
479.37319079
 31
0.0
  0
LINE
  5
434
  8
0
 62
     5
 10
1154.69712505
 20
471.04370965
 30
0.0
 11
1160.47545834
 21
479.37319079
 31
0.0
  0
TEXT
  5
435
  8
TXT_DIM49
 10
1155.87055003
 20
478.12319079
 30
0.0
 40
2.5
  1
Ø5
  7
ARIAL
  0
ENDSEC
  0
EOF
