  0
SECTION
  2
HEADER
  9
$ACADVER
  1
AC1006
  9
$DWGCODEPAGE
  3
ansi_1252
  9
$INSBASE
 10
0.0
 20
0.0
 30
0.0
  9
$EXTMIN
 10
996.02872632
 20
-85.08165467
  9
$EXTMAX
 10
2020.99558592
 20
392.30466774
  9
$LIMMIN
 10
996.02872632
 20
-85.08165467
  9
$LIMMAX
 10
2020.99558592
 20
392.30466774
  9
$ORTHOMODE
 70
     0
  9
$REGENMODE
 70
     1
  9
$FILLMODE
 70
     1
  9
$QTEXTMODE
 70
     0
  9
$MIRRTEXT
 70
     1
  9
$DRAGMODE
 70
     2
  9
$LTSCALE
 40
1.0
  9
$OSMODE
 70
    37
  9
$ATTMODE
 70
     1
  9
$TEXTSIZE
 40
1.0
  9
$TRACEWID
 40
0.05
  9
$TEXTSTYLE
  7
STANDARD
  9
$CLAYER
  8
0
  9
$CELTYPE
  6
BYBLOCK
  9
$CECOLOR
 62
   256
  9
$DIMSCALE
 40
1.0
  9
$DIMASZ
 40
0.18
  9
$DIMEXO
 40
0.0625
  9
$DIMDLI
 40
0.38
  9
$DIMRND
 40
0.0
  9
$DIMDLE
 40
0.0
  9
$DIMEXE
 40
0.18
  9
$DIMTP
 40
0.0
  9
$DIMTM
 40
0.0
  9
$DIMTXT
 40
0.18
  9
$DIMCEN
 40
0.09
  9
$DIMTSZ
 40
0.0
  9
$DIMTOL
 70
     0
  9
$DIMLIM
 70
     0
  9
$DIMTIH
 70
     1
  9
$DIMTOH
 70
     1
  9
$DIMSE1
 70
     0
  9
$DIMSE2
 70
     0
  9
$DIMTAD
 70
     0
  9
$DIMZIN
 70
     0
  9
$DIMBLK
  1

  9
$DIMASO
 70
     1
  9
$DIMSHO
 70
     1
  9
$DIMPOST
  1

  9
$DIMAPOST
  1

  9
$DIMALT
 70
     0
  9
$DIMALTD
 70
     2
  9
$DIMALTF
 40
25.4
  9
$DIMLFAC
 40
1.0
  9
$DIMTOFL
 70
     0
  9
$DIMTVP
 40
0.0
  9
$DIMTIX
 70
     0
  9
$DIMSOXD
 70
     0
  9
$DIMSAH
 70
     0
  9
$DIMBLK1
  1

  9
$DIMBLK2
  1

  9
$LUNITS
 70
     2
  9
$LUPREC
 70
     4
  9
$SKETCHINC
 40
0.1
  9
$FILLETRAD
 40
0.5
  9
$AUNITS
 70
     0
  9
$AUPREC
 70
     0
  9
$MENU
  1
.
  9
$ELEVATION
 40
0.0
  9
$THICKNESS
 40
0.0
  9
$LIMCHECK
 70
     0
  9
$CHAMFERA
 40
0.0
  9
$CHAMFERB
 40
0.0
  9
$SKPOLY
 70
     0
  9
$TDCREATE
 40
2447893.125
  9
$TDUPDATE
 40
2460791.513251852
  9
$TDINDWG
 40
0.0
  9
$TDUSRTIMER
 40
0.0
  9
$USRTIMER
 70
     1
  9
$ANGBASE
 50
0.0
  9
$ANGDIR
 70
     0
  9
$PDMODE
 70
     0
  9
$PDSIZE
 40
0.0
  9
$PLINEWID
 40
0.0
  9
$COORDS
 70
     1
  9
$SPLFRAME
 70
     0
  9
$SPLINETYPE
 70
     6
  9
$SPLINESEGS
 70
     8
  9
$ATTDIA
 70
     0
  9
$ATTREQ
 70
     1
  9
$HANDLING
 70
     1
  9
$HANDSEED
  5
787
  9
$SURFTAB1
 70
     6
  9
$SURFTAB2
 70
     6
  9
$SURFTYPE
 70
     6
  9
$SURFU
 70
     6
  9
$SURFV
 70
     6
  9
$UCSNAME
  2

  9
$UCSORG
 10
0.0
 20
0.0
 30
0.0
  9
$UCSXDIR
 10
1.0
 20
0.0
 30
0.0
  9
$UCSYDIR
 10
0.0
 20
1.0
 30
0.0
  9
$USERI1
 70
     0
  9
$USERI2
 70
     0
  9
$USERI3
 70
     0
  9
$USERI4
 70
     0
  9
$USERI5
 70
     0
  9
$USERR1
 40
0.0
  9
$USERR2
 40
0.0
  9
$USERR3
 40
0.0
  9
$USERR4
 40
0.0
  9
$USERR5
 40
0.0
  9
$WORLDVIEW
 70
     1
  0
ENDSEC
  0
SECTION
  2
TABLES
  0
TABLE
  2
VPORT
 70
     1
  0
VPORT
  2
*ACTIVE
 70
     0
 10
0.0
 20
0.0
 11
1.0
 21
1.0
 12
1508.51215612
 22
153.61150653
 13
0.0
 23
0.0
 14
1.0
 24
1.0
 15
0.0
 25
0.0
 16
0.0
 26
0.0
 36
1.0
 17
0.0
 27
0.0
 37
0.0
 40
477.386322415
 41
2.147038596
 42
50.0
 43
0.0
 44
0.0
 50
0.0
 51
0.0
 71
     0
 72
   100
 73
     1
 74
     1
 75
     0
 76
     0
 77
     0
 78
     0
  0
ENDTAB
  0
TABLE
  2
LTYPE
 70
    19
  0
LTYPE
  2
CONTINUOUS
 70
     0
  3
Solid line
 72
    65
 73
     0
 40
0.0
  0
LTYPE
  2
DOT
 70
     0
  3
..............
 72
    65
 73
     2
 40
2.0
 49
0.5
 49
-1.5
  0
LTYPE
  2
HIDDEN
 70
     0
  3
-- -- -- -- --
 72
    65
 73
     2
 40
7.0
 49
4.0
 49
-3.0
  0
LTYPE
  2
DASHDOT
 70
     0
  3
--.--.--.--.--
 72
    65
 73
     4
 40
8.5
 49
4.0
 49
-2.0
 49
0.5
 49
-2.0
  0
LTYPE
  2
STRICHPUNKT2
 70
     0
  3
--.--.--.--.--
 72
    65
 73
     4
 40
18.5
 49
10.0
 49
-4.0
 49
0.5
 49
-4.0
  0
LTYPE
  2
STRICHPUNKT3
 70
     0
  3
--.--.--.--.--
 72
    65
 73
     4
 40
35.5
 49
25.0
 49
-5.0
 49
0.5
 49
-5.0
  0
LTYPE
  2
PHANTOM
 70
     0
  3
--..--..--..--
 72
    65
 73
     6
 40
23.0
 49
10.0
 49
-4.0
 49
0.5
 49
-4.0
 49
0.5
 49
-4.0
  0
LTYPE
  2
PHANTOM2
 70
     0
  3
--..--..--..--
 72
    65
 73
     6
 40
33.0
 49
20.0
 49
-4.0
 49
0.5
 49
-4.0
 49
0.5
 49
-4.0
  0
LTYPE
  2
PHANTOM3
 70
     0
  3
--..--..--..--
 72
    65
 73
     6
 40
50.0
 49
37.0
 49
-4.0
 49
0.5
 49
-4.0
 49
0.5
 49
-4.0
  0
LTYPE
  2
STR3PKT
 70
     0
  3
--...--...--...
 72
    65
 73
     8
 40
31.5
 49
20.0
 49
-2.5
 49
0.5
 49
-2.5
 49
0.5
 49
-2.5
 49
0.5
 49
-2.5
  0
LTYPE
  2
2STRPKT
 70
     0
  3
--.--.--.--.--
 72
    65
 73
     6
 40
28.0
 49
10.0
 49
-2.5
 49
10.0
 49
-2.5
 49
0.5
 49
-2.5
  0
LTYPE
  2
GESTRICHELT2
 70
     0
  3
-- -- -- -- --
 72
    65
 73
     2
 40
25.0
 49
10.0
 49
-15.0
  0
LTYPE
  2
2STR2PKT
 70
     0
  3
--..--..--..--
 72
    65
 73
     8
 40
31.0
 49
10.0
 49
-2.5
 49
10.0
 49
-2.5
 49
0.5
 49
-2.5
 49
0.5
 49
-2.5
  0
LTYPE
  2
STR3PKT2
 70
     0
  3
--...--...--...
 72
    65
 73
     8
 40
21.0
 49
10.0
 49
-2.5
 49
0.5
 49
-2.5
 49
0.5
 49
-2.5
 49
0.5
 49
-2.0
  0
LTYPE
  2
2STR3PKT
 70
     0
  3
--...--...--...
 72
    65
 73
    10
 40
34.0
 49
10.0
 49
-2.5
 49
10.0
 49
-2.5
 49
0.5
 49
-2.5
 49
0.5
 49
-2.5
 49
0.5
 49
-2.5
  0
LTYPE
  2
STRKSTR
 70
     0
  3
-- - -- - -- -
 72
    65
 73
     4
 40
30.0
 49
20.0
 49
-2.5
 49
5.0
 49
-2.5
  0
LTYPE
  2
STRKSTR2
 70
     0
  3
-- - -- - -- -
 72
    65
 73
     6
 40
37.5
 49
20.0
 49
-2.5
 49
5.0
 49
-2.5
 49
5.0
 49
-2.5
  0
LTYPE
  2
STRKSTR3
 70
     0
  3
-- - -- - -- -
 72
    65
 73
     8
 40
45.0
 49
20.0
 49
-2.5
 49
5.0
 49
-2.5
 49
5.0
 49
-2.5
 49
5.0
 49
-2.5
  0
LTYPE
  2
PUNKT2
 70
     0
  3
..............
 72
    65
 73
     2
 40
3.5
 49
0.5
 49
-3.0
  0
ENDTAB
  0
TABLE
  2
LAYER
 70
    17
  0
LAYER
  2
0
 70
     0
 62
     7
  6
CONTINUOUS
  0
LAYER
  2
LE_GREEN
 70
     0
 62
     3
  6
CONTINUOUS
  0
LAYER
  2
LE_RED
 70
     0
 62
     1
  6
CONTINUOUS
  0
LAYER
  2
LE_ALL
 70
     0
 62
     7
  6
CONTINUOUS
  0
LAYER
  2
LE_HIDDEN1
 70
     0
 62
     3
  6
HIDDEN
  0
LAYER
  2
LE_HIDDEN
 70
     0
 62
     7
  6
CONTINUOUS
  0
LAYER
  2
LE_MIDDLE
 70
     0
 62
     7
  6
CONTINUOUS
  0
LAYER
  2
TXT_YELLOW
 70
     0
 62
     2
  6
CONTINUOUS
  0
LAYER
  2
TXT_DIM49
 70
     0
 62
     2
  6
CONTINUOUS
  0
LAYER
  2
TXT_ALL
 70
     0
 62
     7
  6
CONTINUOUS
  0
LAYER
  2
DIM49
 70
     0
 62
     4
  6
CONTINUOUS
  0
LAYER
  2
HATCH
 70
     0
 62
     3
  6
CONTINUOUS
  0
LAYER
  2
APPLE
 70
     0
 62
     7
  6
CONTINUOUS
  0
LAYER
  2
10
 70
     0
 62
     7
  6
CONTINUOUS
  0
LAYER
  2
20
 70
     0
 62
     7
  6
CONTINUOUS
  0
LAYER
  2
47
 70
     0
 62
     7
  6
CONTINUOUS
  0
LAYER
  2
49
 70
     0
 62
     7
  6
CONTINUOUS
  0
ENDTAB
  0
TABLE
  2
STYLE
 70
     5
  0
STYLE
  2
MONOTXT
 70
     0
 40
0.0
 41
1.0
 50
0.0
 71
     0
 42
1.0
  3
monotxt.shx
  4

  0
STYLE
  2
STANDARD
 70
     0
 40
0.0
 41
1.0
 50
0.0
 71
     0
 42
1.0
  3
txt
  4

  0
STYLE
  2
ARIAL
 70
     0
 40
0.0
 41
1.0
 50
0.0
 71
     0
 42
1.0
  3
arial.ttf
  4

  0
STYLE
  2
ARIAL_NARROW
 70
     0
 40
0.0
 41
1.0
 50
0.0
 71
     0
 42
1.0
  3
ArialN.ttf
  4

  0
STYLE
  2
ISOCPEUR
 70
     0
 40
0.0
 41
1.0
 50
0.0
 71
     0
 42
1.0
  3
ISOCPEUR.ttf
  4

  0
ENDTAB
  0
TABLE
  2
VIEW
 70
     0
  0
ENDTAB
  0
TABLE
  2
UCS
 70
     0
  0
ENDTAB
  0
ENDSEC
  0
SECTION
  2
BLOCKS
  0
ENDSEC
  0
SECTION
  2
ENTITIES
  0
POLYLINE
  5
16E
  8
0
 66
     1
 10
0.0
 20
0.0
 30
0.0
 70
     1
  0
VERTEX
  5
16F
  8
0
 10
1289.46242891
 20
12.77173418
 30
0.0
  0
VERTEX
  5
170
  8
0
 10
1709.46242891
 20
12.77173418
 30
0.0
  0
VERTEX
  5
171
  8
0
 10
1709.46242891
 20
309.77173418
 30
0.0
  0
VERTEX
  5
172
  8
0
 10
1289.46242891
 20
309.77173418
 30
0.0
  0
SEQEND
  5
173
  8
0
  0
POLYLINE
  5
174
  8
0
 66
     1
 10
0.0
 20
0.0
 30
0.0
 70
     1
  0
VERTEX
  5
175
  8
0
 10
1294.46242891
 20
17.77173418
 30
0.0
  0
VERTEX
  5
176
  8
0
 10
1704.46242891
 20
17.77173418
 30
0.0
  0
VERTEX
  5
177
  8
0
 10
1704.46242891
 20
304.77173418
 30
0.0
  0
VERTEX
  5
178
  8
0
 10
1294.46242891
 20
304.77173418
 30
0.0
  0
SEQEND
  5
179
  8
0
  0
LINE
  5
17A
  8
0
 10
1519.46242891
 20
17.77173418
 30
0.0
 11
1519.46242891
 21
12.77173418
 31
0.0
  0
LINE
  5
17B
  8
0
 10
1519.46242891
 20
304.77173418
 30
0.0
 11
1519.46242891
 21
309.77173418
 31
0.0
  0
LINE
  5
17C
  8
0
 10
1309.46242891
 20
17.77173418
 30
0.0
 11
1309.46242891
 21
12.77173418
 31
0.0
  0
LINE
  5
17D
  8
0
 10
1309.46242891
 20
304.77173418
 30
0.0
 11
1309.46242891
 21
309.77173418
 31
0.0
  0
TEXT
  5
17E
  8
TXT_ALL
 62
     4
 10
1708.46242891
 20
13.77173418
 30
0.0
 40
2.5
  1

 50
90.00020741
  0
POLYLINE
  5
17F
  8
0
 66
     1
 10
0.0
 20
0.0
 30
0.0
  0
VERTEX
  5
180
  8
0
 10
1704.46242891
 20
294.77173418
 30
0.0
  0
VERTEX
  5
181
  8
0
 10
1635.46912891
 20
294.77173418
 30
0.0
  0
VERTEX
  5
182
  8
0
 10
1635.46912891
 20
304.77173418
 30
0.0
  0
SEQEND
  5
183
  8
0
  0
LINE
  5
184
  8
0
 10
1637.37242891
 20
37.27173418
 30
0.0
 11
1497.48242891
 21
37.27173418
 31
0.0
  0
LINE
  5
185
  8
0
 10
1497.48242891
 20
27.52173418
 30
0.0
 11
1637.37242891
 21
27.52173418
 31
0.0
  0
POLYLINE
  5
186
  8
0
 66
     1
 10
0.0
 20
0.0
 30
0.0
  0
VERTEX
  5
187
  8
0
 10
1497.48242891
 20
37.27173418
 30
0.0
  0
VERTEX
  5
188
  8
0
 10
1497.48242891
 20
27.52173418
 30
0.0
  0
VERTEX
  5
189
  8
0
 10
1497.48242891
 20
17.77173418
 30
0.0
  0
SEQEND
  5
18A
  8
0
  0
POLYLINE
  5
18B
  8
0
 66
     1
 10
0.0
 20
0.0
 30
0.0
  0
VERTEX
  5
18C
  8
0
 10
1567.42742891
 20
37.27173418
 30
0.0
  0
VERTEX
  5
18D
  8
0
 10
1567.42742891
 20
27.52173418
 30
0.0
  0
VERTEX
  5
18E
  8
0
 10
1567.42742891
 20
17.77173418
 30
0.0
  0
SEQEND
  5
18F
  8
0
  0
TEXT
  5
190
  8
TXT_ALL
 10
1499.48242891
 20
31.09673423
 30
0.0
 40
2.5999999
  1
E-mail: verkoop@jonkers-bouwmetaal.nl
  7
ARIAL
  0
TEXT
  5
191
  8
TXT_ALL
 10
1499.48242891
 20
21.34673423
 30
0.0
 40
2.5999999
  1
Telefoon: 0527-685156
  7
ARIAL
  0
TEXT
  5
192
  8
TXT_ALL
 10
1569.42742891
 20
21.34673423
 30
0.0
 40
2.5999999
  1
Website: www.jonkers-bouwmetaal.nl
  7
ARIAL
  0
TEXT
  5
193
  8
TXT_ALL
 10
1569.42742891
 20
31.09673423
 30
0.0
 40
2.5999999
  1
Adres: Hoornse Hop 10, 8321 WX Urk
  7
ARIAL
  0
TEXT
  5
194
  8
TXT_ALL
 10
1297.90438916
 20
298.52173418
 30
0.0
 40
2.5
  1
Art. nr. 91013327-02
  7
ARIAL
  0
TEXT
  5
195
  8
TXT_ALL
 10
1340.64242598
 20
298.52173418
 30
0.0
 40
2.5
  1
Omschrijving: Trekanker-01 320x50 40x2 incl. opvulstrip-02
  7
ARIAL
  0
LINE
  5
196
  8
0
 10
1704.46242891
 20
294.77173418
 30
0.0
 11
1294.46242891
 21
294.77173418
 31
0.0
  0
LINE
  5
197
  8
0
 10
1337.48242891
 20
294.77173418
 30
0.0
 11
1337.48242891
 21
304.77173418
 31
0.0
  0
LINE
  5
198
  8
0
 10
1497.48242891
 20
294.77173418
 30
0.0
 11
1497.48242891
 21
304.77173418
 31
0.0
  0
TEXT
  5
199
  8
TXT_ALL
 10
1568.47612891
 20
298.52173418
 30
0.0
 40
2.5
  1
Behandeling: n.v.t.
  7
ARIAL
  0
LINE
  5
19A
  8
0
 10
1637.37242891
 20
37.27173418
 30
0.0
 11
1704.46242891
 21
37.27173418
 31
0.0
  0
LINE
  5
19B
  8
0
 10
1637.37242891
 20
17.77173418
 30
0.0
 11
1637.37242891
 21
37.27173418
 31
0.0
  0
LINE
  5
19C
  8
0
 10
1637.37242891
 20
17.77173418
 30
0.0
 11
1637.37242891
 21
37.27173418
 31
0.0
  0
TEXT
  5
19D
  8
TXT_ALL
 10
1431.827627
 20
18.9262676
 30
0.0
 40
2.5
  1

  0
TEXT
  5
19E
  8
TXT_ALL
 10
1552.96280997
 20
29.02173418
 30
0.0
 40
2.5
  1

  0
POLYLINE
  5
19F
  8
0
 66
     1
 10
0.0
 20
0.0
 30
0.0
  0
VERTEX
  5
1A0
  8
0
 10
1635.46912891
 20
294.77173418
 30
0.0
  0
VERTEX
  5
1A1
  8
0
 10
1566.47612891
 20
294.77173418
 30
0.0
  0
VERTEX
  5
1A2
  8
0
 10
1566.47612891
 20
304.77173418
 30
0.0
  0
SEQEND
  5
1A3
  8
0
  0
TEXT
  5
1A4
  8
TXT_ALL
 10
1637.46912891
 20
298.52173418
 30
0.0
 40
2.5
  1
Verpakkingshoeveelheid: 10 st.
  7
ARIAL
  0
TEXT
  5
1A5
  8
TXT_ALL
 10
1499.48242891
 20
298.52173418
 30
0.0
 40
2.5
  1
Materiaal: Sendzimir Verzinkt
  7
ARIAL
  0
TEXT
  5
1A6
  8
TXT_ALL
 10
1672.24407614
 20
14.52222433
 30
0.0
 40
1.5
  1
Onderdeel van
  7
ARIAL
  0
LINE
  5
1A7
  8
0
 10
1361.00152949
 20
57.29442981
 30
0.0
 11
1332.31548953
 21
60.90853114
 31
0.0
  0
POLYLINE
  5
1A8
  8
0
 66
     1
 10
0.0
 20
0.0
 30
0.0
  0
VERTEX
  5
1A9
  8
0
 10
1361.00152949
 20
57.29442981
 30
0.0
  0
VERTEX
  5
1AA
  8
0
 10
1361.00152949
 20
56.03735109
 30
0.0
  0
VERTEX
  5
1AB
  8
0
 10
1332.31548953
 20
59.65145241
 30
0.0
  0
SEQEND
  5
1AC
  8
0
  0
LINE
  5
1AD
  8
0
 10
1362.24874862
 20
57.13729497
 30
0.0
 11
1361.00152949
 21
56.03735109
 31
0.0
  0
POLYLINE
  5
1AE
  8
0
 66
     1
 10
0.0
 20
0.0
 30
0.0
  0
VERTEX
  5
4C7
  8
0
 10
1338.52026053
 20
80.62424699
 30
0.0
  0
VERTEX
  5
4C8
  8
0
 10
1338.631797027695
 20
80.64247240725554
 30
0.0
  0
VERTEX
  5
4C9
  8
0
 10
1338.747053373362
 20
80.7235441437823
 30
0.0
  0
VERTEX
  5
4CA
  8
0
 10
1338.861600330285
 20
80.86434665821821
 30
0.0
  0
VERTEX
  5
4CB
  8
0
 10
1338.971035923157
 20
81.05946898890879
 30
0.0
  0
VERTEX
  5
4CC
  8
0
 10
1339.071154603527
 20
81.30141269412852
 30
0.0
  0
VERTEX
  5
4CD
  8
0
 10
1339.158108866662
 20
81.5808800129906
 30
0.0
  0
VERTEX
  5
4CE
  8
0
 10
1339.228557109005
 20
81.8871311731827
 30
0.0
  0
VERTEX
  5
4CF
  8
0
 10
1339.279792044114
 20
82.20839711439308
 30
0.0
  0
VERTEX
  5
4D0
  8
0
 10
1339.309844742172
 20
82.53233176669717
 30
0.0
  0
VERTEX
  5
4D1
  8
0
 10
1339.317560294848
 20
82.8464865030999
 30
0.0
  0
VERTEX
  5
4D2
  8
0
 10
1339.30264219778
 20
83.13878853328885
 30
0.0
  0
VERTEX
  5
4D3
  8
0
 10
1339.265663745072
 20
83.3980048541943
 30
0.0
  0
VERTEX
  5
4D4
  8
0
 10
1339.20804599792
 20
83.61417392799673
 30
0.0
  0
VERTEX
  5
4D5
  8
0
 10
1339.132003174029
 20
83.77898849843787
 30
0.0
  0
VERTEX
  5
4D6
  8
0
 10
1339.040457556471
 20
83.88611483401914
 30
0.0
  0
VERTEX
  5
4D7
  8
0
 10
1338.936927191979
 20
83.93143612975071
 30
0.0
  0
SEQEND
  5
75F
  8
0
  0
POLYLINE
  5
1AF
  8
0
 66
     1
 10
0.0
 20
0.0
 30
0.0
  0
VERTEX
  5
4D8
  8
0
 10
1338.936927191979
 20
83.93143612975071
 30
0.0
  0
VERTEX
  5
4D9
  8
0
 10
1338.825390694131
 20
83.91321071354383
 30
0.0
  0
VERTEX
  5
4DA
  8
0
 10
1338.710134348224
 20
83.83213897774868
 30
0.0
  0
VERTEX
  5
4DB
  8
0
 10
1338.595587391003
 20
83.69133646371343
 30
0.0
  0
VERTEX
  5
4DC
  8
0
 10
1338.486151797807
 20
83.49621413310179
 30
0.0
  0
VERTEX
  5
4DD
  8
0
 10
1338.386033117119
 20
83.2542704276704
 30
0.0
  0
VERTEX
  5
4DE
  8
0
 10
1338.2990788537
 20
82.9748031083566
 30
0.0
  0
VERTEX
  5
4DF
  8
0
 10
1338.228630611135
 20
82.66855194753897
 30
0.0
  0
VERTEX
  5
4E0
  8
0
 10
1338.177395675886
 20
82.34728600560692
 30
0.0
  0
VERTEX
  5
4E1
  8
0
 10
1338.147342977785
 20
82.02335135256902
 30
0.0
  0
VERTEX
  5
4E2
  8
0
 10
1338.139627425169
 20
81.70919661550519
 30
0.0
  0
VERTEX
  5
4E3
  8
0
 10
1338.154545522399
 20
81.41689458480835
 30
0.0
  0
VERTEX
  5
4E4
  8
0
 10
1338.191523975363
 20
81.15767826361886
 30
0.0
  0
VERTEX
  5
4E5
  8
0
 10
1338.249141722849
 20
80.94150918981254
 30
0.0
  0
VERTEX
  5
4E6
  8
0
 10
1338.325184547127
 20
80.77669461968567
 30
0.0
  0
VERTEX
  5
4E7
  8
0
 10
1338.4167301651
 20
80.6695682847536
 30
0.0
  0
VERTEX
  5
4E8
  8
0
 10
1338.52026053
 20
80.62424699
 30
0.0
  0
SEQEND
  5
760
  8
0
  0
POLYLINE
  5
1B0
  8
0
 66
     1
 10
0.0
 20
0.0
 30
0.0
  0
VERTEX
  5
4E9
  8
0
 10
1338.52026053
 20
112.05121504
 30
0.0
  0
VERTEX
  5
4EA
  8
0
 10
1338.631797027695
 20
112.0694404572555
 30
0.0
  0
VERTEX
  5
4EB
  8
0
 10
1338.747053373362
 20
112.1505121937823
 30
0.0
  0
VERTEX
  5
4EC
  8
0
 10
1338.861600330285
 20
112.2913147082182
 30
0.0
  0
VERTEX
  5
4ED
  8
0
 10
1338.971035923157
 20
112.4864370389088
 30
0.0
  0
VERTEX
  5
4EE
  8
0
 10
1339.071154603527
 20
112.7283807441285
 30
0.0
  0
VERTEX
  5
4EF
  8
0
 10
1339.158108866662
 20
113.0078480629906
 30
0.0
  0
VERTEX
  5
4F0
  8
0
 10
1339.228557109005
 20
113.3140992231827
 30
0.0
  0
VERTEX
  5
4F1
  8
0
 10
1339.279792044114
 20
113.6353651643931
 30
0.0
  0
VERTEX
  5
4F2
  8
0
 10
1339.309844742172
 20
113.9592998166972
 30
0.0
  0
VERTEX
  5
4F3
  8
0
 10
1339.317560294848
 20
114.2734545530999
 30
0.0
  0
VERTEX
  5
4F4
  8
0
 10
1339.30264219778
 20
114.5657565832888
 30
0.0
  0
VERTEX
  5
4F5
  8
0
 10
1339.265663745072
 20
114.8249729041943
 30
0.0
  0
VERTEX
  5
4F6
  8
0
 10
1339.20804599792
 20
115.0411419779967
 30
0.0
  0
VERTEX
  5
4F7
  8
0
 10
1339.132003174029
 20
115.2059565484379
 30
0.0
  0
VERTEX
  5
4F8
  8
0
 10
1339.040457556471
 20
115.3130828840191
 30
0.0
  0
VERTEX
  5
4F9
  8
0
 10
1338.936927191979
 20
115.3584041797507
 30
0.0
  0
SEQEND
  5
761
  8
0
  0
POLYLINE
  5
1B1
  8
0
 66
     1
 10
0.0
 20
0.0
 30
0.0
  0
VERTEX
  5
4FA
  8
0
 10
1338.936927191979
 20
115.3584041797507
 30
0.0
  0
VERTEX
  5
4FB
  8
0
 10
1338.825390694131
 20
115.3401787635438
 30
0.0
  0
VERTEX
  5
4FC
  8
0
 10
1338.710134348224
 20
115.2591070277487
 30
0.0
  0
VERTEX
  5
4FD
  8
0
 10
1338.595587391003
 20
115.1183045137134
 30
0.0
  0
VERTEX
  5
4FE
  8
0
 10
1338.486151797807
 20
114.9231821831018
 30
0.0
  0
VERTEX
  5
4FF
  8
0
 10
1338.386033117119
 20
114.6812384776704
 30
0.0
  0
VERTEX
  5
500
  8
0
 10
1338.2990788537
 20
114.4017711583566
 30
0.0
  0
VERTEX
  5
501
  8
0
 10
1338.228630611135
 20
114.095519997539
 30
0.0
  0
VERTEX
  5
502
  8
0
 10
1338.177395675886
 20
113.7742540556069
 30
0.0
  0
VERTEX
  5
503
  8
0
 10
1338.147342977785
 20
113.450319402569
 30
0.0
  0
VERTEX
  5
504
  8
0
 10
1338.139627425169
 20
113.1361646655052
 30
0.0
  0
VERTEX
  5
505
  8
0
 10
1338.154545522399
 20
112.8438626348083
 30
0.0
  0
VERTEX
  5
506
  8
0
 10
1338.191523975363
 20
112.5846463136189
 30
0.0
  0
VERTEX
  5
507
  8
0
 10
1338.249141722849
 20
112.3684772398125
 30
0.0
  0
VERTEX
  5
508
  8
0
 10
1338.325184547127
 20
112.2036626696857
 30
0.0
  0
VERTEX
  5
509
  8
0
 10
1338.4167301651
 20
112.0965363347536
 30
0.0
  0
VERTEX
  5
50A
  8
0
 10
1338.52026053
 20
112.05121504
 30
0.0
  0
SEQEND
  5
762
  8
0
  0
POLYLINE
  5
1B2
  8
0
 66
     1
 10
0.0
 20
0.0
 30
0.0
  0
VERTEX
  5
50B
  8
0
 10
1338.52026053
 20
143.4781831
 30
0.0
  0
VERTEX
  5
50C
  8
0
 10
1338.631797027695
 20
143.4964085172555
 30
0.0
  0
VERTEX
  5
50D
  8
0
 10
1338.747053373362
 20
143.5774802537823
 30
0.0
  0
VERTEX
  5
50E
  8
0
 10
1338.861600330285
 20
143.7182827682182
 30
0.0
  0
VERTEX
  5
50F
  8
0
 10
1338.971035923157
 20
143.9134050989088
 30
0.0
  0
VERTEX
  5
510
  8
0
 10
1339.071154603527
 20
144.1553488041285
 30
0.0
  0
VERTEX
  5
511
  8
0
 10
1339.158108866662
 20
144.4348161229906
 30
0.0
  0
VERTEX
  5
512
  8
0
 10
1339.228557109005
 20
144.7410672831827
 30
0.0
  0
VERTEX
  5
513
  8
0
 10
1339.279792044114
 20
145.0623332243931
 30
0.0
  0
VERTEX
  5
514
  8
0
 10
1339.309844742172
 20
145.3862678766972
 30
0.0
  0
VERTEX
  5
515
  8
0
 10
1339.317560294848
 20
145.7004226130999
 30
0.0
  0
VERTEX
  5
516
  8
0
 10
1339.30264219778
 20
145.9927246432888
 30
0.0
  0
VERTEX
  5
517
  8
0
 10
1339.265663745072
 20
146.2519409641943
 30
0.0
  0
VERTEX
  5
518
  8
0
 10
1339.20804599792
 20
146.4681100379967
 30
0.0
  0
VERTEX
  5
519
  8
0
 10
1339.132003174029
 20
146.6329246084379
 30
0.0
  0
VERTEX
  5
51A
  8
0
 10
1339.040457556471
 20
146.7400509440191
 30
0.0
  0
VERTEX
  5
51B
  8
0
 10
1338.936927191979
 20
146.7853722397507
 30
0.0
  0
SEQEND
  5
763
  8
0
  0
POLYLINE
  5
1B3
  8
0
 66
     1
 10
0.0
 20
0.0
 30
0.0
  0
VERTEX
  5
51C
  8
0
 10
1338.936927191979
 20
146.7853722397507
 30
0.0
  0
VERTEX
  5
51D
  8
0
 10
1338.825390694131
 20
146.7671468235438
 30
0.0
  0
VERTEX
  5
51E
  8
0
 10
1338.710134348224
 20
146.6860750877487
 30
0.0
  0
VERTEX
  5
51F
  8
0
 10
1338.595587391003
 20
146.5452725737134
 30
0.0
  0
VERTEX
  5
520
  8
0
 10
1338.486151797807
 20
146.3501502431018
 30
0.0
  0
VERTEX
  5
521
  8
0
 10
1338.386033117119
 20
146.1082065376704
 30
0.0
  0
VERTEX
  5
522
  8
0
 10
1338.2990788537
 20
145.8287392183566
 30
0.0
  0
VERTEX
  5
523
  8
0
 10
1338.228630611135
 20
145.522488057539
 30
0.0
  0
VERTEX
  5
524
  8
0
 10
1338.177395675886
 20
145.2012221156069
 30
0.0
  0
VERTEX
  5
525
  8
0
 10
1338.147342977785
 20
144.877287462569
 30
0.0
  0
VERTEX
  5
526
  8
0
 10
1338.139627425169
 20
144.5631327255052
 30
0.0
  0
VERTEX
  5
527
  8
0
 10
1338.154545522399
 20
144.2708306948083
 30
0.0
  0
VERTEX
  5
528
  8
0
 10
1338.191523975363
 20
144.0116143736188
 30
0.0
  0
VERTEX
  5
529
  8
0
 10
1338.249141722849
 20
143.7954452998125
 30
0.0
  0
VERTEX
  5
52A
  8
0
 10
1338.325184547127
 20
143.6306307296857
 30
0.0
  0
VERTEX
  5
52B
  8
0
 10
1338.4167301651
 20
143.5235043947536
 30
0.0
  0
VERTEX
  5
52C
  8
0
 10
1338.52026053
 20
143.4781831
 30
0.0
  0
SEQEND
  5
764
  8
0
  0
POLYLINE
  5
1B4
  8
0
 66
     1
 10
0.0
 20
0.0
 30
0.0
  0
VERTEX
  5
52D
  8
0
 10
1338.52026053
 20
174.90515115
 30
0.0
  0
VERTEX
  5
52E
  8
0
 10
1338.631797027695
 20
174.9233765672555
 30
0.0
  0
VERTEX
  5
52F
  8
0
 10
1338.747053373362
 20
175.0044483037823
 30
0.0
  0
VERTEX
  5
530
  8
0
 10
1338.861600330285
 20
175.1452508182182
 30
0.0
  0
VERTEX
  5
531
  8
0
 10
1338.971035923157
 20
175.3403731489088
 30
0.0
  0
VERTEX
  5
532
  8
0
 10
1339.071154603527
 20
175.5823168541285
 30
0.0
  0
VERTEX
  5
533
  8
0
 10
1339.158108866662
 20
175.8617841729906
 30
0.0
  0
VERTEX
  5
534
  8
0
 10
1339.228557109005
 20
176.1680353331827
 30
0.0
  0
VERTEX
  5
535
  8
0
 10
1339.279792044114
 20
176.4893012743931
 30
0.0
  0
VERTEX
  5
536
  8
0
 10
1339.309844742172
 20
176.8132359266972
 30
0.0
  0
VERTEX
  5
537
  8
0
 10
1339.317560294848
 20
177.1273906630999
 30
0.0
  0
VERTEX
  5
538
  8
0
 10
1339.30264219778
 20
177.4196926932888
 30
0.0
  0
VERTEX
  5
539
  8
0
 10
1339.265663745072
 20
177.6789090141943
 30
0.0
  0
VERTEX
  5
53A
  8
0
 10
1339.20804599792
 20
177.8950780879967
 30
0.0
  0
VERTEX
  5
53B
  8
0
 10
1339.132003174029
 20
178.0598926584379
 30
0.0
  0
VERTEX
  5
53C
  8
0
 10
1339.040457556471
 20
178.1670189940191
 30
0.0
  0
VERTEX
  5
53D
  8
0
 10
1338.936927191979
 20
178.2123402897507
 30
0.0
  0
SEQEND
  5
765
  8
0
  0
POLYLINE
  5
1B5
  8
0
 66
     1
 10
0.0
 20
0.0
 30
0.0
  0
VERTEX
  5
53E
  8
0
 10
1338.936927191979
 20
178.2123402897507
 30
0.0
  0
VERTEX
  5
53F
  8
0
 10
1338.825390694029
 20
178.1941148734989
 30
0.0
  0
VERTEX
  5
540
  8
0
 10
1338.710134348016
 20
178.1130431375482
 30
0.0
  0
VERTEX
  5
541
  8
0
 10
1338.5955873907
 20
177.9722406232581
 30
0.0
  0
VERTEX
  5
542
  8
0
 10
1338.486151797428
 20
177.7771182923119
 30
0.0
  0
VERTEX
  5
543
  8
0
 10
1338.386033116696
 20
177.5351745864926
 30
0.0
  0
VERTEX
  5
544
  8
0
 10
1338.299078853273
 20
177.2557072667689
 30
0.0
  0
VERTEX
  5
545
  8
0
 10
1338.228630610751
 20
176.9494561055544
 30
0.0
  0
VERTEX
  5
546
  8
0
 10
1338.177395675592
 20
176.628190163275
 30
0.0
  0
VERTEX
  5
547
  8
0
 10
1338.147342977631
 20
176.3042555099745
 30
0.0
  0
VERTEX
  5
548
  8
0
 10
1338.139627425202
 20
175.9901007727653
 30
0.0
  0
VERTEX
  5
549
  8
0
 10
1338.154545522657
 20
175.6977987420675
 30
0.0
  0
VERTEX
  5
54A
  8
0
 10
1338.191523975876
 20
175.4385824210416
 30
0.0
  0
VERTEX
  5
54B
  8
0
 10
1338.249141723634
 20
175.222413347575
 30
0.0
  0
VERTEX
  5
54C
  8
0
 10
1338.325184548187
 20
175.0575987779657
 30
0.0
  0
VERTEX
  5
54D
  8
0
 10
1338.416730166422
 20
174.9504724437205
 30
0.0
  0
VERTEX
  5
54E
  8
0
 10
1338.520260531555
 20
174.9051511498041
 30
0.0
  0
SEQEND
  5
766
  8
0
  0
POLYLINE
  5
1B6
  8
0
 66
     1
 10
0.0
 20
0.0
 30
0.0
  0
VERTEX
  5
54F
  8
0
 10
1338.52026053
 20
206.3321192
 30
0.0
  0
VERTEX
  5
550
  8
0
 10
1338.631797027695
 20
206.3503446172555
 30
0.0
  0
VERTEX
  5
551
  8
0
 10
1338.747053373362
 20
206.4314163537823
 30
0.0
  0
VERTEX
  5
552
  8
0
 10
1338.861600330285
 20
206.5722188682182
 30
0.0
  0
VERTEX
  5
553
  8
0
 10
1338.971035923157
 20
206.7673411989088
 30
0.0
  0
VERTEX
  5
554
  8
0
 10
1339.071154603527
 20
207.0092849041285
 30
0.0
  0
VERTEX
  5
555
  8
0
 10
1339.158108866662
 20
207.2887522229906
 30
0.0
  0
VERTEX
  5
556
  8
0
 10
1339.228557109005
 20
207.5950033831827
 30
0.0
  0
VERTEX
  5
557
  8
0
 10
1339.279792044114
 20
207.9162693243931
 30
0.0
  0
VERTEX
  5
558
  8
0
 10
1339.309844742172
 20
208.2402039766972
 30
0.0
  0
VERTEX
  5
559
  8
0
 10
1339.317560294848
 20
208.5543587130999
 30
0.0
  0
VERTEX
  5
55A
  8
0
 10
1339.30264219778
 20
208.8466607432888
 30
0.0
  0
VERTEX
  5
55B
  8
0
 10
1339.265663745072
 20
209.1058770641943
 30
0.0
  0
VERTEX
  5
55C
  8
0
 10
1339.20804599792
 20
209.3220461379967
 30
0.0
  0
VERTEX
  5
55D
  8
0
 10
1339.132003174029
 20
209.4868607084379
 30
0.0
  0
VERTEX
  5
55E
  8
0
 10
1339.040457556471
 20
209.5939870440191
 30
0.0
  0
VERTEX
  5
55F
  8
0
 10
1338.936927191979
 20
209.6393083397507
 30
0.0
  0
SEQEND
  5
767
  8
0
  0
POLYLINE
  5
1B7
  8
0
 66
     1
 10
0.0
 20
0.0
 30
0.0
  0
VERTEX
  5
560
  8
0
 10
1338.936927191979
 20
209.6393083397507
 30
0.0
  0
VERTEX
  5
561
  8
0
 10
1338.825390694029
 20
209.621082923499
 30
0.0
  0
VERTEX
  5
562
  8
0
 10
1338.710134348016
 20
209.5400111875482
 30
0.0
  0
VERTEX
  5
563
  8
0
 10
1338.5955873907
 20
209.3992086732581
 30
0.0
  0
VERTEX
  5
564
  8
0
 10
1338.486151797428
 20
209.2040863423119
 30
0.0
  0
VERTEX
  5
565
  8
0
 10
1338.386033116696
 20
208.9621426364926
 30
0.0
  0
VERTEX
  5
566
  8
0
 10
1338.299078853273
 20
208.6826753167689
 30
0.0
  0
VERTEX
  5
567
  8
0
 10
1338.228630610751
 20
208.3764241555544
 30
0.0
  0
VERTEX
  5
568
  8
0
 10
1338.177395675592
 20
208.055158213275
 30
0.0
  0
VERTEX
  5
569
  8
0
 10
1338.147342977631
 20
207.7312235599745
 30
0.0
  0
VERTEX
  5
56A
  8
0
 10
1338.139627425202
 20
207.4170688227653
 30
0.0
  0
VERTEX
  5
56B
  8
0
 10
1338.154545522657
 20
207.1247667920675
 30
0.0
  0
VERTEX
  5
56C
  8
0
 10
1338.191523975876
 20
206.8655504710416
 30
0.0
  0
VERTEX
  5
56D
  8
0
 10
1338.249141723634
 20
206.649381397575
 30
0.0
  0
VERTEX
  5
56E
  8
0
 10
1338.325184548187
 20
206.4845668279657
 30
0.0
  0
VERTEX
  5
56F
  8
0
 10
1338.416730166422
 20
206.3774404937205
 30
0.0
  0
VERTEX
  5
570
  8
0
 10
1338.520260531555
 20
206.3321191998041
 30
0.0
  0
SEQEND
  5
768
  8
0
  0
POLYLINE
  5
1B8
  8
0
 66
     1
 10
0.0
 20
0.0
 30
0.0
  0
VERTEX
  5
571
  8
0
 10
1338.52026053
 20
237.75908726
 30
0.0
  0
VERTEX
  5
572
  8
0
 10
1338.631797027695
 20
237.7773126772555
 30
0.0
  0
VERTEX
  5
573
  8
0
 10
1338.747053373362
 20
237.8583844137823
 30
0.0
  0
VERTEX
  5
574
  8
0
 10
1338.861600330285
 20
237.9991869282182
 30
0.0
  0
VERTEX
  5
575
  8
0
 10
1338.971035923157
 20
238.1943092589088
 30
0.0
  0
VERTEX
  5
576
  8
0
 10
1339.071154603527
 20
238.4362529641285
 30
0.0
  0
VERTEX
  5
577
  8
0
 10
1339.158108866662
 20
238.7157202829906
 30
0.0
  0
VERTEX
  5
578
  8
0
 10
1339.228557109005
 20
239.0219714431827
 30
0.0
  0
VERTEX
  5
579
  8
0
 10
1339.279792044114
 20
239.3432373843931
 30
0.0
  0
VERTEX
  5
57A
  8
0
 10
1339.309844742172
 20
239.6671720366972
 30
0.0
  0
VERTEX
  5
57B
  8
0
 10
1339.317560294848
 20
239.9813267730999
 30
0.0
  0
VERTEX
  5
57C
  8
0
 10
1339.30264219778
 20
240.2736288032888
 30
0.0
  0
VERTEX
  5
57D
  8
0
 10
1339.265663745072
 20
240.5328451241943
 30
0.0
  0
VERTEX
  5
57E
  8
0
 10
1339.20804599792
 20
240.7490141979967
 30
0.0
  0
VERTEX
  5
57F
  8
0
 10
1339.132003174029
 20
240.9138287684379
 30
0.0
  0
VERTEX
  5
580
  8
0
 10
1339.040457556471
 20
241.0209551040192
 30
0.0
  0
VERTEX
  5
581
  8
0
 10
1338.936927191979
 20
241.0662763997507
 30
0.0
  0
SEQEND
  5
769
  8
0
  0
POLYLINE
  5
1B9
  8
0
 66
     1
 10
0.0
 20
0.0
 30
0.0
  0
VERTEX
  5
582
  8
0
 10
1338.936927191979
 20
241.0662763997507
 30
0.0
  0
VERTEX
  5
583
  8
0
 10
1338.825390694131
 20
241.0480509835438
 30
0.0
  0
VERTEX
  5
584
  8
0
 10
1338.710134348224
 20
240.9669792477487
 30
0.0
  0
VERTEX
  5
585
  8
0
 10
1338.595587391003
 20
240.8261767337134
 30
0.0
  0
VERTEX
  5
586
  8
0
 10
1338.486151797807
 20
240.6310544031018
 30
0.0
  0
VERTEX
  5
587
  8
0
 10
1338.386033117119
 20
240.3891106976704
 30
0.0
  0
VERTEX
  5
588
  8
0
 10
1338.2990788537
 20
240.1096433783566
 30
0.0
  0
VERTEX
  5
589
  8
0
 10
1338.228630611135
 20
239.803392217539
 30
0.0
  0
VERTEX
  5
58A
  8
0
 10
1338.177395675886
 20
239.4821262756069
 30
0.0
  0
VERTEX
  5
58B
  8
0
 10
1338.147342977785
 20
239.158191622569
 30
0.0
  0
VERTEX
  5
58C
  8
0
 10
1338.139627425169
 20
238.8440368855052
 30
0.0
  0
VERTEX
  5
58D
  8
0
 10
1338.154545522399
 20
238.5517348548083
 30
0.0
  0
VERTEX
  5
58E
  8
0
 10
1338.191523975363
 20
238.2925185336188
 30
0.0
  0
VERTEX
  5
58F
  8
0
 10
1338.249141722849
 20
238.0763494598125
 30
0.0
  0
VERTEX
  5
590
  8
0
 10
1338.325184547127
 20
237.9115348896857
 30
0.0
  0
VERTEX
  5
591
  8
0
 10
1338.4167301651
 20
237.8044085547536
 30
0.0
  0
VERTEX
  5
592
  8
0
 10
1338.52026053
 20
237.75908726
 30
0.0
  0
SEQEND
  5
76A
  8
0
  0
POLYLINE
  5
1BA
  8
0
 66
     1
 10
0.0
 20
0.0
 30
0.0
  0
VERTEX
  5
593
  8
0
 10
1332.627704021555
 20
75.42750061980414
 30
0.0
  0
VERTEX
  5
594
  8
0
 10
1332.739240519232
 20
75.44572603792844
 30
0.0
  0
VERTEX
  5
595
  8
0
 10
1332.854496864816
 20
75.52679777518564
 30
0.0
  0
VERTEX
  5
596
  8
0
 10
1332.9690438216
 20
75.66760029019115
 30
0.0
  0
VERTEX
  5
597
  8
0
 10
1333.078479414293
 20
75.86272262127827
 30
0.0
  0
VERTEX
  5
598
  8
0
 10
1333.178598094456
 20
76.10466632671971
 30
0.0
  0
VERTEX
  5
599
  8
0
 10
1333.265552357373
 20
76.38413364563675
 30
0.0
  0
VERTEX
  5
59A
  8
0
 10
1333.336000599499
 20
76.6903848057342
 30
0.0
  0
VERTEX
  5
59B
  8
0
 10
1333.387235534408
 20
77.011650746725
 30
0.0
  0
VERTEX
  5
59C
  8
0
 10
1333.417288232291
 20
77.33558539871508
 30
0.0
  0
VERTEX
  5
59D
  8
0
 10
1333.425003784828
 20
77.6497401347438
 30
0.0
  0
VERTEX
  5
59E
  8
0
 10
1333.410085687663
 20
77.94204216453467
 30
0.0
  0
VERTEX
  5
59F
  8
0
 10
1333.373107234901
 20
78.20125848505337
 30
0.0
  0
VERTEX
  5
5A0
  8
0
 10
1333.315489487739
 20
78.4174275585131
 30
0.0
  0
VERTEX
  5
5A1
  8
0
 10
1333.239446663878
 20
78.58224212868357
 30
0.0
  0
VERTEX
  5
5A2
  8
0
 10
1333.147901046382
 20
78.68936846408802
 30
0.0
  0
VERTEX
  5
5A3
  8
0
 10
1333.044370681979
 20
78.73468975975071
 30
0.0
  0
SEQEND
  5
76B
  8
0
  0
POLYLINE
  5
1BB
  8
0
 66
     1
 10
0.0
 20
0.0
 30
0.0
  0
VERTEX
  5
5A4
  8
0
 10
1333.044370681979
 20
78.73468975975071
 30
0.0
  0
VERTEX
  5
5A5
  8
0
 10
1332.932834184028
 20
78.71646434349897
 30
0.0
  0
VERTEX
  5
5A6
  8
0
 10
1332.817577838016
 20
78.63539260754821
 30
0.0
  0
VERTEX
  5
5A7
  8
0
 10
1332.7030308807
 20
78.49459009325814
 30
0.0
  0
VERTEX
  5
5A8
  8
0
 10
1332.593595287428
 20
78.29946776231196
 30
0.0
  0
VERTEX
  5
5A9
  8
0
 10
1332.493476606696
 20
78.0575240564926
 30
0.0
  0
VERTEX
  5
5AA
  8
0
 10
1332.406522343273
 20
77.7780567367689
 30
0.0
  0
VERTEX
  5
5AB
  8
0
 10
1332.33607410075
 20
77.47180557555447
 30
0.0
  0
VERTEX
  5
5AC
  8
0
 10
1332.284839165592
 20
77.150539633275
 30
0.0
  0
VERTEX
  5
5AD
  8
0
 10
1332.254786467631
 20
76.82660497997452
 30
0.0
  0
VERTEX
  5
5AE
  8
0
 10
1332.247070915201
 20
76.51245024276535
 30
0.0
  0
VERTEX
  5
5AF
  8
0
 10
1332.261989012657
 20
76.22014821206753
 30
0.0
  0
VERTEX
  5
5B0
  8
0
 10
1332.298967465876
 20
75.96093189104161
 30
0.0
  0
VERTEX
  5
5B1
  8
0
 10
1332.356585213634
 20
75.74476281757497
 30
0.0
  0
VERTEX
  5
5B2
  8
0
 10
1332.432628038187
 20
75.57994824796566
 30
0.0
  0
VERTEX
  5
5B3
  8
0
 10
1332.524173656422
 20
75.47282191372051
 30
0.0
  0
VERTEX
  5
5B4
  8
0
 10
1332.627704021555
 20
75.42750061980414
 30
0.0
  0
SEQEND
  5
76C
  8
0
  0
POLYLINE
  5
1BC
  8
0
 66
     1
 10
0.0
 20
0.0
 30
0.0
  0
VERTEX
  5
5B5
  8
0
 10
1332.627704021555
 20
106.8544686698041
 30
0.0
  0
VERTEX
  5
5B6
  8
0
 10
1332.739240519232
 20
106.8726940879284
 30
0.0
  0
VERTEX
  5
5B7
  8
0
 10
1332.854496864816
 20
106.9537658251856
 30
0.0
  0
VERTEX
  5
5B8
  8
0
 10
1332.9690438216
 20
107.0945683401911
 30
0.0
  0
VERTEX
  5
5B9
  8
0
 10
1333.078479414293
 20
107.2896906712783
 30
0.0
  0
VERTEX
  5
5BA
  8
0
 10
1333.178598094456
 20
107.5316343767197
 30
0.0
  0
VERTEX
  5
5BB
  8
0
 10
1333.265552357373
 20
107.8111016956368
 30
0.0
  0
VERTEX
  5
5BC
  8
0
 10
1333.336000599499
 20
108.1173528557342
 30
0.0
  0
VERTEX
  5
5BD
  8
0
 10
1333.387235534408
 20
108.438618796725
 30
0.0
  0
VERTEX
  5
5BE
  8
0
 10
1333.417288232291
 20
108.7625534487151
 30
0.0
  0
VERTEX
  5
5BF
  8
0
 10
1333.425003784828
 20
109.0767081847438
 30
0.0
  0
VERTEX
  5
5C0
  8
0
 10
1333.410085687663
 20
109.3690102145347
 30
0.0
  0
VERTEX
  5
5C1
  8
0
 10
1333.373107234901
 20
109.6282265350534
 30
0.0
  0
VERTEX
  5
5C2
  8
0
 10
1333.315489487739
 20
109.8443956085131
 30
0.0
  0
VERTEX
  5
5C3
  8
0
 10
1333.239446663878
 20
110.0092101786836
 30
0.0
  0
VERTEX
  5
5C4
  8
0
 10
1333.147901046382
 20
110.116336514088
 30
0.0
  0
VERTEX
  5
5C5
  8
0
 10
1333.044370681979
 20
110.1616578097507
 30
0.0
  0
SEQEND
  5
76D
  8
0
  0
POLYLINE
  5
1BD
  8
0
 66
     1
 10
0.0
 20
0.0
 30
0.0
  0
VERTEX
  5
5C6
  8
0
 10
1333.044370681979
 20
110.1616578097507
 30
0.0
  0
VERTEX
  5
5C7
  8
0
 10
1332.932834184028
 20
110.143432393499
 30
0.0
  0
VERTEX
  5
5C8
  8
0
 10
1332.817577838016
 20
110.0623606575482
 30
0.0
  0
VERTEX
  5
5C9
  8
0
 10
1332.7030308807
 20
109.9215581432581
 30
0.0
  0
VERTEX
  5
5CA
  8
0
 10
1332.593595287428
 20
109.726435812312
 30
0.0
  0
VERTEX
  5
5CB
  8
0
 10
1332.493476606696
 20
109.4844921064926
 30
0.0
  0
VERTEX
  5
5CC
  8
0
 10
1332.406522343273
 20
109.2050247867689
 30
0.0
  0
VERTEX
  5
5CD
  8
0
 10
1332.33607410075
 20
108.8987736255545
 30
0.0
  0
VERTEX
  5
5CE
  8
0
 10
1332.284839165592
 20
108.577507683275
 30
0.0
  0
VERTEX
  5
5CF
  8
0
 10
1332.254786467631
 20
108.2535730299745
 30
0.0
  0
VERTEX
  5
5D0
  8
0
 10
1332.247070915201
 20
107.9394182927654
 30
0.0
  0
VERTEX
  5
5D1
  8
0
 10
1332.261989012657
 20
107.6471162620675
 30
0.0
  0
VERTEX
  5
5D2
  8
0
 10
1332.298967465876
 20
107.3878999410416
 30
0.0
  0
VERTEX
  5
5D3
  8
0
 10
1332.356585213634
 20
107.171730867575
 30
0.0
  0
VERTEX
  5
5D4
  8
0
 10
1332.432628038187
 20
107.0069162979657
 30
0.0
  0
VERTEX
  5
5D5
  8
0
 10
1332.524173656422
 20
106.8997899637205
 30
0.0
  0
VERTEX
  5
5D6
  8
0
 10
1332.627704021555
 20
106.8544686698041
 30
0.0
  0
SEQEND
  5
76E
  8
0
  0
POLYLINE
  5
1BE
  8
0
 66
     1
 10
0.0
 20
0.0
 30
0.0
  0
VERTEX
  5
5D7
  8
0
 10
1332.627704021555
 20
138.2814367298041
 30
0.0
  0
VERTEX
  5
5D8
  8
0
 10
1332.739240519232
 20
138.2996621479284
 30
0.0
  0
VERTEX
  5
5D9
  8
0
 10
1332.854496864816
 20
138.3807338851856
 30
0.0
  0
VERTEX
  5
5DA
  8
0
 10
1332.9690438216
 20
138.5215364001911
 30
0.0
  0
VERTEX
  5
5DB
  8
0
 10
1333.078479414293
 20
138.7166587312783
 30
0.0
  0
VERTEX
  5
5DC
  8
0
 10
1333.178598094456
 20
138.9586024367197
 30
0.0
  0
VERTEX
  5
5DD
  8
0
 10
1333.265552357373
 20
139.2380697556368
 30
0.0
  0
VERTEX
  5
5DE
  8
0
 10
1333.336000599499
 20
139.5443209157342
 30
0.0
  0
VERTEX
  5
5DF
  8
0
 10
1333.387235534408
 20
139.865586856725
 30
0.0
  0
VERTEX
  5
5E0
  8
0
 10
1333.417288232291
 20
140.1895215087151
 30
0.0
  0
VERTEX
  5
5E1
  8
0
 10
1333.425003784828
 20
140.5036762447438
 30
0.0
  0
VERTEX
  5
5E2
  8
0
 10
1333.410085687663
 20
140.7959782745347
 30
0.0
  0
VERTEX
  5
5E3
  8
0
 10
1333.373107234901
 20
141.0551945950534
 30
0.0
  0
VERTEX
  5
5E4
  8
0
 10
1333.315489487739
 20
141.2713636685131
 30
0.0
  0
VERTEX
  5
5E5
  8
0
 10
1333.239446663878
 20
141.4361782386836
 30
0.0
  0
VERTEX
  5
5E6
  8
0
 10
1333.147901046382
 20
141.543304574088
 30
0.0
  0
VERTEX
  5
5E7
  8
0
 10
1333.044370681979
 20
141.5886258697507
 30
0.0
  0
SEQEND
  5
76F
  8
0
  0
POLYLINE
  5
1BF
  8
0
 66
     1
 10
0.0
 20
0.0
 30
0.0
  0
VERTEX
  5
5E8
  8
0
 10
1333.044370681979
 20
141.5886258697507
 30
0.0
  0
VERTEX
  5
5E9
  8
0
 10
1332.932834184028
 20
141.5704004534989
 30
0.0
  0
VERTEX
  5
5EA
  8
0
 10
1332.817577838016
 20
141.4893287175482
 30
0.0
  0
VERTEX
  5
5EB
  8
0
 10
1332.7030308807
 20
141.3485262032581
 30
0.0
  0
VERTEX
  5
5EC
  8
0
 10
1332.593595287428
 20
141.1534038723119
 30
0.0
  0
VERTEX
  5
5ED
  8
0
 10
1332.493476606696
 20
140.9114601664926
 30
0.0
  0
VERTEX
  5
5EE
  8
0
 10
1332.406522343273
 20
140.6319928467689
 30
0.0
  0
VERTEX
  5
5EF
  8
0
 10
1332.33607410075
 20
140.3257416855544
 30
0.0
  0
VERTEX
  5
5F0
  8
0
 10
1332.284839165592
 20
140.004475743275
 30
0.0
  0
VERTEX
  5
5F1
  8
0
 10
1332.254786467631
 20
139.6805410899745
 30
0.0
  0
VERTEX
  5
5F2
  8
0
 10
1332.247070915201
 20
139.3663863527653
 30
0.0
  0
VERTEX
  5
5F3
  8
0
 10
1332.261989012657
 20
139.0740843220675
 30
0.0
  0
VERTEX
  5
5F4
  8
0
 10
1332.298967465876
 20
138.8148680010416
 30
0.0
  0
VERTEX
  5
5F5
  8
0
 10
1332.356585213634
 20
138.598698927575
 30
0.0
  0
VERTEX
  5
5F6
  8
0
 10
1332.432628038187
 20
138.4338843579657
 30
0.0
  0
VERTEX
  5
5F7
  8
0
 10
1332.524173656422
 20
138.3267580237205
 30
0.0
  0
VERTEX
  5
5F8
  8
0
 10
1332.627704021555
 20
138.2814367298041
 30
0.0
  0
SEQEND
  5
770
  8
0
  0
POLYLINE
  5
1C0
  8
0
 66
     1
 10
0.0
 20
0.0
 30
0.0
  0
VERTEX
  5
5F9
  8
0
 10
1332.62770402
 20
169.70840478
 30
0.0
  0
VERTEX
  5
5FA
  8
0
 10
1332.739240517695
 20
169.7266301972555
 30
0.0
  0
VERTEX
  5
5FB
  8
0
 10
1332.854496863362
 20
169.8077019337823
 30
0.0
  0
VERTEX
  5
5FC
  8
0
 10
1332.969043820285
 20
169.9485044482182
 30
0.0
  0
VERTEX
  5
5FD
  8
0
 10
1333.078479413157
 20
170.1436267789088
 30
0.0
  0
VERTEX
  5
5FE
  8
0
 10
1333.178598093526
 20
170.3855704841285
 30
0.0
  0
VERTEX
  5
5FF
  8
0
 10
1333.265552356662
 20
170.6650378029906
 30
0.0
  0
VERTEX
  5
600
  8
0
 10
1333.336000599005
 20
170.9712889631827
 30
0.0
  0
VERTEX
  5
601
  8
0
 10
1333.387235534114
 20
171.2925549043931
 30
0.0
  0
VERTEX
  5
602
  8
0
 10
1333.417288232172
 20
171.6164895566972
 30
0.0
  0
VERTEX
  5
603
  8
0
 10
1333.425003784848
 20
171.9306442930999
 30
0.0
  0
VERTEX
  5
604
  8
0
 10
1333.41008568778
 20
172.2229463232888
 30
0.0
  0
VERTEX
  5
605
  8
0
 10
1333.373107235072
 20
172.4821626441943
 30
0.0
  0
VERTEX
  5
606
  8
0
 10
1333.31548948792
 20
172.6983317179967
 30
0.0
  0
VERTEX
  5
607
  8
0
 10
1333.239446664029
 20
172.8631462884379
 30
0.0
  0
VERTEX
  5
608
  8
0
 10
1333.14790104647
 20
172.9702726240191
 30
0.0
  0
VERTEX
  5
609
  8
0
 10
1333.044370681979
 20
173.0155939197507
 30
0.0
  0
SEQEND
  5
771
  8
0
  0
POLYLINE
  5
1C1
  8
0
 66
     1
 10
0.0
 20
0.0
 30
0.0
  0
VERTEX
  5
60A
  8
0
 10
1333.044370681979
 20
173.0155939197507
 30
0.0
  0
VERTEX
  5
60B
  8
0
 10
1332.932834184131
 20
172.9973685035438
 30
0.0
  0
VERTEX
  5
60C
  8
0
 10
1332.817577838224
 20
172.9162967677487
 30
0.0
  0
VERTEX
  5
60D
  8
0
 10
1332.703030881003
 20
172.7754942537134
 30
0.0
  0
VERTEX
  5
60E
  8
0
 10
1332.593595287807
 20
172.5803719231018
 30
0.0
  0
VERTEX
  5
60F
  8
0
 10
1332.493476607119
 20
172.3384282176704
 30
0.0
  0
VERTEX
  5
610
  8
0
 10
1332.4065223437
 20
172.0589608983566
 30
0.0
  0
VERTEX
  5
611
  8
0
 10
1332.336074101135
 20
171.752709737539
 30
0.0
  0
VERTEX
  5
612
  8
0
 10
1332.284839165886
 20
171.4314437956069
 30
0.0
  0
VERTEX
  5
613
  8
0
 10
1332.254786467785
 20
171.107509142569
 30
0.0
  0
VERTEX
  5
614
  8
0
 10
1332.247070915169
 20
170.7933544055052
 30
0.0
  0
VERTEX
  5
615
  8
0
 10
1332.261989012399
 20
170.5010523748083
 30
0.0
  0
VERTEX
  5
616
  8
0
 10
1332.298967465363
 20
170.2418360536188
 30
0.0
  0
VERTEX
  5
617
  8
0
 10
1332.356585212849
 20
170.0256669798125
 30
0.0
  0
VERTEX
  5
618
  8
0
 10
1332.432628037127
 20
169.8608524096857
 30
0.0
  0
VERTEX
  5
619
  8
0
 10
1332.5241736551
 20
169.7537260747536
 30
0.0
  0
VERTEX
  5
61A
  8
0
 10
1332.62770402
 20
169.70840478
 30
0.0
  0
SEQEND
  5
772
  8
0
  0
POLYLINE
  5
1C2
  8
0
 66
     1
 10
0.0
 20
0.0
 30
0.0
  0
VERTEX
  5
61B
  8
0
 10
1332.627704021555
 20
201.1353728298041
 30
0.0
  0
VERTEX
  5
61C
  8
0
 10
1332.739240519232
 20
201.1535982479284
 30
0.0
  0
VERTEX
  5
61D
  8
0
 10
1332.854496864816
 20
201.2346699851856
 30
0.0
  0
VERTEX
  5
61E
  8
0
 10
1332.9690438216
 20
201.3754725001911
 30
0.0
  0
VERTEX
  5
61F
  8
0
 10
1333.078479414293
 20
201.5705948312783
 30
0.0
  0
VERTEX
  5
620
  8
0
 10
1333.178598094456
 20
201.8125385367197
 30
0.0
  0
VERTEX
  5
621
  8
0
 10
1333.265552357373
 20
202.0920058556368
 30
0.0
  0
VERTEX
  5
622
  8
0
 10
1333.336000599499
 20
202.3982570157342
 30
0.0
  0
VERTEX
  5
623
  8
0
 10
1333.387235534408
 20
202.719522956725
 30
0.0
  0
VERTEX
  5
624
  8
0
 10
1333.417288232291
 20
203.0434576087151
 30
0.0
  0
VERTEX
  5
625
  8
0
 10
1333.425003784828
 20
203.3576123447438
 30
0.0
  0
VERTEX
  5
626
  8
0
 10
1333.410085687663
 20
203.6499143745347
 30
0.0
  0
VERTEX
  5
627
  8
0
 10
1333.373107234901
 20
203.9091306950534
 30
0.0
  0
VERTEX
  5
628
  8
0
 10
1333.315489487739
 20
204.1252997685131
 30
0.0
  0
VERTEX
  5
629
  8
0
 10
1333.239446663878
 20
204.2901143386836
 30
0.0
  0
VERTEX
  5
62A
  8
0
 10
1333.147901046382
 20
204.397240674088
 30
0.0
  0
VERTEX
  5
62B
  8
0
 10
1333.044370681979
 20
204.4425619697507
 30
0.0
  0
SEQEND
  5
773
  8
0
  0
POLYLINE
  5
1C3
  8
0
 66
     1
 10
0.0
 20
0.0
 30
0.0
  0
VERTEX
  5
62C
  8
0
 10
1333.044370681979
 20
204.4425619697507
 30
0.0
  0
VERTEX
  5
62D
  8
0
 10
1332.932834184028
 20
204.4243365534989
 30
0.0
  0
VERTEX
  5
62E
  8
0
 10
1332.817577838016
 20
204.3432648175482
 30
0.0
  0
VERTEX
  5
62F
  8
0
 10
1332.7030308807
 20
204.2024623032581
 30
0.0
  0
VERTEX
  5
630
  8
0
 10
1332.593595287428
 20
204.0073399723119
 30
0.0
  0
VERTEX
  5
631
  8
0
 10
1332.493476606696
 20
203.7653962664926
 30
0.0
  0
VERTEX
  5
632
  8
0
 10
1332.406522343273
 20
203.4859289467689
 30
0.0
  0
VERTEX
  5
633
  8
0
 10
1332.33607410075
 20
203.1796777855544
 30
0.0
  0
VERTEX
  5
634
  8
0
 10
1332.284839165592
 20
202.858411843275
 30
0.0
  0
VERTEX
  5
635
  8
0
 10
1332.254786467631
 20
202.5344771899745
 30
0.0
  0
VERTEX
  5
636
  8
0
 10
1332.247070915201
 20
202.2203224527653
 30
0.0
  0
VERTEX
  5
637
  8
0
 10
1332.261989012657
 20
201.9280204220675
 30
0.0
  0
VERTEX
  5
638
  8
0
 10
1332.298967465876
 20
201.6688041010416
 30
0.0
  0
VERTEX
  5
639
  8
0
 10
1332.356585213634
 20
201.452635027575
 30
0.0
  0
VERTEX
  5
63A
  8
0
 10
1332.432628038187
 20
201.2878204579657
 30
0.0
  0
VERTEX
  5
63B
  8
0
 10
1332.524173656422
 20
201.1806941237205
 30
0.0
  0
VERTEX
  5
63C
  8
0
 10
1332.627704021555
 20
201.1353728298041
 30
0.0
  0
SEQEND
  5
774
  8
0
  0
POLYLINE
  5
1C4
  8
0
 66
     1
 10
0.0
 20
0.0
 30
0.0
  0
VERTEX
  5
63D
  8
0
 10
1332.62770402
 20
232.56234088
 30
0.0
  0
VERTEX
  5
63E
  8
0
 10
1332.739240517695
 20
232.5805662972555
 30
0.0
  0
VERTEX
  5
63F
  8
0
 10
1332.854496863362
 20
232.6616380337823
 30
0.0
  0
VERTEX
  5
640
  8
0
 10
1332.969043820285
 20
232.8024405482182
 30
0.0
  0
VERTEX
  5
641
  8
0
 10
1333.078479413157
 20
232.9975628789088
 30
0.0
  0
VERTEX
  5
642
  8
0
 10
1333.178598093526
 20
233.2395065841285
 30
0.0
  0
VERTEX
  5
643
  8
0
 10
1333.265552356662
 20
233.5189739029906
 30
0.0
  0
VERTEX
  5
644
  8
0
 10
1333.336000599005
 20
233.8252250631827
 30
0.0
  0
VERTEX
  5
645
  8
0
 10
1333.387235534114
 20
234.1464910043931
 30
0.0
  0
VERTEX
  5
646
  8
0
 10
1333.417288232172
 20
234.4704256566972
 30
0.0
  0
VERTEX
  5
647
  8
0
 10
1333.425003784848
 20
234.7845803930999
 30
0.0
  0
VERTEX
  5
648
  8
0
 10
1333.41008568778
 20
235.0768824232888
 30
0.0
  0
VERTEX
  5
649
  8
0
 10
1333.373107235072
 20
235.3360987441943
 30
0.0
  0
VERTEX
  5
64A
  8
0
 10
1333.31548948792
 20
235.5522678179967
 30
0.0
  0
VERTEX
  5
64B
  8
0
 10
1333.239446664029
 20
235.7170823884379
 30
0.0
  0
VERTEX
  5
64C
  8
0
 10
1333.14790104647
 20
235.8242087240191
 30
0.0
  0
VERTEX
  5
64D
  8
0
 10
1333.044370681979
 20
235.8695300197507
 30
0.0
  0
SEQEND
  5
775
  8
0
  0
POLYLINE
  5
1C5
  8
0
 66
     1
 10
0.0
 20
0.0
 30
0.0
  0
VERTEX
  5
64E
  8
0
 10
1333.044370681979
 20
235.8695300197507
 30
0.0
  0
VERTEX
  5
64F
  8
0
 10
1332.932834184028
 20
235.851304603499
 30
0.0
  0
VERTEX
  5
650
  8
0
 10
1332.817577838016
 20
235.7702328675482
 30
0.0
  0
VERTEX
  5
651
  8
0
 10
1332.7030308807
 20
235.6294303532581
 30
0.0
  0
VERTEX
  5
652
  8
0
 10
1332.593595287428
 20
235.4343080223119
 30
0.0
  0
VERTEX
  5
653
  8
0
 10
1332.493476606696
 20
235.1923643164926
 30
0.0
  0
VERTEX
  5
654
  8
0
 10
1332.406522343273
 20
234.9128969967689
 30
0.0
  0
VERTEX
  5
655
  8
0
 10
1332.33607410075
 20
234.6066458355544
 30
0.0
  0
VERTEX
  5
656
  8
0
 10
1332.284839165592
 20
234.285379893275
 30
0.0
  0
VERTEX
  5
657
  8
0
 10
1332.254786467631
 20
233.9614452399745
 30
0.0
  0
VERTEX
  5
658
  8
0
 10
1332.247070915201
 20
233.6472905027653
 30
0.0
  0
VERTEX
  5
659
  8
0
 10
1332.261989012657
 20
233.3549884720675
 30
0.0
  0
VERTEX
  5
65A
  8
0
 10
1332.298967465876
 20
233.0957721510416
 30
0.0
  0
VERTEX
  5
65B
  8
0
 10
1332.356585213634
 20
232.879603077575
 30
0.0
  0
VERTEX
  5
65C
  8
0
 10
1332.432628038187
 20
232.7147885079657
 30
0.0
  0
VERTEX
  5
65D
  8
0
 10
1332.524173656422
 20
232.6076621737205
 30
0.0
  0
VERTEX
  5
65E
  8
0
 10
1332.627704021555
 20
232.5623408798041
 30
0.0
  0
SEQEND
  5
776
  8
0
  0
POLYLINE
  5
1C6
  8
0
 66
     1
 10
0.0
 20
0.0
 30
0.0
  0
VERTEX
  5
65F
  8
0
 10
1335.573982281555
 20
93.73935782980413
 30
0.0
  0
VERTEX
  5
660
  8
0
 10
1335.685518779232
 20
93.75758324792844
 30
0.0
  0
VERTEX
  5
661
  8
0
 10
1335.800775124816
 20
93.83865498518564
 30
0.0
  0
VERTEX
  5
662
  8
0
 10
1335.9153220816
 20
93.97945750019115
 30
0.0
  0
VERTEX
  5
663
  8
0
 10
1336.024757674293
 20
94.17457983127827
 30
0.0
  0
VERTEX
  5
664
  8
0
 10
1336.124876354456
 20
94.41652353671971
 30
0.0
  0
VERTEX
  5
665
  8
0
 10
1336.211830617373
 20
94.69599085563675
 30
0.0
  0
VERTEX
  5
666
  8
0
 10
1336.282278859499
 20
95.0022420157342
 30
0.0
  0
VERTEX
  5
667
  8
0
 10
1336.333513794408
 20
95.323507956725
 30
0.0
  0
VERTEX
  5
668
  8
0
 10
1336.363566492291
 20
95.64744260871508
 30
0.0
  0
VERTEX
  5
669
  8
0
 10
1336.371282044828
 20
95.9615973447438
 30
0.0
  0
VERTEX
  5
66A
  8
0
 10
1336.356363947663
 20
96.25389937453467
 30
0.0
  0
VERTEX
  5
66B
  8
0
 10
1336.319385494901
 20
96.51311569505337
 30
0.0
  0
VERTEX
  5
66C
  8
0
 10
1336.261767747739
 20
96.7292847685131
 30
0.0
  0
VERTEX
  5
66D
  8
0
 10
1336.185724923878
 20
96.89409933868357
 30
0.0
  0
VERTEX
  5
66E
  8
0
 10
1336.094179306382
 20
97.00122567408802
 30
0.0
  0
VERTEX
  5
66F
  8
0
 10
1335.990648941979
 20
97.04654696975071
 30
0.0
  0
SEQEND
  5
777
  8
0
  0
POLYLINE
  5
1C7
  8
0
 66
     1
 10
0.0
 20
0.0
 30
0.0
  0
VERTEX
  5
670
  8
0
 10
1335.990648941979
 20
97.04654696975071
 30
0.0
  0
VERTEX
  5
671
  8
0
 10
1335.879112444131
 20
97.02832155354383
 30
0.0
  0
VERTEX
  5
672
  8
0
 10
1335.763856098224
 20
96.94724981774868
 30
0.0
  0
VERTEX
  5
673
  8
0
 10
1335.649309141003
 20
96.80644730371343
 30
0.0
  0
VERTEX
  5
674
  8
0
 10
1335.539873547807
 20
96.61132497310179
 30
0.0
  0
VERTEX
  5
675
  8
0
 10
1335.439754867119
 20
96.3693812676704
 30
0.0
  0
VERTEX
  5
676
  8
0
 10
1335.3528006037
 20
96.0899139483566
 30
0.0
  0
VERTEX
  5
677
  8
0
 10
1335.282352361136
 20
95.78366278753897
 30
0.0
  0
VERTEX
  5
678
  8
0
 10
1335.231117425886
 20
95.46239684560692
 30
0.0
  0
VERTEX
  5
679
  8
0
 10
1335.201064727785
 20
95.13846219256902
 30
0.0
  0
VERTEX
  5
67A
  8
0
 10
1335.193349175169
 20
94.82430745550519
 30
0.0
  0
VERTEX
  5
67B
  8
0
 10
1335.208267272399
 20
94.53200542480835
 30
0.0
  0
VERTEX
  5
67C
  8
0
 10
1335.245245725363
 20
94.27278910361886
 30
0.0
  0
VERTEX
  5
67D
  8
0
 10
1335.302863472849
 20
94.05662002981254
 30
0.0
  0
VERTEX
  5
67E
  8
0
 10
1335.378906297127
 20
93.89180545968567
 30
0.0
  0
VERTEX
  5
67F
  8
0
 10
1335.4704519151
 20
93.7846791247536
 30
0.0
  0
VERTEX
  5
680
  8
0
 10
1335.57398228
 20
93.73935783
 30
0.0
  0
SEQEND
  5
778
  8
0
  0
POLYLINE
  5
1C8
  8
0
 66
     1
 10
0.0
 20
0.0
 30
0.0
  0
VERTEX
  5
681
  8
0
 10
1335.57398228
 20
125.16632589
 30
0.0
  0
VERTEX
  5
682
  8
0
 10
1335.685518777695
 20
125.1845513072555
 30
0.0
  0
VERTEX
  5
683
  8
0
 10
1335.800775123362
 20
125.2656230437823
 30
0.0
  0
VERTEX
  5
684
  8
0
 10
1335.915322080285
 20
125.4064255582182
 30
0.0
  0
VERTEX
  5
685
  8
0
 10
1336.024757673157
 20
125.6015478889088
 30
0.0
  0
VERTEX
  5
686
  8
0
 10
1336.124876353527
 20
125.8434915941285
 30
0.0
  0
VERTEX
  5
687
  8
0
 10
1336.211830616662
 20
126.1229589129906
 30
0.0
  0
VERTEX
  5
688
  8
0
 10
1336.282278859005
 20
126.4292100731827
 30
0.0
  0
VERTEX
  5
689
  8
0
 10
1336.333513794114
 20
126.7504760143931
 30
0.0
  0
VERTEX
  5
68A
  8
0
 10
1336.363566492172
 20
127.0744106666972
 30
0.0
  0
VERTEX
  5
68B
  8
0
 10
1336.371282044848
 20
127.3885654030999
 30
0.0
  0
VERTEX
  5
68C
  8
0
 10
1336.35636394778
 20
127.6808674332889
 30
0.0
  0
VERTEX
  5
68D
  8
0
 10
1336.319385495072
 20
127.9400837541943
 30
0.0
  0
VERTEX
  5
68E
  8
0
 10
1336.26176774792
 20
128.1562528279968
 30
0.0
  0
VERTEX
  5
68F
  8
0
 10
1336.185724924029
 20
128.3210673984379
 30
0.0
  0
VERTEX
  5
690
  8
0
 10
1336.094179306471
 20
128.4281937340191
 30
0.0
  0
VERTEX
  5
691
  8
0
 10
1335.990648941979
 20
128.4735150297507
 30
0.0
  0
SEQEND
  5
779
  8
0
  0
POLYLINE
  5
1C9
  8
0
 66
     1
 10
0.0
 20
0.0
 30
0.0
  0
VERTEX
  5
692
  8
0
 10
1335.990648941979
 20
128.4735150297507
 30
0.0
  0
VERTEX
  5
693
  8
0
 10
1335.879112444131
 20
128.4552896135438
 30
0.0
  0
VERTEX
  5
694
  8
0
 10
1335.763856098224
 20
128.3742178777487
 30
0.0
  0
VERTEX
  5
695
  8
0
 10
1335.649309141003
 20
128.2334153637134
 30
0.0
  0
VERTEX
  5
696
  8
0
 10
1335.539873547807
 20
128.0382930331018
 30
0.0
  0
VERTEX
  5
697
  8
0
 10
1335.439754867119
 20
127.7963493276704
 30
0.0
  0
VERTEX
  5
698
  8
0
 10
1335.3528006037
 20
127.5168820083566
 30
0.0
  0
VERTEX
  5
699
  8
0
 10
1335.282352361136
 20
127.210630847539
 30
0.0
  0
VERTEX
  5
69A
  8
0
 10
1335.231117425886
 20
126.8893649056069
 30
0.0
  0
VERTEX
  5
69B
  8
0
 10
1335.201064727785
 20
126.565430252569
 30
0.0
  0
VERTEX
  5
69C
  8
0
 10
1335.193349175169
 20
126.2512755155052
 30
0.0
  0
VERTEX
  5
69D
  8
0
 10
1335.208267272399
 20
125.9589734848084
 30
0.0
  0
VERTEX
  5
69E
  8
0
 10
1335.245245725363
 20
125.6997571636189
 30
0.0
  0
VERTEX
  5
69F
  8
0
 10
1335.302863472849
 20
125.4835880898125
 30
0.0
  0
VERTEX
  5
6A0
  8
0
 10
1335.378906297127
 20
125.3187735196857
 30
0.0
  0
VERTEX
  5
6A1
  8
0
 10
1335.4704519151
 20
125.2116471847536
 30
0.0
  0
VERTEX
  5
6A2
  8
0
 10
1335.57398228
 20
125.16632589
 30
0.0
  0
SEQEND
  5
77A
  8
0
  0
POLYLINE
  5
1CA
  8
0
 66
     1
 10
0.0
 20
0.0
 30
0.0
  0
VERTEX
  5
6A3
  8
0
 10
1335.57398228
 20
156.59329394
 30
0.0
  0
VERTEX
  5
6A4
  8
0
 10
1335.685518777695
 20
156.6115193572555
 30
0.0
  0
VERTEX
  5
6A5
  8
0
 10
1335.800775123362
 20
156.6925910937823
 30
0.0
  0
VERTEX
  5
6A6
  8
0
 10
1335.915322080285
 20
156.8333936082182
 30
0.0
  0
VERTEX
  5
6A7
  8
0
 10
1336.024757673157
 20
157.0285159389088
 30
0.0
  0
VERTEX
  5
6A8
  8
0
 10
1336.124876353527
 20
157.2704596441285
 30
0.0
  0
VERTEX
  5
6A9
  8
0
 10
1336.211830616662
 20
157.5499269629906
 30
0.0
  0
VERTEX
  5
6AA
  8
0
 10
1336.282278859005
 20
157.8561781231827
 30
0.0
  0
VERTEX
  5
6AB
  8
0
 10
1336.333513794114
 20
158.1774440643931
 30
0.0
  0
VERTEX
  5
6AC
  8
0
 10
1336.363566492172
 20
158.5013787166972
 30
0.0
  0
VERTEX
  5
6AD
  8
0
 10
1336.371282044848
 20
158.8155334530999
 30
0.0
  0
VERTEX
  5
6AE
  8
0
 10
1336.35636394778
 20
159.1078354832888
 30
0.0
  0
VERTEX
  5
6AF
  8
0
 10
1336.319385495072
 20
159.3670518041943
 30
0.0
  0
VERTEX
  5
6B0
  8
0
 10
1336.26176774792
 20
159.5832208779967
 30
0.0
  0
VERTEX
  5
6B1
  8
0
 10
1336.185724924029
 20
159.7480354484379
 30
0.0
  0
VERTEX
  5
6B2
  8
0
 10
1336.094179306471
 20
159.8551617840191
 30
0.0
  0
VERTEX
  5
6B3
  8
0
 10
1335.990648941979
 20
159.9004830797507
 30
0.0
  0
SEQEND
  5
77B
  8
0
  0
POLYLINE
  5
1CB
  8
0
 66
     1
 10
0.0
 20
0.0
 30
0.0
  0
VERTEX
  5
6B4
  8
0
 10
1335.990648941979
 20
159.9004830797507
 30
0.0
  0
VERTEX
  5
6B5
  8
0
 10
1335.879112444131
 20
159.8822576635438
 30
0.0
  0
VERTEX
  5
6B6
  8
0
 10
1335.763856098224
 20
159.8011859277487
 30
0.0
  0
VERTEX
  5
6B7
  8
0
 10
1335.649309141003
 20
159.6603834137134
 30
0.0
  0
VERTEX
  5
6B8
  8
0
 10
1335.539873547807
 20
159.4652610831018
 30
0.0
  0
VERTEX
  5
6B9
  8
0
 10
1335.439754867119
 20
159.2233173776704
 30
0.0
  0
VERTEX
  5
6BA
  8
0
 10
1335.3528006037
 20
158.9438500583566
 30
0.0
  0
VERTEX
  5
6BB
  8
0
 10
1335.282352361136
 20
158.637598897539
 30
0.0
  0
VERTEX
  5
6BC
  8
0
 10
1335.231117425886
 20
158.3163329556069
 30
0.0
  0
VERTEX
  5
6BD
  8
0
 10
1335.201064727785
 20
157.992398302569
 30
0.0
  0
VERTEX
  5
6BE
  8
0
 10
1335.193349175169
 20
157.6782435655052
 30
0.0
  0
VERTEX
  5
6BF
  8
0
 10
1335.208267272399
 20
157.3859415348083
 30
0.0
  0
VERTEX
  5
6C0
  8
0
 10
1335.245245725363
 20
157.1267252136188
 30
0.0
  0
VERTEX
  5
6C1
  8
0
 10
1335.302863472849
 20
156.9105561398125
 30
0.0
  0
VERTEX
  5
6C2
  8
0
 10
1335.378906297127
 20
156.7457415696857
 30
0.0
  0
VERTEX
  5
6C3
  8
0
 10
1335.4704519151
 20
156.6386152347536
 30
0.0
  0
VERTEX
  5
6C4
  8
0
 10
1335.57398228
 20
156.59329394
 30
0.0
  0
SEQEND
  5
77C
  8
0
  0
POLYLINE
  5
1CC
  8
0
 66
     1
 10
0.0
 20
0.0
 30
0.0
  0
VERTEX
  5
6C5
  8
0
 10
1335.57398228
 20
188.02026199
 30
0.0
  0
VERTEX
  5
6C6
  8
0
 10
1335.685518777695
 20
188.0384874072555
 30
0.0
  0
VERTEX
  5
6C7
  8
0
 10
1335.800775123362
 20
188.1195591437823
 30
0.0
  0
VERTEX
  5
6C8
  8
0
 10
1335.915322080285
 20
188.2603616582182
 30
0.0
  0
VERTEX
  5
6C9
  8
0
 10
1336.024757673157
 20
188.4554839889088
 30
0.0
  0
VERTEX
  5
6CA
  8
0
 10
1336.124876353527
 20
188.6974276941285
 30
0.0
  0
VERTEX
  5
6CB
  8
0
 10
1336.211830616662
 20
188.9768950129906
 30
0.0
  0
VERTEX
  5
6CC
  8
0
 10
1336.282278859005
 20
189.2831461731827
 30
0.0
  0
VERTEX
  5
6CD
  8
0
 10
1336.333513794114
 20
189.6044121143931
 30
0.0
  0
VERTEX
  5
6CE
  8
0
 10
1336.363566492172
 20
189.9283467666972
 30
0.0
  0
VERTEX
  5
6CF
  8
0
 10
1336.371282044848
 20
190.2425015030999
 30
0.0
  0
VERTEX
  5
6D0
  8
0
 10
1336.35636394778
 20
190.5348035332888
 30
0.0
  0
VERTEX
  5
6D1
  8
0
 10
1336.319385495072
 20
190.7940198541943
 30
0.0
  0
VERTEX
  5
6D2
  8
0
 10
1336.26176774792
 20
191.0101889279967
 30
0.0
  0
VERTEX
  5
6D3
  8
0
 10
1336.185724924029
 20
191.1750034984379
 30
0.0
  0
VERTEX
  5
6D4
  8
0
 10
1336.094179306471
 20
191.2821298340191
 30
0.0
  0
VERTEX
  5
6D5
  8
0
 10
1335.990648941979
 20
191.3274511297507
 30
0.0
  0
SEQEND
  5
77D
  8
0
  0
POLYLINE
  5
1CD
  8
0
 66
     1
 10
0.0
 20
0.0
 30
0.0
  0
VERTEX
  5
6D6
  8
0
 10
1335.990648941979
 20
191.3274511297507
 30
0.0
  0
VERTEX
  5
6D7
  8
0
 10
1335.879112444029
 20
191.3092257134989
 30
0.0
  0
VERTEX
  5
6D8
  8
0
 10
1335.763856098016
 20
191.2281539775482
 30
0.0
  0
VERTEX
  5
6D9
  8
0
 10
1335.6493091407
 20
191.0873514632581
 30
0.0
  0
VERTEX
  5
6DA
  8
0
 10
1335.539873547428
 20
190.8922291323119
 30
0.0
  0
VERTEX
  5
6DB
  8
0
 10
1335.439754866696
 20
190.6502854264926
 30
0.0
  0
VERTEX
  5
6DC
  8
0
 10
1335.352800603273
 20
190.3708181067689
 30
0.0
  0
VERTEX
  5
6DD
  8
0
 10
1335.282352360751
 20
190.0645669455544
 30
0.0
  0
VERTEX
  5
6DE
  8
0
 10
1335.231117425592
 20
189.743301003275
 30
0.0
  0
VERTEX
  5
6DF
  8
0
 10
1335.201064727631
 20
189.4193663499745
 30
0.0
  0
VERTEX
  5
6E0
  8
0
 10
1335.193349175202
 20
189.1052116127653
 30
0.0
  0
VERTEX
  5
6E1
  8
0
 10
1335.208267272657
 20
188.8129095820675
 30
0.0
  0
VERTEX
  5
6E2
  8
0
 10
1335.245245725876
 20
188.5536932610416
 30
0.0
  0
VERTEX
  5
6E3
  8
0
 10
1335.302863473634
 20
188.337524187575
 30
0.0
  0
VERTEX
  5
6E4
  8
0
 10
1335.378906298187
 20
188.1727096179657
 30
0.0
  0
VERTEX
  5
6E5
  8
0
 10
1335.470451916422
 20
188.0655832837205
 30
0.0
  0
VERTEX
  5
6E6
  8
0
 10
1335.573982281555
 20
188.0202619898041
 30
0.0
  0
SEQEND
  5
77E
  8
0
  0
POLYLINE
  5
1CE
  8
0
 66
     1
 10
0.0
 20
0.0
 30
0.0
  0
VERTEX
  5
6E7
  8
0
 10
1335.57398228
 20
219.44723004
 30
0.0
  0
VERTEX
  5
6E8
  8
0
 10
1335.685518777695
 20
219.4654554572555
 30
0.0
  0
VERTEX
  5
6E9
  8
0
 10
1335.800775123362
 20
219.5465271937823
 30
0.0
  0
VERTEX
  5
6EA
  8
0
 10
1335.915322080285
 20
219.6873297082182
 30
0.0
  0
VERTEX
  5
6EB
  8
0
 10
1336.024757673157
 20
219.8824520389088
 30
0.0
  0
VERTEX
  5
6EC
  8
0
 10
1336.124876353527
 20
220.1243957441285
 30
0.0
  0
VERTEX
  5
6ED
  8
0
 10
1336.211830616662
 20
220.4038630629906
 30
0.0
  0
VERTEX
  5
6EE
  8
0
 10
1336.282278859005
 20
220.7101142231827
 30
0.0
  0
VERTEX
  5
6EF
  8
0
 10
1336.333513794114
 20
221.0313801643931
 30
0.0
  0
VERTEX
  5
6F0
  8
0
 10
1336.363566492172
 20
221.3553148166972
 30
0.0
  0
VERTEX
  5
6F1
  8
0
 10
1336.371282044848
 20
221.6694695530999
 30
0.0
  0
VERTEX
  5
6F2
  8
0
 10
1336.35636394778
 20
221.9617715832888
 30
0.0
  0
VERTEX
  5
6F3
  8
0
 10
1336.319385495072
 20
222.2209879041943
 30
0.0
  0
VERTEX
  5
6F4
  8
0
 10
1336.26176774792
 20
222.4371569779967
 30
0.0
  0
VERTEX
  5
6F5
  8
0
 10
1336.185724924029
 20
222.6019715484379
 30
0.0
  0
VERTEX
  5
6F6
  8
0
 10
1336.094179306471
 20
222.7090978840191
 30
0.0
  0
VERTEX
  5
6F7
  8
0
 10
1335.990648941979
 20
222.7544191797507
 30
0.0
  0
SEQEND
  5
77F
  8
0
  0
POLYLINE
  5
1CF
  8
0
 66
     1
 10
0.0
 20
0.0
 30
0.0
  0
VERTEX
  5
6F8
  8
0
 10
1335.990648941979
 20
222.7544191797507
 30
0.0
  0
VERTEX
  5
6F9
  8
0
 10
1335.879112444029
 20
222.736193763499
 30
0.0
  0
VERTEX
  5
6FA
  8
0
 10
1335.763856098016
 20
222.6551220275482
 30
0.0
  0
VERTEX
  5
6FB
  8
0
 10
1335.6493091407
 20
222.5143195132581
 30
0.0
  0
VERTEX
  5
6FC
  8
0
 10
1335.539873547428
 20
222.3191971823119
 30
0.0
  0
VERTEX
  5
6FD
  8
0
 10
1335.439754866696
 20
222.0772534764926
 30
0.0
  0
VERTEX
  5
6FE
  8
0
 10
1335.352800603273
 20
221.7977861567689
 30
0.0
  0
VERTEX
  5
6FF
  8
0
 10
1335.282352360751
 20
221.4915349955544
 30
0.0
  0
VERTEX
  5
700
  8
0
 10
1335.231117425592
 20
221.170269053275
 30
0.0
  0
VERTEX
  5
701
  8
0
 10
1335.201064727631
 20
220.8463343999745
 30
0.0
  0
VERTEX
  5
702
  8
0
 10
1335.193349175202
 20
220.5321796627653
 30
0.0
  0
VERTEX
  5
703
  8
0
 10
1335.208267272657
 20
220.2398776320675
 30
0.0
  0
VERTEX
  5
704
  8
0
 10
1335.245245725876
 20
219.9806613110416
 30
0.0
  0
VERTEX
  5
705
  8
0
 10
1335.302863473634
 20
219.764492237575
 30
0.0
  0
VERTEX
  5
706
  8
0
 10
1335.378906298187
 20
219.5996776679657
 30
0.0
  0
VERTEX
  5
707
  8
0
 10
1335.470451916422
 20
219.4925513337205
 30
0.0
  0
VERTEX
  5
708
  8
0
 10
1335.573982281555
 20
219.4472300398041
 30
0.0
  0
SEQEND
  5
780
  8
0
  0
POLYLINE
  5
1D0
  8
0
 66
     1
 10
0.0
 20
0.0
 30
0.0
  0
VERTEX
  5
709
  8
0
 10
1335.57398228
 20
250.8741981
 30
0.0
  0
VERTEX
  5
70A
  8
0
 10
1335.685518777695
 20
250.8924235172555
 30
0.0
  0
VERTEX
  5
70B
  8
0
 10
1335.800775123362
 20
250.9734952537823
 30
0.0
  0
VERTEX
  5
70C
  8
0
 10
1335.915322080285
 20
251.1142977682182
 30
0.0
  0
VERTEX
  5
70D
  8
0
 10
1336.024757673157
 20
251.3094200989088
 30
0.0
  0
VERTEX
  5
70E
  8
0
 10
1336.124876353527
 20
251.5513638041285
 30
0.0
  0
VERTEX
  5
70F
  8
0
 10
1336.211830616662
 20
251.8308311229906
 30
0.0
  0
VERTEX
  5
710
  8
0
 10
1336.282278859005
 20
252.1370822831827
 30
0.0
  0
VERTEX
  5
711
  8
0
 10
1336.333513794114
 20
252.4583482243931
 30
0.0
  0
VERTEX
  5
712
  8
0
 10
1336.363566492172
 20
252.7822828766972
 30
0.0
  0
VERTEX
  5
713
  8
0
 10
1336.371282044848
 20
253.0964376130999
 30
0.0
  0
VERTEX
  5
714
  8
0
 10
1336.35636394778
 20
253.3887396432888
 30
0.0
  0
VERTEX
  5
715
  8
0
 10
1336.319385495072
 20
253.6479559641943
 30
0.0
  0
VERTEX
  5
716
  8
0
 10
1336.26176774792
 20
253.8641250379967
 30
0.0
  0
VERTEX
  5
717
  8
0
 10
1336.185724924029
 20
254.0289396084379
 30
0.0
  0
VERTEX
  5
718
  8
0
 10
1336.094179306471
 20
254.1360659440192
 30
0.0
  0
VERTEX
  5
719
  8
0
 10
1335.990648941979
 20
254.1813872397507
 30
0.0
  0
SEQEND
  5
781
  8
0
  0
POLYLINE
  5
1D1
  8
0
 66
     1
 10
0.0
 20
0.0
 30
0.0
  0
VERTEX
  5
71A
  8
0
 10
1335.990648941979
 20
254.1813872397507
 30
0.0
  0
VERTEX
  5
71B
  8
0
 10
1335.879112444131
 20
254.1631618235438
 30
0.0
  0
VERTEX
  5
71C
  8
0
 10
1335.763856098224
 20
254.0820900877487
 30
0.0
  0
VERTEX
  5
71D
  8
0
 10
1335.649309141003
 20
253.9412875737134
 30
0.0
  0
VERTEX
  5
71E
  8
0
 10
1335.539873547807
 20
253.7461652431018
 30
0.0
  0
VERTEX
  5
71F
  8
0
 10
1335.439754867119
 20
253.5042215376704
 30
0.0
  0
VERTEX
  5
720
  8
0
 10
1335.3528006037
 20
253.2247542183566
 30
0.0
  0
VERTEX
  5
721
  8
0
 10
1335.282352361136
 20
252.918503057539
 30
0.0
  0
VERTEX
  5
722
  8
0
 10
1335.231117425886
 20
252.5972371156069
 30
0.0
  0
VERTEX
  5
723
  8
0
 10
1335.201064727785
 20
252.273302462569
 30
0.0
  0
VERTEX
  5
724
  8
0
 10
1335.193349175169
 20
251.9591477255052
 30
0.0
  0
VERTEX
  5
725
  8
0
 10
1335.208267272399
 20
251.6668456948083
 30
0.0
  0
VERTEX
  5
726
  8
0
 10
1335.245245725363
 20
251.4076293736188
 30
0.0
  0
VERTEX
  5
727
  8
0
 10
1335.302863472849
 20
251.1914602998125
 30
0.0
  0
VERTEX
  5
728
  8
0
 10
1335.378906297127
 20
251.0266457296857
 30
0.0
  0
VERTEX
  5
729
  8
0
 10
1335.4704519151
 20
250.9195193947536
 30
0.0
  0
VERTEX
  5
72A
  8
0
 10
1335.57398228
 20
250.8741981
 30
0.0
  0
SEQEND
  5
782
  8
0
  0
POLYLINE
  5
1D2
  8
0
 66
     1
 10
0.0
 20
0.0
 30
0.0
  0
VERTEX
  5
1D3
  8
0
 10
1340.49636082
 20
269.25597698
 30
0.0
  0
VERTEX
  5
1D4
  8
0
 10
1331.0682704
 20
260.94118279
 30
0.0
  0
VERTEX
  5
1D5
  8
0
 10
1329.82105127
 20
261.09831763
 30
0.0
  0
SEQEND
  5
1D6
  8
0
  0
LINE
  5
1D7
  8
0
 10
1339.24914169
 20
269.41311182
 30
0.0
 11
1329.82105127
 21
261.09831763
 31
0.0
  0
LINE
  5
1D8
  8
0
 10
1340.49636082
 20
269.25597698
 30
0.0
 11
1339.24914169
 21
269.41311182
 31
0.0
  0
LINE
  5
1D9
  8
0
 10
1340.49636082
 20
269.25597698
 30
0.0
 11
1340.49636082
 21
78.18001122
 31
0.0
  0
POLYLINE
  5
1DA
  8
0
 66
     1
 10
0.0
 20
0.0
 30
0.0
  0
VERTEX
  5
1DB
  8
0
 10
1331.69187996
 20
62.87271664
 30
0.0
  0
VERTEX
  5
1DC
  8
0
 10
1331.0682704
 20
62.3227447
 30
0.0
  0
VERTEX
  5
1DD
  8
0
 10
1331.0682704
 20
260.94118279
 30
0.0
  0
SEQEND
  5
1DE
  8
0
  0
LINE
  5
1DF
  8
0
 10
1329.82105127
 20
62.47987954
 30
0.0
 11
1329.82105127
 21
261.09831763
 31
0.0
  0
LINE
  5
1E0
  8
0
  6
STRICHPUNKT2
 62
     1
 10
1336.56182756
 20
252.42958339
 30
0.0
 11
1335.23111742
 21
252.59723711
 31
0.0
  0
LINE
  5
1E1
  8
0
  6
STRICHPUNKT2
 62
     1
 10
1335.78231561
 20
252.52779267
 30
0.0
 11
1335.78231561
 21
250.17077006
 31
0.0
  0
LINE
  5
1E2
  8
0
  6
STRICHPUNKT2
 62
     1
 10
1335.78231561
 20
252.52779267
 30
0.0
 11
1335.78231561
 21
254.88481527
 31
0.0
  0
LINE
  5
1E3
  8
0
  6
STRICHPUNKT2
 62
     1
 10
1335.78231561
 20
252.52779267
 30
0.0
 11
1336.66619908
 21
253.30730462
 31
0.0
  0
LINE
  5
1E4
  8
0
  6
STRICHPUNKT2
 62
     1
 10
1335.78231561
 20
252.52779267
 30
0.0
 11
1334.89843213
 21
251.74828071
 31
0.0
  0
LINE
  5
1E5
  8
0
  6
STRICHPUNKT2
 62
     1
 10
1336.56182756
 20
221.00261534
 30
0.0
 11
1335.23111742
 21
221.17026906
 31
0.0
  0
LINE
  5
1E6
  8
0
  6
STRICHPUNKT2
 62
     1
 10
1335.78231561
 20
221.10082461
 30
0.0
 11
1335.78231561
 21
218.74380201
 31
0.0
  0
LINE
  5
1E7
  8
0
  6
STRICHPUNKT2
 62
     1
 10
1335.78231561
 20
221.10082461
 30
0.0
 11
1335.78231561
 21
223.45784722
 31
0.0
  0
LINE
  5
1E8
  8
0
  6
STRICHPUNKT2
 62
     1
 10
1335.78231561
 20
221.10082461
 30
0.0
 11
1336.66619908
 21
221.88033657
 31
0.0
  0
LINE
  5
1E9
  8
0
  6
STRICHPUNKT2
 62
     1
 10
1335.78231561
 20
221.10082461
 30
0.0
 11
1334.89843213
 21
220.32131266
 31
0.0
  0
LINE
  5
1EA
  8
0
  6
STRICHPUNKT2
 62
     1
 10
1336.56182756
 20
189.57564729
 30
0.0
 11
1335.23111742
 21
189.74330101
 31
0.0
  0
LINE
  5
1EB
  8
0
  6
STRICHPUNKT2
 62
     1
 10
1335.78231561
 20
189.67385656
 30
0.0
 11
1335.78231561
 21
187.31683396
 31
0.0
  0
LINE
  5
1EC
  8
0
  6
STRICHPUNKT2
 62
     1
 10
1335.78231561
 20
189.67385656
 30
0.0
 11
1335.78231561
 21
192.03087917
 31
0.0
  0
LINE
  5
1ED
  8
0
  6
STRICHPUNKT2
 62
     1
 10
1335.78231561
 20
189.67385656
 30
0.0
 11
1336.66619908
 21
190.45336852
 31
0.0
  0
LINE
  5
1EE
  8
0
  6
STRICHPUNKT2
 62
     1
 10
1335.78231561
 20
189.67385656
 30
0.0
 11
1334.89843213
 21
188.89434461
 31
0.0
  0
LINE
  5
1EF
  8
0
  6
STRICHPUNKT2
 62
     1
 10
1336.56182756
 20
158.14867923
 30
0.0
 11
1335.23111742
 21
158.31633295
 31
0.0
  0
LINE
  5
1F0
  8
0
  6
STRICHPUNKT2
 62
     1
 10
1335.78231561
 20
158.24688851
 30
0.0
 11
1335.78231561
 21
155.8898659
 31
0.0
  0
LINE
  5
1F1
  8
0
  6
STRICHPUNKT2
 62
     1
 10
1335.78231561
 20
158.24688851
 30
0.0
 11
1335.78231561
 21
160.60391111
 31
0.0
  0
LINE
  5
1F2
  8
0
  6
STRICHPUNKT2
 62
     1
 10
1335.78231561
 20
158.24688851
 30
0.0
 11
1336.66619908
 21
159.02640046
 31
0.0
  0
LINE
  5
1F3
  8
0
  6
STRICHPUNKT2
 62
     1
 10
1335.78231561
 20
158.24688851
 30
0.0
 11
1334.89843213
 21
157.46737655
 31
0.0
  0
LINE
  5
1F4
  8
0
  6
STRICHPUNKT2
 62
     1
 10
1336.56182756
 20
126.72171118
 30
0.0
 11
1335.23111742
 21
126.8893649
 31
0.0
  0
LINE
  5
1F5
  8
0
  6
STRICHPUNKT2
 62
     1
 10
1335.78231561
 20
126.81992046
 30
0.0
 11
1335.78231561
 21
124.46289785
 31
0.0
  0
LINE
  5
1F6
  8
0
  6
STRICHPUNKT2
 62
     1
 10
1335.78231561
 20
126.81992046
 30
0.0
 11
1335.78231561
 21
129.17694306
 31
0.0
  0
LINE
  5
1F7
  8
0
  6
STRICHPUNKT2
 62
     1
 10
1335.78231561
 20
126.81992046
 30
0.0
 11
1336.66619908
 21
127.59943241
 31
0.0
  0
LINE
  5
1F8
  8
0
  6
STRICHPUNKT2
 62
     1
 10
1335.78231561
 20
126.81992046
 30
0.0
 11
1334.89843213
 21
126.0404085
 31
0.0
  0
LINE
  5
1F9
  8
0
  6
STRICHPUNKT2
 62
     1
 10
1336.56182756
 20
95.29474313
 30
0.0
 11
1335.23111742
 21
95.46239685
 31
0.0
  0
LINE
  5
1FA
  8
0
  6
STRICHPUNKT2
 62
     1
 10
1335.78231561
 20
95.3929524
 30
0.0
 11
1335.78231561
 21
93.0359298
 31
0.0
  0
LINE
  5
1FB
  8
0
  6
STRICHPUNKT2
 62
     1
 10
1335.78231561
 20
95.3929524
 30
0.0
 11
1335.78231561
 21
97.74997501
 31
0.0
  0
LINE
  5
1FC
  8
0
  6
STRICHPUNKT2
 62
     1
 10
1335.78231561
 20
95.3929524
 30
0.0
 11
1336.66619908
 21
96.17246436
 31
0.0
  0
LINE
  5
1FD
  8
0
  6
STRICHPUNKT2
 62
     1
 10
1335.78231561
 20
95.3929524
 30
0.0
 11
1334.89843213
 21
94.61344045
 31
0.0
  0
LINE
  5
1FE
  8
0
  6
STRICHPUNKT2
 62
     1
 10
1333.61554931
 20
234.11772618
 30
0.0
 11
1332.28483916
 21
234.2853799
 31
0.0
  0
LINE
  5
1FF
  8
0
  6
STRICHPUNKT2
 62
     1
 10
1332.83603735
 20
234.21593545
 30
0.0
 11
1332.83603735
 21
231.85891285
 31
0.0
  0
LINE
  5
200
  8
0
  6
STRICHPUNKT2
 62
     1
 10
1332.83603735
 20
234.21593545
 30
0.0
 11
1332.83603735
 21
236.57295806
 31
0.0
  0
LINE
  5
201
  8
0
  6
STRICHPUNKT2
 62
     1
 10
1332.83603735
 20
234.21593545
 30
0.0
 11
1333.71992083
 21
234.99544741
 31
0.0
  0
LINE
  5
202
  8
0
  6
STRICHPUNKT2
 62
     1
 10
1332.83603735
 20
234.21593545
 30
0.0
 11
1331.95215388
 21
233.4364235
 31
0.0
  0
LINE
  5
203
  8
0
  6
STRICHPUNKT2
 62
     1
 10
1333.61554931
 20
202.69075813
 30
0.0
 11
1332.28483916
 21
202.85841185
 31
0.0
  0
LINE
  5
204
  8
0
  6
STRICHPUNKT2
 62
     1
 10
1332.83603735
 20
202.7889674
 30
0.0
 11
1332.83603735
 21
200.4319448
 31
0.0
  0
LINE
  5
205
  8
0
  6
STRICHPUNKT2
 62
     1
 10
1332.83603735
 20
202.7889674
 30
0.0
 11
1332.83603735
 21
205.14599001
 31
0.0
  0
LINE
  5
206
  8
0
  6
STRICHPUNKT2
 62
     1
 10
1332.83603735
 20
202.7889674
 30
0.0
 11
1333.71992083
 21
203.56847936
 31
0.0
  0
LINE
  5
207
  8
0
  6
STRICHPUNKT2
 62
     1
 10
1332.83603735
 20
202.7889674
 30
0.0
 11
1331.95215388
 21
202.00945545
 31
0.0
  0
LINE
  5
208
  8
0
  6
STRICHPUNKT2
 62
     1
 10
1333.61554931
 20
171.26379007
 30
0.0
 11
1332.28483916
 21
171.43144379
 31
0.0
  0
LINE
  5
209
  8
0
  6
STRICHPUNKT2
 62
     1
 10
1332.83603735
 20
171.36199935
 30
0.0
 11
1332.83603735
 21
169.00497675
 31
0.0
  0
LINE
  5
20A
  8
0
  6
STRICHPUNKT2
 62
     1
 10
1332.83603735
 20
171.36199935
 30
0.0
 11
1332.83603735
 21
173.71902195
 31
0.0
  0
LINE
  5
20B
  8
0
  6
STRICHPUNKT2
 62
     1
 10
1332.83603735
 20
171.36199935
 30
0.0
 11
1333.71992083
 21
172.14151131
 31
0.0
  0
LINE
  5
20C
  8
0
  6
STRICHPUNKT2
 62
     1
 10
1332.83603735
 20
171.36199935
 30
0.0
 11
1331.95215388
 21
170.58248739
 31
0.0
  0
LINE
  5
20D
  8
0
  6
STRICHPUNKT2
 62
     1
 10
1333.61554931
 20
139.83682202
 30
0.0
 11
1332.28483916
 21
140.00447574
 31
0.0
  0
LINE
  5
20E
  8
0
  6
STRICHPUNKT2
 62
     1
 10
1332.83603735
 20
139.9350313
 30
0.0
 11
1332.83603735
 21
137.57800869
 31
0.0
  0
LINE
  5
20F
  8
0
  6
STRICHPUNKT2
 62
     1
 10
1332.83603735
 20
139.9350313
 30
0.0
 11
1332.83603735
 21
142.2920539
 31
0.0
  0
LINE
  5
210
  8
0
  6
STRICHPUNKT2
 62
     1
 10
1332.83603735
 20
139.9350313
 30
0.0
 11
1333.71992083
 21
140.71454325
 31
0.0
  0
LINE
  5
211
  8
0
  6
STRICHPUNKT2
 62
     1
 10
1332.83603735
 20
139.9350313
 30
0.0
 11
1331.95215388
 21
139.15551934
 31
0.0
  0
LINE
  5
212
  8
0
  6
STRICHPUNKT2
 62
     1
 10
1333.61554931
 20
108.40985397
 30
0.0
 11
1332.28483916
 21
108.57750769
 31
0.0
  0
LINE
  5
213
  8
0
  6
STRICHPUNKT2
 62
     1
 10
1332.83603735
 20
108.50806324
 30
0.0
 11
1332.83603735
 21
106.15104064
 31
0.0
  0
LINE
  5
214
  8
0
  6
STRICHPUNKT2
 62
     1
 10
1332.83603735
 20
108.50806324
 30
0.0
 11
1332.83603735
 21
110.86508585
 31
0.0
  0
LINE
  5
215
  8
0
  6
STRICHPUNKT2
 62
     1
 10
1332.83603735
 20
108.50806324
 30
0.0
 11
1333.71992083
 21
109.2875752
 31
0.0
  0
LINE
  5
216
  8
0
  6
STRICHPUNKT2
 62
     1
 10
1332.83603735
 20
108.50806324
 30
0.0
 11
1331.95215388
 21
107.72855129
 31
0.0
  0
LINE
  5
217
  8
0
  6
STRICHPUNKT2
 62
     1
 10
1333.61554931
 20
76.98288592
 30
0.0
 11
1332.28483916
 21
77.15053964
 31
0.0
  0
LINE
  5
218
  8
0
  6
STRICHPUNKT2
 62
     1
 10
1332.83603735
 20
77.08109519
 30
0.0
 11
1332.83603735
 21
74.72407259
 31
0.0
  0
LINE
  5
219
  8
0
  6
STRICHPUNKT2
 62
     1
 10
1332.83603735
 20
77.08109519
 30
0.0
 11
1332.83603735
 21
79.4381178
 31
0.0
  0
LINE
  5
21A
  8
0
  6
STRICHPUNKT2
 62
     1
 10
1332.83603735
 20
77.08109519
 30
0.0
 11
1333.71992083
 21
77.86060715
 31
0.0
  0
LINE
  5
21B
  8
0
  6
STRICHPUNKT2
 62
     1
 10
1332.83603735
 20
77.08109519
 30
0.0
 11
1331.95215388
 21
76.30158324
 31
0.0
  0
LINE
  5
21C
  8
0
  6
STRICHPUNKT2
 62
     1
 10
1339.50810582
 20
239.31447255
 30
0.0
 11
1338.17739567
 21
239.48212627
 31
0.0
  0
LINE
  5
21D
  8
0
  6
STRICHPUNKT2
 62
     1
 10
1338.72859386
 20
239.41268183
 30
0.0
 11
1338.72859386
 21
237.05565922
 31
0.0
  0
LINE
  5
21E
  8
0
  6
STRICHPUNKT2
 62
     1
 10
1338.72859386
 20
239.41268183
 30
0.0
 11
1338.72859386
 21
241.76970443
 31
0.0
  0
LINE
  5
21F
  8
0
  6
STRICHPUNKT2
 62
     1
 10
1338.72859386
 20
239.41268183
 30
0.0
 11
1339.61247734
 21
240.19219378
 31
0.0
  0
LINE
  5
220
  8
0
  6
STRICHPUNKT2
 62
     1
 10
1338.72859386
 20
239.41268183
 30
0.0
 11
1337.84471039
 21
238.63316987
 31
0.0
  0
LINE
  5
221
  8
0
  6
STRICHPUNKT2
 62
     1
 10
1339.50810582
 20
207.8875045
 30
0.0
 11
1338.17739567
 21
208.05515822
 31
0.0
  0
LINE
  5
222
  8
0
  6
STRICHPUNKT2
 62
     1
 10
1338.72859386
 20
207.98571377
 30
0.0
 11
1338.72859386
 21
205.62869117
 31
0.0
  0
LINE
  5
223
  8
0
  6
STRICHPUNKT2
 62
     1
 10
1338.72859386
 20
207.98571377
 30
0.0
 11
1338.72859386
 21
210.34273638
 31
0.0
  0
LINE
  5
224
  8
0
  6
STRICHPUNKT2
 62
     1
 10
1338.72859386
 20
207.98571377
 30
0.0
 11
1339.61247734
 21
208.76522573
 31
0.0
  0
LINE
  5
225
  8
0
  6
STRICHPUNKT2
 62
     1
 10
1338.72859386
 20
207.98571377
 30
0.0
 11
1337.84471039
 21
207.20620182
 31
0.0
  0
LINE
  5
226
  8
0
  6
STRICHPUNKT2
 62
     1
 10
1339.50810582
 20
176.46053644
 30
0.0
 11
1338.17739567
 21
176.62819016
 31
0.0
  0
LINE
  5
227
  8
0
  6
STRICHPUNKT2
 62
     1
 10
1338.72859386
 20
176.55874572
 30
0.0
 11
1338.72859386
 21
174.20172312
 31
0.0
  0
LINE
  5
228
  8
0
  6
STRICHPUNKT2
 62
     1
 10
1338.72859386
 20
176.55874572
 30
0.0
 11
1338.72859386
 21
178.91576832
 31
0.0
  0
LINE
  5
229
  8
0
  6
STRICHPUNKT2
 62
     1
 10
1338.72859386
 20
176.55874572
 30
0.0
 11
1339.61247734
 21
177.33825768
 31
0.0
  0
LINE
  5
22A
  8
0
  6
STRICHPUNKT2
 62
     1
 10
1338.72859386
 20
176.55874572
 30
0.0
 11
1337.84471039
 21
175.77923376
 31
0.0
  0
LINE
  5
22B
  8
0
  6
STRICHPUNKT2
 62
     1
 10
1339.50810582
 20
145.03356839
 30
0.0
 11
1338.17739567
 21
145.20122211
 31
0.0
  0
LINE
  5
22C
  8
0
  6
STRICHPUNKT2
 62
     1
 10
1338.72859386
 20
145.13177767
 30
0.0
 11
1338.72859386
 21
142.77475506
 31
0.0
  0
LINE
  5
22D
  8
0
  6
STRICHPUNKT2
 62
     1
 10
1338.72859386
 20
145.13177767
 30
0.0
 11
1338.72859386
 21
147.48880027
 31
0.0
  0
LINE
  5
22E
  8
0
  6
STRICHPUNKT2
 62
     1
 10
1338.72859386
 20
145.13177767
 30
0.0
 11
1339.61247734
 21
145.91128962
 31
0.0
  0
LINE
  5
22F
  8
0
  6
STRICHPUNKT2
 62
     1
 10
1338.72859386
 20
145.13177767
 30
0.0
 11
1337.84471039
 21
144.35226571
 31
0.0
  0
LINE
  5
230
  8
0
  6
STRICHPUNKT2
 62
     1
 10
1339.50810582
 20
113.60660034
 30
0.0
 11
1338.17739567
 21
113.77425406
 31
0.0
  0
LINE
  5
231
  8
0
  6
STRICHPUNKT2
 62
     1
 10
1338.72859386
 20
113.70480961
 30
0.0
 11
1338.72859386
 21
111.34778701
 31
0.0
  0
LINE
  5
232
  8
0
  6
STRICHPUNKT2
 62
     1
 10
1338.72859386
 20
113.70480961
 30
0.0
 11
1338.72859386
 21
116.06183222
 31
0.0
  0
LINE
  5
233
  8
0
  6
STRICHPUNKT2
 62
     1
 10
1338.72859386
 20
113.70480961
 30
0.0
 11
1339.61247734
 21
114.48432157
 31
0.0
  0
LINE
  5
234
  8
0
  6
STRICHPUNKT2
 62
     1
 10
1338.72859386
 20
113.70480961
 30
0.0
 11
1337.84471039
 21
112.92529766
 31
0.0
  0
LINE
  5
235
  8
0
  6
STRICHPUNKT2
 62
     1
 10
1339.50810582
 20
82.17963229
 30
0.0
 11
1338.17739567
 21
82.34728601
 31
0.0
  0
LINE
  5
236
  8
0
  6
STRICHPUNKT2
 62
     1
 10
1338.72859386
 20
82.27784156
 30
0.0
 11
1338.72859386
 21
79.92081896
 31
0.0
  0
LINE
  5
237
  8
0
  6
STRICHPUNKT2
 62
     1
 10
1338.72859386
 20
82.27784156
 30
0.0
 11
1338.72859386
 21
84.63486417
 31
0.0
  0
LINE
  5
238
  8
0
  6
STRICHPUNKT2
 62
     1
 10
1338.72859386
 20
82.27784156
 30
0.0
 11
1339.61247734
 21
83.05735352
 31
0.0
  0
LINE
  5
239
  8
0
  6
STRICHPUNKT2
 62
     1
 10
1338.72859386
 20
82.27784156
 30
0.0
 11
1337.84471039
 21
81.49832961
 31
0.0
  0
LINE
  5
23A
  8
0
 10
1331.69187996
 20
62.87271664
 30
0.0
 11
1331.0682704
 21
62.3227447
 31
0.0
  0
POLYLINE
  5
23B
  8
0
 66
     1
 10
0.0
 20
0.0
 30
0.0
  0
VERTEX
  5
72B
  8
0
 10
1331.068270406291
 20
62.3227447010764
 30
0.0
  0
VERTEX
  5
72C
  8
0
 10
1331.092235372555
 20
62.07448150834858
 30
0.0
  0
VERTEX
  5
72D
  8
0
 10
1331.163209309676
 20
61.82972032703915
 30
0.0
  0
VERTEX
  5
72E
  8
0
 10
1331.278464729075
 20
61.59786719200107
 30
0.0
  0
VERTEX
  5
72F
  8
0
 10
1331.433572429661
 20
61.38783208911228
 30
0.0
  0
VERTEX
  5
730
  8
0
 10
1331.622571709535
 20
61.20768654951815
 30
0.0
  0
VERTEX
  5
731
  8
0
 10
1331.838199432427
 20
61.0643534652188
 30
0.0
  0
VERTEX
  5
732
  8
0
 10
1332.072169145943
 20
60.96334104621423
 30
0.0
  0
VERTEX
  5
733
  8
0
 10
1332.315489525283
 20
60.90853114308489
 30
0.0
  0
SEQEND
  5
783
  8
0
  0
POLYLINE
  5
23C
  8
0
 66
     1
 10
0.0
 20
0.0
 30
0.0
  0
VERTEX
  5
734
  8
0
 10
1329.821051275512
 20
62.47987953591669
 30
0.0
  0
VERTEX
  5
735
  8
0
 10
1329.868981209555
 20
61.98335314936427
 30
0.0
  0
VERTEX
  5
736
  8
0
 10
1330.010929085525
 20
61.49383078593043
 30
0.0
  0
VERTEX
  5
737
  8
0
 10
1330.2414399262
 20
61.03012451535243
 30
0.0
  0
VERTEX
  5
738
  8
0
 10
1330.551655329321
 20
60.6100543094054
 30
0.0
  0
VERTEX
  5
739
  8
0
 10
1330.929653891021
 20
60.24976323038659
 30
0.0
  0
VERTEX
  5
73A
  8
0
 10
1331.360909338681
 20
59.96309706228974
 30
0.0
  0
VERTEX
  5
73B
  8
0
 10
1331.828848767442
 20
59.76107222509557
 30
0.0
  0
VERTEX
  5
73C
  8
0
 10
1332.315489527637
 20
59.65145241993366
 30
0.0
  0
SEQEND
  5
784
  8
0
  0
POLYLINE
  5
23D
  8
0
 66
     1
 10
0.0
 20
0.0
 30
0.0
  0
VERTEX
  5
73D
  8
0
 10
1354.79200226
 20
72.84410283
 30
0.0
  0
VERTEX
  5
73E
  8
0
 10
1354.702333568689
 20
73.14757666108703
 30
0.0
  0
VERTEX
  5
73F
  8
0
 10
1354.436773412267
 20
73.43938816306205
 30
0.0
  0
VERTEX
  5
740
  8
0
 10
1354.005527118595
 20
73.70832318357947
 30
0.0
  0
VERTEX
  5
741
  8
0
 10
1353.425167240856
 20
73.94404670064483
 30
0.0
  0
VERTEX
  5
742
  8
0
 10
1352.71799668363
 20
74.13749999171324
 30
0.0
  0
VERTEX
  5
743
  8
0
 10
1351.911191614783
 20
74.28124875531572
 30
0.0
  0
VERTEX
  5
744
  8
0
 10
1351.035757100581
 20
74.36976880709484
 30
0.0
  0
VERTEX
  5
745
  8
0
 10
1350.125335598376
 20
74.3996583711111
 30
0.0
  0
VERTEX
  5
746
  8
0
 10
1349.21491409585
 20
74.36976880818425
 30
0.0
  0
VERTEX
  5
747
  8
0
 10
1348.339479580694
 20
74.28124875745267
 30
0.0
  0
VERTEX
  5
748
  8
0
 10
1347.5326745103
 20
74.13749999481561
 30
0.0
  0
VERTEX
  5
749
  8
0
 10
1346.82550395099
 20
73.9440467045934
 30
0.0
  0
VERTEX
  5
74A
  8
0
 10
1346.245144070712
 20
73.7083231882225
 30
0.0
  0
VERTEX
  5
74B
  8
0
 10
1345.813897774144
 20
73.4393881682211
 30
0.0
  0
VERTEX
  5
74C
  8
0
 10
1345.54833761458
 20
73.14757666656386
 30
0.0
  0
VERTEX
  5
74D
  8
0
 10
1345.45866892
 20
72.84410283558412
 30
0.0
  0
SEQEND
  5
785
  8
0
  0
POLYLINE
  5
23E
  8
0
 66
     1
 10
0.0
 20
0.0
 30
0.0
  0
VERTEX
  5
74E
  8
0
 10
1345.45866892
 20
72.84410283558412
 30
0.0
  0
VERTEX
  5
74F
  8
0
 10
1345.548337608452
 20
72.54062900370518
 30
0.0
  0
VERTEX
  5
750
  8
0
 10
1345.813897762925
 20
72.24881750080723
 30
0.0
  0
VERTEX
  5
751
  8
0
 10
1346.245144055588
 20
71.97988247932243
 30
0.0
  0
VERTEX
  5
752
  8
0
 10
1346.825503933222
 20
71.74415896132945
 30
0.0
  0
VERTEX
  5
753
  8
0
 10
1347.532674491147
 20
71.55070566945015
 30
0.0
  0
VERTEX
  5
754
  8
0
 10
1348.339479561347
 20
71.40695690521852
 30
0.0
  0
VERTEX
  5
755
  8
0
 10
1349.214914077366
 20
71.31843685304133
 30
0.0
  0
VERTEX
  5
756
  8
0
 10
1350.125335581624
 20
71.28854728888889
 30
0.0
  0
VERTEX
  5
757
  8
0
 10
1351.035757086204
 20
71.31843685195192
 30
0.0
  0
VERTEX
  5
758
  8
0
 10
1351.911191603175
 20
71.40695690308156
 30
0.0
  0
VERTEX
  5
759
  8
0
 10
1352.717996674924
 20
71.55070566634778
 30
0.0
  0
VERTEX
  5
75A
  8
0
 10
1353.425167234933
 20
71.74415895738088
 30
0.0
  0
VERTEX
  5
75B
  8
0
 10
1354.005527115105
 20
71.9798824746794
 30
0.0
  0
VERTEX
  5
75C
  8
0
 10
1354.436773410664
 20
72.24881749564818
 30
0.0
  0
VERTEX
  5
75D
  8
0
 10
1354.70233356828
 20
72.54062899822836
 30
0.0
  0
VERTEX
  5
75E
  8
0
 10
1354.79200226
 20
72.84410283
 30
0.0
  0
SEQEND
  5
786
  8
0
  0
POLYLINE
  5
23F
  8
0
 66
     1
 10
0.0
 20
0.0
 30
0.0
  0
VERTEX
  5
240
  8
0
 10
1403.48092683
 20
70.87324115
 30
0.0
  0
VERTEX
  5
241
  8
0
 10
1394.05283641
 20
62.55844696
 30
0.0
  0
VERTEX
  5
242
  8
0
 10
1331.69187996
 20
70.41518897
 30
0.0
  0
SEQEND
  5
243
  8
0
  0
LINE
  5
244
  8
0
 10
1341.11997038
 20
78.72998316
 30
0.0
 11
1331.69187996
 21
70.41518897
 31
0.0
  0
POLYLINE
  5
245
  8
0
 66
     1
 10
0.0
 20
0.0
 30
0.0
  0
VERTEX
  5
246
  8
0
 10
1341.11997038
 20
78.72998316
 30
0.0
  0
VERTEX
  5
247
  8
0
 10
1403.48092683
 20
70.87324115
 30
0.0
  0
VERTEX
  5
248
  8
0
 10
1403.48092683
 20
61.44515074
 30
0.0
  0
VERTEX
  5
249
  8
0
 10
1394.05283641
 20
53.13035654
 30
0.0
  0
SEQEND
  5
24A
  8
0
  0
POLYLINE
  5
24B
  8
0
 66
     1
 10
0.0
 20
0.0
 30
0.0
  0
VERTEX
  5
24C
  8
0
 10
1394.05283641
 20
62.55844696
 30
0.0
  0
VERTEX
  5
24D
  8
0
 10
1394.05283641
 20
53.13035654
 30
0.0
  0
VERTEX
  5
24E
  8
0
 10
1331.69187996
 20
60.98709856
 30
0.0
  0
SEQEND
  5
24F
  8
0
  0
LINE
  5
250
  8
0
 10
1331.69187996
 20
70.41518897
 30
0.0
 11
1331.69187996
 21
60.98709856
 31
0.0
  0
LINE
  5
251
  8
0
  6
STRICHPUNKT2
 62
     1
 10
1350.12533559
 20
74.72972091
 30
0.0
 11
1350.12533559
 21
71.28854727
 31
0.0
  0
LINE
  5
252
  8
0
  6
STRICHPUNKT2
 62
     1
 10
1350.12533559
 20
72.84410283
 30
0.0
 11
1356.36143124
 21
72.05842862
 31
0.0
  0
LINE
  5
253
  8
0
  6
STRICHPUNKT2
 62
     1
 10
1350.12533559
 20
72.84410283
 30
0.0
 11
1343.88923995
 21
73.62977703
 31
0.0
  0
LINE
  5
254
  8
0
  6
STRICHPUNKT2
 62
     1
 10
1350.12533559
 20
72.84410283
 30
0.0
 11
1352.48235819
 21
74.92280137
 31
0.0
  0
LINE
  5
255
  8
0
  6
STRICHPUNKT2
 62
     1
 10
1350.12533559
 20
72.84410283
 30
0.0
 11
1347.76831299
 21
70.76540428
 31
0.0
  0
LINE
  5
256
  8
0
 10
1455.77047322
 20
142.47600303
 30
0.0
 11
1455.77047322
 21
115.80933636
 31
0.0
  0
LINE
  5
257
  8
0
  6
STRICHPUNKT2
 62
     1
 10
1455.77047322
 20
129.1426697
 30
0.0
 11
1453.77047322
 21
129.1426697
 31
0.0
  0
CIRCLE
  5
258
  8
0
 10
1472.43713989
 20
137.47600303
 30
0.0
 40
1.66666667
  0
CIRCLE
  5
259
  8
0
 10
1505.77047322
 20
137.47600303
 30
0.0
 40
1.66666667
  0
CIRCLE
  5
25A
  8
0
 10
1539.10380655
 20
137.47600303
 30
0.0
 40
1.66666667
  0
CIRCLE
  5
25B
  8
0
 10
1572.43713989
 20
137.47600303
 30
0.0
 40
1.66666667
  0
CIRCLE
  5
25C
  8
0
 10
1605.77047322
 20
137.47600303
 30
0.0
 40
1.66666667
  0
CIRCLE
  5
25D
  8
0
 10
1639.10380655
 20
137.47600303
 30
0.0
 40
1.66666667
  0
CIRCLE
  5
25E
  8
0
 10
1472.43713989
 20
120.80933636
 30
0.0
 40
1.66666667
  0
CIRCLE
  5
25F
  8
0
 10
1505.77047322
 20
120.80933636
 30
0.0
 40
1.66666667
  0
CIRCLE
  5
260
  8
0
 10
1539.10380655
 20
120.80933636
 30
0.0
 40
1.66666667
  0
CIRCLE
  5
261
  8
0
 10
1572.43713989
 20
120.80933636
 30
0.0
 40
1.66666667
  0
CIRCLE
  5
262
  8
0
 10
1605.77047322
 20
120.80933636
 30
0.0
 40
1.66666667
  0
CIRCLE
  5
263
  8
0
 10
1639.10380655
 20
120.80933636
 30
0.0
 40
1.66666667
  0
CIRCLE
  5
264
  8
0
 10
1489.10380655
 20
129.1426697
 30
0.0
 40
1.66666667
  0
CIRCLE
  5
265
  8
0
 10
1522.43713989
 20
129.1426697
 30
0.0
 40
1.66666667
  0
CIRCLE
  5
266
  8
0
 10
1555.77047322
 20
129.1426697
 30
0.0
 40
1.66666667
  0
CIRCLE
  5
267
  8
0
 10
1589.10380655
 20
129.1426697
 30
0.0
 40
1.66666667
  0
CIRCLE
  5
268
  8
0
 10
1622.43713989
 20
129.1426697
 30
0.0
 40
1.66666667
  0
CIRCLE
  5
269
  8
0
 10
1655.77047322
 20
129.1426697
 30
0.0
 40
1.66666667
  0
LINE
  5
26A
  8
0
 10
1669.10380655
 20
142.47600303
 30
0.0
 11
1669.10380655
 21
115.80933636
 31
0.0
  0
LINE
  5
26B
  8
0
 10
1458.43713989
 20
115.80933636
 30
0.0
 11
1669.10380655
 21
115.80933636
 31
0.0
  0
LINE
  5
26C
  8
0
 10
1458.43713989
 20
142.47600303
 30
0.0
 11
1458.43713989
 21
115.80933636
 31
0.0
  0
LINE
  5
26D
  8
0
 10
1669.10380655
 20
142.47600303
 30
0.0
 11
1458.43713989
 21
142.47600303
 31
0.0
  0
LINE
  5
26E
  8
0
  6
STRICHPUNKT2
 62
     1
 10
1655.77047322
 20
129.1426697
 30
0.0
 11
1653.27047322
 21
129.1426697
 31
0.0
  0
LINE
  5
26F
  8
0
  6
STRICHPUNKT2
 62
     1
 10
1655.77047322
 20
129.1426697
 30
0.0
 11
1658.27047322
 21
129.1426697
 31
0.0
  0
LINE
  5
270
  8
0
  6
STRICHPUNKT2
 62
     1
 10
1655.77047322
 20
129.1426697
 30
0.0
 11
1655.77047322
 21
131.6426697
 31
0.0
  0
LINE
  5
271
  8
0
  6
STRICHPUNKT2
 62
     1
 10
1655.77047322
 20
129.1426697
 30
0.0
 11
1655.77047322
 21
126.6426697
 31
0.0
  0
LINE
  5
272
  8
0
  6
STRICHPUNKT2
 62
     1
 10
1622.43713989
 20
129.1426697
 30
0.0
 11
1619.93713989
 21
129.1426697
 31
0.0
  0
LINE
  5
273
  8
0
  6
STRICHPUNKT2
 62
     1
 10
1622.43713989
 20
129.1426697
 30
0.0
 11
1624.93713989
 21
129.1426697
 31
0.0
  0
LINE
  5
274
  8
0
  6
STRICHPUNKT2
 62
     1
 10
1622.43713989
 20
129.1426697
 30
0.0
 11
1622.43713989
 21
131.6426697
 31
0.0
  0
LINE
  5
275
  8
0
  6
STRICHPUNKT2
 62
     1
 10
1622.43713989
 20
129.1426697
 30
0.0
 11
1622.43713989
 21
126.6426697
 31
0.0
  0
LINE
  5
276
  8
0
  6
STRICHPUNKT2
 62
     1
 10
1589.10380655
 20
129.1426697
 30
0.0
 11
1586.60380655
 21
129.1426697
 31
0.0
  0
LINE
  5
277
  8
0
  6
STRICHPUNKT2
 62
     1
 10
1589.10380655
 20
129.1426697
 30
0.0
 11
1591.60380655
 21
129.1426697
 31
0.0
  0
LINE
  5
278
  8
0
  6
STRICHPUNKT2
 62
     1
 10
1589.10380655
 20
129.1426697
 30
0.0
 11
1589.10380655
 21
131.6426697
 31
0.0
  0
LINE
  5
279
  8
0
  6
STRICHPUNKT2
 62
     1
 10
1589.10380655
 20
129.1426697
 30
0.0
 11
1589.10380655
 21
126.6426697
 31
0.0
  0
LINE
  5
27A
  8
0
  6
STRICHPUNKT2
 62
     1
 10
1555.77047322
 20
129.1426697
 30
0.0
 11
1553.27047322
 21
129.1426697
 31
0.0
  0
LINE
  5
27B
  8
0
  6
STRICHPUNKT2
 62
     1
 10
1555.77047322
 20
129.1426697
 30
0.0
 11
1558.27047322
 21
129.1426697
 31
0.0
  0
LINE
  5
27C
  8
0
  6
STRICHPUNKT2
 62
     1
 10
1555.77047322
 20
129.1426697
 30
0.0
 11
1555.77047322
 21
131.6426697
 31
0.0
  0
LINE
  5
27D
  8
0
  6
STRICHPUNKT2
 62
     1
 10
1555.77047322
 20
129.1426697
 30
0.0
 11
1555.77047322
 21
126.6426697
 31
0.0
  0
LINE
  5
27E
  8
0
  6
STRICHPUNKT2
 62
     1
 10
1522.43713989
 20
129.1426697
 30
0.0
 11
1519.93713989
 21
129.1426697
 31
0.0
  0
LINE
  5
27F
  8
0
  6
STRICHPUNKT2
 62
     1
 10
1522.43713989
 20
129.1426697
 30
0.0
 11
1524.93713989
 21
129.1426697
 31
0.0
  0
LINE
  5
280
  8
0
  6
STRICHPUNKT2
 62
     1
 10
1522.43713989
 20
129.1426697
 30
0.0
 11
1522.43713989
 21
131.6426697
 31
0.0
  0
LINE
  5
281
  8
0
  6
STRICHPUNKT2
 62
     1
 10
1522.43713989
 20
129.1426697
 30
0.0
 11
1522.43713989
 21
126.6426697
 31
0.0
  0
LINE
  5
282
  8
0
  6
STRICHPUNKT2
 62
     1
 10
1489.10380655
 20
129.1426697
 30
0.0
 11
1486.60380655
 21
129.1426697
 31
0.0
  0
LINE
  5
283
  8
0
  6
STRICHPUNKT2
 62
     1
 10
1489.10380655
 20
129.1426697
 30
0.0
 11
1491.60380655
 21
129.1426697
 31
0.0
  0
LINE
  5
284
  8
0
  6
STRICHPUNKT2
 62
     1
 10
1489.10380655
 20
129.1426697
 30
0.0
 11
1489.10380655
 21
131.6426697
 31
0.0
  0
LINE
  5
285
  8
0
  6
STRICHPUNKT2
 62
     1
 10
1489.10380655
 20
129.1426697
 30
0.0
 11
1489.10380655
 21
126.6426697
 31
0.0
  0
LINE
  5
286
  8
0
  6
STRICHPUNKT2
 62
     1
 10
1639.10380655
 20
120.80933636
 30
0.0
 11
1636.60380655
 21
120.80933636
 31
0.0
  0
LINE
  5
287
  8
0
  6
STRICHPUNKT2
 62
     1
 10
1639.10380655
 20
120.80933636
 30
0.0
 11
1641.60380655
 21
120.80933636
 31
0.0
  0
LINE
  5
288
  8
0
  6
STRICHPUNKT2
 62
     1
 10
1639.10380655
 20
120.80933636
 30
0.0
 11
1639.10380655
 21
123.30933636
 31
0.0
  0
LINE
  5
289
  8
0
  6
STRICHPUNKT2
 62
     1
 10
1639.10380655
 20
120.80933636
 30
0.0
 11
1639.10380655
 21
118.30933636
 31
0.0
  0
LINE
  5
28A
  8
0
  6
STRICHPUNKT2
 62
     1
 10
1605.77047322
 20
120.80933636
 30
0.0
 11
1603.27047322
 21
120.80933636
 31
0.0
  0
LINE
  5
28B
  8
0
  6
STRICHPUNKT2
 62
     1
 10
1605.77047322
 20
120.80933636
 30
0.0
 11
1608.27047322
 21
120.80933636
 31
0.0
  0
LINE
  5
28C
  8
0
  6
STRICHPUNKT2
 62
     1
 10
1605.77047322
 20
120.80933636
 30
0.0
 11
1605.77047322
 21
123.30933636
 31
0.0
  0
LINE
  5
28D
  8
0
  6
STRICHPUNKT2
 62
     1
 10
1605.77047322
 20
120.80933636
 30
0.0
 11
1605.77047322
 21
118.30933636
 31
0.0
  0
LINE
  5
28E
  8
0
  6
STRICHPUNKT2
 62
     1
 10
1572.43713989
 20
120.80933636
 30
0.0
 11
1569.93713989
 21
120.80933636
 31
0.0
  0
LINE
  5
28F
  8
0
  6
STRICHPUNKT2
 62
     1
 10
1572.43713989
 20
120.80933636
 30
0.0
 11
1574.93713989
 21
120.80933636
 31
0.0
  0
LINE
  5
290
  8
0
  6
STRICHPUNKT2
 62
     1
 10
1572.43713989
 20
120.80933636
 30
0.0
 11
1572.43713989
 21
123.30933636
 31
0.0
  0
LINE
  5
291
  8
0
  6
STRICHPUNKT2
 62
     1
 10
1572.43713989
 20
120.80933636
 30
0.0
 11
1572.43713989
 21
118.30933636
 31
0.0
  0
LINE
  5
292
  8
0
  6
STRICHPUNKT2
 62
     1
 10
1539.10380655
 20
120.80933636
 30
0.0
 11
1536.60380655
 21
120.80933636
 31
0.0
  0
LINE
  5
293
  8
0
  6
STRICHPUNKT2
 62
     1
 10
1539.10380655
 20
120.80933636
 30
0.0
 11
1541.60380655
 21
120.80933636
 31
0.0
  0
LINE
  5
294
  8
0
  6
STRICHPUNKT2
 62
     1
 10
1539.10380655
 20
120.80933636
 30
0.0
 11
1539.10380655
 21
123.30933636
 31
0.0
  0
LINE
  5
295
  8
0
  6
STRICHPUNKT2
 62
     1
 10
1539.10380655
 20
120.80933636
 30
0.0
 11
1539.10380655
 21
118.30933636
 31
0.0
  0
LINE
  5
296
  8
0
  6
STRICHPUNKT2
 62
     1
 10
1505.77047322
 20
120.80933636
 30
0.0
 11
1503.27047322
 21
120.80933636
 31
0.0
  0
LINE
  5
297
  8
0
  6
STRICHPUNKT2
 62
     1
 10
1505.77047322
 20
120.80933636
 30
0.0
 11
1508.27047322
 21
120.80933636
 31
0.0
  0
LINE
  5
298
  8
0
  6
STRICHPUNKT2
 62
     1
 10
1505.77047322
 20
120.80933636
 30
0.0
 11
1505.77047322
 21
123.30933636
 31
0.0
  0
LINE
  5
299
  8
0
  6
STRICHPUNKT2
 62
     1
 10
1505.77047322
 20
120.80933636
 30
0.0
 11
1505.77047322
 21
118.30933636
 31
0.0
  0
LINE
  5
29A
  8
0
  6
STRICHPUNKT2
 62
     1
 10
1472.43713989
 20
120.80933636
 30
0.0
 11
1469.93713989
 21
120.80933636
 31
0.0
  0
LINE
  5
29B
  8
0
  6
STRICHPUNKT2
 62
     1
 10
1472.43713989
 20
120.80933636
 30
0.0
 11
1474.93713989
 21
120.80933636
 31
0.0
  0
LINE
  5
29C
  8
0
  6
STRICHPUNKT2
 62
     1
 10
1472.43713989
 20
120.80933636
 30
0.0
 11
1472.43713989
 21
123.30933636
 31
0.0
  0
LINE
  5
29D
  8
0
  6
STRICHPUNKT2
 62
     1
 10
1472.43713989
 20
120.80933636
 30
0.0
 11
1472.43713989
 21
118.30933636
 31
0.0
  0
LINE
  5
29E
  8
0
  6
STRICHPUNKT2
 62
     1
 10
1639.10380655
 20
137.47600303
 30
0.0
 11
1636.60380655
 21
137.47600303
 31
0.0
  0
LINE
  5
29F
  8
0
  6
STRICHPUNKT2
 62
     1
 10
1639.10380655
 20
137.47600303
 30
0.0
 11
1641.60380655
 21
137.47600303
 31
0.0
  0
LINE
  5
2A0
  8
0
  6
STRICHPUNKT2
 62
     1
 10
1639.10380655
 20
137.47600303
 30
0.0
 11
1639.10380655
 21
139.97600303
 31
0.0
  0
LINE
  5
2A1
  8
0
  6
STRICHPUNKT2
 62
     1
 10
1639.10380655
 20
137.47600303
 30
0.0
 11
1639.10380655
 21
134.97600303
 31
0.0
  0
LINE
  5
2A2
  8
0
  6
STRICHPUNKT2
 62
     1
 10
1605.77047322
 20
137.47600303
 30
0.0
 11
1603.27047322
 21
137.47600303
 31
0.0
  0
LINE
  5
2A3
  8
0
  6
STRICHPUNKT2
 62
     1
 10
1605.77047322
 20
137.47600303
 30
0.0
 11
1608.27047322
 21
137.47600303
 31
0.0
  0
LINE
  5
2A4
  8
0
  6
STRICHPUNKT2
 62
     1
 10
1605.77047322
 20
137.47600303
 30
0.0
 11
1605.77047322
 21
139.97600303
 31
0.0
  0
LINE
  5
2A5
  8
0
  6
STRICHPUNKT2
 62
     1
 10
1605.77047322
 20
137.47600303
 30
0.0
 11
1605.77047322
 21
134.97600303
 31
0.0
  0
LINE
  5
2A6
  8
0
  6
STRICHPUNKT2
 62
     1
 10
1572.43713989
 20
137.47600303
 30
0.0
 11
1569.93713989
 21
137.47600303
 31
0.0
  0
LINE
  5
2A7
  8
0
  6
STRICHPUNKT2
 62
     1
 10
1572.43713989
 20
137.47600303
 30
0.0
 11
1574.93713989
 21
137.47600303
 31
0.0
  0
LINE
  5
2A8
  8
0
  6
STRICHPUNKT2
 62
     1
 10
1572.43713989
 20
137.47600303
 30
0.0
 11
1572.43713989
 21
139.97600303
 31
0.0
  0
LINE
  5
2A9
  8
0
  6
STRICHPUNKT2
 62
     1
 10
1572.43713989
 20
137.47600303
 30
0.0
 11
1572.43713989
 21
134.97600303
 31
0.0
  0
LINE
  5
2AA
  8
0
  6
STRICHPUNKT2
 62
     1
 10
1539.10380655
 20
137.47600303
 30
0.0
 11
1536.60380655
 21
137.47600303
 31
0.0
  0
LINE
  5
2AB
  8
0
  6
STRICHPUNKT2
 62
     1
 10
1539.10380655
 20
137.47600303
 30
0.0
 11
1541.60380655
 21
137.47600303
 31
0.0
  0
LINE
  5
2AC
  8
0
  6
STRICHPUNKT2
 62
     1
 10
1539.10380655
 20
137.47600303
 30
0.0
 11
1539.10380655
 21
139.97600303
 31
0.0
  0
LINE
  5
2AD
  8
0
  6
STRICHPUNKT2
 62
     1
 10
1539.10380655
 20
137.47600303
 30
0.0
 11
1539.10380655
 21
134.97600303
 31
0.0
  0
LINE
  5
2AE
  8
0
  6
STRICHPUNKT2
 62
     1
 10
1505.77047322
 20
137.47600303
 30
0.0
 11
1503.27047322
 21
137.47600303
 31
0.0
  0
LINE
  5
2AF
  8
0
  6
STRICHPUNKT2
 62
     1
 10
1505.77047322
 20
137.47600303
 30
0.0
 11
1508.27047322
 21
137.47600303
 31
0.0
  0
LINE
  5
2B0
  8
0
  6
STRICHPUNKT2
 62
     1
 10
1505.77047322
 20
137.47600303
 30
0.0
 11
1505.77047322
 21
139.97600303
 31
0.0
  0
LINE
  5
2B1
  8
0
  6
STRICHPUNKT2
 62
     1
 10
1505.77047322
 20
137.47600303
 30
0.0
 11
1505.77047322
 21
134.97600303
 31
0.0
  0
LINE
  5
2B2
  8
0
  6
STRICHPUNKT2
 62
     1
 10
1472.43713989
 20
137.47600303
 30
0.0
 11
1469.93713989
 21
137.47600303
 31
0.0
  0
LINE
  5
2B3
  8
0
  6
STRICHPUNKT2
 62
     1
 10
1472.43713989
 20
137.47600303
 30
0.0
 11
1474.93713989
 21
137.47600303
 31
0.0
  0
LINE
  5
2B4
  8
0
  6
STRICHPUNKT2
 62
     1
 10
1472.43713989
 20
137.47600303
 30
0.0
 11
1472.43713989
 21
139.97600303
 31
0.0
  0
LINE
  5
2B5
  8
0
  6
STRICHPUNKT2
 62
     1
 10
1472.43713989
 20
137.47600303
 30
0.0
 11
1472.43713989
 21
134.97600303
 31
0.0
  0
LINE
  5
2B6
  8
0
 10
1458.43713989
 20
142.47600303
 30
0.0
 11
1458.43713989
 21
115.80933636
 31
0.0
  0
LINE
  5
2B7
  8
0
 10
1455.77047322
 20
115.80933636
 30
0.0
 11
1458.43713989
 21
115.80933636
 31
0.0
  0
LINE
  5
2B8
  8
0
 10
1455.77047322
 20
142.47600303
 30
0.0
 11
1455.77047322
 21
115.80933636
 31
0.0
  0
LINE
  5
2B9
  8
0
 10
1458.43713989
 20
142.47600303
 30
0.0
 11
1455.77047322
 21
142.47600303
 31
0.0
  0
LINE
  5
2BA
  8
0
  6
STRICHPUNKT2
 62
     1
 10
1455.77047322
 20
129.1426697
 30
0.0
 11
1455.10380655
 21
129.1426697
 31
0.0
  0
POLYLINE
  5
2BB
  8
0
 66
     1
 10
0.0
 20
0.0
 30
0.0
  0
VERTEX
  5
2BC
  8
0
 10
1457.10380655
 20
189.86235357
 30
0.0
  0
VERTEX
  5
2BD
  8
0
 10
1457.10380655
 20
220.52902024
 30
0.0
  0
VERTEX
  5
2BE
  8
0
 10
1455.77047322
 20
220.52902024
 30
0.0
  0
SEQEND
  5
2BF
  8
0
  0
LINE
  5
2C0
  8
0
 10
1455.77047322
 20
189.86235357
 30
0.0
 11
1455.77047322
 21
220.52902024
 31
0.0
  0
LINE
  5
2C1
  8
0
  6
STRICHPUNKT2
 62
     1
 10
1455.77047322
 20
203.86235357
 30
0.0
 11
1453.77047322
 21
203.86235357
 31
0.0
  0
LINE
  5
2C2
  8
0
 10
1669.10380655
 20
188.52902024
 30
0.0
 11
1458.43713989
 21
188.52902024
 31
0.0
  0
LINE
  5
2C3
  8
0
 10
1669.10380655
 20
187.19568691
 30
0.0
 11
1458.43713989
 21
187.19568691
 31
0.0
  0
LINE
  5
2C4
  8
0
 10
1669.10380655
 20
188.52902024
 30
0.0
 11
1669.10380655
 21
187.19568691
 31
0.0
  0
LINE
  5
2C5
  8
0
  6
STRICHPUNKT2
 62
     1
 10
1655.77047322
 20
187.19568691
 30
0.0
 11
1655.77047322
 21
186.36235357
 31
0.0
  0
LINE
  5
2C6
  8
0
  6
STRICHPUNKT2
 62
     1
 10
1655.77047322
 20
189.36235357
 30
0.0
 11
1655.77047322
 21
188.52902024
 31
0.0
  0
LINE
  5
2C7
  8
0
  6
STRICHPUNKT2
 62
     1
 10
1639.10380655
 20
187.19568691
 30
0.0
 11
1639.10380655
 21
186.36235357
 31
0.0
  0
LINE
  5
2C8
  8
0
  6
STRICHPUNKT2
 62
     1
 10
1639.10380655
 20
189.36235357
 30
0.0
 11
1639.10380655
 21
188.52902024
 31
0.0
  0
LINE
  5
2C9
  8
0
  6
STRICHPUNKT2
 62
     1
 10
1605.77047322
 20
187.19568691
 30
0.0
 11
1605.77047322
 21
186.36235357
 31
0.0
  0
LINE
  5
2CA
  8
0
  6
STRICHPUNKT2
 62
     1
 10
1605.77047322
 20
189.36235357
 30
0.0
 11
1605.77047322
 21
188.52902024
 31
0.0
  0
LINE
  5
2CB
  8
0
  6
STRICHPUNKT2
 62
     1
 10
1622.43713989
 20
187.19568691
 30
0.0
 11
1622.43713989
 21
186.36235357
 31
0.0
  0
LINE
  5
2CC
  8
0
  6
STRICHPUNKT2
 62
     1
 10
1622.43713989
 20
189.36235357
 30
0.0
 11
1622.43713989
 21
188.52902024
 31
0.0
  0
LINE
  5
2CD
  8
0
  6
STRICHPUNKT2
 62
     1
 10
1472.43713989
 20
187.19568691
 30
0.0
 11
1472.43713989
 21
186.36235357
 31
0.0
  0
LINE
  5
2CE
  8
0
  6
STRICHPUNKT2
 62
     1
 10
1472.43713989
 20
189.36235357
 30
0.0
 11
1472.43713989
 21
188.52902024
 31
0.0
  0
LINE
  5
2CF
  8
0
  6
STRICHPUNKT2
 62
     1
 10
1489.10380655
 20
187.19568691
 30
0.0
 11
1489.10380655
 21
186.36235357
 31
0.0
  0
LINE
  5
2D0
  8
0
  6
STRICHPUNKT2
 62
     1
 10
1489.10380655
 20
189.36235357
 30
0.0
 11
1489.10380655
 21
188.52902024
 31
0.0
  0
LINE
  5
2D1
  8
0
  6
STRICHPUNKT2
 62
     1
 10
1572.43713989
 20
187.19568691
 30
0.0
 11
1572.43713989
 21
186.36235357
 31
0.0
  0
LINE
  5
2D2
  8
0
  6
STRICHPUNKT2
 62
     1
 10
1572.43713989
 20
189.36235357
 30
0.0
 11
1572.43713989
 21
188.52902024
 31
0.0
  0
LINE
  5
2D3
  8
0
  6
STRICHPUNKT2
 62
     1
 10
1522.43713989
 20
187.19568691
 30
0.0
 11
1522.43713989
 21
186.36235357
 31
0.0
  0
LINE
  5
2D4
  8
0
  6
STRICHPUNKT2
 62
     1
 10
1522.43713989
 20
189.36235357
 30
0.0
 11
1522.43713989
 21
188.52902024
 31
0.0
  0
LINE
  5
2D5
  8
0
  6
STRICHPUNKT2
 62
     1
 10
1539.10380655
 20
187.19568691
 30
0.0
 11
1539.10380655
 21
186.36235357
 31
0.0
  0
LINE
  5
2D6
  8
0
  6
STRICHPUNKT2
 62
     1
 10
1539.10380655
 20
189.36235357
 30
0.0
 11
1539.10380655
 21
188.52902024
 31
0.0
  0
LINE
  5
2D7
  8
0
  6
STRICHPUNKT2
 62
     1
 10
1555.77047322
 20
187.19568691
 30
0.0
 11
1555.77047322
 21
186.36235357
 31
0.0
  0
LINE
  5
2D8
  8
0
  6
STRICHPUNKT2
 62
     1
 10
1555.77047322
 20
189.36235357
 30
0.0
 11
1555.77047322
 21
188.52902024
 31
0.0
  0
LINE
  5
2D9
  8
0
  6
STRICHPUNKT2
 62
     1
 10
1505.77047322
 20
187.19568691
 30
0.0
 11
1505.77047322
 21
186.36235357
 31
0.0
  0
LINE
  5
2DA
  8
0
  6
STRICHPUNKT2
 62
     1
 10
1505.77047322
 20
189.36235357
 30
0.0
 11
1505.77047322
 21
188.52902024
 31
0.0
  0
LINE
  5
2DB
  8
0
  6
STRICHPUNKT2
 62
     1
 10
1589.10380655
 20
187.19568691
 30
0.0
 11
1589.10380655
 21
186.36235357
 31
0.0
  0
LINE
  5
2DC
  8
0
  6
STRICHPUNKT2
 62
     1
 10
1589.10380655
 20
189.36235357
 30
0.0
 11
1589.10380655
 21
188.52902024
 31
0.0
  0
ARC
  5
2DD
  8
0
 10
1458.43713989
 20
189.86235357
 30
0.0
 40
1.33333333
 50
180.0
 51
-90.0
  0
ARC
  5
2DE
  8
0
 10
1458.43713989
 20
189.86235357
 30
0.0
 40
2.66666667
 50
180.0
 51
-90.0
  0
LINE
  5
2DF
  8
0
 10
1467.10380655
 20
255.86235357
 30
0.0
 11
1457.10380655
 21
255.86235357
 31
0.0
  0
LINE
  5
2E0
  8
0
 10
1457.10380655
 20
189.19568691
 30
0.0
 11
1457.10380655
 21
255.86235357
 31
0.0
  0
LINE
  5
2E1
  8
0
 10
1467.10380655
 20
189.19568691
 30
0.0
 11
1457.10380655
 21
189.19568691
 31
0.0
  0
LINE
  5
2E2
  8
0
 10
1467.10380655
 20
189.19568691
 30
0.0
 11
1467.10380655
 21
255.86235357
 31
0.0
  0
LINE
  5
2E3
  8
0
  6
STRICHPUNKT2
 62
     1
 10
1455.77047322
 20
203.86235357
 30
0.0
 11
1455.10380655
 21
203.86235357
 31
0.0
  0
LINE
  5
2E4
  8
0
  6
STRICHPUNKT2
 62
     1
 10
1469.10380655
 20
203.86235357
 30
0.0
 11
1467.10380655
 21
203.86235357
 31
0.0
  0
CIRCLE
  5
2E5
  8
0
 10
1410.35379016
 20
203.86235357
 30
0.0
 40
4.66666667
  0
LINE
  5
2E6
  8
0
 10
1423.6871235
 20
189.86235357
 30
0.0
 11
1397.02045683
 21
189.86235357
 31
0.0
  0
LINE
  5
2E7
  8
0
 10
1397.02045683
 20
220.52902024
 30
0.0
 11
1397.02045683
 21
189.86235357
 31
0.0
  0
LINE
  5
2E8
  8
0
 10
1423.6871235
 20
220.52902024
 30
0.0
 11
1397.02045683
 21
220.52902024
 31
0.0
  0
LINE
  5
2E9
  8
0
 10
1423.6871235
 20
189.86235357
 30
0.0
 11
1423.6871235
 21
220.52902024
 31
0.0
  0
LINE
  5
2EA
  8
0
  6
STRICHPUNKT2
 62
     1
 10
1410.35379016
 20
203.86235357
 30
0.0
 11
1417.02045683
 21
203.86235357
 31
0.0
  0
LINE
  5
2EB
  8
0
  6
STRICHPUNKT2
 62
     1
 10
1410.35379016
 20
203.86235357
 30
0.0
 11
1403.6871235
 21
203.86235357
 31
0.0
  0
LINE
  5
2EC
  8
0
  6
STRICHPUNKT2
 62
     1
 10
1410.35379016
 20
203.86235357
 30
0.0
 11
1410.35379016
 21
197.19568691
 31
0.0
  0
LINE
  5
2ED
  8
0
  6
STRICHPUNKT2
 62
     1
 10
1410.35379016
 20
203.86235357
 30
0.0
 11
1410.35379016
 21
210.52902024
 31
0.0
  0
LINE
  5
2EE
  8
0
 10
1423.6871235
 20
187.19568691
 30
0.0
 11
1397.02045683
 21
187.19568691
 31
0.0
  0
LINE
  5
2EF
  8
0
  6
STRICHPUNKT2
 62
     1
 10
1402.02045683
 20
187.19568691
 30
0.0
 11
1402.02045683
 21
186.36235357
 31
0.0
  0
LINE
  5
2F0
  8
0
  6
STRICHPUNKT2
 62
     1
 10
1418.6871235
 20
187.19568691
 30
0.0
 11
1418.6871235
 21
186.36235357
 31
0.0
  0
LINE
  5
2F1
  8
0
  6
STRICHPUNKT2
 62
     1
 10
1410.35379016
 20
187.19568691
 30
0.0
 11
1410.35379016
 21
186.36235357
 31
0.0
  0
LINE
  5
2F2
  8
0
 10
1423.6871235
 20
187.19568691
 30
0.0
 11
1397.02045683
 21
187.19568691
 31
0.0
  0
LINE
  5
2F3
  8
0
 10
1397.02045683
 20
189.86235357
 30
0.0
 11
1397.02045683
 21
187.19568691
 31
0.0
  0
LINE
  5
2F4
  8
0
 10
1423.6871235
 20
189.86235357
 30
0.0
 11
1397.02045683
 21
189.86235357
 31
0.0
  0
LINE
  5
2F5
  8
0
 10
1423.6871235
 20
187.19568691
 30
0.0
 11
1423.6871235
 21
189.86235357
 31
0.0
  0
POLYLINE
  5
2F6
  8
0
 66
     1
 10
0.0
 20
0.0
 30
0.0
  0
VERTEX
  5
2F7
  8
0
 10
1423.6871235
 20
220.52902024
 30
0.0
  0
VERTEX
  5
2F8
  8
0
 10
1423.6871235
 20
255.86235357
 30
0.0
  0
VERTEX
  5
2F9
  8
0
 10
1397.02045683
 20
255.86235357
 30
0.0
  0
VERTEX
  5
2FA
  8
0
 10
1397.02045683
 20
220.52902024
 30
0.0
  0
SEQEND
  5
2FB
  8
0
  0
TEXT
  5
2FC
  8
TXT_DIM49
 10
1674.1798122
 20
139.01608531
 30
0.0
 40
2.5
  1
8
 50
90.00020741
  7
ARIAL
  0
LINE
  5
2FD
  8
0
 62
     4
 10
1676.6798122
 20
141.47600303
 30
0.0
 11
1674.6798122
 21
143.47600303
 31
0.0
  0
LINE
  5
2FE
  8
0
 62
     4
 10
1674.9298122
 20
138.22600303
 30
0.0
 11
1676.4298122
 21
136.72600303
 31
0.0
  0
LINE
  5
2FF
  8
0
 62
     4
 10
1675.6798122
 20
142.47600303
 30
0.0
 11
1675.6798122
 21
137.47600303
 31
0.0
  0
LINE
  5
300
  8
0
 62
     4
 10
1673.6798122
 20
142.47600303
 30
0.0
 11
1677.6798122
 21
142.47600303
 31
0.0
  0
LINE
  5
301
  8
0
 62
     4
 10
1673.6798122
 20
137.47600303
 30
0.0
 11
1677.6798122
 21
137.47600303
 31
0.0
  0
TEXT
  5
302
  8
TXT_DIM49
 10
1674.1798122
 20
131.38950092
 30
0.0
 40
2.5
  1
13
 50
90.00020741
  7
ARIAL
  0
LINE
  5
303
  8
0
 62
     4
 10
1676.6798122
 20
136.47600303
 30
0.0
 11
1674.6798122
 21
138.47600303
 31
0.0
  0
LINE
  5
304
  8
0
 62
     4
 10
1674.9298122
 20
129.8926697
 30
0.0
 11
1676.4298122
 21
128.3926697
 31
0.0
  0
LINE
  5
305
  8
0
 62
     4
 10
1675.6798122
 20
137.47600303
 30
0.0
 11
1675.6798122
 21
129.1426697
 31
0.0
  0
LINE
  5
306
  8
0
 62
     4
 10
1673.6798122
 20
137.47600303
 30
0.0
 11
1677.6798122
 21
137.47600303
 31
0.0
  0
LINE
  5
307
  8
0
 62
     4
 10
1673.6798122
 20
129.1426697
 30
0.0
 11
1677.6798122
 21
129.1426697
 31
0.0
  0
TEXT
  5
308
  8
TXT_DIM49
 10
1674.1798122
 20
123.05616758
 30
0.0
 40
2.5
  1
13
 50
90.00020741
  7
ARIAL
  0
LINE
  5
309
  8
0
 62
     4
 10
1676.6798122
 20
128.1426697
 30
0.0
 11
1674.6798122
 21
130.1426697
 31
0.0
  0
LINE
  5
30A
  8
0
 62
     4
 10
1674.9298122
 20
121.55933636
 30
0.0
 11
1676.4298122
 21
120.05933636
 31
0.0
  0
LINE
  5
30B
  8
0
 62
     4
 10
1675.6798122
 20
129.1426697
 30
0.0
 11
1675.6798122
 21
120.80933636
 31
0.0
  0
LINE
  5
30C
  8
0
 62
     4
 10
1673.6798122
 20
129.1426697
 30
0.0
 11
1677.6798122
 21
129.1426697
 31
0.0
  0
LINE
  5
30D
  8
0
 62
     4
 10
1673.6798122
 20
120.80933636
 30
0.0
 11
1677.6798122
 21
120.80933636
 31
0.0
  0
TEXT
  5
30E
  8
TXT_DIM49
 10
1674.1798122
 20
117.34941864
 30
0.0
 40
2.5
  1
8
 50
90.00020741
  7
ARIAL
  0
LINE
  5
30F
  8
0
 62
     4
 10
1676.6798122
 20
119.80933636
 30
0.0
 11
1674.6798122
 21
121.80933636
 31
0.0
  0
LINE
  5
310
  8
0
 62
     4
 10
1674.9298122
 20
116.55933636
 30
0.0
 11
1676.4298122
 21
115.05933636
 31
0.0
  0
LINE
  5
311
  8
0
 62
     4
 10
1675.6798122
 20
120.80933636
 30
0.0
 11
1675.6798122
 21
115.80933636
 31
0.0
  0
LINE
  5
312
  8
0
 62
     4
 10
1673.6798122
 20
120.80933636
 30
0.0
 11
1677.6798122
 21
120.80933636
 31
0.0
  0
LINE
  5
313
  8
0
 62
     4
 10
1673.6798122
 20
115.80933636
 30
0.0
 11
1677.6798122
 21
115.80933636
 31
0.0
  0
TEXT
  5
314
  8
TXT_DIM49
 10
1462.1839711
 20
146.90188695
 30
0.0
 40
2.5
  1
25
  7
ARIAL
  0
LINE
  5
315
  8
0
 62
     4
 10
1456.77047322
 20
146.40188695
 30
0.0
 11
1454.77047322
 21
144.40188695
 31
0.0
  0
LINE
  5
316
  8
0
 62
     4
 10
1471.68713989
 20
144.65188695
 30
0.0
 11
1473.18713989
 21
146.15188695
 31
0.0
  0
LINE
  5
317
  8
0
 62
     4
 10
1455.77047322
 20
145.40188695
 30
0.0
 11
1472.43713989
 21
145.40188695
 31
0.0
  0
LINE
  5
318
  8
0
 62
     4
 10
1455.77047322
 20
143.40188695
 30
0.0
 11
1455.77047322
 21
147.40188695
 31
0.0
  0
LINE
  5
319
  8
0
 62
     4
 10
1472.43713989
 20
143.40188695
 30
0.0
 11
1472.43713989
 21
147.40188695
 31
0.0
  0
TEXT
  5
31A
  8
TXT_DIM49
 10
1478.85063777
 20
146.90188695
 30
0.0
 40
2.5
  1
25
  7
ARIAL
  0
LINE
  5
31B
  8
0
 62
     4
 10
1473.43713989
 20
146.40188695
 30
0.0
 11
1471.43713989
 21
144.40188695
 31
0.0
  0
LINE
  5
31C
  8
0
 62
     4
 10
1488.35380655
 20
144.65188695
 30
0.0
 11
1489.85380655
 21
146.15188695
 31
0.0
  0
LINE
  5
31D
  8
0
 62
     4
 10
1472.43713989
 20
145.40188695
 30
0.0
 11
1489.10380655
 21
145.40188695
 31
0.0
  0
LINE
  5
31E
  8
0
 62
     4
 10
1472.43713989
 20
143.40188695
 30
0.0
 11
1472.43713989
 21
147.40188695
 31
0.0
  0
LINE
  5
31F
  8
0
 62
     4
 10
1489.10380655
 20
143.40188695
 30
0.0
 11
1489.10380655
 21
147.40188695
 31
0.0
  0
TEXT
  5
320
  8
TXT_DIM49
 10
1495.51730444
 20
146.90188695
 30
0.0
 40
2.5
  1
25
  7
ARIAL
  0
LINE
  5
321
  8
0
 62
     4
 10
1490.10380655
 20
146.40188695
 30
0.0
 11
1488.10380655
 21
144.40188695
 31
0.0
  0
LINE
  5
322
  8
0
 62
     4
 10
1505.02047322
 20
144.65188695
 30
0.0
 11
1506.52047322
 21
146.15188695
 31
0.0
  0
LINE
  5
323
  8
0
 62
     4
 10
1489.10380655
 20
145.40188695
 30
0.0
 11
1505.77047322
 21
145.40188695
 31
0.0
  0
LINE
  5
324
  8
0
 62
     4
 10
1489.10380655
 20
143.40188695
 30
0.0
 11
1489.10380655
 21
147.40188695
 31
0.0
  0
LINE
  5
325
  8
0
 62
     4
 10
1505.77047322
 20
143.40188695
 30
0.0
 11
1505.77047322
 21
147.40188695
 31
0.0
  0
TEXT
  5
326
  8
TXT_DIM49
 10
1512.1839711
 20
146.90188695
 30
0.0
 40
2.5
  1
25
  7
ARIAL
  0
LINE
  5
327
  8
0
 62
     4
 10
1506.77047322
 20
146.40188695
 30
0.0
 11
1504.77047322
 21
144.40188695
 31
0.0
  0
LINE
  5
328
  8
0
 62
     4
 10
1521.68713989
 20
144.65188695
 30
0.0
 11
1523.18713989
 21
146.15188695
 31
0.0
  0
LINE
  5
329
  8
0
 62
     4
 10
1505.77047322
 20
145.40188695
 30
0.0
 11
1522.43713989
 21
145.40188695
 31
0.0
  0
LINE
  5
32A
  8
0
 62
     4
 10
1505.77047322
 20
143.40188695
 30
0.0
 11
1505.77047322
 21
147.40188695
 31
0.0
  0
LINE
  5
32B
  8
0
 62
     4
 10
1522.43713989
 20
143.40188695
 30
0.0
 11
1522.43713989
 21
147.40188695
 31
0.0
  0
TEXT
  5
32C
  8
TXT_DIM49
 10
1528.85063777
 20
146.90188695
 30
0.0
 40
2.5
  1
25
  7
ARIAL
  0
LINE
  5
32D
  8
0
 62
     4
 10
1523.43713989
 20
146.40188695
 30
0.0
 11
1521.43713989
 21
144.40188695
 31
0.0
  0
LINE
  5
32E
  8
0
 62
     4
 10
1538.35380655
 20
144.65188695
 30
0.0
 11
1539.85380655
 21
146.15188695
 31
0.0
  0
LINE
  5
32F
  8
0
 62
     4
 10
1522.43713989
 20
145.40188695
 30
0.0
 11
1539.10380655
 21
145.40188695
 31
0.0
  0
LINE
  5
330
  8
0
 62
     4
 10
1522.43713989
 20
143.40188695
 30
0.0
 11
1522.43713989
 21
147.40188695
 31
0.0
  0
LINE
  5
331
  8
0
 62
     4
 10
1539.10380655
 20
143.40188695
 30
0.0
 11
1539.10380655
 21
147.40188695
 31
0.0
  0
TEXT
  5
332
  8
TXT_DIM49
 10
1545.51730444
 20
146.90188695
 30
0.0
 40
2.5
  1
25
  7
ARIAL
  0
LINE
  5
333
  8
0
 62
     4
 10
1540.10380655
 20
146.40188695
 30
0.0
 11
1538.10380655
 21
144.40188695
 31
0.0
  0
LINE
  5
334
  8
0
 62
     4
 10
1555.02047322
 20
144.65188695
 30
0.0
 11
1556.52047322
 21
146.15188695
 31
0.0
  0
LINE
  5
335
  8
0
 62
     4
 10
1539.10380655
 20
145.40188695
 30
0.0
 11
1555.77047322
 21
145.40188695
 31
0.0
  0
LINE
  5
336
  8
0
 62
     4
 10
1539.10380655
 20
143.40188695
 30
0.0
 11
1539.10380655
 21
147.40188695
 31
0.0
  0
LINE
  5
337
  8
0
 62
     4
 10
1555.77047322
 20
143.40188695
 30
0.0
 11
1555.77047322
 21
147.40188695
 31
0.0
  0
TEXT
  5
338
  8
TXT_DIM49
 10
1562.1839711
 20
146.90188695
 30
0.0
 40
2.5
  1
25
  7
ARIAL
  0
LINE
  5
339
  8
0
 62
     4
 10
1556.77047322
 20
146.40188695
 30
0.0
 11
1554.77047322
 21
144.40188695
 31
0.0
  0
LINE
  5
33A
  8
0
 62
     4
 10
1571.68713989
 20
144.65188695
 30
0.0
 11
1573.18713989
 21
146.15188695
 31
0.0
  0
LINE
  5
33B
  8
0
 62
     4
 10
1555.77047322
 20
145.40188695
 30
0.0
 11
1572.43713989
 21
145.40188695
 31
0.0
  0
LINE
  5
33C
  8
0
 62
     4
 10
1555.77047322
 20
143.40188695
 30
0.0
 11
1555.77047322
 21
147.40188695
 31
0.0
  0
LINE
  5
33D
  8
0
 62
     4
 10
1572.43713989
 20
143.40188695
 30
0.0
 11
1572.43713989
 21
147.40188695
 31
0.0
  0
TEXT
  5
33E
  8
TXT_DIM49
 10
1578.85063777
 20
146.90188695
 30
0.0
 40
2.5
  1
25
  7
ARIAL
  0
LINE
  5
33F
  8
0
 62
     4
 10
1573.43713989
 20
146.40188695
 30
0.0
 11
1571.43713989
 21
144.40188695
 31
0.0
  0
LINE
  5
340
  8
0
 62
     4
 10
1588.35380655
 20
144.65188695
 30
0.0
 11
1589.85380655
 21
146.15188695
 31
0.0
  0
LINE
  5
341
  8
0
 62
     4
 10
1572.43713989
 20
145.40188695
 30
0.0
 11
1589.10380655
 21
145.40188695
 31
0.0
  0
LINE
  5
342
  8
0
 62
     4
 10
1572.43713989
 20
143.40188695
 30
0.0
 11
1572.43713989
 21
147.40188695
 31
0.0
  0
LINE
  5
343
  8
0
 62
     4
 10
1589.10380655
 20
143.40188695
 30
0.0
 11
1589.10380655
 21
147.40188695
 31
0.0
  0
TEXT
  5
344
  8
TXT_DIM49
 10
1595.51730444
 20
146.90188695
 30
0.0
 40
2.5
  1
25
  7
ARIAL
  0
LINE
  5
345
  8
0
 62
     4
 10
1590.10380655
 20
146.40188695
 30
0.0
 11
1588.10380655
 21
144.40188695
 31
0.0
  0
LINE
  5
346
  8
0
 62
     4
 10
1605.02047322
 20
144.65188695
 30
0.0
 11
1606.52047322
 21
146.15188695
 31
0.0
  0
LINE
  5
347
  8
0
 62
     4
 10
1589.10380655
 20
145.40188695
 30
0.0
 11
1605.77047322
 21
145.40188695
 31
0.0
  0
LINE
  5
348
  8
0
 62
     4
 10
1589.10380655
 20
143.40188695
 30
0.0
 11
1589.10380655
 21
147.40188695
 31
0.0
  0
LINE
  5
349
  8
0
 62
     4
 10
1605.77047322
 20
143.40188695
 30
0.0
 11
1605.77047322
 21
147.40188695
 31
0.0
  0
TEXT
  5
34A
  8
TXT_DIM49
 10
1612.1839711
 20
146.90188695
 30
0.0
 40
2.5
  1
25
  7
ARIAL
  0
LINE
  5
34B
  8
0
 62
     4
 10
1606.77047322
 20
146.40188695
 30
0.0
 11
1604.77047322
 21
144.40188695
 31
0.0
  0
LINE
  5
34C
  8
0
 62
     4
 10
1621.68713989
 20
144.65188695
 30
0.0
 11
1623.18713989
 21
146.15188695
 31
0.0
  0
LINE
  5
34D
  8
0
 62
     4
 10
1605.77047322
 20
145.40188695
 30
0.0
 11
1622.43713989
 21
145.40188695
 31
0.0
  0
LINE
  5
34E
  8
0
 62
     4
 10
1605.77047322
 20
143.40188695
 30
0.0
 11
1605.77047322
 21
147.40188695
 31
0.0
  0
LINE
  5
34F
  8
0
 62
     4
 10
1622.43713989
 20
143.40188695
 30
0.0
 11
1622.43713989
 21
147.40188695
 31
0.0
  0
TEXT
  5
350
  8
TXT_DIM49
 10
1628.85063777
 20
146.90188695
 30
0.0
 40
2.5
  1
25
  7
ARIAL
  0
LINE
  5
351
  8
0
 62
     4
 10
1623.43713989
 20
146.40188695
 30
0.0
 11
1621.43713989
 21
144.40188695
 31
0.0
  0
LINE
  5
352
  8
0
 62
     4
 10
1638.35380655
 20
144.65188695
 30
0.0
 11
1639.85380655
 21
146.15188695
 31
0.0
  0
LINE
  5
353
  8
0
 62
     4
 10
1622.43713989
 20
145.40188695
 30
0.0
 11
1639.10380655
 21
145.40188695
 31
0.0
  0
LINE
  5
354
  8
0
 62
     4
 10
1622.43713989
 20
143.40188695
 30
0.0
 11
1622.43713989
 21
147.40188695
 31
0.0
  0
LINE
  5
355
  8
0
 62
     4
 10
1639.10380655
 20
143.40188695
 30
0.0
 11
1639.10380655
 21
147.40188695
 31
0.0
  0
TEXT
  5
356
  8
TXT_DIM49
 10
1645.51730444
 20
146.90188695
 30
0.0
 40
2.5
  1
25
  7
ARIAL
  0
LINE
  5
357
  8
0
 62
     4
 10
1640.10380655
 20
146.40188695
 30
0.0
 11
1638.10380655
 21
144.40188695
 31
0.0
  0
LINE
  5
358
  8
0
 62
     4
 10
1655.02047322
 20
144.65188695
 30
0.0
 11
1656.52047322
 21
146.15188695
 31
0.0
  0
LINE
  5
359
  8
0
 62
     4
 10
1639.10380655
 20
145.40188695
 30
0.0
 11
1655.77047322
 21
145.40188695
 31
0.0
  0
LINE
  5
35A
  8
0
 62
     4
 10
1639.10380655
 20
143.40188695
 30
0.0
 11
1639.10380655
 21
147.40188695
 31
0.0
  0
LINE
  5
35B
  8
0
 62
     4
 10
1655.77047322
 20
143.40188695
 30
0.0
 11
1655.77047322
 21
147.40188695
 31
0.0
  0
TEXT
  5
35C
  8
TXT_DIM49
 10
1660.51730444
 20
146.90188695
 30
0.0
 40
2.5
  1
20
  7
ARIAL
  0
LINE
  5
35D
  8
0
 62
     4
 10
1656.77047322
 20
146.40188695
 30
0.0
 11
1654.77047322
 21
144.40188695
 31
0.0
  0
LINE
  5
35E
  8
0
 62
     4
 10
1668.35380655
 20
144.65188695
 30
0.0
 11
1669.85380655
 21
146.15188695
 31
0.0
  0
LINE
  5
35F
  8
0
 62
     4
 10
1655.77047322
 20
145.40188695
 30
0.0
 11
1669.10380655
 21
145.40188695
 31
0.0
  0
LINE
  5
360
  8
0
 62
     4
 10
1655.77047322
 20
143.40188695
 30
0.0
 11
1655.77047322
 21
147.40188695
 31
0.0
  0
LINE
  5
361
  8
0
 62
     4
 10
1669.10380655
 20
143.40188695
 30
0.0
 11
1669.10380655
 21
147.40188695
 31
0.0
  0
TEXT
  5
362
  8
TXT_DIM49
 10
1449.2120046
 20
127.22283425
 30
0.0
 40
2.5
  1
40
 50
90.00020741
  7
ARIAL
  0
LINE
  5
363
  8
0
 62
     4
 10
1451.7120046
 20
141.47600303
 30
0.0
 11
1449.7120046
 21
143.47600303
 31
0.0
  0
LINE
  5
364
  8
0
 62
     4
 10
1449.9620046
 20
116.55933636
 30
0.0
 11
1451.4620046
 21
115.05933636
 31
0.0
  0
LINE
  5
365
  8
0
 62
     4
 10
1450.7120046
 20
142.47600303
 30
0.0
 11
1450.7120046
 21
115.80933636
 31
0.0
  0
LINE
  5
366
  8
0
 62
     4
 10
1452.7120046
 20
142.47600303
 30
0.0
 11
1448.7120046
 21
142.47600303
 31
0.0
  0
LINE
  5
367
  8
0
 62
     4
 10
1452.7120046
 20
115.80933636
 30
0.0
 11
1448.7120046
 21
115.80933636
 31
0.0
  0
LINE
  5
368
  8
0
 62
     3
 10
1472.43713989
 20
120.80933636
 30
0.0
 11
1477.01022495
 21
129.31464259
 31
0.0
  0
LINE
  5
369
  8
0
 62
     3
 10
1472.43713989
 20
137.47600303
 30
0.0
 11
1477.01022495
 21
129.31464259
 31
0.0
  0
LINE
  5
36A
  8
0
 62
     3
 10
1489.10380655
 20
129.1426697
 30
0.0
 11
1477.01022495
 21
129.31464259
 31
0.0
  0
TEXT
  5
36B
  8
TXT_DIM49
 10
1478.01022495
 20
128.06464259
 30
0.0
 40
2.5
  1
Ø5
  7
ARIAL
  0
POLYLINE
  5
36C
  8
0
 62
     3
 66
     1
 10
0.0
 20
0.0
 30
0.0
 70
     1
  0
VERTEX
  5
36D
  8
0
 62
     3
 10
1477.01022495
 20
130.81464259
 30
0.0
  0
VERTEX
  5
36E
  8
0
 62
     3
 10
1483.61513325
 20
130.81464259
 30
0.0
  0
VERTEX
  5
36F
  8
0
 62
     3
 10
1483.61513325
 20
127.81464259
 30
0.0
  0
VERTEX
  5
370
  8
0
 62
     3
 10
1477.01022495
 20
127.81464259
 30
0.0
  0
SEQEND
  5
371
  8
0
  0
LINE
  5
372
  8
0
 62
     3
 10
1507.0504777
 20
121.8767474
 30
0.0
 11
1510.44771456
 21
128.93946739
 31
0.0
  0
LINE
  5
373
  8
0
 62
     3
 10
1505.77047322
 20
137.47600303
 30
0.0
 11
1510.44771456
 21
128.93946739
 31
0.0
  0
LINE
  5
374
  8
0
 62
     3
 10
1522.43713989
 20
129.1426697
 30
0.0
 11
1510.44771456
 21
128.93946739
 31
0.0
  0
TEXT
  5
375
  8
TXT_DIM49
 10
1511.44771456
 20
127.68946739
 30
0.0
 40
2.5
  1
Ø5
  7
ARIAL
  0
POLYLINE
  5
376
  8
0
 62
     3
 66
     1
 10
0.0
 20
0.0
 30
0.0
 70
     1
  0
VERTEX
  5
377
  8
0
 62
     3
 10
1510.44771456
 20
130.43946739
 30
0.0
  0
VERTEX
  5
378
  8
0
 62
     3
 10
1517.05262287
 20
130.43946739
 30
0.0
  0
VERTEX
  5
379
  8
0
 62
     3
 10
1517.05262287
 20
127.43946739
 30
0.0
  0
VERTEX
  5
37A
  8
0
 62
     3
 10
1510.44771456
 20
127.43946739
 30
0.0
  0
SEQEND
  5
37B
  8
0
  0
LINE
  5
37C
  8
0
 62
     3
 10
1539.10380655
 20
120.80933636
 30
0.0
 11
1543.5790924
 21
129.17647404
 31
0.0
  0
LINE
  5
37D
  8
0
 62
     3
 10
1539.10380655
 20
137.47600303
 30
0.0
 11
1543.5790924
 21
129.17647404
 31
0.0
  0
LINE
  5
37E
  8
0
 62
     3
 10
1555.77047322
 20
129.1426697
 30
0.0
 11
1543.5790924
 21
129.17647404
 31
0.0
  0
TEXT
  5
37F
  8
TXT_DIM49
 10
1544.5790924
 20
127.92647404
 30
0.0
 40
2.5
  1
Ø5
  7
ARIAL
  0
POLYLINE
  5
380
  8
0
 62
     3
 66
     1
 10
0.0
 20
0.0
 30
0.0
 70
     1
  0
VERTEX
  5
381
  8
0
 62
     3
 10
1543.5790924
 20
130.67647404
 30
0.0
  0
VERTEX
  5
382
  8
0
 62
     3
 10
1550.18400071
 20
130.67647404
 30
0.0
  0
VERTEX
  5
383
  8
0
 62
     3
 10
1550.18400071
 20
127.67647404
 30
0.0
  0
VERTEX
  5
384
  8
0
 62
     3
 10
1543.5790924
 20
127.67647404
 30
0.0
  0
SEQEND
  5
385
  8
0
  0
LINE
  5
386
  8
0
 62
     3
 10
1572.43713989
 20
120.80933636
 30
0.0
 11
1577.00506417
 21
129.18763068
 31
0.0
  0
LINE
  5
387
  8
0
 62
     3
 10
1572.43713989
 20
137.47600303
 30
0.0
 11
1577.00506417
 21
129.18763068
 31
0.0
  0
LINE
  5
388
  8
0
 62
     3
 10
1589.10380655
 20
129.1426697
 30
0.0
 11
1577.00506417
 21
129.18763068
 31
0.0
  0
TEXT
  5
389
  8
TXT_DIM49
 10
1578.00506417
 20
127.93763068
 30
0.0
 40
2.5
  1
Ø5
  7
ARIAL
  0
POLYLINE
  5
38A
  8
0
 62
     3
 66
     1
 10
0.0
 20
0.0
 30
0.0
 70
     1
  0
VERTEX
  5
38B
  8
0
 62
     3
 10
1577.00506417
 20
130.68763068
 30
0.0
  0
VERTEX
  5
38C
  8
0
 62
     3
 10
1583.60997248
 20
130.68763068
 30
0.0
  0
VERTEX
  5
38D
  8
0
 62
     3
 10
1583.60997248
 20
127.68763068
 30
0.0
  0
VERTEX
  5
38E
  8
0
 62
     3
 10
1577.00506417
 20
127.68763068
 30
0.0
  0
SEQEND
  5
38F
  8
0
  0
LINE
  5
390
  8
0
 62
     3
 10
1605.77047322
 20
120.80933636
 30
0.0
 11
1611.40858216
 21
128.98419869
 31
0.0
  0
LINE
  5
391
  8
0
 62
     3
 10
1605.77047322
 20
137.47600303
 30
0.0
 11
1611.40858216
 21
128.98419869
 31
0.0
  0
LINE
  5
392
  8
0
 62
     3
 10
1622.43713989
 20
129.1426697
 30
0.0
 11
1611.40858216
 21
128.98419869
 31
0.0
  0
TEXT
  5
393
  8
TXT_DIM49
 10
1612.40858216
 20
127.73419869
 30
0.0
 40
2.5
  1
Ø5
  7
ARIAL
  0
POLYLINE
  5
394
  8
0
 62
     3
 66
     1
 10
0.0
 20
0.0
 30
0.0
 70
     1
  0
VERTEX
  5
395
  8
0
 62
     3
 10
1611.40858216
 20
130.48419869
 30
0.0
  0
VERTEX
  5
396
  8
0
 62
     3
 10
1618.01349047
 20
130.48419869
 30
0.0
  0
VERTEX
  5
397
  8
0
 62
     3
 10
1618.01349047
 20
127.48419869
 30
0.0
  0
VERTEX
  5
398
  8
0
 62
     3
 10
1611.40858216
 20
127.48419869
 30
0.0
  0
SEQEND
  5
399
  8
0
  0
LINE
  5
39A
  8
0
 62
     3
 10
1639.10380655
 20
120.80933636
 30
0.0
 11
1644.28687139
 21
129.28883554
 31
0.0
  0
LINE
  5
39B
  8
0
 62
     3
 10
1639.10380655
 20
137.47600303
 30
0.0
 11
1644.28687139
 21
129.28883554
 31
0.0
  0
LINE
  5
39C
  8
0
 62
     3
 10
1655.77047322
 20
129.1426697
 30
0.0
 11
1644.28687139
 21
129.28883554
 31
0.0
  0
TEXT
  5
39D
  8
TXT_DIM49
 10
1645.28687139
 20
128.03883554
 30
0.0
 40
2.5
  1
Ø5
  7
ARIAL
  0
POLYLINE
  5
39E
  8
0
 62
     3
 66
     1
 10
0.0
 20
0.0
 30
0.0
 70
     1
  0
VERTEX
  5
39F
  8
0
 62
     3
 10
1644.28687139
 20
130.78883554
 30
0.0
  0
VERTEX
  5
3A0
  8
0
 62
     3
 10
1650.8917797
 20
130.78883554
 30
0.0
  0
VERTEX
  5
3A1
  8
0
 62
     3
 10
1650.8917797
 20
127.78883554
 30
0.0
  0
VERTEX
  5
3A2
  8
0
 62
     3
 10
1644.28687139
 20
127.78883554
 30
0.0
  0
SEQEND
  5
3A3
  8
0
  0
TEXT
  5
3A4
  8
TXT_DIM49
 10
1460.1839711
 20
263.41018721
 30
0.0
 40
2.5
  1
15
  7
ARIAL
  0
LINE
  5
3A5
  8
0
 62
     4
 10
1458.10380655
 20
262.91018721
 30
0.0
 11
1456.10380655
 21
260.91018721
 31
0.0
  0
LINE
  5
3A6
  8
0
 62
     4
 10
1466.35380655
 20
261.16018721
 30
0.0
 11
1467.85380655
 21
262.66018721
 31
0.0
  0
LINE
  5
3A7
  8
0
 62
     4
 10
1457.10380655
 20
261.91018721
 30
0.0
 11
1467.10380655
 21
261.91018721
 31
0.0
  0
LINE
  5
3A8
  8
0
 62
     4
 10
1457.10380655
 20
259.91018721
 30
0.0
 11
1457.10380655
 21
263.91018721
 31
0.0
  0
LINE
  5
3A9
  8
0
 62
     4
 10
1467.10380655
 20
259.91018721
 30
0.0
 11
1467.10380655
 21
263.91018721
 31
0.0
  0
TEXT
  5
3AA
  8
TXT_DIM49
 10
1455.47722216
 20
229.14247557
 30
0.0
 40
2.5
  1
2
  7
ARIAL
  0
LINE
  5
3AB
  8
0
 62
     4
 10
1456.77047322
 20
228.64247557
 30
0.0
 11
1454.77047322
 21
226.64247557
 31
0.0
  0
LINE
  5
3AC
  8
0
 62
     4
 10
1456.35380655
 20
226.89247557
 30
0.0
 11
1457.85380655
 21
228.39247557
 31
0.0
  0
LINE
  5
3AD
  8
0
 62
     4
 10
1455.77047322
 20
227.64247557
 30
0.0
 11
1457.10380655
 21
227.64247557
 31
0.0
  0
LINE
  5
3AE
  8
0
 62
     4
 10
1455.77047322
 20
225.64247557
 30
0.0
 11
1455.77047322
 21
229.64247557
 31
0.0
  0
LINE
  5
3AF
  8
0
 62
     4
 10
1457.10380655
 20
225.64247557
 30
0.0
 11
1457.10380655
 21
229.64247557
 31
0.0
  0
TEXT
  5
3B0
  8
TXT_DIM49
 10
1445.03738895
 20
201.94251813
 30
0.0
 40
2.5
  1
50
 50
90.00020741
  7
ARIAL
  0
LINE
  5
3B1
  8
0
 62
     4
 10
1447.53738895
 20
219.52902024
 30
0.0
 11
1445.53738895
 21
221.52902024
 31
0.0
  0
LINE
  5
3B2
  8
0
 62
     4
 10
1445.78738895
 20
187.94568691
 30
0.0
 11
1447.28738895
 21
186.44568691
 31
0.0
  0
LINE
  5
3B3
  8
0
 62
     4
 10
1446.53738895
 20
220.52902024
 30
0.0
 11
1446.53738895
 21
187.19568691
 31
0.0
  0
LINE
  5
3B4
  8
0
 62
     4
 10
1448.53738895
 20
220.52902024
 30
0.0
 11
1444.53738895
 21
220.52902024
 31
0.0
  0
LINE
  5
3B5
  8
0
 62
     4
 10
1448.53738895
 20
187.19568691
 30
0.0
 11
1444.53738895
 21
187.19568691
 31
0.0
  0
TEXT
  5
3B6
  8
TXT_DIM49
 10
1475.03738895
 20
219.64926713
 30
0.0
 40
2.5
  1
100
 50
90.00020741
  7
ARIAL
  0
LINE
  5
3B7
  8
0
 62
     4
 10
1475.53738895
 20
190.19568691
 30
0.0
 11
1477.53738895
 21
188.19568691
 31
0.0
  0
LINE
  5
3B8
  8
0
 62
     4
 10
1477.28738895
 20
255.11235357
 30
0.0
 11
1475.78738895
 21
256.61235357
 31
0.0
  0
LINE
  5
3B9
  8
0
 62
     4
 10
1476.53738895
 20
189.19568691
 30
0.0
 11
1476.53738895
 21
255.86235357
 31
0.0
  0
LINE
  5
3BA
  8
0
 62
     4
 10
1474.53738895
 20
189.19568691
 30
0.0
 11
1478.53738895
 21
189.19568691
 31
0.0
  0
LINE
  5
3BB
  8
0
 62
     4
 10
1474.53738895
 20
255.86235357
 30
0.0
 11
1478.53738895
 21
255.86235357
 31
0.0
  0
TEXT
  5
3BC
  8
TXT_DIM49
 10
1559.55738677
 20
179.68450366
 30
0.0
 40
2.5
  1
320
  7
ARIAL
  0
LINE
  5
3BD
  8
0
 62
     4
 10
1456.77047322
 20
179.18450366
 30
0.0
 11
1454.77047322
 21
177.18450366
 31
0.0
  0
LINE
  5
3BE
  8
0
 62
     4
 10
1668.35380655
 20
177.43450366
 30
0.0
 11
1669.85380655
 21
178.93450366
 31
0.0
  0
LINE
  5
3BF
  8
0
 62
     4
 10
1455.77047322
 20
178.18450366
 30
0.0
 11
1669.10380655
 21
178.18450366
 31
0.0
  0
LINE
  5
3C0
  8
0
 62
     4
 10
1455.77047322
 20
180.18450366
 30
0.0
 11
1455.77047322
 21
176.18450366
 31
0.0
  0
LINE
  5
3C1
  8
0
 62
     4
 10
1669.10380655
 20
180.18450366
 30
0.0
 11
1669.10380655
 21
176.18450366
 31
0.0
  0
TEXT
  5
3C2
  8
TXT_DIM49
 10
1401.76728805
 20
262.99152978
 30
0.0
 40
2.5
  1
20
  7
ARIAL
  0
LINE
  5
3C3
  8
0
 62
     4
 10
1398.02045683
 20
262.49152978
 30
0.0
 11
1396.02045683
 21
260.49152978
 31
0.0
  0
LINE
  5
3C4
  8
0
 62
     4
 10
1409.60379016
 20
260.74152978
 30
0.0
 11
1411.10379016
 21
262.24152978
 31
0.0
  0
LINE
  5
3C5
  8
0
 62
     4
 10
1397.02045683
 20
261.49152978
 30
0.0
 11
1410.35379016
 21
261.49152978
 31
0.0
  0
LINE
  5
3C6
  8
0
 62
     4
 10
1397.02045683
 20
259.49152978
 30
0.0
 11
1397.02045683
 21
263.49152978
 31
0.0
  0
LINE
  5
3C7
  8
0
 62
     4
 10
1410.35379016
 20
259.49152978
 30
0.0
 11
1410.35379016
 21
263.49152978
 31
0.0
  0
TEXT
  5
3C8
  8
TXT_DIM49
 10
1415.10062138
 20
262.99152978
 30
0.0
 40
2.5
  1
20
  7
ARIAL
  0
LINE
  5
3C9
  8
0
 62
     4
 10
1411.35379016
 20
262.49152978
 30
0.0
 11
1409.35379016
 21
260.49152978
 31
0.0
  0
LINE
  5
3CA
  8
0
 62
     4
 10
1422.9371235
 20
260.74152978
 30
0.0
 11
1424.4371235
 21
262.24152978
 31
0.0
  0
LINE
  5
3CB
  8
0
 62
     4
 10
1410.35379016
 20
261.49152978
 30
0.0
 11
1423.6871235
 21
261.49152978
 31
0.0
  0
LINE
  5
3CC
  8
0
 62
     4
 10
1410.35379016
 20
259.49152978
 30
0.0
 11
1410.35379016
 21
263.49152978
 31
0.0
  0
LINE
  5
3CD
  8
0
 62
     4
 10
1423.6871235
 20
259.49152978
 30
0.0
 11
1423.6871235
 21
263.49152978
 31
0.0
  0
TEXT
  5
3CE
  8
TXT_DIM49
 10
1385.46056778
 20
236.27585146
 30
0.0
 40
2.5
  1
53
 50
90.00020741
  7
ARIAL
  0
LINE
  5
3CF
  8
0
 62
     4
 10
1387.96056778
 20
254.86235357
 30
0.0
 11
1385.96056778
 21
256.86235357
 31
0.0
  0
LINE
  5
3D0
  8
0
 62
     4
 10
1386.21056778
 20
221.27902024
 30
0.0
 11
1387.71056778
 21
219.77902024
 31
0.0
  0
LINE
  5
3D1
  8
0
 62
     4
 10
1386.96056778
 20
255.86235357
 30
0.0
 11
1386.96056778
 21
220.52902024
 31
0.0
  0
LINE
  5
3D2
  8
0
 62
     4
 10
1388.96056778
 20
255.86235357
 30
0.0
 11
1384.96056778
 21
255.86235357
 31
0.0
  0
LINE
  5
3D3
  8
0
 62
     4
 10
1388.96056778
 20
220.52902024
 30
0.0
 11
1384.96056778
 21
220.52902024
 31
0.0
  0
TEXT
  5
3D4
  8
TXT_DIM49
 10
1385.46056778
 20
210.27585146
 30
0.0
 40
2.5
  1
25
 50
90.00020741
  7
ARIAL
  0
LINE
  5
3D5
  8
0
 62
     4
 10
1387.96056778
 20
219.52902024
 30
0.0
 11
1385.96056778
 21
221.52902024
 31
0.0
  0
LINE
  5
3D6
  8
0
 62
     4
 10
1386.21056778
 20
204.61235357
 30
0.0
 11
1387.71056778
 21
203.11235357
 31
0.0
  0
LINE
  5
3D7
  8
0
 62
     4
 10
1386.96056778
 20
220.52902024
 30
0.0
 11
1386.96056778
 21
203.86235357
 31
0.0
  0
LINE
  5
3D8
  8
0
 62
     4
 10
1388.96056778
 20
220.52902024
 30
0.0
 11
1384.96056778
 21
220.52902024
 31
0.0
  0
LINE
  5
3D9
  8
0
 62
     4
 10
1388.96056778
 20
203.86235357
 30
0.0
 11
1384.96056778
 21
203.86235357
 31
0.0
  0
TEXT
  5
3DA
  8
TXT_DIM49
 10
1385.46056778
 20
194.94251813
 30
0.0
 40
2.5
  1
21
 50
90.00020741
  7
ARIAL
  0
LINE
  5
3DB
  8
0
 62
     4
 10
1387.96056778
 20
202.86235357
 30
0.0
 11
1385.96056778
 21
204.86235357
 31
0.0
  0
LINE
  5
3DC
  8
0
 62
     4
 10
1386.21056778
 20
190.61235357
 30
0.0
 11
1387.71056778
 21
189.11235357
 31
0.0
  0
LINE
  5
3DD
  8
0
 62
     4
 10
1386.96056778
 20
203.86235357
 30
0.0
 11
1386.96056778
 21
189.86235357
 31
0.0
  0
LINE
  5
3DE
  8
0
 62
     4
 10
1388.96056778
 20
203.86235357
 30
0.0
 11
1384.96056778
 21
203.86235357
 31
0.0
  0
LINE
  5
3DF
  8
0
 62
     4
 10
1388.96056778
 20
189.86235357
 30
0.0
 11
1384.96056778
 21
189.86235357
 31
0.0
  0
TEXT
  5
3E0
  8
TXT_DIM49
 10
1385.46056778
 20
187.56910252
 30
0.0
 40
2.5
  1
4
 50
90.00020741
  7
ARIAL
  0
LINE
  5
3E1
  8
0
 62
     4
 10
1387.96056778
 20
188.86235357
 30
0.0
 11
1385.96056778
 21
190.86235357
 31
0.0
  0
LINE
  5
3E2
  8
0
 62
     4
 10
1386.21056778
 20
187.94568691
 30
0.0
 11
1387.71056778
 21
186.44568691
 31
0.0
  0
LINE
  5
3E3
  8
0
 62
     4
 10
1386.96056778
 20
189.86235357
 30
0.0
 11
1386.96056778
 21
187.19568691
 31
0.0
  0
LINE
  5
3E4
  8
0
 62
     4
 10
1388.96056778
 20
189.86235357
 30
0.0
 11
1384.96056778
 21
189.86235357
 31
0.0
  0
LINE
  5
3E5
  8
0
 62
     4
 10
1388.96056778
 20
187.19568691
 30
0.0
 11
1384.96056778
 21
187.19568691
 31
0.0
  0
LINE
  5
3E6
  8
0
 62
     3
 10
1410.35379016
 20
208.52902024
 30
0.0
 11
1406.71810448
 21
213.64368559
 31
0.0
  0
TEXT
  5
3E7
  8
TXT_DIM49
 10
1399.19336069
 20
212.39368559
 30
0.0
 40
2.5
  1
Ø14
  7
ARIAL
  0
POLYLINE
  5
3E8
  8
0
 62
     3
 66
     1
 10
0.0
 20
0.0
 30
0.0
 70
     1
  0
VERTEX
  5
3E9
  8
0
 62
     3
 10
1398.19336069
 20
215.14368559
 30
0.0
  0
VERTEX
  5
3EA
  8
0
 62
     3
 10
1406.71810448
 20
215.14368559
 30
0.0
  0
VERTEX
  5
3EB
  8
0
 62
     3
 10
1406.71810448
 20
212.14368559
 30
0.0
  0
VERTEX
  5
3EC
  8
0
 62
     3
 10
1398.19336069
 20
212.14368559
 30
0.0
  0
SEQEND
  5
3ED
  8
0
  0
ENDSEC
  0
EOF
