  0
SECTION
  2
HEADER
  9
$ACADVER
  1
AC1006
  9
$DWGCODEPAGE
  3
ansi_1252
  9
$INSBASE
 10
0.0
 20
0.0
 30
0.0
  9
$EXTMIN
 10
1294.27892507
 20
68.39205713
  9
$EXTMAX
 10
2244.44707705
 20
510.9402971
  9
$LIMMIN
 10
1294.27892507
 20
68.39205713
  9
$LIMMAX
 10
2244.44707705
 20
510.9402971
  9
$ORTHOMODE
 70
     0
  9
$REGENMODE
 70
     1
  9
$FILLMODE
 70
     1
  9
$QTEXTMODE
 70
     0
  9
$MIRRTEXT
 70
     1
  9
$DRAGMODE
 70
     2
  9
$LTSCALE
 40
1.0
  9
$OSMODE
 70
    37
  9
$ATTMODE
 70
     1
  9
$TEXTSIZE
 40
1.0
  9
$TRACEWID
 40
0.05
  9
$TEXTSTYLE
  7
STANDARD
  9
$CLAYER
  8
0
  9
$CELTYPE
  6
BYBLOCK
  9
$CECOLOR
 62
   256
  9
$DIMSCALE
 40
1.0
  9
$DIMASZ
 40
0.18
  9
$DIMEXO
 40
0.0625
  9
$DIMDLI
 40
0.38
  9
$DIMRND
 40
0.0
  9
$DIMDLE
 40
0.0
  9
$DIMEXE
 40
0.18
  9
$DIMTP
 40
0.0
  9
$DIMTM
 40
0.0
  9
$DIMTXT
 40
0.18
  9
$DIMCEN
 40
0.09
  9
$DIMTSZ
 40
0.0
  9
$DIMTOL
 70
     0
  9
$DIMLIM
 70
     0
  9
$DIMTIH
 70
     1
  9
$DIMTOH
 70
     1
  9
$DIMSE1
 70
     0
  9
$DIMSE2
 70
     0
  9
$DIMTAD
 70
     0
  9
$DIMZIN
 70
     0
  9
$DIMBLK
  1

  9
$DIMASO
 70
     1
  9
$DIMSHO
 70
     1
  9
$DIMPOST
  1

  9
$DIMAPOST
  1

  9
$DIMALT
 70
     0
  9
$DIMALTD
 70
     2
  9
$DIMALTF
 40
25.4
  9
$DIMLFAC
 40
1.0
  9
$DIMTOFL
 70
     0
  9
$DIMTVP
 40
0.0
  9
$DIMTIX
 70
     0
  9
$DIMSOXD
 70
     0
  9
$DIMSAH
 70
     0
  9
$DIMBLK1
  1

  9
$DIMBLK2
  1

  9
$LUNITS
 70
     2
  9
$LUPREC
 70
     4
  9
$SKETCHINC
 40
0.1
  9
$FILLETRAD
 40
0.5
  9
$AUNITS
 70
     0
  9
$AUPREC
 70
     0
  9
$MENU
  1
.
  9
$ELEVATION
 40
0.0
  9
$THICKNESS
 40
0.0
  9
$LIMCHECK
 70
     0
  9
$CHAMFERA
 40
0.0
  9
$CHAMFERB
 40
0.0
  9
$SKPOLY
 70
     0
  9
$TDCREATE
 40
2447893.125
  9
$TDUPDATE
 40
2460791.513181667
  9
$TDINDWG
 40
0.0
  9
$TDUSRTIMER
 40
0.0
  9
$USRTIMER
 70
     1
  9
$ANGBASE
 50
0.0
  9
$ANGDIR
 70
     0
  9
$PDMODE
 70
     0
  9
$PDSIZE
 40
0.0
  9
$PLINEWID
 40
0.0
  9
$COORDS
 70
     1
  9
$SPLFRAME
 70
     0
  9
$SPLINETYPE
 70
     6
  9
$SPLINESEGS
 70
     8
  9
$ATTDIA
 70
     0
  9
$ATTREQ
 70
     1
  9
$HANDLING
 70
     1
  9
$HANDSEED
  5
784
  9
$SURFTAB1
 70
     6
  9
$SURFTAB2
 70
     6
  9
$SURFTYPE
 70
     6
  9
$SURFU
 70
     6
  9
$SURFV
 70
     6
  9
$UCSNAME
  2

  9
$UCSORG
 10
0.0
 20
0.0
 30
0.0
  9
$UCSXDIR
 10
1.0
 20
0.0
 30
0.0
  9
$UCSYDIR
 10
0.0
 20
1.0
 30
0.0
  9
$USERI1
 70
     0
  9
$USERI2
 70
     0
  9
$USERI3
 70
     0
  9
$USERI4
 70
     0
  9
$USERI5
 70
     0
  9
$USERR1
 40
0.0
  9
$USERR2
 40
0.0
  9
$USERR3
 40
0.0
  9
$USERR4
 40
0.0
  9
$USERR5
 40
0.0
  9
$WORLDVIEW
 70
     1
  0
ENDSEC
  0
SECTION
  2
TABLES
  0
TABLE
  2
VPORT
 70
     1
  0
VPORT
  2
*ACTIVE
 70
     0
 10
0.0
 20
0.0
 11
1.0
 21
1.0
 12
1769.36300106
 22
289.66617711
 13
0.0
 23
0.0
 14
1.0
 24
1.0
 15
0.0
 25
0.0
 16
0.0
 26
0.0
 36
1.0
 17
0.0
 27
0.0
 37
0.0
 40
442.548239973
 41
2.147038596
 42
50.0
 43
0.0
 44
0.0
 50
0.0
 51
0.0
 71
     0
 72
   100
 73
     1
 74
     1
 75
     0
 76
     0
 77
     0
 78
     0
  0
ENDTAB
  0
TABLE
  2
LTYPE
 70
    19
  0
LTYPE
  2
CONTINUOUS
 70
     0
  3
Solid line
 72
    65
 73
     0
 40
0.0
  0
LTYPE
  2
DOT
 70
     0
  3
..............
 72
    65
 73
     2
 40
2.0
 49
0.5
 49
-1.5
  0
LTYPE
  2
HIDDEN
 70
     0
  3
-- -- -- -- --
 72
    65
 73
     2
 40
7.0
 49
4.0
 49
-3.0
  0
LTYPE
  2
DASHDOT
 70
     0
  3
--.--.--.--.--
 72
    65
 73
     4
 40
8.5
 49
4.0
 49
-2.0
 49
0.5
 49
-2.0
  0
LTYPE
  2
STRICHPUNKT2
 70
     0
  3
--.--.--.--.--
 72
    65
 73
     4
 40
18.5
 49
10.0
 49
-4.0
 49
0.5
 49
-4.0
  0
LTYPE
  2
STRICHPUNKT3
 70
     0
  3
--.--.--.--.--
 72
    65
 73
     4
 40
35.5
 49
25.0
 49
-5.0
 49
0.5
 49
-5.0
  0
LTYPE
  2
PHANTOM
 70
     0
  3
--..--..--..--
 72
    65
 73
     6
 40
23.0
 49
10.0
 49
-4.0
 49
0.5
 49
-4.0
 49
0.5
 49
-4.0
  0
LTYPE
  2
PHANTOM2
 70
     0
  3
--..--..--..--
 72
    65
 73
     6
 40
33.0
 49
20.0
 49
-4.0
 49
0.5
 49
-4.0
 49
0.5
 49
-4.0
  0
LTYPE
  2
PHANTOM3
 70
     0
  3
--..--..--..--
 72
    65
 73
     6
 40
50.0
 49
37.0
 49
-4.0
 49
0.5
 49
-4.0
 49
0.5
 49
-4.0
  0
LTYPE
  2
STR3PKT
 70
     0
  3
--...--...--...
 72
    65
 73
     8
 40
31.5
 49
20.0
 49
-2.5
 49
0.5
 49
-2.5
 49
0.5
 49
-2.5
 49
0.5
 49
-2.5
  0
LTYPE
  2
2STRPKT
 70
     0
  3
--.--.--.--.--
 72
    65
 73
     6
 40
28.0
 49
10.0
 49
-2.5
 49
10.0
 49
-2.5
 49
0.5
 49
-2.5
  0
LTYPE
  2
GESTRICHELT2
 70
     0
  3
-- -- -- -- --
 72
    65
 73
     2
 40
25.0
 49
10.0
 49
-15.0
  0
LTYPE
  2
2STR2PKT
 70
     0
  3
--..--..--..--
 72
    65
 73
     8
 40
31.0
 49
10.0
 49
-2.5
 49
10.0
 49
-2.5
 49
0.5
 49
-2.5
 49
0.5
 49
-2.5
  0
LTYPE
  2
STR3PKT2
 70
     0
  3
--...--...--...
 72
    65
 73
     8
 40
21.0
 49
10.0
 49
-2.5
 49
0.5
 49
-2.5
 49
0.5
 49
-2.5
 49
0.5
 49
-2.0
  0
LTYPE
  2
2STR3PKT
 70
     0
  3
--...--...--...
 72
    65
 73
    10
 40
34.0
 49
10.0
 49
-2.5
 49
10.0
 49
-2.5
 49
0.5
 49
-2.5
 49
0.5
 49
-2.5
 49
0.5
 49
-2.5
  0
LTYPE
  2
STRKSTR
 70
     0
  3
-- - -- - -- -
 72
    65
 73
     4
 40
30.0
 49
20.0
 49
-2.5
 49
5.0
 49
-2.5
  0
LTYPE
  2
STRKSTR2
 70
     0
  3
-- - -- - -- -
 72
    65
 73
     6
 40
37.5
 49
20.0
 49
-2.5
 49
5.0
 49
-2.5
 49
5.0
 49
-2.5
  0
LTYPE
  2
STRKSTR3
 70
     0
  3
-- - -- - -- -
 72
    65
 73
     8
 40
45.0
 49
20.0
 49
-2.5
 49
5.0
 49
-2.5
 49
5.0
 49
-2.5
 49
5.0
 49
-2.5
  0
LTYPE
  2
PUNKT2
 70
     0
  3
..............
 72
    65
 73
     2
 40
3.5
 49
0.5
 49
-3.0
  0
ENDTAB
  0
TABLE
  2
LAYER
 70
    18
  0
LAYER
  2
0
 70
     0
 62
     7
  6
CONTINUOUS
  0
LAYER
  2
LE_GREEN
 70
     0
 62
     3
  6
CONTINUOUS
  0
LAYER
  2
LE_RED
 70
     0
 62
     1
  6
CONTINUOUS
  0
LAYER
  2
LE_ALL
 70
     0
 62
     7
  6
CONTINUOUS
  0
LAYER
  2
LE_HIDDEN1
 70
     0
 62
     3
  6
HIDDEN
  0
LAYER
  2
LE_HIDDEN
 70
     0
 62
     7
  6
CONTINUOUS
  0
LAYER
  2
LE_MIDDLE
 70
     0
 62
     7
  6
CONTINUOUS
  0
LAYER
  2
TXT_YELLOW
 70
     0
 62
     2
  6
CONTINUOUS
  0
LAYER
  2
TXT_DIM49
 70
     0
 62
     2
  6
CONTINUOUS
  0
LAYER
  2
TXT_ALL
 70
     0
 62
     7
  6
CONTINUOUS
  0
LAYER
  2
DIM49
 70
     0
 62
     4
  6
CONTINUOUS
  0
LAYER
  2
HATCH
 70
     0
 62
     3
  6
CONTINUOUS
  0
LAYER
  2
APPLE
 70
     0
 62
     7
  6
CONTINUOUS
  0
LAYER
  2
10
 70
     0
 62
     7
  6
CONTINUOUS
  0
LAYER
  2
20
 70
     0
 62
     7
  6
CONTINUOUS
  0
LAYER
  2
40
 70
     0
 62
     7
  6
CONTINUOUS
  0
LAYER
  2
47
 70
     0
 62
     7
  6
CONTINUOUS
  0
LAYER
  2
49
 70
     0
 62
     7
  6
CONTINUOUS
  0
ENDTAB
  0
TABLE
  2
STYLE
 70
     5
  0
STYLE
  2
MONOTXT
 70
     0
 40
0.0
 41
1.0
 50
0.0
 71
     0
 42
1.0
  3
monotxt.shx
  4

  0
STYLE
  2
STANDARD
 70
     0
 40
0.0
 41
1.0
 50
0.0
 71
     0
 42
1.0
  3
txt
  4

  0
STYLE
  2
ARIAL
 70
     0
 40
0.0
 41
1.0
 50
0.0
 71
     0
 42
1.0
  3
arial.ttf
  4

  0
STYLE
  2
ARIAL_NARROW
 70
     0
 40
0.0
 41
1.0
 50
0.0
 71
     0
 42
1.0
  3
ArialN.ttf
  4

  0
STYLE
  2
ISOCPEUR
 70
     0
 40
0.0
 41
1.0
 50
0.0
 71
     0
 42
1.0
  3
ISOCPEUR.ttf
  4

  0
ENDTAB
  0
TABLE
  2
VIEW
 70
     0
  0
ENDTAB
  0
TABLE
  2
UCS
 70
     0
  0
ENDTAB
  0
ENDSEC
  0
SECTION
  2
BLOCKS
  0
ENDSEC
  0
SECTION
  2
ENTITIES
  0
POLYLINE
  5
16F
  8
0
 66
     1
 10
0.0
 20
0.0
 30
0.0
 70
     1
  0
VERTEX
  5
170
  8
0
 10
1518.26174707
 20
123.69081039
 30
0.0
  0
VERTEX
  5
171
  8
0
 10
1938.26174707
 20
123.69081039
 30
0.0
  0
VERTEX
  5
172
  8
0
 10
1938.26174707
 20
420.69081039
 30
0.0
  0
VERTEX
  5
173
  8
0
 10
1518.26174707
 20
420.69081039
 30
0.0
  0
SEQEND
  5
174
  8
0
  0
POLYLINE
  5
175
  8
0
 66
     1
 10
0.0
 20
0.0
 30
0.0
 70
     1
  0
VERTEX
  5
176
  8
0
 10
1523.26174707
 20
128.69081039
 30
0.0
  0
VERTEX
  5
177
  8
0
 10
1933.26174707
 20
128.69081039
 30
0.0
  0
VERTEX
  5
178
  8
0
 10
1933.26174707
 20
415.69081039
 30
0.0
  0
VERTEX
  5
179
  8
0
 10
1523.26174707
 20
415.69081039
 30
0.0
  0
SEQEND
  5
17A
  8
0
  0
LINE
  5
17B
  8
0
 10
1748.26174707
 20
128.69081039
 30
0.0
 11
1748.26174707
 21
123.69081039
 31
0.0
  0
LINE
  5
17C
  8
0
 10
1748.26174707
 20
415.69081039
 30
0.0
 11
1748.26174707
 21
420.69081039
 31
0.0
  0
LINE
  5
17D
  8
0
 10
1538.26174707
 20
128.69081039
 30
0.0
 11
1538.26174707
 21
123.69081039
 31
0.0
  0
LINE
  5
17E
  8
0
 10
1538.26174707
 20
415.69081039
 30
0.0
 11
1538.26174707
 21
420.69081039
 31
0.0
  0
TEXT
  5
17F
  8
TXT_ALL
 62
     4
 10
1937.26174707
 20
124.69081039
 30
0.0
 40
2.5
  1

 50
90.00020741
  0
POLYLINE
  5
180
  8
0
 66
     1
 10
0.0
 20
0.0
 30
0.0
  0
VERTEX
  5
181
  8
0
 10
1933.26174707
 20
405.69081039
 30
0.0
  0
VERTEX
  5
182
  8
0
 10
1864.26844707
 20
405.69081039
 30
0.0
  0
VERTEX
  5
183
  8
0
 10
1864.26844707
 20
415.69081039
 30
0.0
  0
SEQEND
  5
184
  8
0
  0
LINE
  5
185
  8
0
 10
1866.17174707
 20
148.19081039
 30
0.0
 11
1726.28174707
 21
148.19081039
 31
0.0
  0
LINE
  5
186
  8
0
 10
1726.28174707
 20
138.44081039
 30
0.0
 11
1866.17174707
 21
138.44081039
 31
0.0
  0
POLYLINE
  5
187
  8
0
 66
     1
 10
0.0
 20
0.0
 30
0.0
  0
VERTEX
  5
188
  8
0
 10
1726.28174707
 20
148.19081039
 30
0.0
  0
VERTEX
  5
189
  8
0
 10
1726.28174707
 20
138.44081039
 30
0.0
  0
VERTEX
  5
18A
  8
0
 10
1726.28174707
 20
128.69081039
 30
0.0
  0
SEQEND
  5
18B
  8
0
  0
POLYLINE
  5
18C
  8
0
 66
     1
 10
0.0
 20
0.0
 30
0.0
  0
VERTEX
  5
18D
  8
0
 10
1796.22674707
 20
148.19081039
 30
0.0
  0
VERTEX
  5
18E
  8
0
 10
1796.22674707
 20
138.44081039
 30
0.0
  0
VERTEX
  5
18F
  8
0
 10
1796.22674707
 20
128.69081039
 30
0.0
  0
SEQEND
  5
190
  8
0
  0
TEXT
  5
191
  8
TXT_ALL
 10
1728.28174707
 20
142.01581043
 30
0.0
 40
2.5999999
  1
E-mail: verkoop@jonkers-bouwmetaal.nl
  7
ARIAL
  0
TEXT
  5
192
  8
TXT_ALL
 10
1728.28174707
 20
132.26581043
 30
0.0
 40
2.5999999
  1
Telefoon: 0527-685156
  7
ARIAL
  0
TEXT
  5
193
  8
TXT_ALL
 10
1798.22674707
 20
132.26581043
 30
0.0
 40
2.5999999
  1
Website: www.jonkers-bouwmetaal.nl
  7
ARIAL
  0
TEXT
  5
194
  8
TXT_ALL
 10
1798.22674707
 20
142.01581043
 30
0.0
 40
2.5999999
  1
Adres: Hoornse Hop 10, 8321 WX Urk
  7
ARIAL
  0
TEXT
  5
195
  8
TXT_ALL
 10
1526.70370732
 20
409.44081039
 30
0.0
 40
2.5
  1
Art. nr. 91013327-01
  7
ARIAL
  0
TEXT
  5
196
  8
TXT_ALL
 10
1569.44174414
 20
409.44081039
 30
0.0
 40
2.5
  1
Omschrijving: Trekanker-01 320x50 40x2 incl. opvulstrip-01
  7
ARIAL
  0
LINE
  5
197
  8
0
 10
1933.26174707
 20
405.69081039
 30
0.0
 11
1523.26174707
 21
405.69081039
 31
0.0
  0
LINE
  5
198
  8
0
 10
1566.28174707
 20
405.69081039
 30
0.0
 11
1566.28174707
 21
415.69081039
 31
0.0
  0
LINE
  5
199
  8
0
 10
1726.28174707
 20
405.69081039
 30
0.0
 11
1726.28174707
 21
415.69081039
 31
0.0
  0
TEXT
  5
19A
  8
TXT_ALL
 10
1797.27544707
 20
409.44081039
 30
0.0
 40
2.5
  1
Behandeling: n.v.t.
  7
ARIAL
  0
LINE
  5
19B
  8
0
 10
1866.17174707
 20
148.19081039
 30
0.0
 11
1933.26174707
 21
148.19081039
 31
0.0
  0
LINE
  5
19C
  8
0
 10
1866.17174707
 20
128.69081039
 30
0.0
 11
1866.17174707
 21
148.19081039
 31
0.0
  0
LINE
  5
19D
  8
0
 10
1866.17174707
 20
128.69081039
 30
0.0
 11
1866.17174707
 21
148.19081039
 31
0.0
  0
TEXT
  5
19E
  8
TXT_ALL
 10
1660.62694516
 20
129.8453438
 30
0.0
 40
2.5
  1

  0
TEXT
  5
19F
  8
TXT_ALL
 10
1781.76212813
 20
139.94081039
 30
0.0
 40
2.5
  1

  0
POLYLINE
  5
1A0
  8
0
 66
     1
 10
0.0
 20
0.0
 30
0.0
  0
VERTEX
  5
1A1
  8
0
 10
1864.26844707
 20
405.69081039
 30
0.0
  0
VERTEX
  5
1A2
  8
0
 10
1795.27544707
 20
405.69081039
 30
0.0
  0
VERTEX
  5
1A3
  8
0
 10
1795.27544707
 20
415.69081039
 30
0.0
  0
SEQEND
  5
1A4
  8
0
  0
TEXT
  5
1A5
  8
TXT_ALL
 10
1866.26844707
 20
409.44081039
 30
0.0
 40
2.5
  1
Verpakkingshoeveelheid: 10 st.
  7
ARIAL
  0
TEXT
  5
1A6
  8
TXT_ALL
 10
1728.28174707
 20
409.44081039
 30
0.0
 40
2.5
  1
Materiaal: Sendzimir Verzinkt
  7
ARIAL
  0
TEXT
  5
1A7
  8
TXT_ALL
 10
1901.0433943
 20
125.44130054
 30
0.0
 40
1.5
  1
Onderdeel van
  7
ARIAL
  0
POLYLINE
  5
1A8
  8
0
 66
     1
 10
0.0
 20
0.0
 30
0.0
  0
VERTEX
  5
4C4
  8
0
 10
1583.42694991
 20
180.78485273
 30
0.0
  0
VERTEX
  5
4C5
  8
0
 10
1583.337281218689
 20
181.0883265610871
 30
0.0
  0
VERTEX
  5
4C6
  8
0
 10
1583.071721062267
 20
181.3801380630621
 30
0.0
  0
VERTEX
  5
4C7
  8
0
 10
1582.640474768595
 20
181.6490730835795
 30
0.0
  0
VERTEX
  5
4C8
  8
0
 10
1582.060114890856
 20
181.8847966006448
 30
0.0
  0
VERTEX
  5
4C9
  8
0
 10
1581.35294433363
 20
182.0782498917133
 30
0.0
  0
VERTEX
  5
4CA
  8
0
 10
1580.546139264783
 20
182.2219986553157
 30
0.0
  0
VERTEX
  5
4CB
  8
0
 10
1579.670704750581
 20
182.3105187070948
 30
0.0
  0
VERTEX
  5
4CC
  8
0
 10
1578.760283248376
 20
182.3404082711111
 30
0.0
  0
VERTEX
  5
4CD
  8
0
 10
1577.84986174585
 20
182.3105187081843
 30
0.0
  0
VERTEX
  5
4CE
  8
0
 10
1576.974427230694
 20
182.2219986574527
 30
0.0
  0
VERTEX
  5
4CF
  8
0
 10
1576.1676221603
 20
182.0782498948156
 30
0.0
  0
VERTEX
  5
4D0
  8
0
 10
1575.46045160099
 20
181.8847966045934
 30
0.0
  0
VERTEX
  5
4D1
  8
0
 10
1574.880091720712
 20
181.6490730882225
 30
0.0
  0
VERTEX
  5
4D2
  8
0
 10
1574.448845424144
 20
181.3801380682211
 30
0.0
  0
VERTEX
  5
4D3
  8
0
 10
1574.18328526458
 20
181.0883265665639
 30
0.0
  0
VERTEX
  5
4D4
  8
0
 10
1574.09361657
 20
180.7848527355841
 30
0.0
  0
SEQEND
  5
75C
  8
0
  0
POLYLINE
  5
1A9
  8
0
 66
     1
 10
0.0
 20
0.0
 30
0.0
  0
VERTEX
  5
4D5
  8
0
 10
1574.09361657
 20
180.7848527355841
 30
0.0
  0
VERTEX
  5
4D6
  8
0
 10
1574.183285258452
 20
180.4813789037052
 30
0.0
  0
VERTEX
  5
4D7
  8
0
 10
1574.448845412925
 20
180.1895674008072
 30
0.0
  0
VERTEX
  5
4D8
  8
0
 10
1574.880091705588
 20
179.9206323793224
 30
0.0
  0
VERTEX
  5
4D9
  8
0
 10
1575.460451583222
 20
179.6849088613295
 30
0.0
  0
VERTEX
  5
4DA
  8
0
 10
1576.167622141147
 20
179.4914555694502
 30
0.0
  0
VERTEX
  5
4DB
  8
0
 10
1576.974427211347
 20
179.3477068052185
 30
0.0
  0
VERTEX
  5
4DC
  8
0
 10
1577.849861727366
 20
179.2591867530413
 30
0.0
  0
VERTEX
  5
4DD
  8
0
 10
1578.760283231624
 20
179.2292971888889
 30
0.0
  0
VERTEX
  5
4DE
  8
0
 10
1579.670704736204
 20
179.2591867519519
 30
0.0
  0
VERTEX
  5
4DF
  8
0
 10
1580.546139253175
 20
179.3477068030816
 30
0.0
  0
VERTEX
  5
4E0
  8
0
 10
1581.352944324924
 20
179.4914555663478
 30
0.0
  0
VERTEX
  5
4E1
  8
0
 10
1582.060114884933
 20
179.6849088573809
 30
0.0
  0
VERTEX
  5
4E2
  8
0
 10
1582.640474765105
 20
179.9206323746794
 30
0.0
  0
VERTEX
  5
4E3
  8
0
 10
1583.071721060664
 20
180.1895673956482
 30
0.0
  0
VERTEX
  5
4E4
  8
0
 10
1583.33728121828
 20
180.4813788982284
 30
0.0
  0
VERTEX
  5
4E5
  8
0
 10
1583.42694991
 20
180.78485273
 30
0.0
  0
SEQEND
  5
75D
  8
0
  0
POLYLINE
  5
1AA
  8
0
 66
     1
 10
0.0
 20
0.0
 30
0.0
  0
VERTEX
  5
1AB
  8
0
 10
1599.06456756
 20
182.97806432
 30
0.0
  0
VERTEX
  5
1AC
  8
0
 10
1589.63647715
 20
174.66327013
 30
0.0
  0
VERTEX
  5
1AD
  8
0
 10
1560.32682762
 20
178.35593888
 30
0.0
  0
SEQEND
  5
1AE
  8
0
  0
LINE
  5
1AF
  8
0
 10
1569.75491803
 20
186.67073307
 30
0.0
 11
1560.32682762
 21
178.35593888
 31
0.0
  0
POLYLINE
  5
1B0
  8
0
 66
     1
 10
0.0
 20
0.0
 30
0.0
  0
VERTEX
  5
1B1
  8
0
 10
1569.75491803
 20
186.67073307
 30
0.0
  0
VERTEX
  5
1B2
  8
0
 10
1599.06456756
 20
182.97806432
 30
0.0
  0
VERTEX
  5
1B3
  8
0
 10
1599.06456756
 20
176.69267071
 30
0.0
  0
VERTEX
  5
1B4
  8
0
 10
1589.63647715
 20
168.37787652
 30
0.0
  0
SEQEND
  5
1B5
  8
0
  0
POLYLINE
  5
1B6
  8
0
 66
     1
 10
0.0
 20
0.0
 30
0.0
  0
VERTEX
  5
1B7
  8
0
 10
1589.63647715
 20
174.66327013
 30
0.0
  0
VERTEX
  5
1B8
  8
0
 10
1589.63647715
 20
168.37787652
 30
0.0
  0
VERTEX
  5
1B9
  8
0
 10
1560.32682762
 20
172.07054527
 30
0.0
  0
SEQEND
  5
1BA
  8
0
  0
LINE
  5
1BB
  8
0
 10
1560.32682762
 20
178.35593888
 30
0.0
 11
1560.32682762
 21
172.07054527
 31
0.0
  0
LINE
  5
1BC
  8
0
  6
STRICHPUNKT2
 62
     1
 10
1578.76028324
 20
182.67047081
 30
0.0
 11
1578.76028324
 21
179.22929717
 31
0.0
  0
LINE
  5
1BD
  8
0
  6
STRICHPUNKT2
 62
     1
 10
1578.76028324
 20
180.78485273
 30
0.0
 11
1584.99637889
 21
179.99917853
 31
0.0
  0
LINE
  5
1BE
  8
0
  6
STRICHPUNKT2
 62
     1
 10
1578.76028324
 20
180.78485273
 30
0.0
 11
1572.5241876
 21
181.57052693
 31
0.0
  0
LINE
  5
1BF
  8
0
  6
STRICHPUNKT2
 62
     1
 10
1578.76028324
 20
180.78485273
 30
0.0
 11
1581.11730585
 21
182.86355128
 31
0.0
  0
LINE
  5
1C0
  8
0
  6
STRICHPUNKT2
 62
     1
 10
1578.76028324
 20
180.78485273
 30
0.0
 11
1576.40326064
 21
178.70615418
 31
0.0
  0
LINE
  5
1C1
  8
0
 10
1589.63647715
 20
168.37787652
 30
0.0
 11
1560.95043718
 21
171.99197784
 31
0.0
  0
POLYLINE
  5
1C2
  8
0
 66
     1
 10
0.0
 20
0.0
 30
0.0
  0
VERTEX
  5
1C3
  8
0
 10
1599.06456756
 20
176.69267071
 30
0.0
  0
VERTEX
  5
1C4
  8
0
 10
1589.63647715
 20
168.37787652
 30
0.0
  0
VERTEX
  5
1C5
  8
0
 10
1589.63647715
 20
167.1207978
 30
0.0
  0
VERTEX
  5
1C6
  8
0
 10
1560.95043718
 20
170.73489912
 30
0.0
  0
SEQEND
  5
1C7
  8
0
  0
LINE
  5
1C8
  8
0
 10
1599.06456756
 20
175.43559199
 30
0.0
 11
1589.63647715
 21
167.1207978
 31
0.0
  0
LINE
  5
1C9
  8
0
 10
1599.06456756
 20
176.69267071
 30
0.0
 11
1599.06456756
 21
175.43559199
 31
0.0
  0
POLYLINE
  5
1CA
  8
0
 66
     1
 10
0.0
 20
0.0
 30
0.0
  0
VERTEX
  5
4E6
  8
0
 10
1567.15520819
 20
191.7076937
 30
0.0
  0
VERTEX
  5
4E7
  8
0
 10
1567.266744687695
 20
191.7259191172555
 30
0.0
  0
VERTEX
  5
4E8
  8
0
 10
1567.382001033362
 20
191.8069908537823
 30
0.0
  0
VERTEX
  5
4E9
  8
0
 10
1567.496547990285
 20
191.9477933682182
 30
0.0
  0
VERTEX
  5
4EA
  8
0
 10
1567.605983583157
 20
192.1429156989088
 30
0.0
  0
VERTEX
  5
4EB
  8
0
 10
1567.706102263526
 20
192.3848594041285
 30
0.0
  0
VERTEX
  5
4EC
  8
0
 10
1567.793056526662
 20
192.6643267229906
 30
0.0
  0
VERTEX
  5
4ED
  8
0
 10
1567.863504769005
 20
192.9705778831827
 30
0.0
  0
VERTEX
  5
4EE
  8
0
 10
1567.914739704114
 20
193.2918438243931
 30
0.0
  0
VERTEX
  5
4EF
  8
0
 10
1567.944792402172
 20
193.6157784766972
 30
0.0
  0
VERTEX
  5
4F0
  8
0
 10
1567.952507954848
 20
193.9299332130999
 30
0.0
  0
VERTEX
  5
4F1
  8
0
 10
1567.93758985778
 20
194.2222352432888
 30
0.0
  0
VERTEX
  5
4F2
  8
0
 10
1567.900611405072
 20
194.4814515641943
 30
0.0
  0
VERTEX
  5
4F3
  8
0
 10
1567.84299365792
 20
194.6976206379967
 30
0.0
  0
VERTEX
  5
4F4
  8
0
 10
1567.766950834029
 20
194.8624352084379
 30
0.0
  0
VERTEX
  5
4F5
  8
0
 10
1567.67540521647
 20
194.9695615440191
 30
0.0
  0
VERTEX
  5
4F6
  8
0
 10
1567.571874851978
 20
195.0148828397507
 30
0.0
  0
SEQEND
  5
75E
  8
0
  0
POLYLINE
  5
1CB
  8
0
 66
     1
 10
0.0
 20
0.0
 30
0.0
  0
VERTEX
  5
4F7
  8
0
 10
1567.571874851978
 20
195.0148828397507
 30
0.0
  0
VERTEX
  5
4F8
  8
0
 10
1567.460338354131
 20
194.9966574235438
 30
0.0
  0
VERTEX
  5
4F9
  8
0
 10
1567.345082008223
 20
194.9155856877487
 30
0.0
  0
VERTEX
  5
4FA
  8
0
 10
1567.230535051003
 20
194.7747831737134
 30
0.0
  0
VERTEX
  5
4FB
  8
0
 10
1567.121099457807
 20
194.5796608431018
 30
0.0
  0
VERTEX
  5
4FC
  8
0
 10
1567.020980777119
 20
194.3377171376704
 30
0.0
  0
VERTEX
  5
4FD
  8
0
 10
1566.9340265137
 20
194.0582498183566
 30
0.0
  0
VERTEX
  5
4FE
  8
0
 10
1566.863578271135
 20
193.751998657539
 30
0.0
  0
VERTEX
  5
4FF
  8
0
 10
1566.812343335886
 20
193.4307327156069
 30
0.0
  0
VERTEX
  5
500
  8
0
 10
1566.782290637785
 20
193.106798062569
 30
0.0
  0
VERTEX
  5
501
  8
0
 10
1566.774575085169
 20
192.7926433255052
 30
0.0
  0
VERTEX
  5
502
  8
0
 10
1566.789493182399
 20
192.5003412948083
 30
0.0
  0
VERTEX
  5
503
  8
0
 10
1566.826471635363
 20
192.2411249736188
 30
0.0
  0
VERTEX
  5
504
  8
0
 10
1566.884089382849
 20
192.0249558998125
 30
0.0
  0
VERTEX
  5
505
  8
0
 10
1566.960132207127
 20
191.8601413296857
 30
0.0
  0
VERTEX
  5
506
  8
0
 10
1567.0516778251
 20
191.7530149947536
 30
0.0
  0
VERTEX
  5
507
  8
0
 10
1567.15520819
 20
191.7076937
 30
0.0
  0
SEQEND
  5
75F
  8
0
  0
POLYLINE
  5
1CC
  8
0
 66
     1
 10
0.0
 20
0.0
 30
0.0
  0
VERTEX
  5
508
  8
0
 10
1567.155208191554
 20
223.1346617498041
 30
0.0
  0
VERTEX
  5
509
  8
0
 10
1567.266744689231
 20
223.1528871679284
 30
0.0
  0
VERTEX
  5
50A
  8
0
 10
1567.382001034816
 20
223.2339589051856
 30
0.0
  0
VERTEX
  5
50B
  8
0
 10
1567.4965479916
 20
223.3747614201911
 30
0.0
  0
VERTEX
  5
50C
  8
0
 10
1567.605983584293
 20
223.5698837512783
 30
0.0
  0
VERTEX
  5
50D
  8
0
 10
1567.706102264456
 20
223.8118274567197
 30
0.0
  0
VERTEX
  5
50E
  8
0
 10
1567.793056527373
 20
224.0912947756368
 30
0.0
  0
VERTEX
  5
50F
  8
0
 10
1567.863504769499
 20
224.3975459357342
 30
0.0
  0
VERTEX
  5
510
  8
0
 10
1567.914739704408
 20
224.718811876725
 30
0.0
  0
VERTEX
  5
511
  8
0
 10
1567.944792402291
 20
225.0427465287151
 30
0.0
  0
VERTEX
  5
512
  8
0
 10
1567.952507954828
 20
225.3569012647438
 30
0.0
  0
VERTEX
  5
513
  8
0
 10
1567.937589857663
 20
225.6492032945347
 30
0.0
  0
VERTEX
  5
514
  8
0
 10
1567.900611404901
 20
225.9084196150534
 30
0.0
  0
VERTEX
  5
515
  8
0
 10
1567.842993657739
 20
226.1245886885131
 30
0.0
  0
VERTEX
  5
516
  8
0
 10
1567.766950833878
 20
226.2894032586836
 30
0.0
  0
VERTEX
  5
517
  8
0
 10
1567.675405216382
 20
226.396529594088
 30
0.0
  0
VERTEX
  5
518
  8
0
 10
1567.571874851978
 20
226.4418508897507
 30
0.0
  0
SEQEND
  5
760
  8
0
  0
POLYLINE
  5
1CD
  8
0
 66
     1
 10
0.0
 20
0.0
 30
0.0
  0
VERTEX
  5
519
  8
0
 10
1567.571874851978
 20
226.4418508897507
 30
0.0
  0
VERTEX
  5
51A
  8
0
 10
1567.460338354028
 20
226.423625473499
 30
0.0
  0
VERTEX
  5
51B
  8
0
 10
1567.345082008016
 20
226.3425537375482
 30
0.0
  0
VERTEX
  5
51C
  8
0
 10
1567.230535050699
 20
226.2017512232581
 30
0.0
  0
VERTEX
  5
51D
  8
0
 10
1567.121099457428
 20
226.0066288923119
 30
0.0
  0
VERTEX
  5
51E
  8
0
 10
1567.020980776696
 20
225.7646851864926
 30
0.0
  0
VERTEX
  5
51F
  8
0
 10
1566.934026513273
 20
225.4852178667689
 30
0.0
  0
VERTEX
  5
520
  8
0
 10
1566.86357827075
 20
225.1789667055544
 30
0.0
  0
VERTEX
  5
521
  8
0
 10
1566.812343335592
 20
224.857700763275
 30
0.0
  0
VERTEX
  5
522
  8
0
 10
1566.782290637631
 20
224.5337661099745
 30
0.0
  0
VERTEX
  5
523
  8
0
 10
1566.774575085201
 20
224.2196113727653
 30
0.0
  0
VERTEX
  5
524
  8
0
 10
1566.789493182657
 20
223.9273093420675
 30
0.0
  0
VERTEX
  5
525
  8
0
 10
1566.826471635876
 20
223.6680930210416
 30
0.0
  0
VERTEX
  5
526
  8
0
 10
1566.884089383634
 20
223.451923947575
 30
0.0
  0
VERTEX
  5
527
  8
0
 10
1566.960132208187
 20
223.2871093779657
 30
0.0
  0
VERTEX
  5
528
  8
0
 10
1567.051677826422
 20
223.1799830437205
 30
0.0
  0
VERTEX
  5
529
  8
0
 10
1567.155208191554
 20
223.1346617498041
 30
0.0
  0
SEQEND
  5
761
  8
0
  0
POLYLINE
  5
1CE
  8
0
 66
     1
 10
0.0
 20
0.0
 30
0.0
  0
VERTEX
  5
52A
  8
0
 10
1567.15520819
 20
254.56162981
 30
0.0
  0
VERTEX
  5
52B
  8
0
 10
1567.266744687695
 20
254.5798552272555
 30
0.0
  0
VERTEX
  5
52C
  8
0
 10
1567.382001033362
 20
254.6609269637823
 30
0.0
  0
VERTEX
  5
52D
  8
0
 10
1567.496547990285
 20
254.8017294782182
 30
0.0
  0
VERTEX
  5
52E
  8
0
 10
1567.605983583157
 20
254.9968518089088
 30
0.0
  0
VERTEX
  5
52F
  8
0
 10
1567.706102263526
 20
255.2387955141285
 30
0.0
  0
VERTEX
  5
530
  8
0
 10
1567.793056526662
 20
255.5182628329906
 30
0.0
  0
VERTEX
  5
531
  8
0
 10
1567.863504769005
 20
255.8245139931827
 30
0.0
  0
VERTEX
  5
532
  8
0
 10
1567.914739704114
 20
256.1457799343931
 30
0.0
  0
VERTEX
  5
533
  8
0
 10
1567.944792402172
 20
256.4697145866971
 30
0.0
  0
VERTEX
  5
534
  8
0
 10
1567.952507954848
 20
256.7838693230999
 30
0.0
  0
VERTEX
  5
535
  8
0
 10
1567.93758985778
 20
257.0761713532889
 30
0.0
  0
VERTEX
  5
536
  8
0
 10
1567.900611405072
 20
257.3353876741943
 30
0.0
  0
VERTEX
  5
537
  8
0
 10
1567.84299365792
 20
257.5515567479968
 30
0.0
  0
VERTEX
  5
538
  8
0
 10
1567.766950834029
 20
257.7163713184378
 30
0.0
  0
VERTEX
  5
539
  8
0
 10
1567.67540521647
 20
257.8234976540191
 30
0.0
  0
VERTEX
  5
53A
  8
0
 10
1567.571874851978
 20
257.8688189497507
 30
0.0
  0
SEQEND
  5
762
  8
0
  0
POLYLINE
  5
1CF
  8
0
 66
     1
 10
0.0
 20
0.0
 30
0.0
  0
VERTEX
  5
53B
  8
0
 10
1567.571874851978
 20
257.8688189497507
 30
0.0
  0
VERTEX
  5
53C
  8
0
 10
1567.460338354131
 20
257.8505935335439
 30
0.0
  0
VERTEX
  5
53D
  8
0
 10
1567.345082008223
 20
257.7695217977487
 30
0.0
  0
VERTEX
  5
53E
  8
0
 10
1567.230535051003
 20
257.6287192837135
 30
0.0
  0
VERTEX
  5
53F
  8
0
 10
1567.121099457807
 20
257.4335969531018
 30
0.0
  0
VERTEX
  5
540
  8
0
 10
1567.020980777119
 20
257.1916532476704
 30
0.0
  0
VERTEX
  5
541
  8
0
 10
1566.9340265137
 20
256.9121859283566
 30
0.0
  0
VERTEX
  5
542
  8
0
 10
1566.863578271135
 20
256.6059347675389
 30
0.0
  0
VERTEX
  5
543
  8
0
 10
1566.812343335886
 20
256.2846688256069
 30
0.0
  0
VERTEX
  5
544
  8
0
 10
1566.782290637785
 20
255.960734172569
 30
0.0
  0
VERTEX
  5
545
  8
0
 10
1566.774575085169
 20
255.6465794355052
 30
0.0
  0
VERTEX
  5
546
  8
0
 10
1566.789493182399
 20
255.3542774048083
 30
0.0
  0
VERTEX
  5
547
  8
0
 10
1566.826471635363
 20
255.0950610836188
 30
0.0
  0
VERTEX
  5
548
  8
0
 10
1566.884089382849
 20
254.8788920098125
 30
0.0
  0
VERTEX
  5
549
  8
0
 10
1566.960132207127
 20
254.7140774396857
 30
0.0
  0
VERTEX
  5
54A
  8
0
 10
1567.0516778251
 20
254.6069511047536
 30
0.0
  0
VERTEX
  5
54B
  8
0
 10
1567.15520819
 20
254.56162981
 30
0.0
  0
SEQEND
  5
763
  8
0
  0
POLYLINE
  5
1D0
  8
0
 66
     1
 10
0.0
 20
0.0
 30
0.0
  0
VERTEX
  5
54C
  8
0
 10
1567.15520819
 20
285.98859786
 30
0.0
  0
VERTEX
  5
54D
  8
0
 10
1567.266744687695
 20
286.0068232772556
 30
0.0
  0
VERTEX
  5
54E
  8
0
 10
1567.382001033362
 20
286.0878950137823
 30
0.0
  0
VERTEX
  5
54F
  8
0
 10
1567.496547990285
 20
286.2286975282182
 30
0.0
  0
VERTEX
  5
550
  8
0
 10
1567.605983583157
 20
286.4238198589088
 30
0.0
  0
VERTEX
  5
551
  8
0
 10
1567.706102263526
 20
286.6657635641286
 30
0.0
  0
VERTEX
  5
552
  8
0
 10
1567.793056526662
 20
286.9452308829906
 30
0.0
  0
VERTEX
  5
553
  8
0
 10
1567.863504769005
 20
287.2514820431827
 30
0.0
  0
VERTEX
  5
554
  8
0
 10
1567.914739704114
 20
287.5727479843931
 30
0.0
  0
VERTEX
  5
555
  8
0
 10
1567.944792402172
 20
287.8966826366972
 30
0.0
  0
VERTEX
  5
556
  8
0
 10
1567.952507954848
 20
288.2108373730999
 30
0.0
  0
VERTEX
  5
557
  8
0
 10
1567.93758985778
 20
288.5031394032889
 30
0.0
  0
VERTEX
  5
558
  8
0
 10
1567.900611405072
 20
288.7623557241943
 30
0.0
  0
VERTEX
  5
559
  8
0
 10
1567.84299365792
 20
288.9785247979968
 30
0.0
  0
VERTEX
  5
55A
  8
0
 10
1567.766950834029
 20
289.1433393684379
 30
0.0
  0
VERTEX
  5
55B
  8
0
 10
1567.67540521647
 20
289.2504657040192
 30
0.0
  0
VERTEX
  5
55C
  8
0
 10
1567.571874851978
 20
289.2957869997507
 30
0.0
  0
SEQEND
  5
764
  8
0
  0
POLYLINE
  5
1D1
  8
0
 66
     1
 10
0.0
 20
0.0
 30
0.0
  0
VERTEX
  5
55D
  8
0
 10
1567.571874851978
 20
289.2957869997507
 30
0.0
  0
VERTEX
  5
55E
  8
0
 10
1567.460338354028
 20
289.277561583499
 30
0.0
  0
VERTEX
  5
55F
  8
0
 10
1567.345082008016
 20
289.1964898475482
 30
0.0
  0
VERTEX
  5
560
  8
0
 10
1567.230535050699
 20
289.0556873332582
 30
0.0
  0
VERTEX
  5
561
  8
0
 10
1567.121099457428
 20
288.860565002312
 30
0.0
  0
VERTEX
  5
562
  8
0
 10
1567.020980776696
 20
288.6186212964926
 30
0.0
  0
VERTEX
  5
563
  8
0
 10
1566.934026513273
 20
288.339153976769
 30
0.0
  0
VERTEX
  5
564
  8
0
 10
1566.86357827075
 20
288.0329028155545
 30
0.0
  0
VERTEX
  5
565
  8
0
 10
1566.812343335592
 20
287.711636873275
 30
0.0
  0
VERTEX
  5
566
  8
0
 10
1566.782290637631
 20
287.3877022199746
 30
0.0
  0
VERTEX
  5
567
  8
0
 10
1566.774575085201
 20
287.0735474827654
 30
0.0
  0
VERTEX
  5
568
  8
0
 10
1566.789493182657
 20
286.7812454520676
 30
0.0
  0
VERTEX
  5
569
  8
0
 10
1566.826471635876
 20
286.5220291310416
 30
0.0
  0
VERTEX
  5
56A
  8
0
 10
1566.884089383634
 20
286.3058600575749
 30
0.0
  0
VERTEX
  5
56B
  8
0
 10
1566.960132208187
 20
286.1410454879657
 30
0.0
  0
VERTEX
  5
56C
  8
0
 10
1567.051677826422
 20
286.0339191537205
 30
0.0
  0
VERTEX
  5
56D
  8
0
 10
1567.155208191554
 20
285.9885978598041
 30
0.0
  0
SEQEND
  5
765
  8
0
  0
POLYLINE
  5
1D2
  8
0
 66
     1
 10
0.0
 20
0.0
 30
0.0
  0
VERTEX
  5
56E
  8
0
 10
1567.15520819
 20
317.41556591
 30
0.0
  0
VERTEX
  5
56F
  8
0
 10
1567.266744687695
 20
317.4337913272556
 30
0.0
  0
VERTEX
  5
570
  8
0
 10
1567.382001033362
 20
317.5148630637823
 30
0.0
  0
VERTEX
  5
571
  8
0
 10
1567.496547990285
 20
317.6556655782182
 30
0.0
  0
VERTEX
  5
572
  8
0
 10
1567.605983583157
 20
317.8507879089087
 30
0.0
  0
VERTEX
  5
573
  8
0
 10
1567.706102263526
 20
318.0927316141285
 30
0.0
  0
VERTEX
  5
574
  8
0
 10
1567.793056526662
 20
318.3721989329906
 30
0.0
  0
VERTEX
  5
575
  8
0
 10
1567.863504769005
 20
318.6784500931827
 30
0.0
  0
VERTEX
  5
576
  8
0
 10
1567.914739704114
 20
318.9997160343931
 30
0.0
  0
VERTEX
  5
577
  8
0
 10
1567.944792402172
 20
319.3236506866971
 30
0.0
  0
VERTEX
  5
578
  8
0
 10
1567.952507954848
 20
319.6378054230999
 30
0.0
  0
VERTEX
  5
579
  8
0
 10
1567.93758985778
 20
319.9301074532888
 30
0.0
  0
VERTEX
  5
57A
  8
0
 10
1567.900611405072
 20
320.1893237741943
 30
0.0
  0
VERTEX
  5
57B
  8
0
 10
1567.84299365792
 20
320.4054928479968
 30
0.0
  0
VERTEX
  5
57C
  8
0
 10
1567.766950834029
 20
320.5703074184378
 30
0.0
  0
VERTEX
  5
57D
  8
0
 10
1567.67540521647
 20
320.6774337540191
 30
0.0
  0
VERTEX
  5
57E
  8
0
 10
1567.571874851978
 20
320.7227550497507
 30
0.0
  0
SEQEND
  5
766
  8
0
  0
POLYLINE
  5
1D3
  8
0
 66
     1
 10
0.0
 20
0.0
 30
0.0
  0
VERTEX
  5
57F
  8
0
 10
1567.571874851978
 20
320.7227550497507
 30
0.0
  0
VERTEX
  5
580
  8
0
 10
1567.460338354131
 20
320.7045296335439
 30
0.0
  0
VERTEX
  5
581
  8
0
 10
1567.345082008223
 20
320.6234578977487
 30
0.0
  0
VERTEX
  5
582
  8
0
 10
1567.230535051003
 20
320.4826553837134
 30
0.0
  0
VERTEX
  5
583
  8
0
 10
1567.121099457807
 20
320.2875330531018
 30
0.0
  0
VERTEX
  5
584
  8
0
 10
1567.020980777119
 20
320.0455893476704
 30
0.0
  0
VERTEX
  5
585
  8
0
 10
1566.9340265137
 20
319.7661220283566
 30
0.0
  0
VERTEX
  5
586
  8
0
 10
1566.863578271135
 20
319.4598708675389
 30
0.0
  0
VERTEX
  5
587
  8
0
 10
1566.812343335886
 20
319.1386049256069
 30
0.0
  0
VERTEX
  5
588
  8
0
 10
1566.782290637785
 20
318.814670272569
 30
0.0
  0
VERTEX
  5
589
  8
0
 10
1566.774575085169
 20
318.5005155355052
 30
0.0
  0
VERTEX
  5
58A
  8
0
 10
1566.789493182399
 20
318.2082135048084
 30
0.0
  0
VERTEX
  5
58B
  8
0
 10
1566.826471635363
 20
317.9489971836188
 30
0.0
  0
VERTEX
  5
58C
  8
0
 10
1566.884089382849
 20
317.7328281098125
 30
0.0
  0
VERTEX
  5
58D
  8
0
 10
1566.960132207127
 20
317.5680135396857
 30
0.0
  0
VERTEX
  5
58E
  8
0
 10
1567.0516778251
 20
317.4608872047536
 30
0.0
  0
VERTEX
  5
58F
  8
0
 10
1567.15520819
 20
317.41556591
 30
0.0
  0
SEQEND
  5
767
  8
0
  0
POLYLINE
  5
1D4
  8
0
 66
     1
 10
0.0
 20
0.0
 30
0.0
  0
VERTEX
  5
590
  8
0
 10
1567.15520819
 20
348.84253396
 30
0.0
  0
VERTEX
  5
591
  8
0
 10
1567.266744687695
 20
348.8607593772556
 30
0.0
  0
VERTEX
  5
592
  8
0
 10
1567.382001033362
 20
348.9418311137823
 30
0.0
  0
VERTEX
  5
593
  8
0
 10
1567.496547990285
 20
349.0826336282182
 30
0.0
  0
VERTEX
  5
594
  8
0
 10
1567.605983583157
 20
349.2777559589088
 30
0.0
  0
VERTEX
  5
595
  8
0
 10
1567.706102263526
 20
349.5196996641286
 30
0.0
  0
VERTEX
  5
596
  8
0
 10
1567.793056526662
 20
349.7991669829906
 30
0.0
  0
VERTEX
  5
597
  8
0
 10
1567.863504769005
 20
350.1054181431827
 30
0.0
  0
VERTEX
  5
598
  8
0
 10
1567.914739704114
 20
350.4266840843931
 30
0.0
  0
VERTEX
  5
599
  8
0
 10
1567.944792402172
 20
350.7506187366972
 30
0.0
  0
VERTEX
  5
59A
  8
0
 10
1567.952507954848
 20
351.0647734730999
 30
0.0
  0
VERTEX
  5
59B
  8
0
 10
1567.93758985778
 20
351.3570755032889
 30
0.0
  0
VERTEX
  5
59C
  8
0
 10
1567.900611405072
 20
351.6162918241943
 30
0.0
  0
VERTEX
  5
59D
  8
0
 10
1567.84299365792
 20
351.8324608979968
 30
0.0
  0
VERTEX
  5
59E
  8
0
 10
1567.766950834029
 20
351.9972754684379
 30
0.0
  0
VERTEX
  5
59F
  8
0
 10
1567.67540521647
 20
352.1044018040192
 30
0.0
  0
VERTEX
  5
5A0
  8
0
 10
1567.571874851978
 20
352.1497230997507
 30
0.0
  0
SEQEND
  5
768
  8
0
  0
POLYLINE
  5
1D5
  8
0
 66
     1
 10
0.0
 20
0.0
 30
0.0
  0
VERTEX
  5
5A1
  8
0
 10
1567.571874851978
 20
352.1497230997507
 30
0.0
  0
VERTEX
  5
5A2
  8
0
 10
1567.460338354131
 20
352.1314976835439
 30
0.0
  0
VERTEX
  5
5A3
  8
0
 10
1567.345082008223
 20
352.0504259477487
 30
0.0
  0
VERTEX
  5
5A4
  8
0
 10
1567.230535051003
 20
351.9096234337135
 30
0.0
  0
VERTEX
  5
5A5
  8
0
 10
1567.121099457807
 20
351.7145011031018
 30
0.0
  0
VERTEX
  5
5A6
  8
0
 10
1567.020980777119
 20
351.4725573976704
 30
0.0
  0
VERTEX
  5
5A7
  8
0
 10
1566.9340265137
 20
351.1930900783566
 30
0.0
  0
VERTEX
  5
5A8
  8
0
 10
1566.863578271135
 20
350.886838917539
 30
0.0
  0
VERTEX
  5
5A9
  8
0
 10
1566.812343335886
 20
350.5655729756069
 30
0.0
  0
VERTEX
  5
5AA
  8
0
 10
1566.782290637785
 20
350.241638322569
 30
0.0
  0
VERTEX
  5
5AB
  8
0
 10
1566.774575085169
 20
349.9274835855052
 30
0.0
  0
VERTEX
  5
5AC
  8
0
 10
1566.789493182399
 20
349.6351815548084
 30
0.0
  0
VERTEX
  5
5AD
  8
0
 10
1566.826471635363
 20
349.3759652336188
 30
0.0
  0
VERTEX
  5
5AE
  8
0
 10
1566.884089382849
 20
349.1597961598125
 30
0.0
  0
VERTEX
  5
5AF
  8
0
 10
1566.960132207127
 20
348.9949815896857
 30
0.0
  0
VERTEX
  5
5B0
  8
0
 10
1567.0516778251
 20
348.8878552547536
 30
0.0
  0
VERTEX
  5
5B1
  8
0
 10
1567.15520819
 20
348.84253396
 30
0.0
  0
SEQEND
  5
769
  8
0
  0
POLYLINE
  5
1D6
  8
0
 66
     1
 10
0.0
 20
0.0
 30
0.0
  0
VERTEX
  5
5B2
  8
0
 10
1561.26265168
 20
186.51094733
 30
0.0
  0
VERTEX
  5
5B3
  8
0
 10
1561.374188177695
 20
186.5291727472555
 30
0.0
  0
VERTEX
  5
5B4
  8
0
 10
1561.489444523362
 20
186.6102444837823
 30
0.0
  0
VERTEX
  5
5B5
  8
0
 10
1561.603991480285
 20
186.7510469982182
 30
0.0
  0
VERTEX
  5
5B6
  8
0
 10
1561.713427073157
 20
186.9461693289088
 30
0.0
  0
VERTEX
  5
5B7
  8
0
 10
1561.813545753527
 20
187.1881130341285
 30
0.0
  0
VERTEX
  5
5B8
  8
0
 10
1561.900500016662
 20
187.4675803529906
 30
0.0
  0
VERTEX
  5
5B9
  8
0
 10
1561.970948259005
 20
187.7738315131827
 30
0.0
  0
VERTEX
  5
5BA
  8
0
 10
1562.022183194114
 20
188.0950974543931
 30
0.0
  0
VERTEX
  5
5BB
  8
0
 10
1562.052235892172
 20
188.4190321066972
 30
0.0
  0
VERTEX
  5
5BC
  8
0
 10
1562.059951444848
 20
188.7331868430999
 30
0.0
  0
VERTEX
  5
5BD
  8
0
 10
1562.04503334778
 20
189.0254888732888
 30
0.0
  0
VERTEX
  5
5BE
  8
0
 10
1562.008054895072
 20
189.2847051941943
 30
0.0
  0
VERTEX
  5
5BF
  8
0
 10
1561.95043714792
 20
189.5008742679967
 30
0.0
  0
VERTEX
  5
5C0
  8
0
 10
1561.874394324029
 20
189.6656888384379
 30
0.0
  0
VERTEX
  5
5C1
  8
0
 10
1561.782848706471
 20
189.7728151740191
 30
0.0
  0
VERTEX
  5
5C2
  8
0
 10
1561.679318341979
 20
189.8181364697507
 30
0.0
  0
SEQEND
  5
76A
  8
0
  0
POLYLINE
  5
1D7
  8
0
 66
     1
 10
0.0
 20
0.0
 30
0.0
  0
VERTEX
  5
5C3
  8
0
 10
1561.679318341979
 20
189.8181364697507
 30
0.0
  0
VERTEX
  5
5C4
  8
0
 10
1561.567781844131
 20
189.7999110535438
 30
0.0
  0
VERTEX
  5
5C5
  8
0
 10
1561.452525498224
 20
189.7188393177487
 30
0.0
  0
VERTEX
  5
5C6
  8
0
 10
1561.337978541003
 20
189.5780368037134
 30
0.0
  0
VERTEX
  5
5C7
  8
0
 10
1561.228542947807
 20
189.3829144731018
 30
0.0
  0
VERTEX
  5
5C8
  8
0
 10
1561.128424267119
 20
189.1409707676704
 30
0.0
  0
VERTEX
  5
5C9
  8
0
 10
1561.0414700037
 20
188.8615034483566
 30
0.0
  0
VERTEX
  5
5CA
  8
0
 10
1560.971021761135
 20
188.555252287539
 30
0.0
  0
VERTEX
  5
5CB
  8
0
 10
1560.919786825886
 20
188.2339863456069
 30
0.0
  0
VERTEX
  5
5CC
  8
0
 10
1560.889734127785
 20
187.910051692569
 30
0.0
  0
VERTEX
  5
5CD
  8
0
 10
1560.882018575169
 20
187.5958969555052
 30
0.0
  0
VERTEX
  5
5CE
  8
0
 10
1560.896936672399
 20
187.3035949248083
 30
0.0
  0
VERTEX
  5
5CF
  8
0
 10
1560.933915125363
 20
187.0443786036188
 30
0.0
  0
VERTEX
  5
5D0
  8
0
 10
1560.991532872849
 20
186.8282095298125
 30
0.0
  0
VERTEX
  5
5D1
  8
0
 10
1561.067575697127
 20
186.6633949596857
 30
0.0
  0
VERTEX
  5
5D2
  8
0
 10
1561.1591213151
 20
186.5562686247536
 30
0.0
  0
VERTEX
  5
5D3
  8
0
 10
1561.26265168
 20
186.51094733
 30
0.0
  0
SEQEND
  5
76B
  8
0
  0
POLYLINE
  5
1D8
  8
0
 66
     1
 10
0.0
 20
0.0
 30
0.0
  0
VERTEX
  5
5D4
  8
0
 10
1561.262651681555
 20
217.9379153798041
 30
0.0
  0
VERTEX
  5
5D5
  8
0
 10
1561.374188179232
 20
217.9561407979284
 30
0.0
  0
VERTEX
  5
5D6
  8
0
 10
1561.489444524816
 20
218.0372125351856
 30
0.0
  0
VERTEX
  5
5D7
  8
0
 10
1561.6039914816
 20
218.1780150501911
 30
0.0
  0
VERTEX
  5
5D8
  8
0
 10
1561.713427074293
 20
218.3731373812783
 30
0.0
  0
VERTEX
  5
5D9
  8
0
 10
1561.813545754456
 20
218.6150810867197
 30
0.0
  0
VERTEX
  5
5DA
  8
0
 10
1561.900500017373
 20
218.8945484056368
 30
0.0
  0
VERTEX
  5
5DB
  8
0
 10
1561.970948259499
 20
219.2007995657342
 30
0.0
  0
VERTEX
  5
5DC
  8
0
 10
1562.022183194408
 20
219.522065506725
 30
0.0
  0
VERTEX
  5
5DD
  8
0
 10
1562.052235892291
 20
219.8460001587151
 30
0.0
  0
VERTEX
  5
5DE
  8
0
 10
1562.059951444828
 20
220.1601548947438
 30
0.0
  0
VERTEX
  5
5DF
  8
0
 10
1562.045033347663
 20
220.4524569245347
 30
0.0
  0
VERTEX
  5
5E0
  8
0
 10
1562.008054894901
 20
220.7116732450534
 30
0.0
  0
VERTEX
  5
5E1
  8
0
 10
1561.950437147739
 20
220.9278423185131
 30
0.0
  0
VERTEX
  5
5E2
  8
0
 10
1561.874394323878
 20
221.0926568886836
 30
0.0
  0
VERTEX
  5
5E3
  8
0
 10
1561.782848706382
 20
221.199783224088
 30
0.0
  0
VERTEX
  5
5E4
  8
0
 10
1561.679318341979
 20
221.2451045197507
 30
0.0
  0
SEQEND
  5
76C
  8
0
  0
POLYLINE
  5
1D9
  8
0
 66
     1
 10
0.0
 20
0.0
 30
0.0
  0
VERTEX
  5
5E5
  8
0
 10
1561.679318341979
 20
221.2451045197507
 30
0.0
  0
VERTEX
  5
5E6
  8
0
 10
1561.567781844131
 20
221.2268791035438
 30
0.0
  0
VERTEX
  5
5E7
  8
0
 10
1561.452525498224
 20
221.1458073677487
 30
0.0
  0
VERTEX
  5
5E8
  8
0
 10
1561.337978541003
 20
221.0050048537134
 30
0.0
  0
VERTEX
  5
5E9
  8
0
 10
1561.228542947807
 20
220.8098825231018
 30
0.0
  0
VERTEX
  5
5EA
  8
0
 10
1561.128424267119
 20
220.5679388176704
 30
0.0
  0
VERTEX
  5
5EB
  8
0
 10
1561.0414700037
 20
220.2884714983566
 30
0.0
  0
VERTEX
  5
5EC
  8
0
 10
1560.971021761135
 20
219.982220337539
 30
0.0
  0
VERTEX
  5
5ED
  8
0
 10
1560.919786825886
 20
219.6609543956069
 30
0.0
  0
VERTEX
  5
5EE
  8
0
 10
1560.889734127785
 20
219.337019742569
 30
0.0
  0
VERTEX
  5
5EF
  8
0
 10
1560.882018575169
 20
219.0228650055052
 30
0.0
  0
VERTEX
  5
5F0
  8
0
 10
1560.896936672399
 20
218.7305629748083
 30
0.0
  0
VERTEX
  5
5F1
  8
0
 10
1560.933915125363
 20
218.4713466536188
 30
0.0
  0
VERTEX
  5
5F2
  8
0
 10
1560.991532872849
 20
218.2551775798125
 30
0.0
  0
VERTEX
  5
5F3
  8
0
 10
1561.067575697127
 20
218.0903630096857
 30
0.0
  0
VERTEX
  5
5F4
  8
0
 10
1561.1591213151
 20
217.9832366747536
 30
0.0
  0
VERTEX
  5
5F5
  8
0
 10
1561.26265168
 20
217.93791538
 30
0.0
  0
SEQEND
  5
76D
  8
0
  0
POLYLINE
  5
1DA
  8
0
 66
     1
 10
0.0
 20
0.0
 30
0.0
  0
VERTEX
  5
5F6
  8
0
 10
1561.262651681555
 20
249.3648834398041
 30
0.0
  0
VERTEX
  5
5F7
  8
0
 10
1561.374188179232
 20
249.3831088579284
 30
0.0
  0
VERTEX
  5
5F8
  8
0
 10
1561.489444524816
 20
249.4641805951856
 30
0.0
  0
VERTEX
  5
5F9
  8
0
 10
1561.6039914816
 20
249.6049831101911
 30
0.0
  0
VERTEX
  5
5FA
  8
0
 10
1561.713427074293
 20
249.8001054412783
 30
0.0
  0
VERTEX
  5
5FB
  8
0
 10
1561.813545754456
 20
250.0420491467197
 30
0.0
  0
VERTEX
  5
5FC
  8
0
 10
1561.900500017373
 20
250.3215164656368
 30
0.0
  0
VERTEX
  5
5FD
  8
0
 10
1561.970948259499
 20
250.6277676257342
 30
0.0
  0
VERTEX
  5
5FE
  8
0
 10
1562.022183194408
 20
250.949033566725
 30
0.0
  0
VERTEX
  5
5FF
  8
0
 10
1562.052235892291
 20
251.2729682187151
 30
0.0
  0
VERTEX
  5
600
  8
0
 10
1562.059951444828
 20
251.5871229547438
 30
0.0
  0
VERTEX
  5
601
  8
0
 10
1562.045033347663
 20
251.8794249845347
 30
0.0
  0
VERTEX
  5
602
  8
0
 10
1562.008054894901
 20
252.1386413050534
 30
0.0
  0
VERTEX
  5
603
  8
0
 10
1561.950437147739
 20
252.3548103785131
 30
0.0
  0
VERTEX
  5
604
  8
0
 10
1561.874394323878
 20
252.5196249486836
 30
0.0
  0
VERTEX
  5
605
  8
0
 10
1561.782848706382
 20
252.626751284088
 30
0.0
  0
VERTEX
  5
606
  8
0
 10
1561.679318341979
 20
252.6720725797507
 30
0.0
  0
SEQEND
  5
76E
  8
0
  0
POLYLINE
  5
1DB
  8
0
 66
     1
 10
0.0
 20
0.0
 30
0.0
  0
VERTEX
  5
607
  8
0
 10
1561.679318341979
 20
252.6720725797507
 30
0.0
  0
VERTEX
  5
608
  8
0
 10
1561.567781844131
 20
252.6538471635438
 30
0.0
  0
VERTEX
  5
609
  8
0
 10
1561.452525498224
 20
252.5727754277487
 30
0.0
  0
VERTEX
  5
60A
  8
0
 10
1561.337978541003
 20
252.4319729137134
 30
0.0
  0
VERTEX
  5
60B
  8
0
 10
1561.228542947807
 20
252.2368505831018
 30
0.0
  0
VERTEX
  5
60C
  8
0
 10
1561.128424267119
 20
251.9949068776704
 30
0.0
  0
VERTEX
  5
60D
  8
0
 10
1561.0414700037
 20
251.7154395583566
 30
0.0
  0
VERTEX
  5
60E
  8
0
 10
1560.971021761135
 20
251.409188397539
 30
0.0
  0
VERTEX
  5
60F
  8
0
 10
1560.919786825886
 20
251.0879224556069
 30
0.0
  0
VERTEX
  5
610
  8
0
 10
1560.889734127785
 20
250.763987802569
 30
0.0
  0
VERTEX
  5
611
  8
0
 10
1560.882018575169
 20
250.4498330655052
 30
0.0
  0
VERTEX
  5
612
  8
0
 10
1560.896936672399
 20
250.1575310348083
 30
0.0
  0
VERTEX
  5
613
  8
0
 10
1560.933915125363
 20
249.8983147136188
 30
0.0
  0
VERTEX
  5
614
  8
0
 10
1560.991532872849
 20
249.6821456398125
 30
0.0
  0
VERTEX
  5
615
  8
0
 10
1561.067575697127
 20
249.5173310696857
 30
0.0
  0
VERTEX
  5
616
  8
0
 10
1561.1591213151
 20
249.4102047347536
 30
0.0
  0
VERTEX
  5
617
  8
0
 10
1561.26265168
 20
249.36488344
 30
0.0
  0
SEQEND
  5
76F
  8
0
  0
POLYLINE
  5
1DC
  8
0
 66
     1
 10
0.0
 20
0.0
 30
0.0
  0
VERTEX
  5
618
  8
0
 10
1561.26265168
 20
280.79185149
 30
0.0
  0
VERTEX
  5
619
  8
0
 10
1561.374188177695
 20
280.8100769072556
 30
0.0
  0
VERTEX
  5
61A
  8
0
 10
1561.489444523362
 20
280.8911486437823
 30
0.0
  0
VERTEX
  5
61B
  8
0
 10
1561.603991480285
 20
281.0319511582182
 30
0.0
  0
VERTEX
  5
61C
  8
0
 10
1561.713427073157
 20
281.2270734889087
 30
0.0
  0
VERTEX
  5
61D
  8
0
 10
1561.813545753527
 20
281.4690171941285
 30
0.0
  0
VERTEX
  5
61E
  8
0
 10
1561.900500016662
 20
281.7484845129906
 30
0.0
  0
VERTEX
  5
61F
  8
0
 10
1561.970948259005
 20
282.0547356731827
 30
0.0
  0
VERTEX
  5
620
  8
0
 10
1562.022183194114
 20
282.3760016143931
 30
0.0
  0
VERTEX
  5
621
  8
0
 10
1562.052235892172
 20
282.6999362666971
 30
0.0
  0
VERTEX
  5
622
  8
0
 10
1562.059951444848
 20
283.0140910030999
 30
0.0
  0
VERTEX
  5
623
  8
0
 10
1562.04503334778
 20
283.3063930332889
 30
0.0
  0
VERTEX
  5
624
  8
0
 10
1562.008054895072
 20
283.5656093541943
 30
0.0
  0
VERTEX
  5
625
  8
0
 10
1561.95043714792
 20
283.7817784279968
 30
0.0
  0
VERTEX
  5
626
  8
0
 10
1561.874394324029
 20
283.9465929984378
 30
0.0
  0
VERTEX
  5
627
  8
0
 10
1561.782848706471
 20
284.0537193340191
 30
0.0
  0
VERTEX
  5
628
  8
0
 10
1561.679318341979
 20
284.0990406297507
 30
0.0
  0
SEQEND
  5
770
  8
0
  0
POLYLINE
  5
1DD
  8
0
 66
     1
 10
0.0
 20
0.0
 30
0.0
  0
VERTEX
  5
629
  8
0
 10
1561.679318341979
 20
284.0990406297507
 30
0.0
  0
VERTEX
  5
62A
  8
0
 10
1561.567781844029
 20
284.080815213499
 30
0.0
  0
VERTEX
  5
62B
  8
0
 10
1561.452525498016
 20
283.9997434775482
 30
0.0
  0
VERTEX
  5
62C
  8
0
 10
1561.3379785407
 20
283.8589409632581
 30
0.0
  0
VERTEX
  5
62D
  8
0
 10
1561.228542947428
 20
283.663818632312
 30
0.0
  0
VERTEX
  5
62E
  8
0
 10
1561.128424266696
 20
283.4218749264926
 30
0.0
  0
VERTEX
  5
62F
  8
0
 10
1561.041470003273
 20
283.1424076067689
 30
0.0
  0
VERTEX
  5
630
  8
0
 10
1560.971021760751
 20
282.8361564455545
 30
0.0
  0
VERTEX
  5
631
  8
0
 10
1560.919786825592
 20
282.514890503275
 30
0.0
  0
VERTEX
  5
632
  8
0
 10
1560.889734127631
 20
282.1909558499746
 30
0.0
  0
VERTEX
  5
633
  8
0
 10
1560.882018575202
 20
281.8768011127653
 30
0.0
  0
VERTEX
  5
634
  8
0
 10
1560.896936672657
 20
281.5844990820676
 30
0.0
  0
VERTEX
  5
635
  8
0
 10
1560.933915125876
 20
281.3252827610416
 30
0.0
  0
VERTEX
  5
636
  8
0
 10
1560.991532873634
 20
281.1091136875749
 30
0.0
  0
VERTEX
  5
637
  8
0
 10
1561.067575698187
 20
280.9442991179657
 30
0.0
  0
VERTEX
  5
638
  8
0
 10
1561.159121316422
 20
280.8371727837205
 30
0.0
  0
VERTEX
  5
639
  8
0
 10
1561.262651681555
 20
280.7918514898041
 30
0.0
  0
SEQEND
  5
771
  8
0
  0
POLYLINE
  5
1DE
  8
0
 66
     1
 10
0.0
 20
0.0
 30
0.0
  0
VERTEX
  5
63A
  8
0
 10
1561.26265168
 20
312.21881954
 30
0.0
  0
VERTEX
  5
63B
  8
0
 10
1561.374188177695
 20
312.2370449572556
 30
0.0
  0
VERTEX
  5
63C
  8
0
 10
1561.489444523362
 20
312.3181166937823
 30
0.0
  0
VERTEX
  5
63D
  8
0
 10
1561.603991480285
 20
312.4589192082182
 30
0.0
  0
VERTEX
  5
63E
  8
0
 10
1561.713427073157
 20
312.6540415389088
 30
0.0
  0
VERTEX
  5
63F
  8
0
 10
1561.813545753527
 20
312.8959852441286
 30
0.0
  0
VERTEX
  5
640
  8
0
 10
1561.900500016662
 20
313.1754525629906
 30
0.0
  0
VERTEX
  5
641
  8
0
 10
1561.970948259005
 20
313.4817037231827
 30
0.0
  0
VERTEX
  5
642
  8
0
 10
1562.022183194114
 20
313.8029696643931
 30
0.0
  0
VERTEX
  5
643
  8
0
 10
1562.052235892172
 20
314.1269043166972
 30
0.0
  0
VERTEX
  5
644
  8
0
 10
1562.059951444848
 20
314.4410590530999
 30
0.0
  0
VERTEX
  5
645
  8
0
 10
1562.04503334778
 20
314.7333610832889
 30
0.0
  0
VERTEX
  5
646
  8
0
 10
1562.008054895072
 20
314.9925774041943
 30
0.0
  0
VERTEX
  5
647
  8
0
 10
1561.95043714792
 20
315.2087464779968
 30
0.0
  0
VERTEX
  5
648
  8
0
 10
1561.874394324029
 20
315.3735610484379
 30
0.0
  0
VERTEX
  5
649
  8
0
 10
1561.782848706471
 20
315.4806873840192
 30
0.0
  0
VERTEX
  5
64A
  8
0
 10
1561.679318341979
 20
315.5260086797507
 30
0.0
  0
SEQEND
  5
772
  8
0
  0
POLYLINE
  5
1DF
  8
0
 66
     1
 10
0.0
 20
0.0
 30
0.0
  0
VERTEX
  5
64B
  8
0
 10
1561.679318341979
 20
315.5260086797507
 30
0.0
  0
VERTEX
  5
64C
  8
0
 10
1561.567781844029
 20
315.507783263499
 30
0.0
  0
VERTEX
  5
64D
  8
0
 10
1561.452525498016
 20
315.4267115275482
 30
0.0
  0
VERTEX
  5
64E
  8
0
 10
1561.3379785407
 20
315.2859090132582
 30
0.0
  0
VERTEX
  5
64F
  8
0
 10
1561.228542947428
 20
315.090786682312
 30
0.0
  0
VERTEX
  5
650
  8
0
 10
1561.128424266696
 20
314.8488429764926
 30
0.0
  0
VERTEX
  5
651
  8
0
 10
1561.041470003273
 20
314.569375656769
 30
0.0
  0
VERTEX
  5
652
  8
0
 10
1560.971021760751
 20
314.2631244955545
 30
0.0
  0
VERTEX
  5
653
  8
0
 10
1560.919786825592
 20
313.941858553275
 30
0.0
  0
VERTEX
  5
654
  8
0
 10
1560.889734127631
 20
313.6179238999746
 30
0.0
  0
VERTEX
  5
655
  8
0
 10
1560.882018575202
 20
313.3037691627654
 30
0.0
  0
VERTEX
  5
656
  8
0
 10
1560.896936672657
 20
313.0114671320676
 30
0.0
  0
VERTEX
  5
657
  8
0
 10
1560.933915125876
 20
312.7522508110416
 30
0.0
  0
VERTEX
  5
658
  8
0
 10
1560.991532873634
 20
312.5360817375749
 30
0.0
  0
VERTEX
  5
659
  8
0
 10
1561.067575698187
 20
312.3712671679657
 30
0.0
  0
VERTEX
  5
65A
  8
0
 10
1561.159121316422
 20
312.2641408337205
 30
0.0
  0
VERTEX
  5
65B
  8
0
 10
1561.262651681555
 20
312.2188195398041
 30
0.0
  0
SEQEND
  5
773
  8
0
  0
POLYLINE
  5
1E0
  8
0
 66
     1
 10
0.0
 20
0.0
 30
0.0
  0
VERTEX
  5
65C
  8
0
 10
1561.26265168
 20
343.64578759
 30
0.0
  0
VERTEX
  5
65D
  8
0
 10
1561.374188177695
 20
343.6640130072556
 30
0.0
  0
VERTEX
  5
65E
  8
0
 10
1561.489444523362
 20
343.7450847437823
 30
0.0
  0
VERTEX
  5
65F
  8
0
 10
1561.603991480285
 20
343.8858872582182
 30
0.0
  0
VERTEX
  5
660
  8
0
 10
1561.713427073157
 20
344.0810095889087
 30
0.0
  0
VERTEX
  5
661
  8
0
 10
1561.813545753527
 20
344.3229532941285
 30
0.0
  0
VERTEX
  5
662
  8
0
 10
1561.900500016662
 20
344.6024206129906
 30
0.0
  0
VERTEX
  5
663
  8
0
 10
1561.970948259005
 20
344.9086717731827
 30
0.0
  0
VERTEX
  5
664
  8
0
 10
1562.022183194114
 20
345.2299377143931
 30
0.0
  0
VERTEX
  5
665
  8
0
 10
1562.052235892172
 20
345.5538723666971
 30
0.0
  0
VERTEX
  5
666
  8
0
 10
1562.059951444848
 20
345.8680271030999
 30
0.0
  0
VERTEX
  5
667
  8
0
 10
1562.04503334778
 20
346.1603291332888
 30
0.0
  0
VERTEX
  5
668
  8
0
 10
1562.008054895072
 20
346.4195454541943
 30
0.0
  0
VERTEX
  5
669
  8
0
 10
1561.95043714792
 20
346.6357145279968
 30
0.0
  0
VERTEX
  5
66A
  8
0
 10
1561.874394324029
 20
346.8005290984378
 30
0.0
  0
VERTEX
  5
66B
  8
0
 10
1561.782848706471
 20
346.9076554340191
 30
0.0
  0
VERTEX
  5
66C
  8
0
 10
1561.679318341979
 20
346.9529767297507
 30
0.0
  0
SEQEND
  5
774
  8
0
  0
POLYLINE
  5
1E1
  8
0
 66
     1
 10
0.0
 20
0.0
 30
0.0
  0
VERTEX
  5
66D
  8
0
 10
1561.679318341979
 20
346.9529767297507
 30
0.0
  0
VERTEX
  5
66E
  8
0
 10
1561.567781844131
 20
346.9347513135439
 30
0.0
  0
VERTEX
  5
66F
  8
0
 10
1561.452525498224
 20
346.8536795777487
 30
0.0
  0
VERTEX
  5
670
  8
0
 10
1561.337978541003
 20
346.7128770637134
 30
0.0
  0
VERTEX
  5
671
  8
0
 10
1561.228542947807
 20
346.5177547331018
 30
0.0
  0
VERTEX
  5
672
  8
0
 10
1561.128424267119
 20
346.2758110276704
 30
0.0
  0
VERTEX
  5
673
  8
0
 10
1561.0414700037
 20
345.9963437083566
 30
0.0
  0
VERTEX
  5
674
  8
0
 10
1560.971021761135
 20
345.6900925475389
 30
0.0
  0
VERTEX
  5
675
  8
0
 10
1560.919786825886
 20
345.3688266056069
 30
0.0
  0
VERTEX
  5
676
  8
0
 10
1560.889734127785
 20
345.044891952569
 30
0.0
  0
VERTEX
  5
677
  8
0
 10
1560.882018575169
 20
344.7307372155052
 30
0.0
  0
VERTEX
  5
678
  8
0
 10
1560.896936672399
 20
344.4384351848084
 30
0.0
  0
VERTEX
  5
679
  8
0
 10
1560.933915125363
 20
344.1792188636188
 30
0.0
  0
VERTEX
  5
67A
  8
0
 10
1560.991532872849
 20
343.9630497898125
 30
0.0
  0
VERTEX
  5
67B
  8
0
 10
1561.067575697127
 20
343.7982352196857
 30
0.0
  0
VERTEX
  5
67C
  8
0
 10
1561.1591213151
 20
343.6911088847536
 30
0.0
  0
VERTEX
  5
67D
  8
0
 10
1561.26265168
 20
343.64578759
 30
0.0
  0
SEQEND
  5
775
  8
0
  0
POLYLINE
  5
1E2
  8
0
 66
     1
 10
0.0
 20
0.0
 30
0.0
  0
VERTEX
  5
67E
  8
0
 10
1564.208929931555
 20
204.8228045398041
 30
0.0
  0
VERTEX
  5
67F
  8
0
 10
1564.320466429232
 20
204.8410299579284
 30
0.0
  0
VERTEX
  5
680
  8
0
 10
1564.435722774816
 20
204.9221016951856
 30
0.0
  0
VERTEX
  5
681
  8
0
 10
1564.5502697316
 20
205.0629042101911
 30
0.0
  0
VERTEX
  5
682
  8
0
 10
1564.659705324293
 20
205.2580265412783
 30
0.0
  0
VERTEX
  5
683
  8
0
 10
1564.759824004456
 20
205.4999702467197
 30
0.0
  0
VERTEX
  5
684
  8
0
 10
1564.846778267373
 20
205.7794375656368
 30
0.0
  0
VERTEX
  5
685
  8
0
 10
1564.917226509499
 20
206.0856887257342
 30
0.0
  0
VERTEX
  5
686
  8
0
 10
1564.968461444408
 20
206.406954666725
 30
0.0
  0
VERTEX
  5
687
  8
0
 10
1564.998514142291
 20
206.7308893187151
 30
0.0
  0
VERTEX
  5
688
  8
0
 10
1565.006229694828
 20
207.0450440547438
 30
0.0
  0
VERTEX
  5
689
  8
0
 10
1564.991311597663
 20
207.3373460845347
 30
0.0
  0
VERTEX
  5
68A
  8
0
 10
1564.954333144901
 20
207.5965624050534
 30
0.0
  0
VERTEX
  5
68B
  8
0
 10
1564.896715397739
 20
207.8127314785131
 30
0.0
  0
VERTEX
  5
68C
  8
0
 10
1564.820672573878
 20
207.9775460486836
 30
0.0
  0
VERTEX
  5
68D
  8
0
 10
1564.729126956382
 20
208.084672384088
 30
0.0
  0
VERTEX
  5
68E
  8
0
 10
1564.625596591979
 20
208.1299936797507
 30
0.0
  0
SEQEND
  5
776
  8
0
  0
POLYLINE
  5
1E3
  8
0
 66
     1
 10
0.0
 20
0.0
 30
0.0
  0
VERTEX
  5
68F
  8
0
 10
1564.625596591979
 20
208.1299936797507
 30
0.0
  0
VERTEX
  5
690
  8
0
 10
1564.514060094131
 20
208.1117682635438
 30
0.0
  0
VERTEX
  5
691
  8
0
 10
1564.398803748224
 20
208.0306965277487
 30
0.0
  0
VERTEX
  5
692
  8
0
 10
1564.284256791003
 20
207.8898940137134
 30
0.0
  0
VERTEX
  5
693
  8
0
 10
1564.174821197807
 20
207.6947716831018
 30
0.0
  0
VERTEX
  5
694
  8
0
 10
1564.074702517119
 20
207.4528279776704
 30
0.0
  0
VERTEX
  5
695
  8
0
 10
1563.9877482537
 20
207.1733606583566
 30
0.0
  0
VERTEX
  5
696
  8
0
 10
1563.917300011135
 20
206.867109497539
 30
0.0
  0
VERTEX
  5
697
  8
0
 10
1563.866065075886
 20
206.5458435556069
 30
0.0
  0
VERTEX
  5
698
  8
0
 10
1563.836012377785
 20
206.221908902569
 30
0.0
  0
VERTEX
  5
699
  8
0
 10
1563.828296825169
 20
205.9077541655052
 30
0.0
  0
VERTEX
  5
69A
  8
0
 10
1563.843214922399
 20
205.6154521348083
 30
0.0
  0
VERTEX
  5
69B
  8
0
 10
1563.880193375363
 20
205.3562358136188
 30
0.0
  0
VERTEX
  5
69C
  8
0
 10
1563.937811122849
 20
205.1400667398125
 30
0.0
  0
VERTEX
  5
69D
  8
0
 10
1564.013853947127
 20
204.9752521696857
 30
0.0
  0
VERTEX
  5
69E
  8
0
 10
1564.1053995651
 20
204.8681258347536
 30
0.0
  0
VERTEX
  5
69F
  8
0
 10
1564.20892993
 20
204.82280454
 30
0.0
  0
SEQEND
  5
777
  8
0
  0
POLYLINE
  5
1E4
  8
0
 66
     1
 10
0.0
 20
0.0
 30
0.0
  0
VERTEX
  5
6A0
  8
0
 10
1564.20892993
 20
236.24977259
 30
0.0
  0
VERTEX
  5
6A1
  8
0
 10
1564.320466427695
 20
236.2679980072555
 30
0.0
  0
VERTEX
  5
6A2
  8
0
 10
1564.435722773362
 20
236.3490697437823
 30
0.0
  0
VERTEX
  5
6A3
  8
0
 10
1564.550269730285
 20
236.4898722582182
 30
0.0
  0
VERTEX
  5
6A4
  8
0
 10
1564.659705323157
 20
236.6849945889088
 30
0.0
  0
VERTEX
  5
6A5
  8
0
 10
1564.759824003527
 20
236.9269382941285
 30
0.0
  0
VERTEX
  5
6A6
  8
0
 10
1564.846778266662
 20
237.2064056129906
 30
0.0
  0
VERTEX
  5
6A7
  8
0
 10
1564.917226509005
 20
237.5126567731827
 30
0.0
  0
VERTEX
  5
6A8
  8
0
 10
1564.968461444114
 20
237.8339227143931
 30
0.0
  0
VERTEX
  5
6A9
  8
0
 10
1564.998514142172
 20
238.1578573666972
 30
0.0
  0
VERTEX
  5
6AA
  8
0
 10
1565.006229694848
 20
238.4720121030999
 30
0.0
  0
VERTEX
  5
6AB
  8
0
 10
1564.99131159778
 20
238.7643141332888
 30
0.0
  0
VERTEX
  5
6AC
  8
0
 10
1564.954333145072
 20
239.0235304541943
 30
0.0
  0
VERTEX
  5
6AD
  8
0
 10
1564.89671539792
 20
239.2396995279967
 30
0.0
  0
VERTEX
  5
6AE
  8
0
 10
1564.820672574029
 20
239.4045140984379
 30
0.0
  0
VERTEX
  5
6AF
  8
0
 10
1564.729126956471
 20
239.5116404340191
 30
0.0
  0
VERTEX
  5
6B0
  8
0
 10
1564.625596591979
 20
239.5569617297507
 30
0.0
  0
SEQEND
  5
778
  8
0
  0
POLYLINE
  5
1E5
  8
0
 66
     1
 10
0.0
 20
0.0
 30
0.0
  0
VERTEX
  5
6B1
  8
0
 10
1564.625596591979
 20
239.5569617297507
 30
0.0
  0
VERTEX
  5
6B2
  8
0
 10
1564.514060094029
 20
239.538736313499
 30
0.0
  0
VERTEX
  5
6B3
  8
0
 10
1564.398803748016
 20
239.4576645775482
 30
0.0
  0
VERTEX
  5
6B4
  8
0
 10
1564.2842567907
 20
239.3168620632581
 30
0.0
  0
VERTEX
  5
6B5
  8
0
 10
1564.174821197428
 20
239.1217397323119
 30
0.0
  0
VERTEX
  5
6B6
  8
0
 10
1564.074702516696
 20
238.8797960264926
 30
0.0
  0
VERTEX
  5
6B7
  8
0
 10
1563.987748253273
 20
238.6003287067689
 30
0.0
  0
VERTEX
  5
6B8
  8
0
 10
1563.917300010751
 20
238.2940775455544
 30
0.0
  0
VERTEX
  5
6B9
  8
0
 10
1563.866065075592
 20
237.972811603275
 30
0.0
  0
VERTEX
  5
6BA
  8
0
 10
1563.836012377631
 20
237.6488769499745
 30
0.0
  0
VERTEX
  5
6BB
  8
0
 10
1563.828296825202
 20
237.3347222127653
 30
0.0
  0
VERTEX
  5
6BC
  8
0
 10
1563.843214922657
 20
237.0424201820675
 30
0.0
  0
VERTEX
  5
6BD
  8
0
 10
1563.880193375876
 20
236.7832038610416
 30
0.0
  0
VERTEX
  5
6BE
  8
0
 10
1563.937811123634
 20
236.567034787575
 30
0.0
  0
VERTEX
  5
6BF
  8
0
 10
1564.013853948187
 20
236.4022202179657
 30
0.0
  0
VERTEX
  5
6C0
  8
0
 10
1564.105399566422
 20
236.2950938837205
 30
0.0
  0
VERTEX
  5
6C1
  8
0
 10
1564.208929931555
 20
236.2497725898041
 30
0.0
  0
SEQEND
  5
779
  8
0
  0
POLYLINE
  5
1E6
  8
0
 66
     1
 10
0.0
 20
0.0
 30
0.0
  0
VERTEX
  5
6C2
  8
0
 10
1564.20892993
 20
267.67674065
 30
0.0
  0
VERTEX
  5
6C3
  8
0
 10
1564.320466427695
 20
267.6949660672556
 30
0.0
  0
VERTEX
  5
6C4
  8
0
 10
1564.435722773362
 20
267.7760378037823
 30
0.0
  0
VERTEX
  5
6C5
  8
0
 10
1564.550269730285
 20
267.9168403182182
 30
0.0
  0
VERTEX
  5
6C6
  8
0
 10
1564.659705323157
 20
268.1119626489087
 30
0.0
  0
VERTEX
  5
6C7
  8
0
 10
1564.759824003527
 20
268.3539063541285
 30
0.0
  0
VERTEX
  5
6C8
  8
0
 10
1564.846778266662
 20
268.6333736729906
 30
0.0
  0
VERTEX
  5
6C9
  8
0
 10
1564.917226509005
 20
268.9396248331827
 30
0.0
  0
VERTEX
  5
6CA
  8
0
 10
1564.968461444114
 20
269.2608907743931
 30
0.0
  0
VERTEX
  5
6CB
  8
0
 10
1564.998514142172
 20
269.5848254266971
 30
0.0
  0
VERTEX
  5
6CC
  8
0
 10
1565.006229694848
 20
269.8989801630999
 30
0.0
  0
VERTEX
  5
6CD
  8
0
 10
1564.99131159778
 20
270.1912821932888
 30
0.0
  0
VERTEX
  5
6CE
  8
0
 10
1564.954333145072
 20
270.4504985141943
 30
0.0
  0
VERTEX
  5
6CF
  8
0
 10
1564.89671539792
 20
270.6666675879968
 30
0.0
  0
VERTEX
  5
6D0
  8
0
 10
1564.820672574029
 20
270.8314821584378
 30
0.0
  0
VERTEX
  5
6D1
  8
0
 10
1564.729126956471
 20
270.9386084940191
 30
0.0
  0
VERTEX
  5
6D2
  8
0
 10
1564.625596591979
 20
270.9839297897507
 30
0.0
  0
SEQEND
  5
77A
  8
0
  0
POLYLINE
  5
1E7
  8
0
 66
     1
 10
0.0
 20
0.0
 30
0.0
  0
VERTEX
  5
6D3
  8
0
 10
1564.625596591979
 20
270.9839297897507
 30
0.0
  0
VERTEX
  5
6D4
  8
0
 10
1564.514060094131
 20
270.9657043735439
 30
0.0
  0
VERTEX
  5
6D5
  8
0
 10
1564.398803748224
 20
270.8846326377487
 30
0.0
  0
VERTEX
  5
6D6
  8
0
 10
1564.284256791003
 20
270.7438301237135
 30
0.0
  0
VERTEX
  5
6D7
  8
0
 10
1564.174821197807
 20
270.5487077931018
 30
0.0
  0
VERTEX
  5
6D8
  8
0
 10
1564.074702517119
 20
270.3067640876704
 30
0.0
  0
VERTEX
  5
6D9
  8
0
 10
1563.9877482537
 20
270.0272967683566
 30
0.0
  0
VERTEX
  5
6DA
  8
0
 10
1563.917300011135
 20
269.7210456075389
 30
0.0
  0
VERTEX
  5
6DB
  8
0
 10
1563.866065075886
 20
269.3997796656069
 30
0.0
  0
VERTEX
  5
6DC
  8
0
 10
1563.836012377785
 20
269.075845012569
 30
0.0
  0
VERTEX
  5
6DD
  8
0
 10
1563.828296825169
 20
268.7616902755052
 30
0.0
  0
VERTEX
  5
6DE
  8
0
 10
1563.843214922399
 20
268.4693882448084
 30
0.0
  0
VERTEX
  5
6DF
  8
0
 10
1563.880193375363
 20
268.2101719236188
 30
0.0
  0
VERTEX
  5
6E0
  8
0
 10
1563.937811122849
 20
267.9940028498125
 30
0.0
  0
VERTEX
  5
6E1
  8
0
 10
1564.013853947127
 20
267.8291882796857
 30
0.0
  0
VERTEX
  5
6E2
  8
0
 10
1564.1053995651
 20
267.7220619447536
 30
0.0
  0
VERTEX
  5
6E3
  8
0
 10
1564.20892993
 20
267.67674065
 30
0.0
  0
SEQEND
  5
77B
  8
0
  0
POLYLINE
  5
1E8
  8
0
 66
     1
 10
0.0
 20
0.0
 30
0.0
  0
VERTEX
  5
6E4
  8
0
 10
1564.20892993
 20
299.1037087
 30
0.0
  0
VERTEX
  5
6E5
  8
0
 10
1564.320466427695
 20
299.1219341172556
 30
0.0
  0
VERTEX
  5
6E6
  8
0
 10
1564.435722773362
 20
299.2030058537823
 30
0.0
  0
VERTEX
  5
6E7
  8
0
 10
1564.550269730285
 20
299.3438083682182
 30
0.0
  0
VERTEX
  5
6E8
  8
0
 10
1564.659705323157
 20
299.5389306989088
 30
0.0
  0
VERTEX
  5
6E9
  8
0
 10
1564.759824003527
 20
299.7808744041286
 30
0.0
  0
VERTEX
  5
6EA
  8
0
 10
1564.846778266662
 20
300.0603417229906
 30
0.0
  0
VERTEX
  5
6EB
  8
0
 10
1564.917226509005
 20
300.3665928831827
 30
0.0
  0
VERTEX
  5
6EC
  8
0
 10
1564.968461444114
 20
300.6878588243931
 30
0.0
  0
VERTEX
  5
6ED
  8
0
 10
1564.998514142172
 20
301.0117934766972
 30
0.0
  0
VERTEX
  5
6EE
  8
0
 10
1565.006229694848
 20
301.3259482130999
 30
0.0
  0
VERTEX
  5
6EF
  8
0
 10
1564.99131159778
 20
301.6182502432889
 30
0.0
  0
VERTEX
  5
6F0
  8
0
 10
1564.954333145072
 20
301.8774665641943
 30
0.0
  0
VERTEX
  5
6F1
  8
0
 10
1564.89671539792
 20
302.0936356379968
 30
0.0
  0
VERTEX
  5
6F2
  8
0
 10
1564.820672574029
 20
302.2584502084379
 30
0.0
  0
VERTEX
  5
6F3
  8
0
 10
1564.729126956471
 20
302.3655765440192
 30
0.0
  0
VERTEX
  5
6F4
  8
0
 10
1564.625596591979
 20
302.4108978397507
 30
0.0
  0
SEQEND
  5
77C
  8
0
  0
POLYLINE
  5
1E9
  8
0
 66
     1
 10
0.0
 20
0.0
 30
0.0
  0
VERTEX
  5
6F5
  8
0
 10
1564.625596591979
 20
302.4108978397507
 30
0.0
  0
VERTEX
  5
6F6
  8
0
 10
1564.514060094029
 20
302.392672423499
 30
0.0
  0
VERTEX
  5
6F7
  8
0
 10
1564.398803748016
 20
302.3116006875482
 30
0.0
  0
VERTEX
  5
6F8
  8
0
 10
1564.2842567907
 20
302.1707981732582
 30
0.0
  0
VERTEX
  5
6F9
  8
0
 10
1564.174821197428
 20
301.975675842312
 30
0.0
  0
VERTEX
  5
6FA
  8
0
 10
1564.074702516696
 20
301.7337321364926
 30
0.0
  0
VERTEX
  5
6FB
  8
0
 10
1563.987748253273
 20
301.454264816769
 30
0.0
  0
VERTEX
  5
6FC
  8
0
 10
1563.917300010751
 20
301.1480136555545
 30
0.0
  0
VERTEX
  5
6FD
  8
0
 10
1563.866065075592
 20
300.826747713275
 30
0.0
  0
VERTEX
  5
6FE
  8
0
 10
1563.836012377631
 20
300.5028130599746
 30
0.0
  0
VERTEX
  5
6FF
  8
0
 10
1563.828296825202
 20
300.1886583227654
 30
0.0
  0
VERTEX
  5
700
  8
0
 10
1563.843214922657
 20
299.8963562920676
 30
0.0
  0
VERTEX
  5
701
  8
0
 10
1563.880193375876
 20
299.6371399710417
 30
0.0
  0
VERTEX
  5
702
  8
0
 10
1563.937811123634
 20
299.4209708975749
 30
0.0
  0
VERTEX
  5
703
  8
0
 10
1564.013853948187
 20
299.2561563279657
 30
0.0
  0
VERTEX
  5
704
  8
0
 10
1564.105399566422
 20
299.1490299937205
 30
0.0
  0
VERTEX
  5
705
  8
0
 10
1564.208929931555
 20
299.1037086998041
 30
0.0
  0
SEQEND
  5
77D
  8
0
  0
POLYLINE
  5
1EA
  8
0
 66
     1
 10
0.0
 20
0.0
 30
0.0
  0
VERTEX
  5
706
  8
0
 10
1564.20892993
 20
330.53067675
 30
0.0
  0
VERTEX
  5
707
  8
0
 10
1564.320466427695
 20
330.5489021672556
 30
0.0
  0
VERTEX
  5
708
  8
0
 10
1564.435722773362
 20
330.6299739037823
 30
0.0
  0
VERTEX
  5
709
  8
0
 10
1564.550269730285
 20
330.7707764182182
 30
0.0
  0
VERTEX
  5
70A
  8
0
 10
1564.659705323157
 20
330.9658987489087
 30
0.0
  0
VERTEX
  5
70B
  8
0
 10
1564.759824003527
 20
331.2078424541285
 30
0.0
  0
VERTEX
  5
70C
  8
0
 10
1564.846778266662
 20
331.4873097729906
 30
0.0
  0
VERTEX
  5
70D
  8
0
 10
1564.917226509005
 20
331.7935609331827
 30
0.0
  0
VERTEX
  5
70E
  8
0
 10
1564.968461444114
 20
332.1148268743931
 30
0.0
  0
VERTEX
  5
70F
  8
0
 10
1564.998514142172
 20
332.4387615266971
 30
0.0
  0
VERTEX
  5
710
  8
0
 10
1565.006229694848
 20
332.7529162630999
 30
0.0
  0
VERTEX
  5
711
  8
0
 10
1564.99131159778
 20
333.0452182932889
 30
0.0
  0
VERTEX
  5
712
  8
0
 10
1564.954333145072
 20
333.3044346141943
 30
0.0
  0
VERTEX
  5
713
  8
0
 10
1564.89671539792
 20
333.5206036879968
 30
0.0
  0
VERTEX
  5
714
  8
0
 10
1564.820672574029
 20
333.6854182584378
 30
0.0
  0
VERTEX
  5
715
  8
0
 10
1564.729126956471
 20
333.7925445940191
 30
0.0
  0
VERTEX
  5
716
  8
0
 10
1564.625596591979
 20
333.8378658897507
 30
0.0
  0
SEQEND
  5
77E
  8
0
  0
POLYLINE
  5
1EB
  8
0
 66
     1
 10
0.0
 20
0.0
 30
0.0
  0
VERTEX
  5
717
  8
0
 10
1564.625596591979
 20
333.8378658897507
 30
0.0
  0
VERTEX
  5
718
  8
0
 10
1564.514060094131
 20
333.8196404735439
 30
0.0
  0
VERTEX
  5
719
  8
0
 10
1564.398803748224
 20
333.7385687377487
 30
0.0
  0
VERTEX
  5
71A
  8
0
 10
1564.284256791003
 20
333.5977662237134
 30
0.0
  0
VERTEX
  5
71B
  8
0
 10
1564.174821197807
 20
333.4026438931018
 30
0.0
  0
VERTEX
  5
71C
  8
0
 10
1564.074702517119
 20
333.1607001876704
 30
0.0
  0
VERTEX
  5
71D
  8
0
 10
1563.9877482537
 20
332.8812328683566
 30
0.0
  0
VERTEX
  5
71E
  8
0
 10
1563.917300011135
 20
332.5749817075389
 30
0.0
  0
VERTEX
  5
71F
  8
0
 10
1563.866065075886
 20
332.2537157656069
 30
0.0
  0
VERTEX
  5
720
  8
0
 10
1563.836012377785
 20
331.929781112569
 30
0.0
  0
VERTEX
  5
721
  8
0
 10
1563.828296825169
 20
331.6156263755052
 30
0.0
  0
VERTEX
  5
722
  8
0
 10
1563.843214922399
 20
331.3233243448084
 30
0.0
  0
VERTEX
  5
723
  8
0
 10
1563.880193375363
 20
331.0641080236188
 30
0.0
  0
VERTEX
  5
724
  8
0
 10
1563.937811122849
 20
330.8479389498125
 30
0.0
  0
VERTEX
  5
725
  8
0
 10
1564.013853947127
 20
330.6831243796857
 30
0.0
  0
VERTEX
  5
726
  8
0
 10
1564.1053995651
 20
330.5759980447536
 30
0.0
  0
VERTEX
  5
727
  8
0
 10
1564.20892993
 20
330.53067675
 30
0.0
  0
SEQEND
  5
77F
  8
0
  0
POLYLINE
  5
1EC
  8
0
 66
     1
 10
0.0
 20
0.0
 30
0.0
  0
VERTEX
  5
728
  8
0
 10
1564.20892993
 20
361.95764481
 30
0.0
  0
VERTEX
  5
729
  8
0
 10
1564.320466427695
 20
361.9758702272555
 30
0.0
  0
VERTEX
  5
72A
  8
0
 10
1564.435722773362
 20
362.0569419637823
 30
0.0
  0
VERTEX
  5
72B
  8
0
 10
1564.550269730285
 20
362.1977444782182
 30
0.0
  0
VERTEX
  5
72C
  8
0
 10
1564.659705323157
 20
362.3928668089087
 30
0.0
  0
VERTEX
  5
72D
  8
0
 10
1564.759824003527
 20
362.6348105141285
 30
0.0
  0
VERTEX
  5
72E
  8
0
 10
1564.846778266662
 20
362.9142778329906
 30
0.0
  0
VERTEX
  5
72F
  8
0
 10
1564.917226509005
 20
363.2205289931827
 30
0.0
  0
VERTEX
  5
730
  8
0
 10
1564.968461444114
 20
363.5417949343931
 30
0.0
  0
VERTEX
  5
731
  8
0
 10
1564.998514142172
 20
363.8657295866971
 30
0.0
  0
VERTEX
  5
732
  8
0
 10
1565.006229694848
 20
364.1798843230999
 30
0.0
  0
VERTEX
  5
733
  8
0
 10
1564.99131159778
 20
364.4721863532888
 30
0.0
  0
VERTEX
  5
734
  8
0
 10
1564.954333145072
 20
364.7314026741943
 30
0.0
  0
VERTEX
  5
735
  8
0
 10
1564.89671539792
 20
364.9475717479967
 30
0.0
  0
VERTEX
  5
736
  8
0
 10
1564.820672574029
 20
365.1123863184378
 30
0.0
  0
VERTEX
  5
737
  8
0
 10
1564.729126956471
 20
365.2195126540191
 30
0.0
  0
VERTEX
  5
738
  8
0
 10
1564.625596591979
 20
365.2648339497507
 30
0.0
  0
SEQEND
  5
780
  8
0
  0
POLYLINE
  5
1ED
  8
0
 66
     1
 10
0.0
 20
0.0
 30
0.0
  0
VERTEX
  5
739
  8
0
 10
1564.625596591979
 20
365.2648339497507
 30
0.0
  0
VERTEX
  5
73A
  8
0
 10
1564.514060094131
 20
365.2466085335438
 30
0.0
  0
VERTEX
  5
73B
  8
0
 10
1564.398803748224
 20
365.1655367977486
 30
0.0
  0
VERTEX
  5
73C
  8
0
 10
1564.284256791003
 20
365.0247342837134
 30
0.0
  0
VERTEX
  5
73D
  8
0
 10
1564.174821197807
 20
364.8296119531018
 30
0.0
  0
VERTEX
  5
73E
  8
0
 10
1564.074702517119
 20
364.5876682476704
 30
0.0
  0
VERTEX
  5
73F
  8
0
 10
1563.9877482537
 20
364.3082009283566
 30
0.0
  0
VERTEX
  5
740
  8
0
 10
1563.917300011135
 20
364.0019497675389
 30
0.0
  0
VERTEX
  5
741
  8
0
 10
1563.866065075886
 20
363.6806838256069
 30
0.0
  0
VERTEX
  5
742
  8
0
 10
1563.836012377785
 20
363.356749172569
 30
0.0
  0
VERTEX
  5
743
  8
0
 10
1563.828296825169
 20
363.0425944355052
 30
0.0
  0
VERTEX
  5
744
  8
0
 10
1563.843214922399
 20
362.7502924048084
 30
0.0
  0
VERTEX
  5
745
  8
0
 10
1563.880193375363
 20
362.4910760836188
 30
0.0
  0
VERTEX
  5
746
  8
0
 10
1563.937811122849
 20
362.2749070098125
 30
0.0
  0
VERTEX
  5
747
  8
0
 10
1564.013853947127
 20
362.1100924396857
 30
0.0
  0
VERTEX
  5
748
  8
0
 10
1564.1053995651
 20
362.0029661047536
 30
0.0
  0
VERTEX
  5
749
  8
0
 10
1564.20892993
 20
361.95764481
 30
0.0
  0
SEQEND
  5
781
  8
0
  0
POLYLINE
  5
1EE
  8
0
 66
     1
 10
0.0
 20
0.0
 30
0.0
  0
VERTEX
  5
1EF
  8
0
 10
1569.13130847
 20
380.33942369
 30
0.0
  0
VERTEX
  5
1F0
  8
0
 10
1559.70321805
 20
372.0246295
 30
0.0
  0
VERTEX
  5
1F1
  8
0
 10
1558.45599892
 20
372.18176434
 30
0.0
  0
SEQEND
  5
1F2
  8
0
  0
LINE
  5
1F3
  8
0
 10
1567.88408934
 20
380.49655853
 30
0.0
 11
1558.45599892
 21
372.18176434
 31
0.0
  0
LINE
  5
1F4
  8
0
 10
1569.13130847
 20
380.33942369
 30
0.0
 11
1567.88408934
 21
380.49655853
 31
0.0
  0
LINE
  5
1F5
  8
0
 10
1569.13130847
 20
380.33942369
 30
0.0
 11
1569.13130847
 21
186.12076113
 31
0.0
  0
POLYLINE
  5
1F6
  8
0
 66
     1
 10
0.0
 20
0.0
 30
0.0
  0
VERTEX
  5
1F7
  8
0
 10
1560.32682762
 20
173.95616335
 30
0.0
  0
VERTEX
  5
1F8
  8
0
 10
1559.70321805
 20
173.40619141
 30
0.0
  0
VERTEX
  5
1F9
  8
0
 10
1559.70321805
 20
372.0246295
 30
0.0
  0
SEQEND
  5
1FA
  8
0
  0
LINE
  5
1FB
  8
0
 10
1558.45599892
 20
173.56332625
 30
0.0
 11
1558.45599892
 21
372.18176434
 31
0.0
  0
LINE
  5
1FC
  8
0
  6
STRICHPUNKT2
 62
     1
 10
1565.19677522
 20
363.5130301
 30
0.0
 11
1563.86606507
 21
363.68068382
 31
0.0
  0
LINE
  5
1FD
  8
0
  6
STRICHPUNKT2
 62
     1
 10
1564.41726326
 20
363.61123938
 30
0.0
 11
1564.41726326
 21
361.25421677
 31
0.0
  0
LINE
  5
1FE
  8
0
  6
STRICHPUNKT2
 62
     1
 10
1564.41726326
 20
363.61123938
 30
0.0
 11
1564.41726326
 21
365.96826198
 31
0.0
  0
LINE
  5
1FF
  8
0
  6
STRICHPUNKT2
 62
     1
 10
1564.41726326
 20
363.61123938
 30
0.0
 11
1565.30114674
 21
364.39075133
 31
0.0
  0
LINE
  5
200
  8
0
  6
STRICHPUNKT2
 62
     1
 10
1564.41726326
 20
363.61123938
 30
0.0
 11
1563.53337978
 21
362.83172742
 31
0.0
  0
LINE
  5
201
  8
0
  6
STRICHPUNKT2
 62
     1
 10
1565.19677522
 20
332.08606205
 30
0.0
 11
1563.86606507
 21
332.25371577
 31
0.0
  0
LINE
  5
202
  8
0
  6
STRICHPUNKT2
 62
     1
 10
1564.41726326
 20
332.18427132
 30
0.0
 11
1564.41726326
 21
329.82724872
 31
0.0
  0
LINE
  5
203
  8
0
  6
STRICHPUNKT2
 62
     1
 10
1564.41726326
 20
332.18427132
 30
0.0
 11
1564.41726326
 21
334.54129393
 31
0.0
  0
LINE
  5
204
  8
0
  6
STRICHPUNKT2
 62
     1
 10
1564.41726326
 20
332.18427132
 30
0.0
 11
1565.30114674
 21
332.96378328
 31
0.0
  0
LINE
  5
205
  8
0
  6
STRICHPUNKT2
 62
     1
 10
1564.41726326
 20
332.18427132
 30
0.0
 11
1563.53337978
 21
331.40475937
 31
0.0
  0
LINE
  5
206
  8
0
  6
STRICHPUNKT2
 62
     1
 10
1565.19677522
 20
300.659094
 30
0.0
 11
1563.86606507
 21
300.82674771
 31
0.0
  0
LINE
  5
207
  8
0
  6
STRICHPUNKT2
 62
     1
 10
1564.41726326
 20
300.75730327
 30
0.0
 11
1564.41726326
 21
298.40028067
 31
0.0
  0
LINE
  5
208
  8
0
  6
STRICHPUNKT2
 62
     1
 10
1564.41726326
 20
300.75730327
 30
0.0
 11
1564.41726326
 21
303.11432587
 31
0.0
  0
LINE
  5
209
  8
0
  6
STRICHPUNKT2
 62
     1
 10
1564.41726326
 20
300.75730327
 30
0.0
 11
1565.30114674
 21
301.53681523
 31
0.0
  0
LINE
  5
20A
  8
0
  6
STRICHPUNKT2
 62
     1
 10
1564.41726326
 20
300.75730327
 30
0.0
 11
1563.53337978
 21
299.97779131
 31
0.0
  0
LINE
  5
20B
  8
0
  6
STRICHPUNKT2
 62
     1
 10
1565.19677522
 20
269.23212594
 30
0.0
 11
1563.86606507
 21
269.39977966
 31
0.0
  0
LINE
  5
20C
  8
0
  6
STRICHPUNKT2
 62
     1
 10
1564.41726326
 20
269.33033522
 30
0.0
 11
1564.41726326
 21
266.97331261
 31
0.0
  0
LINE
  5
20D
  8
0
  6
STRICHPUNKT2
 62
     1
 10
1564.41726326
 20
269.33033522
 30
0.0
 11
1564.41726326
 21
271.68735782
 31
0.0
  0
LINE
  5
20E
  8
0
  6
STRICHPUNKT2
 62
     1
 10
1564.41726326
 20
269.33033522
 30
0.0
 11
1565.30114674
 21
270.10984717
 31
0.0
  0
LINE
  5
20F
  8
0
  6
STRICHPUNKT2
 62
     1
 10
1564.41726326
 20
269.33033522
 30
0.0
 11
1563.53337978
 21
268.55082326
 31
0.0
  0
LINE
  5
210
  8
0
  6
STRICHPUNKT2
 62
     1
 10
1565.19677522
 20
237.80515789
 30
0.0
 11
1563.86606507
 21
237.97281161
 31
0.0
  0
LINE
  5
211
  8
0
  6
STRICHPUNKT2
 62
     1
 10
1564.41726326
 20
237.90336716
 30
0.0
 11
1564.41726326
 21
235.54634456
 31
0.0
  0
LINE
  5
212
  8
0
  6
STRICHPUNKT2
 62
     1
 10
1564.41726326
 20
237.90336716
 30
0.0
 11
1564.41726326
 21
240.26038977
 31
0.0
  0
LINE
  5
213
  8
0
  6
STRICHPUNKT2
 62
     1
 10
1564.41726326
 20
237.90336716
 30
0.0
 11
1565.30114674
 21
238.68287912
 31
0.0
  0
LINE
  5
214
  8
0
  6
STRICHPUNKT2
 62
     1
 10
1564.41726326
 20
237.90336716
 30
0.0
 11
1563.53337978
 21
237.12385521
 31
0.0
  0
LINE
  5
215
  8
0
  6
STRICHPUNKT2
 62
     1
 10
1565.19677522
 20
206.37818984
 30
0.0
 11
1563.86606507
 21
206.54584356
 31
0.0
  0
LINE
  5
216
  8
0
  6
STRICHPUNKT2
 62
     1
 10
1564.41726326
 20
206.47639911
 30
0.0
 11
1564.41726326
 21
204.11937651
 31
0.0
  0
LINE
  5
217
  8
0
  6
STRICHPUNKT2
 62
     1
 10
1564.41726326
 20
206.47639911
 30
0.0
 11
1564.41726326
 21
208.83342172
 31
0.0
  0
LINE
  5
218
  8
0
  6
STRICHPUNKT2
 62
     1
 10
1564.41726326
 20
206.47639911
 30
0.0
 11
1565.30114674
 21
207.25591107
 31
0.0
  0
LINE
  5
219
  8
0
  6
STRICHPUNKT2
 62
     1
 10
1564.41726326
 20
206.47639911
 30
0.0
 11
1563.53337978
 21
205.69688716
 31
0.0
  0
LINE
  5
21A
  8
0
  6
STRICHPUNKT2
 62
     1
 10
1562.25049696
 20
345.20117289
 30
0.0
 11
1560.91978682
 21
345.36882661
 31
0.0
  0
LINE
  5
21B
  8
0
  6
STRICHPUNKT2
 62
     1
 10
1561.47098501
 20
345.29938216
 30
0.0
 11
1561.47098501
 21
342.94235956
 31
0.0
  0
LINE
  5
21C
  8
0
  6
STRICHPUNKT2
 62
     1
 10
1561.47098501
 20
345.29938216
 30
0.0
 11
1561.47098501
 21
347.65640477
 31
0.0
  0
LINE
  5
21D
  8
0
  6
STRICHPUNKT2
 62
     1
 10
1561.47098501
 20
345.29938216
 30
0.0
 11
1562.35486848
 21
346.07889412
 31
0.0
  0
LINE
  5
21E
  8
0
  6
STRICHPUNKT2
 62
     1
 10
1561.47098501
 20
345.29938216
 30
0.0
 11
1560.58710153
 21
344.51987021
 31
0.0
  0
LINE
  5
21F
  8
0
  6
STRICHPUNKT2
 62
     1
 10
1562.25049696
 20
313.77420484
 30
0.0
 11
1560.91978682
 21
313.94185856
 31
0.0
  0
LINE
  5
220
  8
0
  6
STRICHPUNKT2
 62
     1
 10
1561.47098501
 20
313.87241411
 30
0.0
 11
1561.47098501
 21
311.51539151
 31
0.0
  0
LINE
  5
221
  8
0
  6
STRICHPUNKT2
 62
     1
 10
1561.47098501
 20
313.87241411
 30
0.0
 11
1561.47098501
 21
316.22943672
 31
0.0
  0
LINE
  5
222
  8
0
  6
STRICHPUNKT2
 62
     1
 10
1561.47098501
 20
313.87241411
 30
0.0
 11
1562.35486848
 21
314.65192607
 31
0.0
  0
LINE
  5
223
  8
0
  6
STRICHPUNKT2
 62
     1
 10
1561.47098501
 20
313.87241411
 30
0.0
 11
1560.58710153
 21
313.09290216
 31
0.0
  0
LINE
  5
224
  8
0
  6
STRICHPUNKT2
 62
     1
 10
1562.25049696
 20
282.34723678
 30
0.0
 11
1560.91978682
 21
282.5148905
 31
0.0
  0
LINE
  5
225
  8
0
  6
STRICHPUNKT2
 62
     1
 10
1561.47098501
 20
282.44544606
 30
0.0
 11
1561.47098501
 21
280.08842345
 31
0.0
  0
LINE
  5
226
  8
0
  6
STRICHPUNKT2
 62
     1
 10
1561.47098501
 20
282.44544606
 30
0.0
 11
1561.47098501
 21
284.80246866
 31
0.0
  0
LINE
  5
227
  8
0
  6
STRICHPUNKT2
 62
     1
 10
1561.47098501
 20
282.44544606
 30
0.0
 11
1562.35486848
 21
283.22495801
 31
0.0
  0
LINE
  5
228
  8
0
  6
STRICHPUNKT2
 62
     1
 10
1561.47098501
 20
282.44544606
 30
0.0
 11
1560.58710153
 21
281.6659341
 31
0.0
  0
LINE
  5
229
  8
0
  6
STRICHPUNKT2
 62
     1
 10
1562.25049696
 20
250.92026873
 30
0.0
 11
1560.91978682
 21
251.08792245
 31
0.0
  0
LINE
  5
22A
  8
0
  6
STRICHPUNKT2
 62
     1
 10
1561.47098501
 20
251.01847801
 30
0.0
 11
1561.47098501
 21
248.6614554
 31
0.0
  0
LINE
  5
22B
  8
0
  6
STRICHPUNKT2
 62
     1
 10
1561.47098501
 20
251.01847801
 30
0.0
 11
1561.47098501
 21
253.37550061
 31
0.0
  0
LINE
  5
22C
  8
0
  6
STRICHPUNKT2
 62
     1
 10
1561.47098501
 20
251.01847801
 30
0.0
 11
1562.35486848
 21
251.79798996
 31
0.0
  0
LINE
  5
22D
  8
0
  6
STRICHPUNKT2
 62
     1
 10
1561.47098501
 20
251.01847801
 30
0.0
 11
1560.58710153
 21
250.23896605
 31
0.0
  0
LINE
  5
22E
  8
0
  6
STRICHPUNKT2
 62
     1
 10
1562.25049696
 20
219.49330068
 30
0.0
 11
1560.91978682
 21
219.6609544
 31
0.0
  0
LINE
  5
22F
  8
0
  6
STRICHPUNKT2
 62
     1
 10
1561.47098501
 20
219.59150995
 30
0.0
 11
1561.47098501
 21
217.23448735
 31
0.0
  0
LINE
  5
230
  8
0
  6
STRICHPUNKT2
 62
     1
 10
1561.47098501
 20
219.59150995
 30
0.0
 11
1561.47098501
 21
221.94853256
 31
0.0
  0
LINE
  5
231
  8
0
  6
STRICHPUNKT2
 62
     1
 10
1561.47098501
 20
219.59150995
 30
0.0
 11
1562.35486848
 21
220.37102191
 31
0.0
  0
LINE
  5
232
  8
0
  6
STRICHPUNKT2
 62
     1
 10
1561.47098501
 20
219.59150995
 30
0.0
 11
1560.58710153
 21
218.811998
 31
0.0
  0
LINE
  5
233
  8
0
  6
STRICHPUNKT2
 62
     1
 10
1562.25049696
 20
188.06633263
 30
0.0
 11
1560.91978682
 21
188.23398635
 31
0.0
  0
LINE
  5
234
  8
0
  6
STRICHPUNKT2
 62
     1
 10
1561.47098501
 20
188.1645419
 30
0.0
 11
1561.47098501
 21
185.8075193
 31
0.0
  0
LINE
  5
235
  8
0
  6
STRICHPUNKT2
 62
     1
 10
1561.47098501
 20
188.1645419
 30
0.0
 11
1561.47098501
 21
190.5215645
 31
0.0
  0
LINE
  5
236
  8
0
  6
STRICHPUNKT2
 62
     1
 10
1561.47098501
 20
188.1645419
 30
0.0
 11
1562.35486848
 21
188.94405386
 31
0.0
  0
LINE
  5
237
  8
0
  6
STRICHPUNKT2
 62
     1
 10
1561.47098501
 20
188.1645419
 30
0.0
 11
1560.58710153
 21
187.38502994
 31
0.0
  0
LINE
  5
238
  8
0
  6
STRICHPUNKT2
 62
     1
 10
1568.14305347
 20
350.39791926
 30
0.0
 11
1566.81234333
 21
350.56557298
 31
0.0
  0
LINE
  5
239
  8
0
  6
STRICHPUNKT2
 62
     1
 10
1567.36354152
 20
350.49612853
 30
0.0
 11
1567.36354152
 21
348.13910593
 31
0.0
  0
LINE
  5
23A
  8
0
  6
STRICHPUNKT2
 62
     1
 10
1567.36354152
 20
350.49612853
 30
0.0
 11
1567.36354152
 21
352.85315114
 31
0.0
  0
LINE
  5
23B
  8
0
  6
STRICHPUNKT2
 62
     1
 10
1567.36354152
 20
350.49612853
 30
0.0
 11
1568.24742499
 21
351.27564049
 31
0.0
  0
LINE
  5
23C
  8
0
  6
STRICHPUNKT2
 62
     1
 10
1567.36354152
 20
350.49612853
 30
0.0
 11
1566.47965804
 21
349.71661658
 31
0.0
  0
LINE
  5
23D
  8
0
  6
STRICHPUNKT2
 62
     1
 10
1568.14305347
 20
318.97095121
 30
0.0
 11
1566.81234333
 21
319.13860493
 31
0.0
  0
LINE
  5
23E
  8
0
  6
STRICHPUNKT2
 62
     1
 10
1567.36354152
 20
319.06916048
 30
0.0
 11
1567.36354152
 21
316.71213788
 31
0.0
  0
LINE
  5
23F
  8
0
  6
STRICHPUNKT2
 62
     1
 10
1567.36354152
 20
319.06916048
 30
0.0
 11
1567.36354152
 21
321.42618309
 31
0.0
  0
LINE
  5
240
  8
0
  6
STRICHPUNKT2
 62
     1
 10
1567.36354152
 20
319.06916048
 30
0.0
 11
1568.24742499
 21
319.84867244
 31
0.0
  0
LINE
  5
241
  8
0
  6
STRICHPUNKT2
 62
     1
 10
1567.36354152
 20
319.06916048
 30
0.0
 11
1566.47965804
 21
318.28964853
 31
0.0
  0
LINE
  5
242
  8
0
  6
STRICHPUNKT2
 62
     1
 10
1568.14305347
 20
287.54398315
 30
0.0
 11
1566.81234333
 21
287.71163687
 31
0.0
  0
LINE
  5
243
  8
0
  6
STRICHPUNKT2
 62
     1
 10
1567.36354152
 20
287.64219243
 30
0.0
 11
1567.36354152
 21
285.28516983
 31
0.0
  0
LINE
  5
244
  8
0
  6
STRICHPUNKT2
 62
     1
 10
1567.36354152
 20
287.64219243
 30
0.0
 11
1567.36354152
 21
289.99921503
 31
0.0
  0
LINE
  5
245
  8
0
  6
STRICHPUNKT2
 62
     1
 10
1567.36354152
 20
287.64219243
 30
0.0
 11
1568.24742499
 21
288.42170438
 31
0.0
  0
LINE
  5
246
  8
0
  6
STRICHPUNKT2
 62
     1
 10
1567.36354152
 20
287.64219243
 30
0.0
 11
1566.47965804
 21
286.86268047
 31
0.0
  0
LINE
  5
247
  8
0
  6
STRICHPUNKT2
 62
     1
 10
1568.14305347
 20
256.1170151
 30
0.0
 11
1566.81234333
 21
256.28466882
 31
0.0
  0
LINE
  5
248
  8
0
  6
STRICHPUNKT2
 62
     1
 10
1567.36354152
 20
256.21522438
 30
0.0
 11
1567.36354152
 21
253.85820177
 31
0.0
  0
LINE
  5
249
  8
0
  6
STRICHPUNKT2
 62
     1
 10
1567.36354152
 20
256.21522438
 30
0.0
 11
1567.36354152
 21
258.57224698
 31
0.0
  0
LINE
  5
24A
  8
0
  6
STRICHPUNKT2
 62
     1
 10
1567.36354152
 20
256.21522438
 30
0.0
 11
1568.24742499
 21
256.99473633
 31
0.0
  0
LINE
  5
24B
  8
0
  6
STRICHPUNKT2
 62
     1
 10
1567.36354152
 20
256.21522438
 30
0.0
 11
1566.47965804
 21
255.43571242
 31
0.0
  0
LINE
  5
24C
  8
0
  6
STRICHPUNKT2
 62
     1
 10
1568.14305347
 20
224.69004705
 30
0.0
 11
1566.81234333
 21
224.85770077
 31
0.0
  0
LINE
  5
24D
  8
0
  6
STRICHPUNKT2
 62
     1
 10
1567.36354152
 20
224.78825632
 30
0.0
 11
1567.36354152
 21
222.43123372
 31
0.0
  0
LINE
  5
24E
  8
0
  6
STRICHPUNKT2
 62
     1
 10
1567.36354152
 20
224.78825632
 30
0.0
 11
1567.36354152
 21
227.14527893
 31
0.0
  0
LINE
  5
24F
  8
0
  6
STRICHPUNKT2
 62
     1
 10
1567.36354152
 20
224.78825632
 30
0.0
 11
1568.24742499
 21
225.56776828
 31
0.0
  0
LINE
  5
250
  8
0
  6
STRICHPUNKT2
 62
     1
 10
1567.36354152
 20
224.78825632
 30
0.0
 11
1566.47965804
 21
224.00874437
 31
0.0
  0
LINE
  5
251
  8
0
  6
STRICHPUNKT2
 62
     1
 10
1568.14305347
 20
193.263079
 30
0.0
 11
1566.81234333
 21
193.43073272
 31
0.0
  0
LINE
  5
252
  8
0
  6
STRICHPUNKT2
 62
     1
 10
1567.36354152
 20
193.36128827
 30
0.0
 11
1567.36354152
 21
191.00426567
 31
0.0
  0
LINE
  5
253
  8
0
  6
STRICHPUNKT2
 62
     1
 10
1567.36354152
 20
193.36128827
 30
0.0
 11
1567.36354152
 21
195.71831088
 31
0.0
  0
LINE
  5
254
  8
0
  6
STRICHPUNKT2
 62
     1
 10
1567.36354152
 20
193.36128827
 30
0.0
 11
1568.24742499
 21
194.14080023
 31
0.0
  0
LINE
  5
255
  8
0
  6
STRICHPUNKT2
 62
     1
 10
1567.36354152
 20
193.36128827
 30
0.0
 11
1566.47965804
 21
192.58177632
 31
0.0
  0
LINE
  5
256
  8
0
 10
1560.32682762
 20
173.95616335
 30
0.0
 11
1559.70321805
 21
173.40619141
 31
0.0
  0
POLYLINE
  5
257
  8
0
 66
     1
 10
0.0
 20
0.0
 30
0.0
  0
VERTEX
  5
74A
  8
0
 10
1559.703218056291
 20
173.4061914110764
 30
0.0
  0
VERTEX
  5
74B
  8
0
 10
1559.727183022555
 20
173.1579282183486
 30
0.0
  0
VERTEX
  5
74C
  8
0
 10
1559.798156959676
 20
172.9131670370392
 30
0.0
  0
VERTEX
  5
74D
  8
0
 10
1559.913412379076
 20
172.6813139020011
 30
0.0
  0
VERTEX
  5
74E
  8
0
 10
1560.068520079661
 20
172.4712787991123
 30
0.0
  0
VERTEX
  5
74F
  8
0
 10
1560.257519359535
 20
172.2911332595181
 30
0.0
  0
VERTEX
  5
750
  8
0
 10
1560.473147082427
 20
172.1478001752188
 30
0.0
  0
VERTEX
  5
751
  8
0
 10
1560.707116795943
 20
172.0467877562142
 30
0.0
  0
VERTEX
  5
752
  8
0
 10
1560.950437175283
 20
171.9919778530848
 30
0.0
  0
SEQEND
  5
782
  8
0
  0
POLYLINE
  5
258
  8
0
 66
     1
 10
0.0
 20
0.0
 30
0.0
  0
VERTEX
  5
753
  8
0
 10
1558.455998925512
 20
173.5633262459167
 30
0.0
  0
VERTEX
  5
754
  8
0
 10
1558.503928859555
 20
173.0667998593642
 30
0.0
  0
VERTEX
  5
755
  8
0
 10
1558.645876735525
 20
172.5772774959304
 30
0.0
  0
VERTEX
  5
756
  8
0
 10
1558.8763875762
 20
172.1135712253524
 30
0.0
  0
VERTEX
  5
757
  8
0
 10
1559.186602979322
 20
171.6935010194054
 30
0.0
  0
VERTEX
  5
758
  8
0
 10
1559.564601541021
 20
171.3332099403866
 30
0.0
  0
VERTEX
  5
759
  8
0
 10
1559.995856988681
 20
171.0465437722897
 30
0.0
  0
VERTEX
  5
75A
  8
0
 10
1560.463796417443
 20
170.8445189350956
 30
0.0
  0
VERTEX
  5
75B
  8
0
 10
1560.950437177637
 20
170.7348991299337
 30
0.0
  0
SEQEND
  5
783
  8
0
  0
LINE
  5
259
  8
0
 10
1704.03359314
 20
358.037767
 30
0.0
 11
1697.36692648
 21
358.037767
 31
0.0
  0
LINE
  5
25A
  8
0
 10
1697.36692648
 20
326.70443367
 30
0.0
 11
1697.36692648
 21
358.037767
 31
0.0
  0
LINE
  5
25B
  8
0
 10
1704.03359314
 20
326.70443367
 30
0.0
 11
1697.36692648
 21
326.70443367
 31
0.0
  0
LINE
  5
25C
  8
0
 10
1704.03359314
 20
326.70443367
 30
0.0
 11
1704.03359314
 21
358.037767
 31
0.0
  0
LINE
  5
25D
  8
0
  6
STRICHPUNKT2
 62
     1
 10
1696.03359314
 20
341.37110033
 30
0.0
 11
1695.36692648
 21
341.37110033
 31
0.0
  0
LINE
  5
25E
  8
0
  6
STRICHPUNKT2
 62
     1
 10
1706.03359314
 20
341.37110033
 30
0.0
 11
1704.03359314
 21
341.37110033
 31
0.0
  0
POLYLINE
  5
25F
  8
0
 66
     1
 10
0.0
 20
0.0
 30
0.0
  0
VERTEX
  5
260
  8
0
 10
1697.36692648
 20
327.37110033
 30
0.0
  0
VERTEX
  5
261
  8
0
 10
1697.36692648
 20
358.037767
 30
0.0
  0
VERTEX
  5
262
  8
0
 10
1696.03359314
 20
358.037767
 30
0.0
  0
SEQEND
  5
263
  8
0
  0
LINE
  5
264
  8
0
 10
1696.03359314
 20
327.37110033
 30
0.0
 11
1696.03359314
 21
358.037767
 31
0.0
  0
LINE
  5
265
  8
0
  6
STRICHPUNKT2
 62
     1
 10
1696.03359314
 20
341.37110033
 30
0.0
 11
1694.03359314
 21
341.37110033
 31
0.0
  0
LINE
  5
266
  8
0
 10
1909.36692648
 20
326.037767
 30
0.0
 11
1698.70025981
 21
326.037767
 31
0.0
  0
LINE
  5
267
  8
0
 10
1909.36692648
 20
324.70443367
 30
0.0
 11
1698.70025981
 21
324.70443367
 31
0.0
  0
LINE
  5
268
  8
0
 10
1909.36692648
 20
326.037767
 30
0.0
 11
1909.36692648
 21
324.70443367
 31
0.0
  0
LINE
  5
269
  8
0
  6
STRICHPUNKT2
 62
     1
 10
1896.03359314
 20
324.70443367
 30
0.0
 11
1896.03359314
 21
323.87110033
 31
0.0
  0
LINE
  5
26A
  8
0
  6
STRICHPUNKT2
 62
     1
 10
1896.03359314
 20
326.87110033
 30
0.0
 11
1896.03359314
 21
326.037767
 31
0.0
  0
LINE
  5
26B
  8
0
  6
STRICHPUNKT2
 62
     1
 10
1879.36692648
 20
324.70443367
 30
0.0
 11
1879.36692648
 21
323.87110033
 31
0.0
  0
LINE
  5
26C
  8
0
  6
STRICHPUNKT2
 62
     1
 10
1879.36692648
 20
326.87110033
 30
0.0
 11
1879.36692648
 21
326.037767
 31
0.0
  0
LINE
  5
26D
  8
0
  6
STRICHPUNKT2
 62
     1
 10
1846.03359314
 20
324.70443367
 30
0.0
 11
1846.03359314
 21
323.87110033
 31
0.0
  0
LINE
  5
26E
  8
0
  6
STRICHPUNKT2
 62
     1
 10
1846.03359314
 20
326.87110033
 30
0.0
 11
1846.03359314
 21
326.037767
 31
0.0
  0
LINE
  5
26F
  8
0
  6
STRICHPUNKT2
 62
     1
 10
1862.70025981
 20
324.70443367
 30
0.0
 11
1862.70025981
 21
323.87110033
 31
0.0
  0
LINE
  5
270
  8
0
  6
STRICHPUNKT2
 62
     1
 10
1862.70025981
 20
326.87110033
 30
0.0
 11
1862.70025981
 21
326.037767
 31
0.0
  0
LINE
  5
271
  8
0
  6
STRICHPUNKT2
 62
     1
 10
1712.70025981
 20
324.70443367
 30
0.0
 11
1712.70025981
 21
323.87110033
 31
0.0
  0
LINE
  5
272
  8
0
  6
STRICHPUNKT2
 62
     1
 10
1712.70025981
 20
326.87110033
 30
0.0
 11
1712.70025981
 21
326.037767
 31
0.0
  0
LINE
  5
273
  8
0
  6
STRICHPUNKT2
 62
     1
 10
1729.36692648
 20
324.70443367
 30
0.0
 11
1729.36692648
 21
323.87110033
 31
0.0
  0
LINE
  5
274
  8
0
  6
STRICHPUNKT2
 62
     1
 10
1729.36692648
 20
326.87110033
 30
0.0
 11
1729.36692648
 21
326.037767
 31
0.0
  0
LINE
  5
275
  8
0
  6
STRICHPUNKT2
 62
     1
 10
1812.70025981
 20
324.70443367
 30
0.0
 11
1812.70025981
 21
323.87110033
 31
0.0
  0
LINE
  5
276
  8
0
  6
STRICHPUNKT2
 62
     1
 10
1812.70025981
 20
326.87110033
 30
0.0
 11
1812.70025981
 21
326.037767
 31
0.0
  0
LINE
  5
277
  8
0
  6
STRICHPUNKT2
 62
     1
 10
1762.70025981
 20
324.70443367
 30
0.0
 11
1762.70025981
 21
323.87110033
 31
0.0
  0
LINE
  5
278
  8
0
  6
STRICHPUNKT2
 62
     1
 10
1762.70025981
 20
326.87110033
 30
0.0
 11
1762.70025981
 21
326.037767
 31
0.0
  0
LINE
  5
279
  8
0
  6
STRICHPUNKT2
 62
     1
 10
1779.36692648
 20
324.70443367
 30
0.0
 11
1779.36692648
 21
323.87110033
 31
0.0
  0
LINE
  5
27A
  8
0
  6
STRICHPUNKT2
 62
     1
 10
1779.36692648
 20
326.87110033
 30
0.0
 11
1779.36692648
 21
326.037767
 31
0.0
  0
LINE
  5
27B
  8
0
  6
STRICHPUNKT2
 62
     1
 10
1796.03359314
 20
324.70443367
 30
0.0
 11
1796.03359314
 21
323.87110033
 31
0.0
  0
LINE
  5
27C
  8
0
  6
STRICHPUNKT2
 62
     1
 10
1796.03359314
 20
326.87110033
 30
0.0
 11
1796.03359314
 21
326.037767
 31
0.0
  0
LINE
  5
27D
  8
0
  6
STRICHPUNKT2
 62
     1
 10
1746.03359314
 20
324.70443367
 30
0.0
 11
1746.03359314
 21
323.87110033
 31
0.0
  0
LINE
  5
27E
  8
0
  6
STRICHPUNKT2
 62
     1
 10
1746.03359314
 20
326.87110033
 30
0.0
 11
1746.03359314
 21
326.037767
 31
0.0
  0
LINE
  5
27F
  8
0
  6
STRICHPUNKT2
 62
     1
 10
1829.36692648
 20
324.70443367
 30
0.0
 11
1829.36692648
 21
323.87110033
 31
0.0
  0
LINE
  5
280
  8
0
  6
STRICHPUNKT2
 62
     1
 10
1829.36692648
 20
326.87110033
 30
0.0
 11
1829.36692648
 21
326.037767
 31
0.0
  0
ARC
  5
281
  8
0
 10
1698.70025981
 20
327.37110033
 30
0.0
 40
1.33333333
 50
180.0
 51
-90.0
  0
ARC
  5
282
  8
0
 10
1698.70025981
 20
327.37110033
 30
0.0
 40
2.66666667
 50
180.0
 51
-90.0
  0
LINE
  5
283
  8
0
  6
STRICHPUNKT2
 62
     1
 10
1696.03359314
 20
259.63164341
 30
0.0
 11
1695.36692648
 21
259.63164341
 31
0.0
  0
LINE
  5
284
  8
0
 10
1696.03359314
 20
272.96497674
 30
0.0
 11
1696.03359314
 21
246.29831007
 31
0.0
  0
LINE
  5
285
  8
0
  6
STRICHPUNKT2
 62
     1
 10
1696.03359314
 20
259.63164341
 30
0.0
 11
1694.03359314
 21
259.63164341
 31
0.0
  0
CIRCLE
  5
286
  8
0
 10
1712.70025981
 20
267.96497674
 30
0.0
 40
1.66666667
  0
CIRCLE
  5
287
  8
0
 10
1746.03359314
 20
267.96497674
 30
0.0
 40
1.66666667
  0
CIRCLE
  5
288
  8
0
 10
1779.36692648
 20
267.96497674
 30
0.0
 40
1.66666667
  0
CIRCLE
  5
289
  8
0
 10
1812.70025981
 20
267.96497674
 30
0.0
 40
1.66666667
  0
CIRCLE
  5
28A
  8
0
 10
1846.03359314
 20
267.96497674
 30
0.0
 40
1.66666667
  0
CIRCLE
  5
28B
  8
0
 10
1879.36692648
 20
267.96497674
 30
0.0
 40
1.66666667
  0
CIRCLE
  5
28C
  8
0
 10
1712.70025981
 20
251.29831007
 30
0.0
 40
1.66666667
  0
CIRCLE
  5
28D
  8
0
 10
1746.03359314
 20
251.29831007
 30
0.0
 40
1.66666667
  0
CIRCLE
  5
28E
  8
0
 10
1779.36692648
 20
251.29831007
 30
0.0
 40
1.66666667
  0
CIRCLE
  5
28F
  8
0
 10
1812.70025981
 20
251.29831007
 30
0.0
 40
1.66666667
  0
CIRCLE
  5
290
  8
0
 10
1846.03359314
 20
251.29831007
 30
0.0
 40
1.66666667
  0
CIRCLE
  5
291
  8
0
 10
1879.36692648
 20
251.29831007
 30
0.0
 40
1.66666667
  0
CIRCLE
  5
292
  8
0
 10
1729.36692648
 20
259.63164341
 30
0.0
 40
1.66666667
  0
CIRCLE
  5
293
  8
0
 10
1762.70025981
 20
259.63164341
 30
0.0
 40
1.66666667
  0
CIRCLE
  5
294
  8
0
 10
1796.03359314
 20
259.63164341
 30
0.0
 40
1.66666667
  0
CIRCLE
  5
295
  8
0
 10
1829.36692648
 20
259.63164341
 30
0.0
 40
1.66666667
  0
CIRCLE
  5
296
  8
0
 10
1862.70025981
 20
259.63164341
 30
0.0
 40
1.66666667
  0
CIRCLE
  5
297
  8
0
 10
1896.03359314
 20
259.63164341
 30
0.0
 40
1.66666667
  0
LINE
  5
298
  8
0
 10
1909.36692648
 20
272.96497674
 30
0.0
 11
1909.36692648
 21
246.29831007
 31
0.0
  0
LINE
  5
299
  8
0
 10
1698.70025981
 20
246.29831007
 30
0.0
 11
1909.36692648
 21
246.29831007
 31
0.0
  0
LINE
  5
29A
  8
0
 10
1698.70025981
 20
272.96497674
 30
0.0
 11
1698.70025981
 21
246.29831007
 31
0.0
  0
LINE
  5
29B
  8
0
 10
1909.36692648
 20
272.96497674
 30
0.0
 11
1698.70025981
 21
272.96497674
 31
0.0
  0
LINE
  5
29C
  8
0
  6
STRICHPUNKT2
 62
     1
 10
1896.03359314
 20
259.63164341
 30
0.0
 11
1893.53359314
 21
259.63164341
 31
0.0
  0
LINE
  5
29D
  8
0
  6
STRICHPUNKT2
 62
     1
 10
1896.03359314
 20
259.63164341
 30
0.0
 11
1898.53359314
 21
259.63164341
 31
0.0
  0
LINE
  5
29E
  8
0
  6
STRICHPUNKT2
 62
     1
 10
1896.03359314
 20
259.63164341
 30
0.0
 11
1896.03359314
 21
262.13164341
 31
0.0
  0
LINE
  5
29F
  8
0
  6
STRICHPUNKT2
 62
     1
 10
1896.03359314
 20
259.63164341
 30
0.0
 11
1896.03359314
 21
257.13164341
 31
0.0
  0
LINE
  5
2A0
  8
0
  6
STRICHPUNKT2
 62
     1
 10
1862.70025981
 20
259.63164341
 30
0.0
 11
1860.20025981
 21
259.63164341
 31
0.0
  0
LINE
  5
2A1
  8
0
  6
STRICHPUNKT2
 62
     1
 10
1862.70025981
 20
259.63164341
 30
0.0
 11
1865.20025981
 21
259.63164341
 31
0.0
  0
LINE
  5
2A2
  8
0
  6
STRICHPUNKT2
 62
     1
 10
1862.70025981
 20
259.63164341
 30
0.0
 11
1862.70025981
 21
262.13164341
 31
0.0
  0
LINE
  5
2A3
  8
0
  6
STRICHPUNKT2
 62
     1
 10
1862.70025981
 20
259.63164341
 30
0.0
 11
1862.70025981
 21
257.13164341
 31
0.0
  0
LINE
  5
2A4
  8
0
  6
STRICHPUNKT2
 62
     1
 10
1829.36692648
 20
259.63164341
 30
0.0
 11
1826.86692648
 21
259.63164341
 31
0.0
  0
LINE
  5
2A5
  8
0
  6
STRICHPUNKT2
 62
     1
 10
1829.36692648
 20
259.63164341
 30
0.0
 11
1831.86692648
 21
259.63164341
 31
0.0
  0
LINE
  5
2A6
  8
0
  6
STRICHPUNKT2
 62
     1
 10
1829.36692648
 20
259.63164341
 30
0.0
 11
1829.36692648
 21
262.13164341
 31
0.0
  0
LINE
  5
2A7
  8
0
  6
STRICHPUNKT2
 62
     1
 10
1829.36692648
 20
259.63164341
 30
0.0
 11
1829.36692648
 21
257.13164341
 31
0.0
  0
LINE
  5
2A8
  8
0
  6
STRICHPUNKT2
 62
     1
 10
1796.03359314
 20
259.63164341
 30
0.0
 11
1793.53359314
 21
259.63164341
 31
0.0
  0
LINE
  5
2A9
  8
0
  6
STRICHPUNKT2
 62
     1
 10
1796.03359314
 20
259.63164341
 30
0.0
 11
1798.53359314
 21
259.63164341
 31
0.0
  0
LINE
  5
2AA
  8
0
  6
STRICHPUNKT2
 62
     1
 10
1796.03359314
 20
259.63164341
 30
0.0
 11
1796.03359314
 21
262.13164341
 31
0.0
  0
LINE
  5
2AB
  8
0
  6
STRICHPUNKT2
 62
     1
 10
1796.03359314
 20
259.63164341
 30
0.0
 11
1796.03359314
 21
257.13164341
 31
0.0
  0
LINE
  5
2AC
  8
0
  6
STRICHPUNKT2
 62
     1
 10
1762.70025981
 20
259.63164341
 30
0.0
 11
1760.20025981
 21
259.63164341
 31
0.0
  0
LINE
  5
2AD
  8
0
  6
STRICHPUNKT2
 62
     1
 10
1762.70025981
 20
259.63164341
 30
0.0
 11
1765.20025981
 21
259.63164341
 31
0.0
  0
LINE
  5
2AE
  8
0
  6
STRICHPUNKT2
 62
     1
 10
1762.70025981
 20
259.63164341
 30
0.0
 11
1762.70025981
 21
262.13164341
 31
0.0
  0
LINE
  5
2AF
  8
0
  6
STRICHPUNKT2
 62
     1
 10
1762.70025981
 20
259.63164341
 30
0.0
 11
1762.70025981
 21
257.13164341
 31
0.0
  0
LINE
  5
2B0
  8
0
  6
STRICHPUNKT2
 62
     1
 10
1729.36692648
 20
259.63164341
 30
0.0
 11
1726.86692648
 21
259.63164341
 31
0.0
  0
LINE
  5
2B1
  8
0
  6
STRICHPUNKT2
 62
     1
 10
1729.36692648
 20
259.63164341
 30
0.0
 11
1731.86692648
 21
259.63164341
 31
0.0
  0
LINE
  5
2B2
  8
0
  6
STRICHPUNKT2
 62
     1
 10
1729.36692648
 20
259.63164341
 30
0.0
 11
1729.36692648
 21
262.13164341
 31
0.0
  0
LINE
  5
2B3
  8
0
  6
STRICHPUNKT2
 62
     1
 10
1729.36692648
 20
259.63164341
 30
0.0
 11
1729.36692648
 21
257.13164341
 31
0.0
  0
LINE
  5
2B4
  8
0
  6
STRICHPUNKT2
 62
     1
 10
1879.36692648
 20
251.29831007
 30
0.0
 11
1876.86692648
 21
251.29831007
 31
0.0
  0
LINE
  5
2B5
  8
0
  6
STRICHPUNKT2
 62
     1
 10
1879.36692648
 20
251.29831007
 30
0.0
 11
1881.86692648
 21
251.29831007
 31
0.0
  0
LINE
  5
2B6
  8
0
  6
STRICHPUNKT2
 62
     1
 10
1879.36692648
 20
251.29831007
 30
0.0
 11
1879.36692648
 21
253.79831007
 31
0.0
  0
LINE
  5
2B7
  8
0
  6
STRICHPUNKT2
 62
     1
 10
1879.36692648
 20
251.29831007
 30
0.0
 11
1879.36692648
 21
248.79831007
 31
0.0
  0
LINE
  5
2B8
  8
0
  6
STRICHPUNKT2
 62
     1
 10
1846.03359314
 20
251.29831007
 30
0.0
 11
1843.53359314
 21
251.29831007
 31
0.0
  0
LINE
  5
2B9
  8
0
  6
STRICHPUNKT2
 62
     1
 10
1846.03359314
 20
251.29831007
 30
0.0
 11
1848.53359314
 21
251.29831007
 31
0.0
  0
LINE
  5
2BA
  8
0
  6
STRICHPUNKT2
 62
     1
 10
1846.03359314
 20
251.29831007
 30
0.0
 11
1846.03359314
 21
253.79831007
 31
0.0
  0
LINE
  5
2BB
  8
0
  6
STRICHPUNKT2
 62
     1
 10
1846.03359314
 20
251.29831007
 30
0.0
 11
1846.03359314
 21
248.79831007
 31
0.0
  0
LINE
  5
2BC
  8
0
  6
STRICHPUNKT2
 62
     1
 10
1812.70025981
 20
251.29831007
 30
0.0
 11
1810.20025981
 21
251.29831007
 31
0.0
  0
LINE
  5
2BD
  8
0
  6
STRICHPUNKT2
 62
     1
 10
1812.70025981
 20
251.29831007
 30
0.0
 11
1815.20025981
 21
251.29831007
 31
0.0
  0
LINE
  5
2BE
  8
0
  6
STRICHPUNKT2
 62
     1
 10
1812.70025981
 20
251.29831007
 30
0.0
 11
1812.70025981
 21
253.79831007
 31
0.0
  0
LINE
  5
2BF
  8
0
  6
STRICHPUNKT2
 62
     1
 10
1812.70025981
 20
251.29831007
 30
0.0
 11
1812.70025981
 21
248.79831007
 31
0.0
  0
LINE
  5
2C0
  8
0
  6
STRICHPUNKT2
 62
     1
 10
1779.36692648
 20
251.29831007
 30
0.0
 11
1776.86692648
 21
251.29831007
 31
0.0
  0
LINE
  5
2C1
  8
0
  6
STRICHPUNKT2
 62
     1
 10
1779.36692648
 20
251.29831007
 30
0.0
 11
1781.86692648
 21
251.29831007
 31
0.0
  0
LINE
  5
2C2
  8
0
  6
STRICHPUNKT2
 62
     1
 10
1779.36692648
 20
251.29831007
 30
0.0
 11
1779.36692648
 21
253.79831007
 31
0.0
  0
LINE
  5
2C3
  8
0
  6
STRICHPUNKT2
 62
     1
 10
1779.36692648
 20
251.29831007
 30
0.0
 11
1779.36692648
 21
248.79831007
 31
0.0
  0
LINE
  5
2C4
  8
0
  6
STRICHPUNKT2
 62
     1
 10
1746.03359314
 20
251.29831007
 30
0.0
 11
1743.53359314
 21
251.29831007
 31
0.0
  0
LINE
  5
2C5
  8
0
  6
STRICHPUNKT2
 62
     1
 10
1746.03359314
 20
251.29831007
 30
0.0
 11
1748.53359314
 21
251.29831007
 31
0.0
  0
LINE
  5
2C6
  8
0
  6
STRICHPUNKT2
 62
     1
 10
1746.03359314
 20
251.29831007
 30
0.0
 11
1746.03359314
 21
253.79831007
 31
0.0
  0
LINE
  5
2C7
  8
0
  6
STRICHPUNKT2
 62
     1
 10
1746.03359314
 20
251.29831007
 30
0.0
 11
1746.03359314
 21
248.79831007
 31
0.0
  0
LINE
  5
2C8
  8
0
  6
STRICHPUNKT2
 62
     1
 10
1712.70025981
 20
251.29831007
 30
0.0
 11
1710.20025981
 21
251.29831007
 31
0.0
  0
LINE
  5
2C9
  8
0
  6
STRICHPUNKT2
 62
     1
 10
1712.70025981
 20
251.29831007
 30
0.0
 11
1715.20025981
 21
251.29831007
 31
0.0
  0
LINE
  5
2CA
  8
0
  6
STRICHPUNKT2
 62
     1
 10
1712.70025981
 20
251.29831007
 30
0.0
 11
1712.70025981
 21
253.79831007
 31
0.0
  0
LINE
  5
2CB
  8
0
  6
STRICHPUNKT2
 62
     1
 10
1712.70025981
 20
251.29831007
 30
0.0
 11
1712.70025981
 21
248.79831007
 31
0.0
  0
LINE
  5
2CC
  8
0
  6
STRICHPUNKT2
 62
     1
 10
1879.36692648
 20
267.96497674
 30
0.0
 11
1876.86692648
 21
267.96497674
 31
0.0
  0
LINE
  5
2CD
  8
0
  6
STRICHPUNKT2
 62
     1
 10
1879.36692648
 20
267.96497674
 30
0.0
 11
1881.86692648
 21
267.96497674
 31
0.0
  0
LINE
  5
2CE
  8
0
  6
STRICHPUNKT2
 62
     1
 10
1879.36692648
 20
267.96497674
 30
0.0
 11
1879.36692648
 21
270.46497674
 31
0.0
  0
LINE
  5
2CF
  8
0
  6
STRICHPUNKT2
 62
     1
 10
1879.36692648
 20
267.96497674
 30
0.0
 11
1879.36692648
 21
265.46497674
 31
0.0
  0
LINE
  5
2D0
  8
0
  6
STRICHPUNKT2
 62
     1
 10
1846.03359314
 20
267.96497674
 30
0.0
 11
1843.53359314
 21
267.96497674
 31
0.0
  0
LINE
  5
2D1
  8
0
  6
STRICHPUNKT2
 62
     1
 10
1846.03359314
 20
267.96497674
 30
0.0
 11
1848.53359314
 21
267.96497674
 31
0.0
  0
LINE
  5
2D2
  8
0
  6
STRICHPUNKT2
 62
     1
 10
1846.03359314
 20
267.96497674
 30
0.0
 11
1846.03359314
 21
270.46497674
 31
0.0
  0
LINE
  5
2D3
  8
0
  6
STRICHPUNKT2
 62
     1
 10
1846.03359314
 20
267.96497674
 30
0.0
 11
1846.03359314
 21
265.46497674
 31
0.0
  0
LINE
  5
2D4
  8
0
  6
STRICHPUNKT2
 62
     1
 10
1812.70025981
 20
267.96497674
 30
0.0
 11
1810.20025981
 21
267.96497674
 31
0.0
  0
LINE
  5
2D5
  8
0
  6
STRICHPUNKT2
 62
     1
 10
1812.70025981
 20
267.96497674
 30
0.0
 11
1815.20025981
 21
267.96497674
 31
0.0
  0
LINE
  5
2D6
  8
0
  6
STRICHPUNKT2
 62
     1
 10
1812.70025981
 20
267.96497674
 30
0.0
 11
1812.70025981
 21
270.46497674
 31
0.0
  0
LINE
  5
2D7
  8
0
  6
STRICHPUNKT2
 62
     1
 10
1812.70025981
 20
267.96497674
 30
0.0
 11
1812.70025981
 21
265.46497674
 31
0.0
  0
LINE
  5
2D8
  8
0
  6
STRICHPUNKT2
 62
     1
 10
1779.36692648
 20
267.96497674
 30
0.0
 11
1776.86692648
 21
267.96497674
 31
0.0
  0
LINE
  5
2D9
  8
0
  6
STRICHPUNKT2
 62
     1
 10
1779.36692648
 20
267.96497674
 30
0.0
 11
1781.86692648
 21
267.96497674
 31
0.0
  0
LINE
  5
2DA
  8
0
  6
STRICHPUNKT2
 62
     1
 10
1779.36692648
 20
267.96497674
 30
0.0
 11
1779.36692648
 21
270.46497674
 31
0.0
  0
LINE
  5
2DB
  8
0
  6
STRICHPUNKT2
 62
     1
 10
1779.36692648
 20
267.96497674
 30
0.0
 11
1779.36692648
 21
265.46497674
 31
0.0
  0
LINE
  5
2DC
  8
0
  6
STRICHPUNKT2
 62
     1
 10
1746.03359314
 20
267.96497674
 30
0.0
 11
1743.53359314
 21
267.96497674
 31
0.0
  0
LINE
  5
2DD
  8
0
  6
STRICHPUNKT2
 62
     1
 10
1746.03359314
 20
267.96497674
 30
0.0
 11
1748.53359314
 21
267.96497674
 31
0.0
  0
LINE
  5
2DE
  8
0
  6
STRICHPUNKT2
 62
     1
 10
1746.03359314
 20
267.96497674
 30
0.0
 11
1746.03359314
 21
270.46497674
 31
0.0
  0
LINE
  5
2DF
  8
0
  6
STRICHPUNKT2
 62
     1
 10
1746.03359314
 20
267.96497674
 30
0.0
 11
1746.03359314
 21
265.46497674
 31
0.0
  0
LINE
  5
2E0
  8
0
  6
STRICHPUNKT2
 62
     1
 10
1712.70025981
 20
267.96497674
 30
0.0
 11
1710.20025981
 21
267.96497674
 31
0.0
  0
LINE
  5
2E1
  8
0
  6
STRICHPUNKT2
 62
     1
 10
1712.70025981
 20
267.96497674
 30
0.0
 11
1715.20025981
 21
267.96497674
 31
0.0
  0
LINE
  5
2E2
  8
0
  6
STRICHPUNKT2
 62
     1
 10
1712.70025981
 20
267.96497674
 30
0.0
 11
1712.70025981
 21
270.46497674
 31
0.0
  0
LINE
  5
2E3
  8
0
  6
STRICHPUNKT2
 62
     1
 10
1712.70025981
 20
267.96497674
 30
0.0
 11
1712.70025981
 21
265.46497674
 31
0.0
  0
LINE
  5
2E4
  8
0
 10
1698.70025981
 20
272.96497674
 30
0.0
 11
1698.70025981
 21
246.29831007
 31
0.0
  0
LINE
  5
2E5
  8
0
 10
1696.03359314
 20
246.29831007
 30
0.0
 11
1698.70025981
 21
246.29831007
 31
0.0
  0
LINE
  5
2E6
  8
0
 10
1696.03359314
 20
272.96497674
 30
0.0
 11
1696.03359314
 21
246.29831007
 31
0.0
  0
LINE
  5
2E7
  8
0
 10
1698.70025981
 20
272.96497674
 30
0.0
 11
1696.03359314
 21
272.96497674
 31
0.0
  0
CIRCLE
  5
2E8
  8
0
 10
1651.57788831
 20
341.37110033
 30
0.0
 40
4.66666667
  0
LINE
  5
2E9
  8
0
 10
1664.91122164
 20
327.37110033
 30
0.0
 11
1638.24455497
 21
327.37110033
 31
0.0
  0
LINE
  5
2EA
  8
0
 10
1638.24455497
 20
358.037767
 30
0.0
 11
1638.24455497
 21
327.37110033
 31
0.0
  0
LINE
  5
2EB
  8
0
 10
1664.91122164
 20
358.037767
 30
0.0
 11
1638.24455497
 21
358.037767
 31
0.0
  0
LINE
  5
2EC
  8
0
 10
1664.91122164
 20
327.37110033
 30
0.0
 11
1664.91122164
 21
358.037767
 31
0.0
  0
LINE
  5
2ED
  8
0
  6
STRICHPUNKT2
 62
     1
 10
1651.57788831
 20
341.37110033
 30
0.0
 11
1658.24455497
 21
341.37110033
 31
0.0
  0
LINE
  5
2EE
  8
0
  6
STRICHPUNKT2
 62
     1
 10
1651.57788831
 20
341.37110033
 30
0.0
 11
1644.91122164
 21
341.37110033
 31
0.0
  0
LINE
  5
2EF
  8
0
  6
STRICHPUNKT2
 62
     1
 10
1651.57788831
 20
341.37110033
 30
0.0
 11
1651.57788831
 21
334.70443367
 31
0.0
  0
LINE
  5
2F0
  8
0
  6
STRICHPUNKT2
 62
     1
 10
1651.57788831
 20
341.37110033
 30
0.0
 11
1651.57788831
 21
348.037767
 31
0.0
  0
LINE
  5
2F1
  8
0
 10
1664.91122164
 20
324.70443367
 30
0.0
 11
1638.24455497
 21
324.70443367
 31
0.0
  0
LINE
  5
2F2
  8
0
  6
STRICHPUNKT2
 62
     1
 10
1643.24455497
 20
324.70443367
 30
0.0
 11
1643.24455497
 21
323.87110033
 31
0.0
  0
LINE
  5
2F3
  8
0
  6
STRICHPUNKT2
 62
     1
 10
1659.91122164
 20
324.70443367
 30
0.0
 11
1659.91122164
 21
323.87110033
 31
0.0
  0
LINE
  5
2F4
  8
0
  6
STRICHPUNKT2
 62
     1
 10
1651.57788831
 20
324.70443367
 30
0.0
 11
1651.57788831
 21
323.87110033
 31
0.0
  0
LINE
  5
2F5
  8
0
 10
1664.91122164
 20
324.70443367
 30
0.0
 11
1638.24455497
 21
324.70443367
 31
0.0
  0
LINE
  5
2F6
  8
0
 10
1638.24455497
 20
327.37110033
 30
0.0
 11
1638.24455497
 21
324.70443367
 31
0.0
  0
LINE
  5
2F7
  8
0
 10
1664.91122164
 20
327.37110033
 30
0.0
 11
1638.24455497
 21
327.37110033
 31
0.0
  0
LINE
  5
2F8
  8
0
 10
1664.91122164
 20
324.70443367
 30
0.0
 11
1664.91122164
 21
327.37110033
 31
0.0
  0
TEXT
  5
2F9
  8
TXT_DIM49
 10
1688.60650048
 20
339.45126488
 30
0.0
 40
2.5
  1
50
 50
90.00020741
  7
ARIAL
  0
LINE
  5
2FA
  8
0
 62
     4
 10
1691.10650048
 20
357.037767
 30
0.0
 11
1689.10650048
 21
359.037767
 31
0.0
  0
LINE
  5
2FB
  8
0
 62
     4
 10
1689.35650048
 20
325.45443367
 30
0.0
 11
1690.85650048
 21
323.95443367
 31
0.0
  0
LINE
  5
2FC
  8
0
 62
     4
 10
1690.10650048
 20
358.037767
 30
0.0
 11
1690.10650048
 21
324.70443367
 31
0.0
  0
LINE
  5
2FD
  8
0
 62
     4
 10
1692.10650048
 20
358.037767
 30
0.0
 11
1688.10650048
 21
358.037767
 31
0.0
  0
LINE
  5
2FE
  8
0
 62
     4
 10
1692.10650048
 20
324.70443367
 30
0.0
 11
1688.10650048
 21
324.70443367
 31
0.0
  0
TEXT
  5
2FF
  8
TXT_DIM49
 10
1799.8205067
 20
317.33231102
 30
0.0
 40
2.5
  1
320
  7
ARIAL
  0
LINE
  5
300
  8
0
 62
     4
 10
1697.03359314
 20
316.83231102
 30
0.0
 11
1695.03359314
 21
314.83231102
 31
0.0
  0
LINE
  5
301
  8
0
 62
     4
 10
1908.61692648
 20
315.08231102
 30
0.0
 11
1910.11692648
 21
316.58231102
 31
0.0
  0
LINE
  5
302
  8
0
 62
     4
 10
1696.03359314
 20
315.83231102
 30
0.0
 11
1909.36692648
 21
315.83231102
 31
0.0
  0
LINE
  5
303
  8
0
 62
     4
 10
1696.03359314
 20
317.83231102
 30
0.0
 11
1696.03359314
 21
313.83231102
 31
0.0
  0
LINE
  5
304
  8
0
 62
     4
 10
1909.36692648
 20
317.83231102
 30
0.0
 11
1909.36692648
 21
313.83231102
 31
0.0
  0
TEXT
  5
305
  8
TXT_DIM49
 10
1913.2126662
 20
324.41118261
 30
0.0
 40
2.5
  1
2
 50
90.00020741
  7
ARIAL
  0
LINE
  5
306
  8
0
 62
     4
 10
1915.7126662
 20
325.037767
 30
0.0
 11
1913.7126662
 21
327.037767
 31
0.0
  0
LINE
  5
307
  8
0
 62
     4
 10
1913.9626662
 20
325.45443367
 30
0.0
 11
1915.4626662
 21
323.95443367
 31
0.0
  0
LINE
  5
308
  8
0
 62
     4
 10
1914.7126662
 20
326.037767
 30
0.0
 11
1914.7126662
 21
324.70443367
 31
0.0
  0
LINE
  5
309
  8
0
 62
     4
 10
1912.7126662
 20
326.037767
 30
0.0
 11
1916.7126662
 21
326.037767
 31
0.0
  0
LINE
  5
30A
  8
0
 62
     4
 10
1912.7126662
 20
324.70443367
 30
0.0
 11
1916.7126662
 21
324.70443367
 31
0.0
  0
TEXT
  5
30B
  8
TXT_DIM49
 10
1712.53359314
 20
340.45126488
 30
0.0
 40
2.5
  1
47
 50
90.00020741
  7
ARIAL
  0
LINE
  5
30C
  8
0
 62
     4
 10
1715.03359314
 20
357.037767
 30
0.0
 11
1713.03359314
 21
359.037767
 31
0.0
  0
LINE
  5
30D
  8
0
 62
     4
 10
1713.28359314
 20
327.45443367
 30
0.0
 11
1714.78359314
 21
325.95443367
 31
0.0
  0
LINE
  5
30E
  8
0
 62
     4
 10
1714.03359314
 20
358.037767
 30
0.0
 11
1714.03359314
 21
326.70443367
 31
0.0
  0
LINE
  5
30F
  8
0
 62
     4
 10
1712.03359314
 20
358.037767
 30
0.0
 11
1716.03359314
 21
358.037767
 31
0.0
  0
LINE
  5
310
  8
0
 62
     4
 10
1712.03359314
 20
326.70443367
 30
0.0
 11
1716.03359314
 21
326.70443367
 31
0.0
  0
TEXT
  5
311
  8
TXT_DIM49
 10
1698.78042436
 20
365.03258618
 30
0.0
 40
2.5
  1
10
  7
ARIAL
  0
LINE
  5
312
  8
0
 62
     4
 10
1703.03359314
 20
362.53258618
 30
0.0
 11
1705.03359314
 21
364.53258618
 31
0.0
  0
LINE
  5
313
  8
0
 62
     4
 10
1698.11692648
 20
364.28258618
 30
0.0
 11
1696.61692648
 21
362.78258618
 31
0.0
  0
LINE
  5
314
  8
0
 62
     4
 10
1704.03359314
 20
363.53258618
 30
0.0
 11
1697.36692648
 21
363.53258618
 31
0.0
  0
LINE
  5
315
  8
0
 62
     4
 10
1704.03359314
 20
361.53258618
 30
0.0
 11
1704.03359314
 21
365.53258618
 31
0.0
  0
LINE
  5
316
  8
0
 62
     4
 10
1697.36692648
 20
361.53258618
 30
0.0
 11
1697.36692648
 21
365.53258618
 31
0.0
  0
TEXT
  5
317
  8
TXT_DIM49
 10
1695.74034209
 20
365.03258618
 30
0.0
 40
2.5
  1
2
  7
ARIAL
  0
LINE
  5
318
  8
0
 62
     4
 10
1696.36692648
 20
362.53258618
 30
0.0
 11
1698.36692648
 21
364.53258618
 31
0.0
  0
LINE
  5
319
  8
0
 62
     4
 10
1696.78359314
 20
364.28258618
 30
0.0
 11
1695.28359314
 21
362.78258618
 31
0.0
  0
LINE
  5
31A
  8
0
 62
     4
 10
1697.36692648
 20
363.53258618
 30
0.0
 11
1696.03359314
 21
363.53258618
 31
0.0
  0
LINE
  5
31B
  8
0
 62
     4
 10
1697.36692648
 20
361.53258618
 30
0.0
 11
1697.36692648
 21
365.53258618
 31
0.0
  0
LINE
  5
31C
  8
0
 62
     4
 10
1696.03359314
 20
361.53258618
 30
0.0
 11
1696.03359314
 21
365.53258618
 31
0.0
  0
LINE
  5
31D
  8
0
 62
     3
 10
1712.70025981
 20
267.96497674
 30
0.0
 11
1716.57515093
 21
260.50328079
 31
0.0
  0
LINE
  5
31E
  8
0
 62
     3
 10
1712.70025981
 20
251.29831007
 30
0.0
 11
1716.57515093
 21
260.50328079
 31
0.0
  0
LINE
  5
31F
  8
0
 62
     3
 10
1729.36692648
 20
259.63164341
 30
0.0
 11
1716.57515093
 21
260.50328079
 31
0.0
  0
TEXT
  5
320
  8
TXT_DIM49
 10
1717.57515093
 20
259.25328079
 30
0.0
 40
2.5
  1
Ø5
  7
ARIAL
  0
POLYLINE
  5
321
  8
0
 62
     3
 66
     1
 10
0.0
 20
0.0
 30
0.0
 70
     1
  0
VERTEX
  5
322
  8
0
 62
     3
 10
1716.57515093
 20
262.00328079
 30
0.0
  0
VERTEX
  5
323
  8
0
 62
     3
 10
1723.18005924
 20
262.00328079
 30
0.0
  0
VERTEX
  5
324
  8
0
 62
     3
 10
1723.18005924
 20
259.00328079
 30
0.0
  0
VERTEX
  5
325
  8
0
 62
     3
 10
1716.57515093
 20
259.00328079
 30
0.0
  0
SEQEND
  5
326
  8
0
  0
LINE
  5
327
  8
0
 62
     3
 10
1746.03359314
 20
267.96497674
 30
0.0
 11
1750.99816165
 21
259.66528581
 31
0.0
  0
LINE
  5
328
  8
0
 62
     3
 10
1746.03359314
 20
251.29831007
 30
0.0
 11
1750.99816165
 21
259.66528581
 31
0.0
  0
LINE
  5
329
  8
0
 62
     3
 10
1762.70025981
 20
259.63164341
 30
0.0
 11
1750.99816165
 21
259.66528581
 31
0.0
  0
TEXT
  5
32A
  8
TXT_DIM49
 10
1751.99816165
 20
258.41528581
 30
0.0
 40
2.5
  1
Ø5
  7
ARIAL
  0
POLYLINE
  5
32B
  8
0
 62
     3
 66
     1
 10
0.0
 20
0.0
 30
0.0
 70
     1
  0
VERTEX
  5
32C
  8
0
 62
     3
 10
1750.99816165
 20
261.16528581
 30
0.0
  0
VERTEX
  5
32D
  8
0
 62
     3
 10
1757.60306996
 20
261.16528581
 30
0.0
  0
VERTEX
  5
32E
  8
0
 62
     3
 10
1757.60306996
 20
258.16528581
 30
0.0
  0
VERTEX
  5
32F
  8
0
 62
     3
 10
1750.99816165
 20
258.16528581
 30
0.0
  0
SEQEND
  5
330
  8
0
  0
LINE
  5
331
  8
0
 62
     3
 10
1779.36692648
 20
267.96497674
 30
0.0
 11
1783.62285519
 21
259.8362267
 31
0.0
  0
LINE
  5
332
  8
0
 62
     3
 10
1779.36692648
 20
251.29831007
 30
0.0
 11
1783.62285519
 21
259.8362267
 31
0.0
  0
LINE
  5
333
  8
0
 62
     3
 10
1796.03359314
 20
259.63164341
 30
0.0
 11
1783.62285519
 21
259.8362267
 31
0.0
  0
TEXT
  5
334
  8
TXT_DIM49
 10
1784.62285519
 20
258.5862267
 30
0.0
 40
2.5
  1
Ø5
  7
ARIAL
  0
POLYLINE
  5
335
  8
0
 62
     3
 66
     1
 10
0.0
 20
0.0
 30
0.0
 70
     1
  0
VERTEX
  5
336
  8
0
 62
     3
 10
1783.62285519
 20
261.3362267
 30
0.0
  0
VERTEX
  5
337
  8
0
 62
     3
 10
1790.2277635
 20
261.3362267
 30
0.0
  0
VERTEX
  5
338
  8
0
 62
     3
 10
1790.2277635
 20
258.3362267
 30
0.0
  0
VERTEX
  5
339
  8
0
 62
     3
 10
1783.62285519
 20
258.3362267
 30
0.0
  0
SEQEND
  5
33A
  8
0
  0
LINE
  5
33B
  8
0
 62
     3
 10
1846.03359314
 20
267.96497674
 30
0.0
 11
1850.85981998
 21
259.6424494
 31
0.0
  0
LINE
  5
33C
  8
0
 62
     3
 10
1846.03359314
 20
251.29831007
 30
0.0
 11
1850.85981998
 21
259.6424494
 31
0.0
  0
LINE
  5
33D
  8
0
 62
     3
 10
1862.70025981
 20
259.63164341
 30
0.0
 11
1850.85981998
 21
259.6424494
 31
0.0
  0
TEXT
  5
33E
  8
TXT_DIM49
 10
1851.85981998
 20
258.3924494
 30
0.0
 40
2.5
  1
Ø5
  7
ARIAL
  0
POLYLINE
  5
33F
  8
0
 62
     3
 66
     1
 10
0.0
 20
0.0
 30
0.0
 70
     1
  0
VERTEX
  5
340
  8
0
 62
     3
 10
1850.85981998
 20
261.1424494
 30
0.0
  0
VERTEX
  5
341
  8
0
 62
     3
 10
1857.46472829
 20
261.1424494
 30
0.0
  0
VERTEX
  5
342
  8
0
 62
     3
 10
1857.46472829
 20
258.1424494
 30
0.0
  0
VERTEX
  5
343
  8
0
 62
     3
 10
1850.85981998
 20
258.1424494
 30
0.0
  0
SEQEND
  5
344
  8
0
  0
LINE
  5
345
  8
0
 62
     3
 10
1879.36692648
 20
267.96497674
 30
0.0
 11
1884.70760763
 21
259.67850905
 31
0.0
  0
LINE
  5
346
  8
0
 62
     3
 10
1879.36692648
 20
251.29831007
 30
0.0
 11
1884.70760763
 21
259.67850905
 31
0.0
  0
LINE
  5
347
  8
0
 62
     3
 10
1896.03359314
 20
259.63164341
 30
0.0
 11
1884.70760763
 21
259.67850905
 31
0.0
  0
TEXT
  5
348
  8
TXT_DIM49
 10
1885.70760763
 20
258.42850905
 30
0.0
 40
2.5
  1
Ø5
  7
ARIAL
  0
POLYLINE
  5
349
  8
0
 62
     3
 66
     1
 10
0.0
 20
0.0
 30
0.0
 70
     1
  0
VERTEX
  5
34A
  8
0
 62
     3
 10
1884.70760763
 20
261.17850905
 30
0.0
  0
VERTEX
  5
34B
  8
0
 62
     3
 10
1891.31251594
 20
261.17850905
 30
0.0
  0
VERTEX
  5
34C
  8
0
 62
     3
 10
1891.31251594
 20
258.17850905
 30
0.0
  0
VERTEX
  5
34D
  8
0
 62
     3
 10
1884.70760763
 20
258.17850905
 30
0.0
  0
SEQEND
  5
34E
  8
0
  0
LINE
  5
34F
  8
0
 62
     3
 10
1812.70025981
 20
267.96497674
 30
0.0
 11
1817.23824387
 21
259.61699673
 31
0.0
  0
LINE
  5
350
  8
0
 62
     3
 10
1812.70025981
 20
251.29831007
 30
0.0
 11
1817.23824387
 21
259.61699673
 31
0.0
  0
LINE
  5
351
  8
0
 62
     3
 10
1829.36692648
 20
259.63164341
 30
0.0
 11
1817.23824387
 21
259.61699673
 31
0.0
  0
TEXT
  5
352
  8
TXT_DIM49
 10
1818.23824387
 20
258.36699673
 30
0.0
 40
2.5
  1
Ø5
  7
ARIAL
  0
POLYLINE
  5
353
  8
0
 62
     3
 66
     1
 10
0.0
 20
0.0
 30
0.0
 70
     1
  0
VERTEX
  5
354
  8
0
 62
     3
 10
1817.23824387
 20
261.11699673
 30
0.0
  0
VERTEX
  5
355
  8
0
 62
     3
 10
1823.84315217
 20
261.11699673
 30
0.0
  0
VERTEX
  5
356
  8
0
 62
     3
 10
1823.84315217
 20
258.11699673
 30
0.0
  0
VERTEX
  5
357
  8
0
 62
     3
 10
1817.23824387
 20
258.11699673
 30
0.0
  0
SEQEND
  5
358
  8
0
  0
TEXT
  5
359
  8
TXT_DIM49
 10
1702.44709103
 20
280.99797557
 30
0.0
 40
2.5
  1
25
  7
ARIAL
  0
LINE
  5
35A
  8
0
 62
     4
 10
1697.03359314
 20
280.49797557
 30
0.0
 11
1695.03359314
 21
278.49797557
 31
0.0
  0
LINE
  5
35B
  8
0
 62
     4
 10
1711.95025981
 20
278.74797557
 30
0.0
 11
1713.45025981
 21
280.24797557
 31
0.0
  0
LINE
  5
35C
  8
0
 62
     4
 10
1696.03359314
 20
279.49797557
 30
0.0
 11
1712.70025981
 21
279.49797557
 31
0.0
  0
LINE
  5
35D
  8
0
 62
     4
 10
1696.03359314
 20
277.49797557
 30
0.0
 11
1696.03359314
 21
281.49797557
 31
0.0
  0
LINE
  5
35E
  8
0
 62
     4
 10
1712.70025981
 20
277.49797557
 30
0.0
 11
1712.70025981
 21
281.49797557
 31
0.0
  0
TEXT
  5
35F
  8
TXT_DIM49
 10
1719.1137577
 20
280.99797557
 30
0.0
 40
2.5
  1
25
  7
ARIAL
  0
LINE
  5
360
  8
0
 62
     4
 10
1713.70025981
 20
280.49797557
 30
0.0
 11
1711.70025981
 21
278.49797557
 31
0.0
  0
LINE
  5
361
  8
0
 62
     4
 10
1728.61692648
 20
278.74797557
 30
0.0
 11
1730.11692648
 21
280.24797557
 31
0.0
  0
LINE
  5
362
  8
0
 62
     4
 10
1712.70025981
 20
279.49797557
 30
0.0
 11
1729.36692648
 21
279.49797557
 31
0.0
  0
LINE
  5
363
  8
0
 62
     4
 10
1712.70025981
 20
277.49797557
 30
0.0
 11
1712.70025981
 21
281.49797557
 31
0.0
  0
LINE
  5
364
  8
0
 62
     4
 10
1729.36692648
 20
277.49797557
 30
0.0
 11
1729.36692648
 21
281.49797557
 31
0.0
  0
TEXT
  5
365
  8
TXT_DIM49
 10
1734.94709103
 20
280.99797557
 30
0.0
 40
2.5
  1
23
  7
ARIAL
  0
LINE
  5
366
  8
0
 62
     4
 10
1730.36692648
 20
280.49797557
 30
0.0
 11
1728.36692648
 21
278.49797557
 31
0.0
  0
LINE
  5
367
  8
0
 62
     4
 10
1743.61692648
 20
278.74797557
 30
0.0
 11
1745.11692648
 21
280.24797557
 31
0.0
  0
LINE
  5
368
  8
0
 62
     4
 10
1729.36692648
 20
279.49797557
 30
0.0
 11
1744.36692648
 21
279.49797557
 31
0.0
  0
LINE
  5
369
  8
0
 62
     4
 10
1729.36692648
 20
277.49797557
 30
0.0
 11
1729.36692648
 21
281.49797557
 31
0.0
  0
LINE
  5
36A
  8
0
 62
     4
 10
1744.36692648
 20
277.49797557
 30
0.0
 11
1744.36692648
 21
281.49797557
 31
0.0
  0
TEXT
  5
36B
  8
TXT_DIM49
 10
1744.24034209
 20
280.99797557
 30
0.0
 40
2.5
  1
3
  7
ARIAL
  0
LINE
  5
36C
  8
0
 62
     4
 10
1745.36692648
 20
280.49797557
 30
0.0
 11
1743.36692648
 21
278.49797557
 31
0.0
  0
LINE
  5
36D
  8
0
 62
     4
 10
1745.28359314
 20
278.74797557
 30
0.0
 11
1746.78359314
 21
280.24797557
 31
0.0
  0
LINE
  5
36E
  8
0
 62
     4
 10
1744.36692648
 20
279.49797557
 30
0.0
 11
1746.03359314
 21
279.49797557
 31
0.0
  0
LINE
  5
36F
  8
0
 62
     4
 10
1744.36692648
 20
277.49797557
 30
0.0
 11
1744.36692648
 21
281.49797557
 31
0.0
  0
LINE
  5
370
  8
0
 62
     4
 10
1746.03359314
 20
277.49797557
 30
0.0
 11
1746.03359314
 21
281.49797557
 31
0.0
  0
TEXT
  5
371
  8
TXT_DIM49
 10
1752.44709103
 20
280.99797557
 30
0.0
 40
2.5
  1
25
  7
ARIAL
  0
LINE
  5
372
  8
0
 62
     4
 10
1747.03359314
 20
280.49797557
 30
0.0
 11
1745.03359314
 21
278.49797557
 31
0.0
  0
LINE
  5
373
  8
0
 62
     4
 10
1761.95025981
 20
278.74797557
 30
0.0
 11
1763.45025981
 21
280.24797557
 31
0.0
  0
LINE
  5
374
  8
0
 62
     4
 10
1746.03359314
 20
279.49797557
 30
0.0
 11
1762.70025981
 21
279.49797557
 31
0.0
  0
LINE
  5
375
  8
0
 62
     4
 10
1746.03359314
 20
277.49797557
 30
0.0
 11
1746.03359314
 21
281.49797557
 31
0.0
  0
LINE
  5
376
  8
0
 62
     4
 10
1762.70025981
 20
277.49797557
 30
0.0
 11
1762.70025981
 21
281.49797557
 31
0.0
  0
TEXT
  5
377
  8
TXT_DIM49
 10
1769.1137577
 20
280.99797557
 30
0.0
 40
2.5
  1
25
  7
ARIAL
  0
LINE
  5
378
  8
0
 62
     4
 10
1763.70025981
 20
280.49797557
 30
0.0
 11
1761.70025981
 21
278.49797557
 31
0.0
  0
LINE
  5
379
  8
0
 62
     4
 10
1778.61692648
 20
278.74797557
 30
0.0
 11
1780.11692648
 21
280.24797557
 31
0.0
  0
LINE
  5
37A
  8
0
 62
     4
 10
1762.70025981
 20
279.49797557
 30
0.0
 11
1779.36692648
 21
279.49797557
 31
0.0
  0
LINE
  5
37B
  8
0
 62
     4
 10
1762.70025981
 20
277.49797557
 30
0.0
 11
1762.70025981
 21
281.49797557
 31
0.0
  0
LINE
  5
37C
  8
0
 62
     4
 10
1779.36692648
 20
277.49797557
 30
0.0
 11
1779.36692648
 21
281.49797557
 31
0.0
  0
TEXT
  5
37D
  8
TXT_DIM49
 10
1785.78042436
 20
280.99797557
 30
0.0
 40
2.5
  1
25
  7
ARIAL
  0
LINE
  5
37E
  8
0
 62
     4
 10
1780.36692648
 20
280.49797557
 30
0.0
 11
1778.36692648
 21
278.49797557
 31
0.0
  0
LINE
  5
37F
  8
0
 62
     4
 10
1795.28359314
 20
278.74797557
 30
0.0
 11
1796.78359314
 21
280.24797557
 31
0.0
  0
LINE
  5
380
  8
0
 62
     4
 10
1779.36692648
 20
279.49797557
 30
0.0
 11
1796.03359314
 21
279.49797557
 31
0.0
  0
LINE
  5
381
  8
0
 62
     4
 10
1779.36692648
 20
277.49797557
 30
0.0
 11
1779.36692648
 21
281.49797557
 31
0.0
  0
LINE
  5
382
  8
0
 62
     4
 10
1796.03359314
 20
277.49797557
 30
0.0
 11
1796.03359314
 21
281.49797557
 31
0.0
  0
TEXT
  5
383
  8
TXT_DIM49
 10
1802.44709103
 20
280.99797557
 30
0.0
 40
2.5
  1
25
  7
ARIAL
  0
LINE
  5
384
  8
0
 62
     4
 10
1797.03359314
 20
280.49797557
 30
0.0
 11
1795.03359314
 21
278.49797557
 31
0.0
  0
LINE
  5
385
  8
0
 62
     4
 10
1811.95025981
 20
278.74797557
 30
0.0
 11
1813.45025981
 21
280.24797557
 31
0.0
  0
LINE
  5
386
  8
0
 62
     4
 10
1796.03359314
 20
279.49797557
 30
0.0
 11
1812.70025981
 21
279.49797557
 31
0.0
  0
LINE
  5
387
  8
0
 62
     4
 10
1796.03359314
 20
277.49797557
 30
0.0
 11
1796.03359314
 21
281.49797557
 31
0.0
  0
LINE
  5
388
  8
0
 62
     4
 10
1812.70025981
 20
277.49797557
 30
0.0
 11
1812.70025981
 21
281.49797557
 31
0.0
  0
TEXT
  5
389
  8
TXT_DIM49
 10
1835.78042436
 20
280.99797557
 30
0.0
 40
2.5
  1
25
  7
ARIAL
  0
LINE
  5
38A
  8
0
 62
     4
 10
1830.36692648
 20
280.49797557
 30
0.0
 11
1828.36692648
 21
278.49797557
 31
0.0
  0
LINE
  5
38B
  8
0
 62
     4
 10
1845.28359314
 20
278.74797557
 30
0.0
 11
1846.78359314
 21
280.24797557
 31
0.0
  0
LINE
  5
38C
  8
0
 62
     4
 10
1829.36692648
 20
279.49797557
 30
0.0
 11
1846.03359314
 21
279.49797557
 31
0.0
  0
LINE
  5
38D
  8
0
 62
     4
 10
1829.36692648
 20
277.49797557
 30
0.0
 11
1829.36692648
 21
281.49797557
 31
0.0
  0
LINE
  5
38E
  8
0
 62
     4
 10
1846.03359314
 20
277.49797557
 30
0.0
 11
1846.03359314
 21
281.49797557
 31
0.0
  0
TEXT
  5
38F
  8
TXT_DIM49
 10
1819.1137577
 20
280.99797557
 30
0.0
 40
2.5
  1
25
  7
ARIAL
  0
LINE
  5
390
  8
0
 62
     4
 10
1813.70025981
 20
280.49797557
 30
0.0
 11
1811.70025981
 21
278.49797557
 31
0.0
  0
LINE
  5
391
  8
0
 62
     4
 10
1828.61692648
 20
278.74797557
 30
0.0
 11
1830.11692648
 21
280.24797557
 31
0.0
  0
LINE
  5
392
  8
0
 62
     4
 10
1812.70025981
 20
279.49797557
 30
0.0
 11
1829.36692648
 21
279.49797557
 31
0.0
  0
LINE
  5
393
  8
0
 62
     4
 10
1812.70025981
 20
277.49797557
 30
0.0
 11
1812.70025981
 21
281.49797557
 31
0.0
  0
LINE
  5
394
  8
0
 62
     4
 10
1829.36692648
 20
277.49797557
 30
0.0
 11
1829.36692648
 21
281.49797557
 31
0.0
  0
TEXT
  5
395
  8
TXT_DIM49
 10
1852.44709103
 20
280.99797557
 30
0.0
 40
2.5
  1
25
  7
ARIAL
  0
LINE
  5
396
  8
0
 62
     4
 10
1847.03359314
 20
280.49797557
 30
0.0
 11
1845.03359314
 21
278.49797557
 31
0.0
  0
LINE
  5
397
  8
0
 62
     4
 10
1861.95025981
 20
278.74797557
 30
0.0
 11
1863.45025981
 21
280.24797557
 31
0.0
  0
LINE
  5
398
  8
0
 62
     4
 10
1846.03359314
 20
279.49797557
 30
0.0
 11
1862.70025981
 21
279.49797557
 31
0.0
  0
LINE
  5
399
  8
0
 62
     4
 10
1846.03359314
 20
277.49797557
 30
0.0
 11
1846.03359314
 21
281.49797557
 31
0.0
  0
LINE
  5
39A
  8
0
 62
     4
 10
1862.70025981
 20
277.49797557
 30
0.0
 11
1862.70025981
 21
281.49797557
 31
0.0
  0
TEXT
  5
39B
  8
TXT_DIM49
 10
1869.1137577
 20
280.99797557
 30
0.0
 40
2.5
  1
25
  7
ARIAL
  0
LINE
  5
39C
  8
0
 62
     4
 10
1863.70025981
 20
280.49797557
 30
0.0
 11
1861.70025981
 21
278.49797557
 31
0.0
  0
LINE
  5
39D
  8
0
 62
     4
 10
1878.61692648
 20
278.74797557
 30
0.0
 11
1880.11692648
 21
280.24797557
 31
0.0
  0
LINE
  5
39E
  8
0
 62
     4
 10
1862.70025981
 20
279.49797557
 30
0.0
 11
1879.36692648
 21
279.49797557
 31
0.0
  0
LINE
  5
39F
  8
0
 62
     4
 10
1862.70025981
 20
277.49797557
 30
0.0
 11
1862.70025981
 21
281.49797557
 31
0.0
  0
LINE
  5
3A0
  8
0
 62
     4
 10
1879.36692648
 20
277.49797557
 30
0.0
 11
1879.36692648
 21
281.49797557
 31
0.0
  0
TEXT
  5
3A1
  8
TXT_DIM49
 10
1885.78042436
 20
280.99797557
 30
0.0
 40
2.5
  1
25
  7
ARIAL
  0
LINE
  5
3A2
  8
0
 62
     4
 10
1880.36692648
 20
280.49797557
 30
0.0
 11
1878.36692648
 21
278.49797557
 31
0.0
  0
LINE
  5
3A3
  8
0
 62
     4
 10
1895.28359314
 20
278.74797557
 30
0.0
 11
1896.78359314
 21
280.24797557
 31
0.0
  0
LINE
  5
3A4
  8
0
 62
     4
 10
1879.36692648
 20
279.49797557
 30
0.0
 11
1896.03359314
 21
279.49797557
 31
0.0
  0
LINE
  5
3A5
  8
0
 62
     4
 10
1879.36692648
 20
277.49797557
 30
0.0
 11
1879.36692648
 21
281.49797557
 31
0.0
  0
LINE
  5
3A6
  8
0
 62
     4
 10
1896.03359314
 20
277.49797557
 30
0.0
 11
1896.03359314
 21
281.49797557
 31
0.0
  0
TEXT
  5
3A7
  8
TXT_DIM49
 10
1900.78042436
 20
280.99797557
 30
0.0
 40
2.5
  1
20
  7
ARIAL
  0
LINE
  5
3A8
  8
0
 62
     4
 10
1897.03359314
 20
280.49797557
 30
0.0
 11
1895.03359314
 21
278.49797557
 31
0.0
  0
LINE
  5
3A9
  8
0
 62
     4
 10
1908.61692648
 20
278.74797557
 30
0.0
 11
1910.11692648
 21
280.24797557
 31
0.0
  0
LINE
  5
3AA
  8
0
 62
     4
 10
1896.03359314
 20
279.49797557
 30
0.0
 11
1909.36692648
 21
279.49797557
 31
0.0
  0
LINE
  5
3AB
  8
0
 62
     4
 10
1896.03359314
 20
277.49797557
 30
0.0
 11
1896.03359314
 21
281.49797557
 31
0.0
  0
LINE
  5
3AC
  8
0
 62
     4
 10
1909.36692648
 20
277.49797557
 30
0.0
 11
1909.36692648
 21
281.49797557
 31
0.0
  0
TEXT
  5
3AD
  8
TXT_DIM49
 10
1684.30591788
 20
257.71180796
 30
0.0
 40
2.5
  1
40
 50
90.00020741
  7
ARIAL
  0
LINE
  5
3AE
  8
0
 62
     4
 10
1686.80591788
 20
271.96497674
 30
0.0
 11
1684.80591788
 21
273.96497674
 31
0.0
  0
LINE
  5
3AF
  8
0
 62
     4
 10
1685.05591788
 20
247.04831007
 30
0.0
 11
1686.55591788
 21
245.54831007
 31
0.0
  0
LINE
  5
3B0
  8
0
 62
     4
 10
1685.80591788
 20
272.96497674
 30
0.0
 11
1685.80591788
 21
246.29831007
 31
0.0
  0
LINE
  5
3B1
  8
0
 62
     4
 10
1687.80591788
 20
272.96497674
 30
0.0
 11
1683.80591788
 21
272.96497674
 31
0.0
  0
LINE
  5
3B2
  8
0
 62
     4
 10
1687.80591788
 20
246.29831007
 30
0.0
 11
1683.80591788
 21
246.29831007
 31
0.0
  0
TEXT
  5
3B3
  8
TXT_DIM49
 10
1913.34856373
 20
269.50505902
 30
0.0
 40
2.5
  1
8
 50
90.00020741
  7
ARIAL
  0
LINE
  5
3B4
  8
0
 62
     4
 10
1915.84856373
 20
271.96497674
 30
0.0
 11
1913.84856373
 21
273.96497674
 31
0.0
  0
LINE
  5
3B5
  8
0
 62
     4
 10
1914.09856373
 20
268.71497674
 30
0.0
 11
1915.59856373
 21
267.21497674
 31
0.0
  0
LINE
  5
3B6
  8
0
 62
     4
 10
1914.84856373
 20
272.96497674
 30
0.0
 11
1914.84856373
 21
267.96497674
 31
0.0
  0
LINE
  5
3B7
  8
0
 62
     4
 10
1912.84856373
 20
272.96497674
 30
0.0
 11
1916.84856373
 21
272.96497674
 31
0.0
  0
LINE
  5
3B8
  8
0
 62
     4
 10
1912.84856373
 20
267.96497674
 30
0.0
 11
1916.84856373
 21
267.96497674
 31
0.0
  0
TEXT
  5
3B9
  8
TXT_DIM49
 10
1913.34856373
 20
261.87847462
 30
0.0
 40
2.5
  1
13
 50
90.00020741
  7
ARIAL
  0
LINE
  5
3BA
  8
0
 62
     4
 10
1915.84856373
 20
266.96497674
 30
0.0
 11
1913.84856373
 21
268.96497674
 31
0.0
  0
LINE
  5
3BB
  8
0
 62
     4
 10
1914.09856373
 20
260.38164341
 30
0.0
 11
1915.59856373
 21
258.88164341
 31
0.0
  0
LINE
  5
3BC
  8
0
 62
     4
 10
1914.84856373
 20
267.96497674
 30
0.0
 11
1914.84856373
 21
259.63164341
 31
0.0
  0
LINE
  5
3BD
  8
0
 62
     4
 10
1912.84856373
 20
267.96497674
 30
0.0
 11
1916.84856373
 21
267.96497674
 31
0.0
  0
LINE
  5
3BE
  8
0
 62
     4
 10
1912.84856373
 20
259.63164341
 30
0.0
 11
1916.84856373
 21
259.63164341
 31
0.0
  0
TEXT
  5
3BF
  8
TXT_DIM49
 10
1913.34856373
 20
253.54514129
 30
0.0
 40
2.5
  1
13
 50
90.00020741
  7
ARIAL
  0
LINE
  5
3C0
  8
0
 62
     4
 10
1915.84856373
 20
258.63164341
 30
0.0
 11
1913.84856373
 21
260.63164341
 31
0.0
  0
LINE
  5
3C1
  8
0
 62
     4
 10
1914.09856373
 20
252.04831007
 30
0.0
 11
1915.59856373
 21
250.54831007
 31
0.0
  0
LINE
  5
3C2
  8
0
 62
     4
 10
1914.84856373
 20
259.63164341
 30
0.0
 11
1914.84856373
 21
251.29831007
 31
0.0
  0
LINE
  5
3C3
  8
0
 62
     4
 10
1912.84856373
 20
259.63164341
 30
0.0
 11
1916.84856373
 21
259.63164341
 31
0.0
  0
LINE
  5
3C4
  8
0
 62
     4
 10
1912.84856373
 20
251.29831007
 30
0.0
 11
1916.84856373
 21
251.29831007
 31
0.0
  0
TEXT
  5
3C5
  8
TXT_DIM49
 10
1913.34856373
 20
247.83839235
 30
0.0
 40
2.5
  1
8
 50
90.00020741
  7
ARIAL
  0
LINE
  5
3C6
  8
0
 62
     4
 10
1915.84856373
 20
250.29831007
 30
0.0
 11
1913.84856373
 21
252.29831007
 31
0.0
  0
LINE
  5
3C7
  8
0
 62
     4
 10
1914.09856373
 20
247.04831007
 30
0.0
 11
1915.59856373
 21
245.54831007
 31
0.0
  0
LINE
  5
3C8
  8
0
 62
     4
 10
1914.84856373
 20
251.29831007
 30
0.0
 11
1914.84856373
 21
246.29831007
 31
0.0
  0
LINE
  5
3C9
  8
0
 62
     4
 10
1912.84856373
 20
251.29831007
 30
0.0
 11
1916.84856373
 21
251.29831007
 31
0.0
  0
LINE
  5
3CA
  8
0
 62
     4
 10
1912.84856373
 20
246.29831007
 30
0.0
 11
1916.84856373
 21
246.29831007
 31
0.0
  0
TEXT
  5
3CB
  8
TXT_DIM49
 10
1656.32471953
 20
364.52776138
 30
0.0
 40
2.5
  1
20
  7
ARIAL
  0
LINE
  5
3CC
  8
0
 62
     4
 10
1663.91122164
 20
362.02776138
 30
0.0
 11
1665.91122164
 21
364.02776138
 31
0.0
  0
LINE
  5
3CD
  8
0
 62
     4
 10
1652.32788831
 20
363.77776138
 30
0.0
 11
1650.82788831
 21
362.27776138
 31
0.0
  0
LINE
  5
3CE
  8
0
 62
     4
 10
1664.91122164
 20
363.02776138
 30
0.0
 11
1651.57788831
 21
363.02776138
 31
0.0
  0
LINE
  5
3CF
  8
0
 62
     4
 10
1664.91122164
 20
361.02776138
 30
0.0
 11
1664.91122164
 21
365.02776138
 31
0.0
  0
LINE
  5
3D0
  8
0
 62
     4
 10
1651.57788831
 20
361.02776138
 30
0.0
 11
1651.57788831
 21
365.02776138
 31
0.0
  0
TEXT
  5
3D1
  8
TXT_DIM49
 10
1642.99138619
 20
364.52776138
 30
0.0
 40
2.5
  1
20
  7
ARIAL
  0
LINE
  5
3D2
  8
0
 62
     4
 10
1650.57788831
 20
362.02776138
 30
0.0
 11
1652.57788831
 21
364.02776138
 31
0.0
  0
LINE
  5
3D3
  8
0
 62
     4
 10
1638.99455497
 20
363.77776138
 30
0.0
 11
1637.49455497
 21
362.27776138
 31
0.0
  0
LINE
  5
3D4
  8
0
 62
     4
 10
1651.57788831
 20
363.02776138
 30
0.0
 11
1638.24455497
 21
363.02776138
 31
0.0
  0
LINE
  5
3D5
  8
0
 62
     4
 10
1651.57788831
 20
361.02776138
 30
0.0
 11
1651.57788831
 21
365.02776138
 31
0.0
  0
LINE
  5
3D6
  8
0
 62
     4
 10
1638.24455497
 20
361.02776138
 30
0.0
 11
1638.24455497
 21
365.02776138
 31
0.0
  0
TEXT
  5
3D7
  8
TXT_DIM49
 10
1628.99772778
 20
347.78459822
 30
0.0
 40
2.5
  1
25
 50
90.00020741
  7
ARIAL
  0
LINE
  5
3D8
  8
0
 62
     4
 10
1631.49772778
 20
357.037767
 30
0.0
 11
1629.49772778
 21
359.037767
 31
0.0
  0
LINE
  5
3D9
  8
0
 62
     4
 10
1629.74772778
 20
342.12110033
 30
0.0
 11
1631.24772778
 21
340.62110033
 31
0.0
  0
LINE
  5
3DA
  8
0
 62
     4
 10
1630.49772778
 20
358.037767
 30
0.0
 11
1630.49772778
 21
341.37110033
 31
0.0
  0
LINE
  5
3DB
  8
0
 62
     4
 10
1632.49772778
 20
358.037767
 30
0.0
 11
1628.49772778
 21
358.037767
 31
0.0
  0
LINE
  5
3DC
  8
0
 62
     4
 10
1632.49772778
 20
341.37110033
 30
0.0
 11
1628.49772778
 21
341.37110033
 31
0.0
  0
TEXT
  5
3DD
  8
TXT_DIM49
 10
1628.99772778
 20
332.45126488
 30
0.0
 40
2.5
  1
21
 50
90.00020741
  7
ARIAL
  0
LINE
  5
3DE
  8
0
 62
     4
 10
1631.49772778
 20
340.37110033
 30
0.0
 11
1629.49772778
 21
342.37110033
 31
0.0
  0
LINE
  5
3DF
  8
0
 62
     4
 10
1629.74772778
 20
328.12110033
 30
0.0
 11
1631.24772778
 21
326.62110033
 31
0.0
  0
LINE
  5
3E0
  8
0
 62
     4
 10
1630.49772778
 20
341.37110033
 30
0.0
 11
1630.49772778
 21
327.37110033
 31
0.0
  0
LINE
  5
3E1
  8
0
 62
     4
 10
1632.49772778
 20
341.37110033
 30
0.0
 11
1628.49772778
 21
341.37110033
 31
0.0
  0
LINE
  5
3E2
  8
0
 62
     4
 10
1632.49772778
 20
327.37110033
 30
0.0
 11
1628.49772778
 21
327.37110033
 31
0.0
  0
TEXT
  5
3E3
  8
TXT_DIM49
 10
1628.99772778
 20
325.07784927
 30
0.0
 40
2.5
  1
4
 50
90.00020741
  7
ARIAL
  0
LINE
  5
3E4
  8
0
 62
     4
 10
1631.49772778
 20
326.37110033
 30
0.0
 11
1629.49772778
 21
328.37110033
 31
0.0
  0
LINE
  5
3E5
  8
0
 62
     4
 10
1629.74772778
 20
325.45443367
 30
0.0
 11
1631.24772778
 21
323.95443367
 31
0.0
  0
LINE
  5
3E6
  8
0
 62
     4
 10
1630.49772778
 20
327.37110033
 30
0.0
 11
1630.49772778
 21
324.70443367
 31
0.0
  0
LINE
  5
3E7
  8
0
 62
     4
 10
1632.49772778
 20
327.37110033
 30
0.0
 11
1628.49772778
 21
327.37110033
 31
0.0
  0
LINE
  5
3E8
  8
0
 62
     4
 10
1632.49772778
 20
324.70443367
 30
0.0
 11
1628.49772778
 21
324.70443367
 31
0.0
  0
ENDSEC
  0
EOF
