  0
SECTION
  2
HEADER
  9
$ACADVER
  1
AC1006
  9
$DWGCODEPAGE
  3
ansi_1252
  9
$INSBASE
 10
0.0
 20
0.0
 30
0.0
  9
$EXTMIN
 10
337.95751878
 20
35.12807412
  9
$EXTMAX
 10
1305.65145237
 20
501.17854467
  9
$LIMMIN
 10
337.95751878
 20
35.12807412
  9
$LIMMAX
 10
1305.65145237
 20
501.17854467
  9
$ORTHOMODE
 70
     0
  9
$REGENMODE
 70
     1
  9
$FILLMODE
 70
     1
  9
$QTEXTMODE
 70
     0
  9
$MIRRTEXT
 70
     1
  9
$DRAGMODE
 70
     2
  9
$LTSCALE
 40
1.0
  9
$OSMODE
 70
    37
  9
$ATTMODE
 70
     1
  9
$TEXTSIZE
 40
1.0
  9
$TRACEWID
 40
0.05
  9
$TEXTSTYLE
  7
STANDARD
  9
$CLAYER
  8
0
  9
$CELTYPE
  6
BYBLOCK
  9
$CECOLOR
 62
   256
  9
$DIMSCALE
 40
1.0
  9
$DIMASZ
 40
0.18
  9
$DIMEXO
 40
0.0625
  9
$DIMDLI
 40
0.38
  9
$DIMRND
 40
0.0
  9
$DIMDLE
 40
0.0
  9
$DIMEXE
 40
0.18
  9
$DIMTP
 40
0.0
  9
$DIMTM
 40
0.0
  9
$DIMTXT
 40
0.18
  9
$DIMCEN
 40
0.09
  9
$DIMTSZ
 40
0.0
  9
$DIMTOL
 70
     0
  9
$DIMLIM
 70
     0
  9
$DIMTIH
 70
     1
  9
$DIMTOH
 70
     1
  9
$DIMSE1
 70
     0
  9
$DIMSE2
 70
     0
  9
$DIMTAD
 70
     0
  9
$DIMZIN
 70
     0
  9
$DIMBLK
  1

  9
$DIMASO
 70
     1
  9
$DIMSHO
 70
     1
  9
$DIMPOST
  1

  9
$DIMAPOST
  1

  9
$DIMALT
 70
     0
  9
$DIMALTD
 70
     2
  9
$DIMALTF
 40
25.4
  9
$DIMLFAC
 40
1.0
  9
$DIMTOFL
 70
     0
  9
$DIMTVP
 40
0.0
  9
$DIMTIX
 70
     0
  9
$DIMSOXD
 70
     0
  9
$DIMSAH
 70
     0
  9
$DIMBLK1
  1

  9
$DIMBLK2
  1

  9
$LUNITS
 70
     2
  9
$LUPREC
 70
     4
  9
$SKETCHINC
 40
0.1
  9
$FILLETRAD
 40
0.5
  9
$AUNITS
 70
     0
  9
$AUPREC
 70
     0
  9
$MENU
  1
.
  9
$ELEVATION
 40
0.0
  9
$THICKNESS
 40
0.0
  9
$LIMCHECK
 70
     0
  9
$CHAMFERA
 40
0.0
  9
$CHAMFERB
 40
0.0
  9
$SKPOLY
 70
     0
  9
$TDCREATE
 40
2447893.125
  9
$TDUPDATE
 40
2460791.515123079
  9
$TDINDWG
 40
0.0
  9
$TDUSRTIMER
 40
0.0
  9
$USRTIMER
 70
     1
  9
$ANGBASE
 50
0.0
  9
$ANGDIR
 70
     0
  9
$PDMODE
 70
     0
  9
$PDSIZE
 40
0.0
  9
$PLINEWID
 40
0.0
  9
$COORDS
 70
     1
  9
$SPLFRAME
 70
     0
  9
$SPLINETYPE
 70
     6
  9
$SPLINESEGS
 70
     8
  9
$ATTDIA
 70
     0
  9
$ATTREQ
 70
     1
  9
$HANDLING
 70
     1
  9
$HANDSEED
  5
45F
  9
$SURFTAB1
 70
     6
  9
$SURFTAB2
 70
     6
  9
$SURFTYPE
 70
     6
  9
$SURFU
 70
     6
  9
$SURFV
 70
     6
  9
$UCSNAME
  2

  9
$UCSORG
 10
0.0
 20
0.0
 30
0.0
  9
$UCSXDIR
 10
1.0
 20
0.0
 30
0.0
  9
$UCSYDIR
 10
0.0
 20
1.0
 30
0.0
  9
$USERI1
 70
     0
  9
$USERI2
 70
     0
  9
$USERI3
 70
     0
  9
$USERI4
 70
     0
  9
$USERI5
 70
     0
  9
$USERR1
 40
0.0
  9
$USERR2
 40
0.0
  9
$USERR3
 40
0.0
  9
$USERR4
 40
0.0
  9
$USERR5
 40
0.0
  9
$WORLDVIEW
 70
     1
  0
ENDSEC
  0
SECTION
  2
TABLES
  0
TABLE
  2
VPORT
 70
     1
  0
VPORT
  2
*ACTIVE
 70
     0
 10
0.0
 20
0.0
 11
1.0
 21
1.0
 12
821.80448557
 22
268.15330939
 13
0.0
 23
0.0
 14
1.0
 24
1.0
 15
0.0
 25
0.0
 16
0.0
 26
0.0
 36
1.0
 17
0.0
 27
0.0
 37
0.0
 40
466.050470547
 41
2.076371541
 42
50.0
 43
0.0
 44
0.0
 50
0.0
 51
0.0
 71
     0
 72
   100
 73
     1
 74
     1
 75
     0
 76
     0
 77
     0
 78
     0
  0
ENDTAB
  0
TABLE
  2
LTYPE
 70
    19
  0
LTYPE
  2
CONTINUOUS
 70
     0
  3
Solid line
 72
    65
 73
     0
 40
0.0
  0
LTYPE
  2
DOT
 70
     0
  3
..............
 72
    65
 73
     2
 40
2.0
 49
0.5
 49
-1.5
  0
LTYPE
  2
HIDDEN
 70
     0
  3
-- -- -- -- --
 72
    65
 73
     2
 40
7.0
 49
4.0
 49
-3.0
  0
LTYPE
  2
DASHDOT
 70
     0
  3
--.--.--.--.--
 72
    65
 73
     4
 40
8.5
 49
4.0
 49
-2.0
 49
0.5
 49
-2.0
  0
LTYPE
  2
STRICHPUNKT2
 70
     0
  3
--.--.--.--.--
 72
    65
 73
     4
 40
18.5
 49
10.0
 49
-4.0
 49
0.5
 49
-4.0
  0
LTYPE
  2
STRICHPUNKT3
 70
     0
  3
--.--.--.--.--
 72
    65
 73
     4
 40
35.5
 49
25.0
 49
-5.0
 49
0.5
 49
-5.0
  0
LTYPE
  2
PHANTOM
 70
     0
  3
--..--..--..--
 72
    65
 73
     6
 40
23.0
 49
10.0
 49
-4.0
 49
0.5
 49
-4.0
 49
0.5
 49
-4.0
  0
LTYPE
  2
PHANTOM2
 70
     0
  3
--..--..--..--
 72
    65
 73
     6
 40
33.0
 49
20.0
 49
-4.0
 49
0.5
 49
-4.0
 49
0.5
 49
-4.0
  0
LTYPE
  2
PHANTOM3
 70
     0
  3
--..--..--..--
 72
    65
 73
     6
 40
50.0
 49
37.0
 49
-4.0
 49
0.5
 49
-4.0
 49
0.5
 49
-4.0
  0
LTYPE
  2
STR3PKT
 70
     0
  3
--...--...--...
 72
    65
 73
     8
 40
31.5
 49
20.0
 49
-2.5
 49
0.5
 49
-2.5
 49
0.5
 49
-2.5
 49
0.5
 49
-2.5
  0
LTYPE
  2
2STRPKT
 70
     0
  3
--.--.--.--.--
 72
    65
 73
     6
 40
28.0
 49
10.0
 49
-2.5
 49
10.0
 49
-2.5
 49
0.5
 49
-2.5
  0
LTYPE
  2
GESTRICHELT2
 70
     0
  3
-- -- -- -- --
 72
    65
 73
     2
 40
25.0
 49
10.0
 49
-15.0
  0
LTYPE
  2
2STR2PKT
 70
     0
  3
--..--..--..--
 72
    65
 73
     8
 40
31.0
 49
10.0
 49
-2.5
 49
10.0
 49
-2.5
 49
0.5
 49
-2.5
 49
0.5
 49
-2.5
  0
LTYPE
  2
STR3PKT2
 70
     0
  3
--...--...--...
 72
    65
 73
     8
 40
21.0
 49
10.0
 49
-2.5
 49
0.5
 49
-2.5
 49
0.5
 49
-2.5
 49
0.5
 49
-2.0
  0
LTYPE
  2
2STR3PKT
 70
     0
  3
--...--...--...
 72
    65
 73
    10
 40
34.0
 49
10.0
 49
-2.5
 49
10.0
 49
-2.5
 49
0.5
 49
-2.5
 49
0.5
 49
-2.5
 49
0.5
 49
-2.5
  0
LTYPE
  2
STRKSTR
 70
     0
  3
-- - -- - -- -
 72
    65
 73
     4
 40
30.0
 49
20.0
 49
-2.5
 49
5.0
 49
-2.5
  0
LTYPE
  2
STRKSTR2
 70
     0
  3
-- - -- - -- -
 72
    65
 73
     6
 40
37.5
 49
20.0
 49
-2.5
 49
5.0
 49
-2.5
 49
5.0
 49
-2.5
  0
LTYPE
  2
STRKSTR3
 70
     0
  3
-- - -- - -- -
 72
    65
 73
     8
 40
45.0
 49
20.0
 49
-2.5
 49
5.0
 49
-2.5
 49
5.0
 49
-2.5
 49
5.0
 49
-2.5
  0
LTYPE
  2
PUNKT2
 70
     0
  3
..............
 72
    65
 73
     2
 40
3.5
 49
0.5
 49
-3.0
  0
ENDTAB
  0
TABLE
  2
LAYER
 70
    17
  0
LAYER
  2
0
 70
     0
 62
     7
  6
CONTINUOUS
  0
LAYER
  2
LE_GREEN
 70
     0
 62
     3
  6
CONTINUOUS
  0
LAYER
  2
LE_RED
 70
     0
 62
     1
  6
CONTINUOUS
  0
LAYER
  2
LE_ALL
 70
     0
 62
     7
  6
CONTINUOUS
  0
LAYER
  2
LE_HIDDEN1
 70
     0
 62
     3
  6
HIDDEN
  0
LAYER
  2
LE_HIDDEN
 70
     0
 62
     7
  6
CONTINUOUS
  0
LAYER
  2
LE_MIDDLE
 70
     0
 62
     7
  6
CONTINUOUS
  0
LAYER
  2
TXT_YELLOW
 70
     0
 62
     2
  6
CONTINUOUS
  0
LAYER
  2
TXT_DIM49
 70
     0
 62
     2
  6
CONTINUOUS
  0
LAYER
  2
TXT_ALL
 70
     0
 62
     7
  6
CONTINUOUS
  0
LAYER
  2
DIM49
 70
     0
 62
     4
  6
CONTINUOUS
  0
LAYER
  2
HATCH
 70
     0
 62
     3
  6
CONTINUOUS
  0
LAYER
  2
APPLE
 70
     0
 62
     7
  6
CONTINUOUS
  0
LAYER
  2
10
 70
     0
 62
     7
  6
CONTINUOUS
  0
LAYER
  2
20
 70
     0
 62
     7
  6
CONTINUOUS
  0
LAYER
  2
47
 70
     0
 62
     7
  6
CONTINUOUS
  0
LAYER
  2
49
 70
     0
 62
     7
  6
CONTINUOUS
  0
ENDTAB
  0
TABLE
  2
STYLE
 70
     5
  0
STYLE
  2
MONOTXT
 70
     0
 40
0.0
 41
1.0
 50
0.0
 71
     0
 42
1.0
  3
monotxt.shx
  4

  0
STYLE
  2
STANDARD
 70
     0
 40
0.0
 41
1.0
 50
0.0
 71
     0
 42
1.0
  3
txt
  4

  0
STYLE
  2
ARIAL
 70
     0
 40
0.0
 41
1.0
 50
0.0
 71
     0
 42
1.0
  3
arial.ttf
  4

  0
STYLE
  2
ARIAL_NARROW
 70
     0
 40
0.0
 41
1.0
 50
0.0
 71
     0
 42
1.0
  3
ArialN.ttf
  4

  0
STYLE
  2
ISOCPEUR
 70
     0
 40
0.0
 41
1.0
 50
0.0
 71
     0
 42
1.0
  3
ISOCPEUR.ttf
  4

  0
ENDTAB
  0
TABLE
  2
VIEW
 70
     0
  0
ENDTAB
  0
TABLE
  2
UCS
 70
     0
  0
ENDTAB
  0
ENDSEC
  0
SECTION
  2
BLOCKS
  0
ENDSEC
  0
SECTION
  2
ENTITIES
  0
POLYLINE
  5
16E
  8
0
 66
     1
 10
0.0
 20
0.0
 30
0.0
 70
     1
  0
VERTEX
  5
16F
  8
0
 10
584.94881126
 20
76.0921858
 30
0.0
  0
VERTEX
  5
170
  8
0
 10
1004.94881126
 20
76.0921858
 30
0.0
  0
VERTEX
  5
171
  8
0
 10
1004.94881126
 20
373.0921858
 30
0.0
  0
VERTEX
  5
172
  8
0
 10
584.94881126
 20
373.0921858
 30
0.0
  0
SEQEND
  5
173
  8
0
  0
POLYLINE
  5
174
  8
0
 66
     1
 10
0.0
 20
0.0
 30
0.0
 70
     1
  0
VERTEX
  5
175
  8
0
 10
589.94881126
 20
81.0921858
 30
0.0
  0
VERTEX
  5
176
  8
0
 10
999.94881126
 20
81.0921858
 30
0.0
  0
VERTEX
  5
177
  8
0
 10
999.94881126
 20
368.0921858
 30
0.0
  0
VERTEX
  5
178
  8
0
 10
589.94881126
 20
368.0921858
 30
0.0
  0
SEQEND
  5
179
  8
0
  0
LINE
  5
17A
  8
0
 10
814.94881126
 20
81.0921858
 30
0.0
 11
814.94881126
 21
76.0921858
 31
0.0
  0
LINE
  5
17B
  8
0
 10
814.94881126
 20
368.0921858
 30
0.0
 11
814.94881126
 21
373.0921858
 31
0.0
  0
LINE
  5
17C
  8
0
 10
604.94881126
 20
81.0921858
 30
0.0
 11
604.94881126
 21
76.0921858
 31
0.0
  0
LINE
  5
17D
  8
0
 10
604.94881126
 20
368.0921858
 30
0.0
 11
604.94881126
 21
373.0921858
 31
0.0
  0
TEXT
  5
17E
  8
TXT_ALL
 62
     4
 10
1003.94881126
 20
77.0921858
 30
0.0
 40
2.5
  1

 50
90.00020741
  0
POLYLINE
  5
17F
  8
0
 66
     1
 10
0.0
 20
0.0
 30
0.0
  0
VERTEX
  5
180
  8
0
 10
999.94881126
 20
358.0921858
 30
0.0
  0
VERTEX
  5
181
  8
0
 10
930.95551126
 20
358.0921858
 30
0.0
  0
VERTEX
  5
182
  8
0
 10
930.95551126
 20
368.0921858
 30
0.0
  0
SEQEND
  5
183
  8
0
  0
LINE
  5
184
  8
0
 10
932.85881126
 20
100.5921858
 30
0.0
 11
792.96881126
 21
100.5921858
 31
0.0
  0
LINE
  5
185
  8
0
 10
792.96881126
 20
90.8421858
 30
0.0
 11
932.85881126
 21
90.8421858
 31
0.0
  0
POLYLINE
  5
186
  8
0
 66
     1
 10
0.0
 20
0.0
 30
0.0
  0
VERTEX
  5
187
  8
0
 10
792.96881126
 20
100.5921858
 30
0.0
  0
VERTEX
  5
188
  8
0
 10
792.96881126
 20
90.8421858
 30
0.0
  0
VERTEX
  5
189
  8
0
 10
792.96881126
 20
81.0921858
 30
0.0
  0
SEQEND
  5
18A
  8
0
  0
POLYLINE
  5
18B
  8
0
 66
     1
 10
0.0
 20
0.0
 30
0.0
  0
VERTEX
  5
18C
  8
0
 10
862.91381126
 20
100.5921858
 30
0.0
  0
VERTEX
  5
18D
  8
0
 10
862.91381126
 20
90.8421858
 30
0.0
  0
VERTEX
  5
18E
  8
0
 10
862.91381126
 20
81.0921858
 30
0.0
  0
SEQEND
  5
18F
  8
0
  0
TEXT
  5
190
  8
TXT_ALL
 10
794.96881126
 20
94.41718585
 30
0.0
 40
2.5999999
  1
E-mail: verkoop@jonkers-bouwmetaal.nl
  7
ARIAL
  0
TEXT
  5
191
  8
TXT_ALL
 10
794.96881126
 20
84.66718585
 30
0.0
 40
2.5999999
  1
Telefoon: 0527-685156
  7
ARIAL
  0
TEXT
  5
192
  8
TXT_ALL
 10
864.91381126
 20
84.66718585
 30
0.0
 40
2.5999999
  1
Website: www.jonkers-bouwmetaal.nl
  7
ARIAL
  0
TEXT
  5
193
  8
TXT_ALL
 10
864.91381126
 20
94.41718585
 30
0.0
 40
2.5999999
  1
Adres: Hoornse Hop 10, 8321 WX Urk
  7
ARIAL
  0
TEXT
  5
194
  8
TXT_ALL
 10
593.39077151
 20
361.8421858
 30
0.0
 40
2.5
  1
Art. nr. 91013290
  7
ARIAL
  0
TEXT
  5
195
  8
TXT_ALL
 10
636.12880833
 20
361.8421858
 30
0.0
 40
2.5
  1
Omschrijving: Z01-anker 88x43x170 100x8
  7
ARIAL
  0
LINE
  5
196
  8
0
 10
999.94881126
 20
358.0921858
 30
0.0
 11
589.94881126
 21
358.0921858
 31
0.0
  0
LINE
  5
197
  8
0
 10
632.96881126
 20
358.0921858
 30
0.0
 11
632.96881126
 21
368.0921858
 31
0.0
  0
LINE
  5
198
  8
0
 10
792.96881126
 20
358.0921858
 30
0.0
 11
792.96881126
 21
368.0921858
 31
0.0
  0
TEXT
  5
199
  8
TXT_ALL
 10
863.96251126
 20
361.8421858
 30
0.0
 40
2.5
  1
Behandeling: Thermisch Verzinkt
  7
ARIAL
  0
LINE
  5
19A
  8
0
 10
932.85881126
 20
100.5921858
 30
0.0
 11
999.94881126
 21
100.5921858
 31
0.0
  0
LINE
  5
19B
  8
0
 10
932.85881126
 20
81.0921858
 30
0.0
 11
932.85881126
 21
100.5921858
 31
0.0
  0
LINE
  5
19C
  8
0
 10
932.85881126
 20
81.0921858
 30
0.0
 11
932.85881126
 21
100.5921858
 31
0.0
  0
TEXT
  5
19D
  8
TXT_ALL
 10
727.31400935
 20
82.24671921
 30
0.0
 40
2.5
  1

  0
TEXT
  5
19E
  8
TXT_ALL
 10
848.44919232
 20
92.3421858
 30
0.0
 40
2.5
  1

  0
POLYLINE
  5
19F
  8
0
 66
     1
 10
0.0
 20
0.0
 30
0.0
  0
VERTEX
  5
1A0
  8
0
 10
930.95551126
 20
358.0921858
 30
0.0
  0
VERTEX
  5
1A1
  8
0
 10
861.96251126
 20
358.0921858
 30
0.0
  0
VERTEX
  5
1A2
  8
0
 10
861.96251126
 20
368.0921858
 30
0.0
  0
SEQEND
  5
1A3
  8
0
  0
TEXT
  5
1A4
  8
TXT_ALL
 10
932.95551126
 20
361.8421858
 30
0.0
 40
2.5
  1
Verpakkingshoeveelheid: 1 st.
  7
ARIAL
  0
TEXT
  5
1A5
  8
TXT_ALL
 10
794.96881126
 20
361.8421858
 30
0.0
 40
2.5
  1
Materiaal: S355
  7
ARIAL
  0
TEXT
  5
1A6
  8
TXT_ALL
 10
968.06529668
 20
77.84267595
 30
0.0
 40
1.5
  1
Onderdeel van
  7
ARIAL
  0
LINE
  5
1A7
  8
0
 10
672.20535171
 20
146.36822645
 30
0.0
 11
673.34036208
 21
148.86011629
 31
0.0
  0
LINE
  5
1A8
  8
0
 10
672.20535171
 20
141.32924683
 30
0.0
 11
676.04137171
 21
149.75114277
 31
0.0
  0
LINE
  5
1A9
  8
0
 10
672.20535171
 20
146.36822645
 30
0.0
 11
672.20535171
 21
141.32924683
 31
0.0
  0
LINE
  5
1AA
  8
0
 10
668.27037573
 20
146.65610307
 30
0.0
 11
672.20535171
 21
146.36822645
 31
0.0
  0
POLYLINE
  5
1AB
  8
0
 66
     1
 10
0.0
 20
0.0
 30
0.0
  0
VERTEX
  5
1AC
  8
0
 10
668.27037573
 20
146.65610307
 30
0.0
  0
VERTEX
  5
1AD
  8
0
 10
668.27037573
 20
141.61712344
 30
0.0
  0
VERTEX
  5
1AE
  8
0
 10
672.20535171
 20
141.32924683
 30
0.0
  0
SEQEND
  5
1AF
  8
0
  0
LINE
  5
1B0
  8
0
 10
672.20535171
 20
141.32924683
 30
0.0
 11
676.04137171
 21
149.75114277
 31
0.0
  0
POLYLINE
  5
1B1
  8
0
 66
     1
 10
0.0
 20
0.0
 30
0.0
  0
VERTEX
  5
364
  8
0
 10
671.6157614684294
 20
138.5889280985066
 30
0.0
  0
VERTEX
  5
365
  8
0
 10
672.0565473573506
 20
139.9215852483057
 30
0.0
  0
VERTEX
  5
366
  8
0
 10
672.2053517060089
 20
141.3292468587301
 30
0.0
  0
SEQEND
  5
448
  8
0
  0
LINE
  5
1B2
  8
0
 10
671.61576146
 20
138.58892807
 30
0.0
 11
676.67922
 21
149.70563778
 31
0.0
  0
POLYLINE
  5
1B3
  8
0
 66
     1
 10
0.0
 20
0.0
 30
0.0
  0
VERTEX
  5
367
  8
0
 10
664.3353997512214
 20
134.5755751273427
 30
0.0
  0
VERTEX
  5
368
  8
0
 10
665.8748134101862
 20
134.6045404698279
 30
0.0
  0
VERTEX
  5
369
  8
0
 10
667.3547517222995
 20
134.9155595432429
 30
0.0
  0
VERTEX
  5
36A
  8
0
 10
668.7180371746499
 20
135.4966161054643
 30
0.0
  0
VERTEX
  5
36B
  8
0
 10
669.9119991451475
 20
136.3252609984312
 30
0.0
  0
VERTEX
  5
36C
  8
0
 10
670.8905088354326
 20
137.369479472827
 30
0.0
  0
VERTEX
  5
36D
  8
0
 10
671.6157614599999
 20
138.58892808
 30
0.0
  0
SEQEND
  5
449
  8
0
  0
LINE
  5
1B4
  8
0
 10
664.33539975
 20
138.24028761
 30
0.0
 11
664.33539975
 21
134.57557515
 31
0.0
  0
POLYLINE
  5
1B5
  8
0
 66
     1
 10
0.0
 20
0.0
 30
0.0
  0
VERTEX
  5
36E
  8
0
 10
664.3353997487119
 20
138.2402875978401
 30
0.0
  0
VERTEX
  5
36F
  8
0
 10
665.1051065773261
 20
138.2547702686675
 30
0.0
  0
VERTEX
  5
370
  8
0
 10
665.8450757326216
 20
138.4102798048147
 30
0.0
  0
VERTEX
  5
371
  8
0
 10
666.526718458172
 20
138.7008080852417
 30
0.0
  0
VERTEX
  5
372
  8
0
 10
667.1236994429563
 20
139.1151305309446
 30
0.0
  0
VERTEX
  5
373
  8
0
 10
667.6129542878128
 20
139.637239767295
 30
0.0
  0
VERTEX
  5
374
  8
0
 10
667.9755806
 20
140.24696407
 30
0.0
  0
SEQEND
  5
44A
  8
0
  0
POLYLINE
  5
1B6
  8
0
 66
     1
 10
0.0
 20
0.0
 30
0.0
  0
VERTEX
  5
375
  8
0
 10
667.9755806
 20
140.24696407
 30
0.0
  0
VERTEX
  5
376
  8
0
 10
668.1959735476959
 20
140.9132926482889
 30
0.0
  0
VERTEX
  5
377
  8
0
 10
668.2703757233791
 20
141.6171234576537
 30
0.0
  0
SEQEND
  5
44B
  8
0
  0
LINE
  5
1B7
  8
0
 10
668.27037573
 20
141.61712344
 30
0.0
 11
672.20535171
 21
141.32924683
 31
0.0
  0
LINE
  5
1B8
  8
0
 10
664.33539975
 20
138.24028761
 30
0.0
 11
668.2743297
 21
146.88812
 31
0.0
  0
POLYLINE
  5
1B9
  8
0
 66
     1
 10
0.0
 20
0.0
 30
0.0
  0
VERTEX
  5
378
  8
0
 10
656.21015528
 20
143.7442457835967
 30
0.0
  0
VERTEX
  5
379
  8
0
 10
656.2581920773505
 20
143.5487792588685
 30
0.0
  0
VERTEX
  5
37A
  8
0
 10
656.4004564457167
 20
143.3608244029457
 30
0.0
  0
VERTEX
  5
37B
  8
0
 10
656.6314812451925
 20
143.1876042155514
 30
0.0
  0
VERTEX
  5
37C
  8
0
 10
656.9423883222742
 20
143.0357754513594
 30
0.0
  0
VERTEX
  5
37D
  8
0
 10
657.3212296923208
 20
142.9111728046444
 30
0.0
  0
VERTEX
  5
37E
  8
0
 10
657.7534466939052
 20
142.8185846852525
 30
0.0
  0
VERTEX
  5
37F
  8
0
 10
658.2224294700085
 20
142.761569202696
 30
0.0
  0
VERTEX
  5
380
  8
0
 10
658.7101552755128
 20
142.74231743
 30
0.0
  0
VERTEX
  5
381
  8
0
 10
659.1978810811894
 20
142.7615692019943
 30
0.0
  0
VERTEX
  5
382
  8
0
 10
659.6668638578035
 20
142.8185846838761
 30
0.0
  0
VERTEX
  5
383
  8
0
 10
660.0990808602171
 20
142.9111728026461
 30
0.0
  0
VERTEX
  5
384
  8
0
 10
660.4779222313799
 20
143.0357754488161
 30
0.0
  0
VERTEX
  5
385
  8
0
 10
660.7888293098215
 20
143.1876042125608
 30
0.0
  0
VERTEX
  5
386
  8
0
 10
661.0198541108489
 20
143.3608243996227
 30
0.0
  0
VERTEX
  5
387
  8
0
 10
661.1621184808986
 20
143.5487792553409
 30
0.0
  0
VERTEX
  5
388
  8
0
 10
661.21015528
 20
143.74424578
 30
0.0
  0
SEQEND
  5
44C
  8
0
  0
POLYLINE
  5
1BA
  8
0
 66
     1
 10
0.0
 20
0.0
 30
0.0
  0
VERTEX
  5
389
  8
0
 10
661.21015528
 20
143.74424578
 30
0.0
  0
VERTEX
  5
38A
  8
0
 10
661.1621184811174
 20
143.9397123042181
 30
0.0
  0
VERTEX
  5
38B
  8
0
 10
661.0198541117074
 20
144.1276671595465
 30
0.0
  0
VERTEX
  5
38C
  8
0
 10
660.7888293116912
 20
144.3008873463177
 30
0.0
  0
VERTEX
  5
38D
  8
0
 10
660.4779222345528
 20
144.4527161099122
 30
0.0
  0
VERTEX
  5
38E
  8
0
 10
660.0990808648809
 20
144.577318756105
 30
0.0
  0
VERTEX
  5
38F
  8
0
 10
659.6668638640219
 20
144.6699068750916
 30
0.0
  0
VERTEX
  5
390
  8
0
 10
659.1978810888912
 20
144.7269223573917
 30
0.0
  0
VERTEX
  5
391
  8
0
 10
658.7101552844872
 20
144.74617413
 30
0.0
  0
VERTEX
  5
392
  8
0
 10
658.2224294799108
 20
144.7269223580934
 30
0.0
  0
VERTEX
  5
393
  8
0
 10
657.7534467042693
 20
144.669906876468
 30
0.0
  0
VERTEX
  5
394
  8
0
 10
657.3212297025811
 20
144.5773187581032
 30
0.0
  0
VERTEX
  5
395
  8
0
 10
656.942388331793
 20
144.4527161124555
 30
0.0
  0
VERTEX
  5
396
  8
0
 10
656.6314812532947
 20
144.3008873493083
 30
0.0
  0
VERTEX
  5
397
  8
0
 10
656.4004564517269
 20
144.1276671628694
 30
0.0
  0
VERTEX
  5
398
  8
0
 10
656.2581920806333
 20
143.9397123077457
 30
0.0
  0
VERTEX
  5
399
  8
0
 10
656.21015528
 20
143.7442457835967
 30
0.0
  0
SEQEND
  5
44D
  8
0
  0
POLYLINE
  5
1BB
  8
0
 66
     1
 10
0.0
 20
0.0
 30
0.0
  0
VERTEX
  5
39A
  8
0
 10
660.69957024
 20
153.6006556835967
 30
0.0
  0
VERTEX
  5
39B
  8
0
 10
660.7476070373505
 20
153.4051891588685
 30
0.0
  0
VERTEX
  5
39C
  8
0
 10
660.8898714057167
 20
153.2172343029457
 30
0.0
  0
VERTEX
  5
39D
  8
0
 10
661.1208962051925
 20
153.0440141155514
 30
0.0
  0
VERTEX
  5
39E
  8
0
 10
661.4318032822741
 20
152.8921853513594
 30
0.0
  0
VERTEX
  5
39F
  8
0
 10
661.8106446523208
 20
152.7675827046444
 30
0.0
  0
VERTEX
  5
3A0
  8
0
 10
662.2428616539052
 20
152.6749945852524
 30
0.0
  0
VERTEX
  5
3A1
  8
0
 10
662.7118444300085
 20
152.617979102696
 30
0.0
  0
VERTEX
  5
3A2
  8
0
 10
663.1995702355127
 20
152.59872733
 30
0.0
  0
VERTEX
  5
3A3
  8
0
 10
663.6872960411894
 20
152.6179791019943
 30
0.0
  0
VERTEX
  5
3A4
  8
0
 10
664.1562788178035
 20
152.674994583876
 30
0.0
  0
VERTEX
  5
3A5
  8
0
 10
664.5884958202171
 20
152.7675827026461
 30
0.0
  0
VERTEX
  5
3A6
  8
0
 10
664.9673371913799
 20
152.8921853488161
 30
0.0
  0
VERTEX
  5
3A7
  8
0
 10
665.2782442698215
 20
153.0440141125608
 30
0.0
  0
VERTEX
  5
3A8
  8
0
 10
665.5092690708489
 20
153.2172342996227
 30
0.0
  0
VERTEX
  5
3A9
  8
0
 10
665.6515334408986
 20
153.4051891553409
 30
0.0
  0
VERTEX
  5
3AA
  8
0
 10
665.69957024
 20
153.60065568
 30
0.0
  0
SEQEND
  5
44E
  8
0
  0
POLYLINE
  5
1BC
  8
0
 66
     1
 10
0.0
 20
0.0
 30
0.0
  0
VERTEX
  5
3AB
  8
0
 10
665.69957024
 20
153.60065568
 30
0.0
  0
VERTEX
  5
3AC
  8
0
 10
665.6515334411174
 20
153.7961222042181
 30
0.0
  0
VERTEX
  5
3AD
  8
0
 10
665.5092690717074
 20
153.9840770595465
 30
0.0
  0
VERTEX
  5
3AE
  8
0
 10
665.2782442716912
 20
154.1572972463177
 30
0.0
  0
VERTEX
  5
3AF
  8
0
 10
664.9673371945528
 20
154.3091260099122
 30
0.0
  0
VERTEX
  5
3B0
  8
0
 10
664.5884958248809
 20
154.433728656105
 30
0.0
  0
VERTEX
  5
3B1
  8
0
 10
664.1562788240219
 20
154.5263167750916
 30
0.0
  0
VERTEX
  5
3B2
  8
0
 10
663.6872960488912
 20
154.5833322573917
 30
0.0
  0
VERTEX
  5
3B3
  8
0
 10
663.1995702444872
 20
154.60258403
 30
0.0
  0
VERTEX
  5
3B4
  8
0
 10
662.7118444399108
 20
154.5833322580934
 30
0.0
  0
VERTEX
  5
3B5
  8
0
 10
662.2428616642693
 20
154.526316776468
 30
0.0
  0
VERTEX
  5
3B6
  8
0
 10
661.8106446625811
 20
154.4337286581032
 30
0.0
  0
VERTEX
  5
3B7
  8
0
 10
661.431803291793
 20
154.3091260124555
 30
0.0
  0
VERTEX
  5
3B8
  8
0
 10
661.1208962132947
 20
154.1572972493083
 30
0.0
  0
VERTEX
  5
3B9
  8
0
 10
660.8898714117269
 20
153.9840770628694
 30
0.0
  0
VERTEX
  5
3BA
  8
0
 10
660.7476070406333
 20
153.7961222077457
 30
0.0
  0
VERTEX
  5
3BB
  8
0
 10
660.69957024
 20
153.6006556835967
 30
0.0
  0
SEQEND
  5
44F
  8
0
  0
POLYLINE
  5
1BD
  8
0
 66
     1
 10
0.0
 20
0.0
 30
0.0
  0
VERTEX
  5
3BC
  8
0
 10
635.55153141
 20
145.2555980035967
 30
0.0
  0
VERTEX
  5
3BD
  8
0
 10
635.5995682073506
 20
145.0601314788685
 30
0.0
  0
VERTEX
  5
3BE
  8
0
 10
635.7418325757168
 20
144.8721766229457
 30
0.0
  0
VERTEX
  5
3BF
  8
0
 10
635.9728573751926
 20
144.6989564355514
 30
0.0
  0
VERTEX
  5
3C0
  8
0
 10
636.2837644522742
 20
144.5471276713594
 30
0.0
  0
VERTEX
  5
3C1
  8
0
 10
636.6626058223209
 20
144.4225250246444
 30
0.0
  0
VERTEX
  5
3C2
  8
0
 10
637.0948228239052
 20
144.3299369052525
 30
0.0
  0
VERTEX
  5
3C3
  8
0
 10
637.5638056000085
 20
144.272921422696
 30
0.0
  0
VERTEX
  5
3C4
  8
0
 10
638.0515314055128
 20
144.25366965
 30
0.0
  0
VERTEX
  5
3C5
  8
0
 10
638.5392572111895
 20
144.2729214219943
 30
0.0
  0
VERTEX
  5
3C6
  8
0
 10
639.0082399878036
 20
144.329936903876
 30
0.0
  0
VERTEX
  5
3C7
  8
0
 10
639.4404569902172
 20
144.4225250226461
 30
0.0
  0
VERTEX
  5
3C8
  8
0
 10
639.81929836138
 20
144.5471276688161
 30
0.0
  0
VERTEX
  5
3C9
  8
0
 10
640.1302054398216
 20
144.6989564325608
 30
0.0
  0
VERTEX
  5
3CA
  8
0
 10
640.361230240849
 20
144.8721766196227
 30
0.0
  0
VERTEX
  5
3CB
  8
0
 10
640.5034946108987
 20
145.0601314753409
 30
0.0
  0
VERTEX
  5
3CC
  8
0
 10
640.55153141
 20
145.255598
 30
0.0
  0
SEQEND
  5
450
  8
0
  0
POLYLINE
  5
1BE
  8
0
 66
     1
 10
0.0
 20
0.0
 30
0.0
  0
VERTEX
  5
3CD
  8
0
 10
640.55153141
 20
145.255598
 30
0.0
  0
VERTEX
  5
3CE
  8
0
 10
640.5034946111175
 20
145.4510645242181
 30
0.0
  0
VERTEX
  5
3CF
  8
0
 10
640.3612302417075
 20
145.6390193795465
 30
0.0
  0
VERTEX
  5
3D0
  8
0
 10
640.1302054416913
 20
145.8122395663177
 30
0.0
  0
VERTEX
  5
3D1
  8
0
 10
639.8192983645529
 20
145.9640683299122
 30
0.0
  0
VERTEX
  5
3D2
  8
0
 10
639.440456994881
 20
146.088670976105
 30
0.0
  0
VERTEX
  5
3D3
  8
0
 10
639.008239994022
 20
146.1812590950916
 30
0.0
  0
VERTEX
  5
3D4
  8
0
 10
638.5392572188913
 20
146.2382745773917
 30
0.0
  0
VERTEX
  5
3D5
  8
0
 10
638.0515314144873
 20
146.25752635
 30
0.0
  0
VERTEX
  5
3D6
  8
0
 10
637.5638056099109
 20
146.2382745780934
 30
0.0
  0
VERTEX
  5
3D7
  8
0
 10
637.0948228342694
 20
146.181259096468
 30
0.0
  0
VERTEX
  5
3D8
  8
0
 10
636.6626058325812
 20
146.0886709781032
 30
0.0
  0
VERTEX
  5
3D9
  8
0
 10
636.2837644617931
 20
145.9640683324555
 30
0.0
  0
VERTEX
  5
3DA
  8
0
 10
635.9728573832948
 20
145.8122395693083
 30
0.0
  0
VERTEX
  5
3DB
  8
0
 10
635.741832581727
 20
145.6390193828694
 30
0.0
  0
VERTEX
  5
3DC
  8
0
 10
635.5995682106334
 20
145.4510645277457
 30
0.0
  0
VERTEX
  5
3DD
  8
0
 10
635.55153141
 20
145.2555980035967
 30
0.0
  0
SEQEND
  5
451
  8
0
  0
POLYLINE
  5
1BF
  8
0
 66
     1
 10
0.0
 20
0.0
 30
0.0
  0
VERTEX
  5
3DE
  8
0
 10
640.04094637
 20
155.1120079035967
 30
0.0
  0
VERTEX
  5
3DF
  8
0
 10
640.0889831673505
 20
154.9165413788685
 30
0.0
  0
VERTEX
  5
3E0
  8
0
 10
640.2312475357168
 20
154.7285865229457
 30
0.0
  0
VERTEX
  5
3E1
  8
0
 10
640.4622723351926
 20
154.5553663355514
 30
0.0
  0
VERTEX
  5
3E2
  8
0
 10
640.7731794122742
 20
154.4035375713594
 30
0.0
  0
VERTEX
  5
3E3
  8
0
 10
641.1520207823208
 20
154.2789349246444
 30
0.0
  0
VERTEX
  5
3E4
  8
0
 10
641.5842377839052
 20
154.1863468052525
 30
0.0
  0
VERTEX
  5
3E5
  8
0
 10
642.0532205600085
 20
154.129331322696
 30
0.0
  0
VERTEX
  5
3E6
  8
0
 10
642.5409463655128
 20
154.11007955
 30
0.0
  0
VERTEX
  5
3E7
  8
0
 10
643.0286721711894
 20
154.1293313219943
 30
0.0
  0
VERTEX
  5
3E8
  8
0
 10
643.4976549478035
 20
154.1863468038761
 30
0.0
  0
VERTEX
  5
3E9
  8
0
 10
643.9298719502171
 20
154.2789349226461
 30
0.0
  0
VERTEX
  5
3EA
  8
0
 10
644.30871332138
 20
154.4035375688161
 30
0.0
  0
VERTEX
  5
3EB
  8
0
 10
644.6196203998215
 20
154.5553663325608
 30
0.0
  0
VERTEX
  5
3EC
  8
0
 10
644.8506452008489
 20
154.7285865196228
 30
0.0
  0
VERTEX
  5
3ED
  8
0
 10
644.9929095708986
 20
154.916541375341
 30
0.0
  0
VERTEX
  5
3EE
  8
0
 10
645.04094637
 20
155.1120079
 30
0.0
  0
SEQEND
  5
452
  8
0
  0
POLYLINE
  5
1C0
  8
0
 66
     1
 10
0.0
 20
0.0
 30
0.0
  0
VERTEX
  5
3EF
  8
0
 10
645.04094637
 20
155.1120079
 30
0.0
  0
VERTEX
  5
3F0
  8
0
 10
644.9929095711175
 20
155.3074744242181
 30
0.0
  0
VERTEX
  5
3F1
  8
0
 10
644.8506452017075
 20
155.4954292795465
 30
0.0
  0
VERTEX
  5
3F2
  8
0
 10
644.6196204016912
 20
155.6686494663177
 30
0.0
  0
VERTEX
  5
3F3
  8
0
 10
644.3087133245529
 20
155.8204782299123
 30
0.0
  0
VERTEX
  5
3F4
  8
0
 10
643.9298719548809
 20
155.945080876105
 30
0.0
  0
VERTEX
  5
3F5
  8
0
 10
643.497654954022
 20
156.0376689950917
 30
0.0
  0
VERTEX
  5
3F6
  8
0
 10
643.0286721788913
 20
156.0946844773917
 30
0.0
  0
VERTEX
  5
3F7
  8
0
 10
642.5409463744872
 20
156.11393625
 30
0.0
  0
VERTEX
  5
3F8
  8
0
 10
642.0532205699109
 20
156.0946844780934
 30
0.0
  0
VERTEX
  5
3F9
  8
0
 10
641.5842377942694
 20
156.0376689964681
 30
0.0
  0
VERTEX
  5
3FA
  8
0
 10
641.1520207925812
 20
155.9450808781032
 30
0.0
  0
VERTEX
  5
3FB
  8
0
 10
640.7731794217931
 20
155.8204782324555
 30
0.0
  0
VERTEX
  5
3FC
  8
0
 10
640.4622723432948
 20
155.6686494693083
 30
0.0
  0
VERTEX
  5
3FD
  8
0
 10
640.2312475417269
 20
155.4954292828695
 30
0.0
  0
VERTEX
  5
3FE
  8
0
 10
640.0889831706334
 20
155.3074744277457
 30
0.0
  0
VERTEX
  5
3FF
  8
0
 10
640.04094637
 20
155.1120079035967
 30
0.0
  0
SEQEND
  5
453
  8
0
  0
LINE
  5
1C1
  8
0
 10
664.33539975
 20
138.24028761
 30
0.0
 11
668.2743297
 21
146.88812
 31
0.0
  0
LINE
  5
1C2
  8
0
 10
664.33539975
 20
138.24028761
 30
0.0
 11
664.33539975
 21
134.57557515
 31
0.0
  0
POLYLINE
  5
1C3
  8
0
 66
     1
 10
0.0
 20
0.0
 30
0.0
  0
VERTEX
  5
1C4
  8
0
 10
664.33539975
 20
138.24028761
 30
0.0
  0
VERTEX
  5
1C5
  8
0
 10
628.92061598
 20
140.83117713
 30
0.0
  0
VERTEX
  5
1C6
  8
0
 10
637.89944589
 20
160.54399693
 30
0.0
  0
VERTEX
  5
1C7
  8
0
 10
672.77533735
 20
157.99253191
 30
0.0
  0
SEQEND
  5
1C8
  8
0
  0
LINE
  5
1C9
  8
0
 10
628.92061598
 20
140.83117713
 30
0.0
 11
628.92061598
 21
137.16646467
 31
0.0
  0
LINE
  5
1CA
  8
0
 10
664.33539975
 20
134.57557515
 30
0.0
 11
628.92061598
 21
137.16646467
 31
0.0
  0
LINE
  5
1CB
  8
0
  6
STRICHPUNKT2
 62
     1
 10
642.54094637
 20
156.25723054
 30
0.0
 11
642.54094637
 21
154.11007956
 31
0.0
  0
LINE
  5
1CC
  8
0
  6
STRICHPUNKT2
 62
     1
 10
642.54094637
 20
155.1120079
 30
0.0
 11
641.86753412
 21
153.63354642
 31
0.0
  0
LINE
  5
1CD
  8
0
  6
STRICHPUNKT2
 62
     1
 10
642.54094637
 20
155.1120079
 30
0.0
 11
643.21435861
 21
156.59046939
 31
0.0
  0
LINE
  5
1CE
  8
0
  6
STRICHPUNKT2
 62
     1
 10
642.54094637
 20
155.1120079
 30
0.0
 11
646.22998634
 21
154.84212358
 31
0.0
  0
LINE
  5
1CF
  8
0
  6
STRICHPUNKT2
 62
     1
 10
642.54094637
 20
155.1120079
 30
0.0
 11
638.85190639
 21
155.38189223
 31
0.0
  0
LINE
  5
1D0
  8
0
  6
STRICHPUNKT2
 62
     1
 10
638.05153141
 20
146.40082064
 30
0.0
 11
638.05153141
 21
144.25366966
 31
0.0
  0
LINE
  5
1D1
  8
0
  6
STRICHPUNKT2
 62
     1
 10
638.05153141
 20
145.255598
 30
0.0
 11
637.37811917
 21
143.77713652
 31
0.0
  0
LINE
  5
1D2
  8
0
  6
STRICHPUNKT2
 62
     1
 10
638.05153141
 20
145.255598
 30
0.0
 11
638.72494365
 21
146.73405949
 31
0.0
  0
LINE
  5
1D3
  8
0
  6
STRICHPUNKT2
 62
     1
 10
638.05153141
 20
145.255598
 30
0.0
 11
641.74057139
 21
144.98571368
 31
0.0
  0
LINE
  5
1D4
  8
0
  6
STRICHPUNKT2
 62
     1
 10
638.05153141
 20
145.255598
 30
0.0
 11
634.36249143
 21
145.52548233
 31
0.0
  0
LINE
  5
1D5
  8
0
  6
STRICHPUNKT2
 62
     1
 10
663.19957024
 20
154.74587832
 30
0.0
 11
663.19957024
 21
152.59872734
 31
0.0
  0
LINE
  5
1D6
  8
0
  6
STRICHPUNKT2
 62
     1
 10
663.19957024
 20
153.60065568
 30
0.0
 11
662.52615799
 21
152.1221942
 31
0.0
  0
LINE
  5
1D7
  8
0
  6
STRICHPUNKT2
 62
     1
 10
663.19957024
 20
153.60065568
 30
0.0
 11
663.87298248
 21
155.07911717
 31
0.0
  0
LINE
  5
1D8
  8
0
  6
STRICHPUNKT2
 62
     1
 10
663.19957024
 20
153.60065568
 30
0.0
 11
666.88861021
 21
153.33077136
 31
0.0
  0
LINE
  5
1D9
  8
0
  6
STRICHPUNKT2
 62
     1
 10
663.19957024
 20
153.60065568
 30
0.0
 11
659.51053026
 21
153.87054001
 31
0.0
  0
LINE
  5
1DA
  8
0
  6
STRICHPUNKT2
 62
     1
 10
658.71015528
 20
144.88946842
 30
0.0
 11
658.71015528
 21
142.74231744
 31
0.0
  0
LINE
  5
1DB
  8
0
  6
STRICHPUNKT2
 62
     1
 10
658.71015528
 20
143.74424578
 30
0.0
 11
658.03674304
 21
142.2657843
 31
0.0
  0
LINE
  5
1DC
  8
0
  6
STRICHPUNKT2
 62
     1
 10
658.71015528
 20
143.74424578
 30
0.0
 11
659.38356752
 21
145.22270727
 31
0.0
  0
LINE
  5
1DD
  8
0
  6
STRICHPUNKT2
 62
     1
 10
658.71015528
 20
143.74424578
 30
0.0
 11
662.39919526
 21
143.47436146
 31
0.0
  0
LINE
  5
1DE
  8
0
  6
STRICHPUNKT2
 62
     1
 10
658.71015528
 20
143.74424578
 30
0.0
 11
655.0211153
 21
144.01413011
 31
0.0
  0
POLYLINE
  5
1DF
  8
0
 66
     1
 10
0.0
 20
0.0
 30
0.0
  0
VERTEX
  5
400
  8
0
 10
672.5001468353645
 20
147.7383858417775
 30
0.0
  0
VERTEX
  5
401
  8
0
 10
672.2797538850381
 20
147.0720572644179
 30
0.0
  0
VERTEX
  5
402
  8
0
 10
672.205351706621
 20
146.3682264555019
 30
0.0
  0
SEQEND
  5
454
  8
0
  0
LINE
  5
1E0
  8
0
 10
672.20535171
 20
146.36822645
 30
0.0
 11
673.34036208
 21
148.86011629
 31
0.0
  0
LINE
  5
1E1
  8
0
 10
668.27037573
 20
146.65610307
 30
0.0
 11
672.20535171
 21
146.36822645
 31
0.0
  0
POLYLINE
  5
1E2
  8
0
 66
     1
 10
0.0
 20
0.0
 30
0.0
  0
VERTEX
  5
403
  8
0
 10
668.8599659807289
 20
149.3964218435551
 30
0.0
  0
VERTEX
  5
404
  8
0
 10
668.4191800802652
 20
148.0637646870914
 30
0.0
  0
VERTEX
  5
405
  8
0
 10
668.270375723991
 20
146.656103067581
 30
0.0
  0
SEQEND
  5
455
  8
0
  0
POLYLINE
  5
1E3
  8
0
 66
     1
 10
0.0
 20
0.0
 30
0.0
  0
VERTEX
  5
406
  8
0
 10
676.1403276505271
 20
153.4097747747242
 30
0.0
  0
VERTEX
  5
407
  8
0
 10
674.6009140013433
 20
153.3808094280922
 30
0.0
  0
VERTEX
  5
408
  8
0
 10
673.1209756990039
 20
153.0697903540285
 30
0.0
  0
VERTEX
  5
409
  8
0
 10
671.7576902553501
 20
152.4887337945357
 30
0.0
  0
VERTEX
  5
40A
  8
0
 10
670.5637282914975
 20
151.6600889072973
 30
0.0
  0
VERTEX
  5
40B
  8
0
 10
669.58521860499
 20
150.6158704410207
 30
0.0
  0
VERTEX
  5
40C
  8
0
 10
668.8599659807289
 20
149.3964218435551
 30
0.0
  0
SEQEND
  5
456
  8
0
  0
POLYLINE
  5
1E4
  8
0
 66
     1
 10
0.0
 20
0.0
 30
0.0
  0
VERTEX
  5
1E5
  8
0
 10
676.14032768
 20
153.40977475
 30
0.0
  0
VERTEX
  5
1E6
  8
0
 10
676.14032768
 20
149.74506229
 30
0.0
  0
SEQEND
  5
1E7
  8
0
  0
POLYLINE
  5
1E8
  8
0
 66
     1
 10
0.0
 20
0.0
 30
0.0
  0
VERTEX
  5
40D
  8
0
 10
676.1403276671624
 20
149.7450623031933
 30
0.0
  0
VERTEX
  5
40E
  8
0
 10
675.3706208434386
 20
149.7305796302926
 30
0.0
  0
VERTEX
  5
40F
  8
0
 10
674.6306516930301
 20
149.575070093821
 30
0.0
  0
VERTEX
  5
410
  8
0
 10
673.949008971828
 20
149.2845418147583
 30
0.0
  0
VERTEX
  5
411
  8
0
 10
673.3520279903661
 20
148.8702193719197
 30
0.0
  0
VERTEX
  5
412
  8
0
 10
672.8627731473983
 20
148.3481101396289
 30
0.0
  0
VERTEX
  5
413
  8
0
 10
672.5001468353645
 20
147.7383858417775
 30
0.0
  0
SEQEND
  5
457
  8
0
  0
LINE
  5
1E9
  8
0
 10
676.14032768
 20
153.40977475
 30
0.0
 11
685.11915759
 21
173.12259454
 31
0.0
  0
POLYLINE
  5
1EA
  8
0
 66
     1
 10
0.0
 20
0.0
 30
0.0
  0
VERTEX
  5
414
  8
0
 10
685.119157560527
 20
173.1225945747242
 30
0.0
  0
VERTEX
  5
415
  8
0
 10
683.5797439113433
 20
173.0936292280922
 30
0.0
  0
VERTEX
  5
416
  8
0
 10
682.0998056090039
 20
172.7826101540285
 30
0.0
  0
VERTEX
  5
417
  8
0
 10
680.73652016535
 20
172.2015535945357
 30
0.0
  0
VERTEX
  5
418
  8
0
 10
679.5425582014974
 20
171.3729087072973
 30
0.0
  0
VERTEX
  5
419
  8
0
 10
678.56404851499
 20
170.3286902410207
 30
0.0
  0
VERTEX
  5
41A
  8
0
 10
677.8387958907289
 20
169.1092416435551
 30
0.0
  0
SEQEND
  5
458
  8
0
  0
LINE
  5
1EB
  8
0
 10
668.85996597
 20
149.39642182
 30
0.0
 11
677.83879588
 21
169.10924162
 31
0.0
  0
POLYLINE
  5
1EC
  8
0
 66
     1
 10
0.0
 20
0.0
 30
0.0
  0
VERTEX
  5
41B
  8
0
 10
733.91383595
 20
156.8186625350354
 30
0.0
  0
VERTEX
  5
41C
  8
0
 10
733.9857889597113
 20
156.5357015497355
 30
0.0
  0
VERTEX
  5
41D
  8
0
 10
734.1986895734632
 20
156.2643747900803
 30
0.0
  0
VERTEX
  5
41E
  8
0
 10
734.543784168131
 20
156.0158381290182
 30
0.0
  0
VERTEX
  5
41F
  8
0
 10
735.0068838319456
 20
155.8003104016447
 30
0.0
  0
VERTEX
  5
420
  8
0
 10
735.5689477558889
 20
155.6266532475067
 30
0.0
  0
VERTEX
  5
421
  8
0
 10
736.206866115731
 20
155.5020067553689
 30
0.0
  0
VERTEX
  5
422
  8
0
 10
736.8944102557248
 20
155.4314958912741
 30
0.0
  0
VERTEX
  5
423
  8
0
 10
737.6033111061992
 20
155.4180197804041
 30
0.0
  0
VERTEX
  5
424
  8
0
 10
738.3044214948253
 20
155.4621325066275
 30
0.0
  0
VERTEX
  5
425
  8
0
 10
738.9689145619585
 20
155.5620203307843
 30
0.0
  0
VERTEX
  5
426
  8
0
 10
739.5694690060006
 20
155.7135762643975
 30
0.0
  0
VERTEX
  5
427
  8
0
 10
740.0813924262281
 20
155.9105689326401
 30
0.0
  0
SEQEND
  5
459
  8
0
  0
POLYLINE
  5
1ED
  8
0
 66
     1
 10
0.0
 20
0.0
 30
0.0
  0
VERTEX
  5
428
  8
0
 10
734.7462794882966
 20
157.7267561342129
 30
0.0
  0
VERTEX
  5
429
  8
0
 10
734.3906832736106
 20
157.5254927401053
 30
0.0
  0
VERTEX
  5
42A
  8
0
 10
734.1285317336836
 20
157.3023814520396
 30
0.0
  0
VERTEX
  5
42B
  8
0
 10
733.967927888114
 20
157.0643185680132
 30
0.0
  0
VERTEX
  5
42C
  8
0
 10
733.91383595
 20
156.8186625350354
 30
0.0
  0
SEQEND
  5
45A
  8
0
  0
POLYLINE
  5
1EE
  8
0
 66
     1
 10
0.0
 20
0.0
 30
0.0
  0
VERTEX
  5
1EF
  8
0
 10
734.74627948
 20
157.72675612
 30
0.0
  0
VERTEX
  5
1F0
  8
0
 10
743.16234809
 20
161.69762534
 30
0.0
  0
SEQEND
  5
1F1
  8
0
  0
POLYLINE
  5
1F2
  8
0
 66
     1
 10
0.0
 20
0.0
 30
0.0
  0
VERTEX
  5
42D
  8
0
 10
749.32990456
 20
160.78953174
 30
0.0
  0
VERTEX
  5
42E
  8
0
 10
749.2579515483427
 20
161.0724927240515
 30
0.0
  0
VERTEX
  5
42F
  8
0
 10
749.0450509338771
 20
161.3438194823977
 30
0.0
  0
VERTEX
  5
430
  8
0
 10
748.699956339686
 20
161.5923561422353
 30
0.0
  0
VERTEX
  5
431
  8
0
 10
748.2368566774028
 20
161.8078838686027
 30
0.0
  0
VERTEX
  5
432
  8
0
 10
747.674792755827
 20
161.9815410220668
 30
0.0
  0
VERTEX
  5
433
  8
0
 10
747.036874398902
 20
162.106187513949
 30
0.0
  0
VERTEX
  5
434
  8
0
 10
746.3493302620407
 20
162.1766983782588
 30
0.0
  0
VERTEX
  5
435
  8
0
 10
745.6404294145542
 20
162.1901744898296
 30
0.0
  0
VERTEX
  5
436
  8
0
 10
744.93931902841
 20
162.1460617647682
 30
0.0
  0
VERTEX
  5
437
  8
0
 10
744.2748259629152
 20
162.0461739421721
 30
0.0
  0
VERTEX
  5
438
  8
0
 10
743.674271519377
 20
161.8946180104205
 30
0.0
  0
VERTEX
  5
439
  8
0
 10
743.1623480982967
 20
161.6976253442129
 30
0.0
  0
SEQEND
  5
45B
  8
0
  0
POLYLINE
  5
1F3
  8
0
 66
     1
 10
0.0
 20
0.0
 30
0.0
  0
VERTEX
  5
43A
  8
0
 10
748.4974610362282
 20
159.8814381426401
 30
0.0
  0
VERTEX
  5
43B
  8
0
 10
748.8530572464514
 20
160.082701536807
 30
0.0
  0
VERTEX
  5
43C
  8
0
 10
749.1152087823514
 20
160.3058128245437
 30
0.0
  0
VERTEX
  5
43D
  8
0
 10
749.2758126245187
 20
160.5438757079181
 30
0.0
  0
VERTEX
  5
43E
  8
0
 10
749.32990456
 20
160.78953174
 30
0.0
  0
SEQEND
  5
45C
  8
0
  0
LINE
  5
1F4
  8
0
 10
748.49746102
 20
159.88143814
 30
0.0
 11
740.08139242
 21
155.91056893
 31
0.0
  0
POLYLINE
  5
1F5
  8
0
 66
     1
 10
0.0
 20
0.0
 30
0.0
  0
VERTEX
  5
43F
  8
0
 10
745.6226781833009
 20
158.5250582169703
 30
0.0
  0
VERTEX
  5
440
  8
0
 10
744.926429569989
 20
158.4799796162779
 30
0.0
  0
VERTEX
  5
441
  8
0
 10
744.2668667461514
 20
158.3798744492903
 30
0.0
  0
VERTEX
  5
442
  8
0
 10
743.6707713971343
 20
158.2288075070886
 30
0.0
  0
VERTEX
  5
443
  8
0
 10
743.1623480982967
 20
158.0329128942129
 30
0.0
  0
SEQEND
  5
45D
  8
0
  0
LINE
  5
1F6
  8
0
 10
743.16234809
 20
158.03291288
 30
0.0
 11
737.62106231
 21
155.41842361
 31
0.0
  0
POLYLINE
  5
1F7
  8
0
 66
     1
 10
0.0
 20
0.0
 30
0.0
  0
VERTEX
  5
1F8
  8
0
 10
751.88861521
 20
147.86814993
 30
0.0
  0
VERTEX
  5
1F9
  8
0
 10
760.86744511
 20
167.58096973
 30
0.0
  0
VERTEX
  5
1FA
  8
0
 10
760.86744511
 20
163.91625728
 30
0.0
  0
SEQEND
  5
1FB
  8
0
  0
LINE
  5
1FC
  8
0
 10
751.88861521
 20
144.20343748
 30
0.0
 11
760.86744511
 21
163.91625728
 31
0.0
  0
LINE
  5
1FD
  8
0
 10
751.88861521
 20
147.86814993
 30
0.0
 11
751.88861521
 21
144.20343748
 31
0.0
  0
POLYLINE
  5
1FE
  8
0
 66
     1
 10
0.0
 20
0.0
 30
0.0
  0
VERTEX
  5
1FF
  8
0
 10
751.88861521
 20
147.86814993
 30
0.0
  0
VERTEX
  5
200
  8
0
 10
676.14032768
 20
153.40977475
 30
0.0
  0
VERTEX
  5
201
  8
0
 10
685.11915759
 20
173.12259454
 30
0.0
  0
VERTEX
  5
202
  8
0
 10
760.86744511
 20
167.58096973
 30
0.0
  0
SEQEND
  5
203
  8
0
  0
LINE
  5
204
  8
0
 10
676.14032768
 20
153.40977475
 30
0.0
 11
676.14032768
 21
149.74506229
 31
0.0
  0
LINE
  5
205
  8
0
 10
751.88861521
 20
144.20343748
 30
0.0
 11
676.14032768
 21
149.74506229
 31
0.0
  0
LINE
  5
206
  8
0
  6
STRICHPUNKT2
 62
     1
 10
737.41383595
 20
158.1929297
 30
0.0
 11
737.41383595
 21
155.41596285
 31
0.0
  0
LINE
  5
207
  8
0
  6
STRICHPUNKT2
 62
     1
 10
745.82990456
 20
162.16379891
 30
0.0
 11
745.82990456
 21
158.62283174
 31
0.0
  0
LINE
  5
208
  8
0
  6
STRICHPUNKT2
 62
     1
 10
734.17688648
 20
155.29140514
 30
0.0
 11
749.06685402
 21
162.31678913
 31
0.0
  0
LINE
  5
209
  8
0
  6
STRICHPUNKT2
 62
     1
 10
741.2246309
 20
155.52138596
 30
0.0
 11
733.603041
 21
158.11593909
 31
0.0
  0
LINE
  5
20A
  8
0
  6
STRICHPUNKT2
 62
     1
 10
749.64069951
 20
159.49225518
 30
0.0
 11
742.0191096
 21
162.08680831
 31
0.0
  0
LINE
  5
20B
  8
0
  6
STRICHPUNKT2
 62
     1
 10
743.9856101
 20
157.75265679
 30
0.0
 11
743.16234809
 21
158.03291288
 31
0.0
  0
LINE
  5
20C
  8
0
 10
872.66142622
 20
219.35577392
 30
0.0
 11
872.66142622
 21
269.35577392
 31
0.0
  0
POLYLINE
  5
20D
  8
0
 66
     1
 10
0.0
 20
0.0
 30
0.0
  0
VERTEX
  5
20E
  8
0
 10
872.66142622
 20
219.35577392
 30
0.0
  0
VERTEX
  5
20F
  8
0
 10
868.66142622
 20
219.35577392
 30
0.0
  0
VERTEX
  5
210
  8
0
 10
868.66142622
 20
269.35577392
 30
0.0
  0
VERTEX
  5
211
  8
0
 10
872.66142622
 20
269.35577392
 30
0.0
  0
SEQEND
  5
212
  8
0
  0
CIRCLE
  5
213
  8
0
 10
860.66142622
 20
231.85577392
 30
0.0
 40
2.5
  0
CIRCLE
  5
214
  8
0
 10
860.66142622
 20
256.85577392
 30
0.0
 40
2.5
  0
CIRCLE
  5
215
  8
0
 10
839.66142622
 20
231.85577392
 30
0.0
 40
2.5
  0
CIRCLE
  5
216
  8
0
 10
839.66142622
 20
256.85577392
 30
0.0
 40
2.5
  0
LINE
  5
217
  8
0
 10
832.66142622
 20
269.35577392
 30
0.0
 11
868.66142622
 21
269.35577392
 31
0.0
  0
LINE
  5
218
  8
0
 10
868.66142622
 20
219.35577392
 30
0.0
 11
868.66142622
 21
269.35577392
 31
0.0
  0
POLYLINE
  5
219
  8
0
 66
     1
 10
0.0
 20
0.0
 30
0.0
  0
VERTEX
  5
21A
  8
0
 10
868.66142622
 20
219.35577392
 30
0.0
  0
VERTEX
  5
21B
  8
0
 10
832.66142622
 20
219.35577392
 30
0.0
  0
VERTEX
  5
21C
  8
0
 10
832.66142622
 20
269.35577392
 30
0.0
  0
SEQEND
  5
21D
  8
0
  0
LINE
  5
21E
  8
0
  6
STRICHPUNKT2
 62
     1
 10
839.66142622
 20
256.85577392
 30
0.0
 11
839.66142622
 21
253.10577392
 31
0.0
  0
LINE
  5
21F
  8
0
  6
STRICHPUNKT2
 62
     1
 10
839.66142622
 20
256.85577392
 30
0.0
 11
839.66142622
 21
260.60577392
 31
0.0
  0
LINE
  5
220
  8
0
  6
STRICHPUNKT2
 62
     1
 10
839.66142622
 20
256.85577392
 30
0.0
 11
843.41142622
 21
256.85577392
 31
0.0
  0
LINE
  5
221
  8
0
  6
STRICHPUNKT2
 62
     1
 10
839.66142622
 20
256.85577392
 30
0.0
 11
835.91142622
 21
256.85577392
 31
0.0
  0
LINE
  5
222
  8
0
  6
STRICHPUNKT2
 62
     1
 10
839.66142622
 20
231.85577392
 30
0.0
 11
839.66142622
 21
228.10577392
 31
0.0
  0
LINE
  5
223
  8
0
  6
STRICHPUNKT2
 62
     1
 10
839.66142622
 20
231.85577392
 30
0.0
 11
839.66142622
 21
235.60577392
 31
0.0
  0
LINE
  5
224
  8
0
  6
STRICHPUNKT2
 62
     1
 10
839.66142622
 20
231.85577392
 30
0.0
 11
843.41142622
 21
231.85577392
 31
0.0
  0
LINE
  5
225
  8
0
  6
STRICHPUNKT2
 62
     1
 10
839.66142622
 20
231.85577392
 30
0.0
 11
835.91142622
 21
231.85577392
 31
0.0
  0
LINE
  5
226
  8
0
  6
STRICHPUNKT2
 62
     1
 10
860.66142622
 20
256.85577392
 30
0.0
 11
860.66142622
 21
253.10577392
 31
0.0
  0
LINE
  5
227
  8
0
  6
STRICHPUNKT2
 62
     1
 10
860.66142622
 20
256.85577392
 30
0.0
 11
860.66142622
 21
260.60577392
 31
0.0
  0
LINE
  5
228
  8
0
  6
STRICHPUNKT2
 62
     1
 10
860.66142622
 20
256.85577392
 30
0.0
 11
864.41142622
 21
256.85577392
 31
0.0
  0
LINE
  5
229
  8
0
  6
STRICHPUNKT2
 62
     1
 10
860.66142622
 20
256.85577392
 30
0.0
 11
856.91142622
 21
256.85577392
 31
0.0
  0
LINE
  5
22A
  8
0
  6
STRICHPUNKT2
 62
     1
 10
860.66142622
 20
231.85577392
 30
0.0
 11
860.66142622
 21
228.10577392
 31
0.0
  0
LINE
  5
22B
  8
0
  6
STRICHPUNKT2
 62
     1
 10
860.66142622
 20
231.85577392
 30
0.0
 11
860.66142622
 21
235.60577392
 31
0.0
  0
LINE
  5
22C
  8
0
  6
STRICHPUNKT2
 62
     1
 10
860.66142622
 20
231.85577392
 30
0.0
 11
864.41142622
 21
231.85577392
 31
0.0
  0
LINE
  5
22D
  8
0
  6
STRICHPUNKT2
 62
     1
 10
860.66142622
 20
231.85577392
 30
0.0
 11
856.91142622
 21
231.85577392
 31
0.0
  0
LINE
  5
22E
  8
0
 10
872.66142622
 20
269.35577392
 30
0.0
 11
880.66142622
 21
269.35577392
 31
0.0
  0
LINE
  5
22F
  8
0
 10
880.66142622
 20
219.35577392
 30
0.0
 11
880.66142622
 21
269.35577392
 31
0.0
  0
POLYLINE
  5
230
  8
0
 66
     1
 10
0.0
 20
0.0
 30
0.0
  0
VERTEX
  5
231
  8
0
 10
880.66142622
 20
219.35577392
 30
0.0
  0
VERTEX
  5
232
  8
0
 10
872.66142622
 20
219.35577392
 30
0.0
  0
VERTEX
  5
233
  8
0
 10
872.66142622
 20
269.35577392
 30
0.0
  0
SEQEND
  5
234
  8
0
  0
POLYLINE
  5
235
  8
0
 66
     1
 10
0.0
 20
0.0
 30
0.0
 70
     1
  0
VERTEX
  5
236
  8
0
 10
942.44251513
 20
236.9766088
 30
0.0
 42
-1.0
  0
VERTEX
  5
237
  8
0
 10
936.3803373
 20
240.4766088
 30
0.0
  0
VERTEX
  5
238
  8
0
 10
942.8803373
 20
251.73493905
 30
0.0
 42
-1.0
  0
VERTEX
  5
239
  8
0
 10
948.94251513
 20
248.23493905
 30
0.0
  0
SEQEND
  5
23A
  8
0
  0
LINE
  5
23B
  8
0
 10
880.66142622
 20
269.35577392
 30
0.0
 11
957.66142622
 21
269.35577392
 31
0.0
  0
LINE
  5
23C
  8
0
 10
957.66142622
 20
219.35577392
 30
0.0
 11
957.66142622
 21
269.35577392
 31
0.0
  0
POLYLINE
  5
23D
  8
0
 66
     1
 10
0.0
 20
0.0
 30
0.0
  0
VERTEX
  5
23E
  8
0
 10
957.66142622
 20
219.35577392
 30
0.0
  0
VERTEX
  5
23F
  8
0
 10
880.66142622
 20
219.35577392
 30
0.0
  0
VERTEX
  5
240
  8
0
 10
880.66142622
 20
269.35577392
 30
0.0
  0
SEQEND
  5
241
  8
0
  0
LINE
  5
242
  8
0
  6
STRICHPUNKT2
 62
     1
 10
936.91142622
 20
234.39648178
 30
0.0
 11
948.41142622
 21
254.31506606
 31
0.0
  0
LINE
  5
243
  8
0
  6
STRICHPUNKT2
 62
     1
 10
943.74155323
 20
236.2266088
 30
0.0
 11
935.0812992
 21
241.2266088
 31
0.0
  0
LINE
  5
244
  8
0
  6
STRICHPUNKT2
 62
     1
 10
950.24155323
 20
247.48493905
 30
0.0
 11
941.5812992
 21
252.48493905
 31
0.0
  0
POLYLINE
  5
245
  8
0
 66
     1
 10
0.0
 20
0.0
 30
0.0
  0
VERTEX
  5
246
  8
0
 10
872.66142622
 20
311.1428329
 30
0.0
  0
VERTEX
  5
247
  8
0
 10
872.66142622
 20
305.6428329
 30
0.0
  0
VERTEX
  5
248
  8
0
 10
876.66142622
 20
305.6428329
 30
0.0
  0
SEQEND
  5
249
  8
0
  0
LINE
  5
24A
  8
0
 10
876.66142622
 20
311.1428329
 30
0.0
 11
876.66142622
 21
305.6428329
 31
0.0
  0
LINE
  5
24B
  8
0
 10
872.66142622
 20
311.1428329
 30
0.0
 11
876.66142622
 21
311.1428329
 31
0.0
  0
POLYLINE
  5
24C
  8
0
 66
     1
 10
0.0
 20
0.0
 30
0.0
  0
VERTEX
  5
24D
  8
0
 10
872.66142622
 20
305.6428329
 30
0.0
 42
-0.414213562
  0
VERTEX
  5
24E
  8
0
 10
868.66142622
 20
301.6428329
 30
0.0
  0
VERTEX
  5
24F
  8
0
 10
868.66142622
 20
297.6428329
 30
0.0
  0
SEQEND
  5
250
  8
0
  0
ARC
  5
251
  8
0
 10
868.66142622
 20
305.6428329
 30
0.0
 40
8.0
 50
-90.0
 51
0.0
  0
LINE
  5
252
  8
0
 10
872.66142622
 20
305.6428329
 30
0.0
 11
876.66142622
 21
305.6428329
 31
0.0
  0
POLYLINE
  5
253
  8
0
 66
     1
 10
0.0
 20
0.0
 30
0.0
  0
VERTEX
  5
254
  8
0
 10
868.66142622
 20
301.6428329
 30
0.0
  0
VERTEX
  5
255
  8
0
 10
832.66142622
 20
301.6428329
 30
0.0
  0
VERTEX
  5
256
  8
0
 10
832.66142622
 20
297.6428329
 30
0.0
  0
SEQEND
  5
257
  8
0
  0
LINE
  5
258
  8
0
 10
868.66142622
 20
297.6428329
 30
0.0
 11
832.66142622
 21
297.6428329
 31
0.0
  0
LINE
  5
259
  8
0
 10
868.66142622
 20
301.6428329
 30
0.0
 11
868.66142622
 21
297.6428329
 31
0.0
  0
LINE
  5
25A
  8
0
  6
STRICHPUNKT2
 62
     1
 10
860.66142622
 20
297.6428329
 30
0.0
 11
860.66142622
 21
296.3928329
 31
0.0
  0
LINE
  5
25B
  8
0
  6
STRICHPUNKT2
 62
     1
 10
860.66142622
 20
302.8928329
 30
0.0
 11
860.66142622
 21
301.6428329
 31
0.0
  0
LINE
  5
25C
  8
0
  6
STRICHPUNKT2
 62
     1
 10
839.66142622
 20
297.6428329
 30
0.0
 11
839.66142622
 21
296.3928329
 31
0.0
  0
LINE
  5
25D
  8
0
  6
STRICHPUNKT2
 62
     1
 10
839.66142622
 20
302.8928329
 30
0.0
 11
839.66142622
 21
301.6428329
 31
0.0
  0
POLYLINE
  5
25E
  8
0
 66
     1
 10
0.0
 20
0.0
 30
0.0
  0
VERTEX
  5
25F
  8
0
 10
880.66142622
 20
319.1428329
 30
0.0
 42
0.414213562
  0
VERTEX
  5
260
  8
0
 10
872.66142622
 20
311.1428329
 30
0.0
  0
VERTEX
  5
261
  8
0
 10
876.66142622
 20
311.1428329
 30
0.0
  0
SEQEND
  5
262
  8
0
  0
ARC
  5
263
  8
0
 10
880.66142622
 20
311.1428329
 30
0.0
 40
4.0
 50
90.0
 51
180.0
  0
LINE
  5
264
  8
0
 10
880.66142622
 20
319.1428329
 30
0.0
 11
880.66142622
 21
315.1428329
 31
0.0
  0
POLYLINE
  5
265
  8
0
 66
     1
 10
0.0
 20
0.0
 30
0.0
  0
VERTEX
  5
266
  8
0
 10
957.66142622
 20
319.1428329
 30
0.0
  0
VERTEX
  5
267
  8
0
 10
880.66142622
 20
319.1428329
 30
0.0
  0
VERTEX
  5
268
  8
0
 10
880.66142622
 20
315.1428329
 30
0.0
  0
SEQEND
  5
269
  8
0
  0
LINE
  5
26A
  8
0
 10
957.66142622
 20
315.1428329
 30
0.0
 11
880.66142622
 21
315.1428329
 31
0.0
  0
LINE
  5
26B
  8
0
 10
957.66142622
 20
319.1428329
 30
0.0
 11
957.66142622
 21
315.1428329
 31
0.0
  0
LINE
  5
26C
  8
0
  6
STRICHPUNKT2
 62
     1
 10
939.41142622
 20
315.1428329
 30
0.0
 11
939.41142622
 21
313.6428329
 31
0.0
  0
LINE
  5
26D
  8
0
  6
STRICHPUNKT2
 62
     1
 10
939.41142622
 20
320.6428329
 30
0.0
 11
939.41142622
 21
319.1428329
 31
0.0
  0
LINE
  5
26E
  8
0
  6
STRICHPUNKT2
 62
     1
 10
945.91142622
 20
315.1428329
 30
0.0
 11
945.91142622
 21
313.6428329
 31
0.0
  0
LINE
  5
26F
  8
0
  6
STRICHPUNKT2
 62
     1
 10
945.91142622
 20
320.6428329
 30
0.0
 11
945.91142622
 21
319.1428329
 31
0.0
  0
LINE
  5
270
  8
0
 10
738.0971374
 20
305.6428329
 30
0.0
 11
738.0971374
 21
311.1428329
 31
0.0
  0
LINE
  5
271
  8
0
 10
788.0971374
 20
311.1428329
 30
0.0
 11
738.0971374
 21
311.1428329
 31
0.0
  0
POLYLINE
  5
272
  8
0
 66
     1
 10
0.0
 20
0.0
 30
0.0
  0
VERTEX
  5
273
  8
0
 10
788.0971374
 20
311.1428329
 30
0.0
  0
VERTEX
  5
274
  8
0
 10
788.0971374
 20
305.6428329
 30
0.0
  0
VERTEX
  5
275
  8
0
 10
738.0971374
 20
305.6428329
 30
0.0
  0
SEQEND
  5
276
  8
0
  0
LINE
  5
277
  8
0
 10
788.0971374
 20
305.6428329
 30
0.0
 11
738.0971374
 21
305.6428329
 31
0.0
  0
LINE
  5
278
  8
0
 10
738.0971374
 20
301.6428329
 30
0.0
 11
738.0971374
 21
305.6428329
 31
0.0
  0
LINE
  5
279
  8
0
 10
788.0971374
 20
305.6428329
 30
0.0
 11
788.0971374
 21
301.6428329
 31
0.0
  0
POLYLINE
  5
27A
  8
0
 66
     1
 10
0.0
 20
0.0
 30
0.0
  0
VERTEX
  5
27B
  8
0
 10
788.0971374
 20
301.6428329
 30
0.0
  0
VERTEX
  5
27C
  8
0
 10
738.0971374
 20
301.6428329
 30
0.0
  0
VERTEX
  5
27D
  8
0
 10
738.0971374
 20
297.6428329
 30
0.0
  0
SEQEND
  5
27E
  8
0
  0
LINE
  5
27F
  8
0
 10
788.0971374
 20
297.6428329
 30
0.0
 11
738.0971374
 21
297.6428329
 31
0.0
  0
LINE
  5
280
  8
0
 10
788.0971374
 20
301.6428329
 30
0.0
 11
788.0971374
 21
297.6428329
 31
0.0
  0
LINE
  5
281
  8
0
  6
STRICHPUNKT2
 62
     1
 10
750.5971374
 20
297.6428329
 30
0.0
 11
750.5971374
 21
296.3928329
 31
0.0
  0
LINE
  5
282
  8
0
  6
STRICHPUNKT2
 62
     1
 10
750.5971374
 20
302.8928329
 30
0.0
 11
750.5971374
 21
301.6428329
 31
0.0
  0
LINE
  5
283
  8
0
  6
STRICHPUNKT2
 62
     1
 10
775.5971374
 20
297.6428329
 30
0.0
 11
775.5971374
 21
296.3928329
 31
0.0
  0
LINE
  5
284
  8
0
  6
STRICHPUNKT2
 62
     1
 10
775.5971374
 20
302.8928329
 30
0.0
 11
775.5971374
 21
301.6428329
 31
0.0
  0
LINE
  5
285
  8
0
 10
738.0971374
 20
311.1428329
 30
0.0
 11
738.0971374
 21
319.1428329
 31
0.0
  0
LINE
  5
286
  8
0
 10
788.0971374
 20
319.1428329
 30
0.0
 11
738.0971374
 21
319.1428329
 31
0.0
  0
POLYLINE
  5
287
  8
0
 66
     1
 10
0.0
 20
0.0
 30
0.0
  0
VERTEX
  5
288
  8
0
 10
788.0971374
 20
319.1428329
 30
0.0
  0
VERTEX
  5
289
  8
0
 10
788.0971374
 20
311.1428329
 30
0.0
  0
VERTEX
  5
28A
  8
0
 10
738.0971374
 20
311.1428329
 30
0.0
  0
SEQEND
  5
28B
  8
0
  0
LINE
  5
28C
  8
0
 10
788.0971374
 20
319.1428329
 30
0.0
 11
738.0971374
 21
319.1428329
 31
0.0
  0
LINE
  5
28D
  8
0
  6
STRICHPUNKT2
 62
     1
 10
768.72630252
 20
320.6428329
 30
0.0
 11
768.72630252
 21
319.1428329
 31
0.0
  0
LINE
  5
28E
  8
0
  6
STRICHPUNKT2
 62
     1
 10
757.46797227
 20
320.6428329
 30
0.0
 11
757.46797227
 21
319.1428329
 31
0.0
  0
TEXT
  5
28F
  8
TXT_DIM49
 10
821.63476369
 20
261.25086963
 30
0.0
 40
2.5
  1
25
 50
90.00020741
  7
ARIAL
  0
LINE
  5
290
  8
0
 62
     4
 10
824.13476369
 20
268.35577392
 30
0.0
 11
822.13476369
 21
270.35577392
 31
0.0
  0
LINE
  5
291
  8
0
 62
     4
 10
822.38476369
 20
257.60577392
 30
0.0
 11
823.88476369
 21
256.10577392
 31
0.0
  0
LINE
  5
292
  8
0
 62
     4
 10
823.13476369
 20
269.35577392
 30
0.0
 11
823.13476369
 21
256.85577392
 31
0.0
  0
LINE
  5
293
  8
0
 62
     4
 10
825.13476369
 20
269.35577392
 30
0.0
 11
821.13476369
 21
269.35577392
 31
0.0
  0
LINE
  5
294
  8
0
 62
     4
 10
825.13476369
 20
256.85577392
 30
0.0
 11
821.13476369
 21
256.85577392
 31
0.0
  0
TEXT
  5
295
  8
TXT_DIM49
 10
821.63476369
 20
242.50086963
 30
0.0
 40
2.5
  1
50
 50
90.00020741
  7
ARIAL
  0
LINE
  5
296
  8
0
 62
     4
 10
824.13476369
 20
255.85577392
 30
0.0
 11
822.13476369
 21
257.85577392
 31
0.0
  0
LINE
  5
297
  8
0
 62
     4
 10
822.38476369
 20
232.60577392
 30
0.0
 11
823.88476369
 21
231.10577392
 31
0.0
  0
LINE
  5
298
  8
0
 62
     4
 10
823.13476369
 20
256.85577392
 30
0.0
 11
823.13476369
 21
231.85577392
 31
0.0
  0
LINE
  5
299
  8
0
 62
     4
 10
825.13476369
 20
256.85577392
 30
0.0
 11
821.13476369
 21
256.85577392
 31
0.0
  0
LINE
  5
29A
  8
0
 62
     4
 10
825.13476369
 20
231.85577392
 30
0.0
 11
821.13476369
 21
231.85577392
 31
0.0
  0
TEXT
  5
29B
  8
TXT_DIM49
 10
821.63476369
 20
223.75086963
 30
0.0
 40
2.5
  1
25
 50
90.00020741
  7
ARIAL
  0
LINE
  5
29C
  8
0
 62
     4
 10
824.13476369
 20
230.85577392
 30
0.0
 11
822.13476369
 21
232.85577392
 31
0.0
  0
LINE
  5
29D
  8
0
 62
     4
 10
822.38476369
 20
220.10577392
 30
0.0
 11
823.88476369
 21
218.60577392
 31
0.0
  0
LINE
  5
29E
  8
0
 62
     4
 10
823.13476369
 20
231.85577392
 30
0.0
 11
823.13476369
 21
219.35577392
 31
0.0
  0
LINE
  5
29F
  8
0
 62
     4
 10
825.13476369
 20
231.85577392
 30
0.0
 11
821.13476369
 21
231.85577392
 31
0.0
  0
LINE
  5
2A0
  8
0
 62
     4
 10
825.13476369
 20
219.35577392
 30
0.0
 11
821.13476369
 21
219.35577392
 31
0.0
  0
TEXT
  5
2A1
  8
TXT_DIM49
 10
834.30652192
 20
278.10121128
 30
0.0
 40
2.5
  1
14
  7
ARIAL
  0
LINE
  5
2A2
  8
0
 62
     4
 10
833.66142622
 20
277.60121128
 30
0.0
 11
831.66142622
 21
275.60121128
 31
0.0
  0
LINE
  5
2A3
  8
0
 62
     4
 10
838.91142622
 20
275.85121128
 30
0.0
 11
840.41142622
 21
277.35121128
 31
0.0
  0
LINE
  5
2A4
  8
0
 62
     4
 10
832.66142622
 20
276.60121128
 30
0.0
 11
839.66142622
 21
276.60121128
 31
0.0
  0
LINE
  5
2A5
  8
0
 62
     4
 10
832.66142622
 20
274.60121128
 30
0.0
 11
832.66142622
 21
278.60121128
 31
0.0
  0
LINE
  5
2A6
  8
0
 62
     4
 10
839.66142622
 20
274.60121128
 30
0.0
 11
839.66142622
 21
278.60121128
 31
0.0
  0
TEXT
  5
2A7
  8
TXT_DIM49
 10
848.30652192
 20
278.10121128
 30
0.0
 40
2.5
  1
42
  7
ARIAL
  0
LINE
  5
2A8
  8
0
 62
     4
 10
840.66142622
 20
277.60121128
 30
0.0
 11
838.66142622
 21
275.60121128
 31
0.0
  0
LINE
  5
2A9
  8
0
 62
     4
 10
859.91142622
 20
275.85121128
 30
0.0
 11
861.41142622
 21
277.35121128
 31
0.0
  0
LINE
  5
2AA
  8
0
 62
     4
 10
839.66142622
 20
276.60121128
 30
0.0
 11
860.66142622
 21
276.60121128
 31
0.0
  0
LINE
  5
2AB
  8
0
 62
     4
 10
839.66142622
 20
274.60121128
 30
0.0
 11
839.66142622
 21
278.60121128
 31
0.0
  0
LINE
  5
2AC
  8
0
 62
     4
 10
860.66142622
 20
274.60121128
 30
0.0
 11
860.66142622
 21
278.60121128
 31
0.0
  0
TEXT
  5
2AD
  8
TXT_DIM49
 10
898.87906971
 20
278.10121128
 30
0.0
 40
2.5
  1
164
  7
ARIAL
  0
LINE
  5
2AE
  8
0
 62
     4
 10
861.66142622
 20
277.60121128
 30
0.0
 11
859.66142622
 21
275.60121128
 31
0.0
  0
LINE
  5
2AF
  8
0
 62
     4
 10
941.91142622
 20
275.85121128
 30
0.0
 11
943.41142622
 21
277.35121128
 31
0.0
  0
LINE
  5
2B0
  8
0
 62
     4
 10
860.66142622
 20
276.60121128
 30
0.0
 11
942.66142622
 21
276.60121128
 31
0.0
  0
LINE
  5
2B1
  8
0
 62
     4
 10
860.66142622
 20
274.60121128
 30
0.0
 11
860.66142622
 21
278.60121128
 31
0.0
  0
LINE
  5
2B2
  8
0
 62
     4
 10
942.66142622
 20
274.60121128
 30
0.0
 11
942.66142622
 21
278.60121128
 31
0.0
  0
TEXT
  5
2B3
  8
TXT_DIM49
 10
948.30652192
 20
278.10121128
 30
0.0
 40
2.5
  1
30
  7
ARIAL
  0
LINE
  5
2B4
  8
0
 62
     4
 10
943.66142622
 20
277.60121128
 30
0.0
 11
941.66142622
 21
275.60121128
 31
0.0
  0
LINE
  5
2B5
  8
0
 62
     4
 10
956.91142622
 20
275.85121128
 30
0.0
 11
958.41142622
 21
277.35121128
 31
0.0
  0
LINE
  5
2B6
  8
0
 62
     4
 10
942.66142622
 20
276.60121128
 30
0.0
 11
957.66142622
 21
276.60121128
 31
0.0
  0
LINE
  5
2B7
  8
0
 62
     4
 10
942.66142622
 20
274.60121128
 30
0.0
 11
942.66142622
 21
278.60121128
 31
0.0
  0
LINE
  5
2B8
  8
0
 62
     4
 10
957.66142622
 20
274.60121128
 30
0.0
 11
957.66142622
 21
278.60121128
 31
0.0
  0
TEXT
  5
2B9
  8
TXT_DIM49
 10
963.5940802
 20
230.00086963
 30
0.0
 40
2.5
  1
50
 50
90.00020741
  7
ARIAL
  0
LINE
  5
2BA
  8
0
 62
     4
 10
964.0940802
 20
220.35577392
 30
0.0
 11
966.0940802
 21
218.35577392
 31
0.0
  0
LINE
  5
2BB
  8
0
 62
     4
 10
965.8440802
 20
243.60577392
 30
0.0
 11
964.3440802
 21
245.10577392
 31
0.0
  0
LINE
  5
2BC
  8
0
 62
     4
 10
965.0940802
 20
219.35577392
 30
0.0
 11
965.0940802
 21
244.35577392
 31
0.0
  0
LINE
  5
2BD
  8
0
 62
     4
 10
963.0940802
 20
219.35577392
 30
0.0
 11
967.0940802
 21
219.35577392
 31
0.0
  0
LINE
  5
2BE
  8
0
 62
     4
 10
963.0940802
 20
244.35577392
 30
0.0
 11
967.0940802
 21
244.35577392
 31
0.0
  0
TEXT
  5
2BF
  8
TXT_DIM49
 10
963.5940802
 20
255.00086963
 30
0.0
 40
2.5
  1
50
 50
90.00020741
  7
ARIAL
  0
LINE
  5
2C0
  8
0
 62
     4
 10
964.0940802
 20
245.35577392
 30
0.0
 11
966.0940802
 21
243.35577392
 31
0.0
  0
LINE
  5
2C1
  8
0
 62
     4
 10
965.8440802
 20
268.60577392
 30
0.0
 11
964.3440802
 21
270.10577392
 31
0.0
  0
LINE
  5
2C2
  8
0
 62
     4
 10
965.0940802
 20
244.35577392
 30
0.0
 11
965.0940802
 21
269.35577392
 31
0.0
  0
LINE
  5
2C3
  8
0
 62
     4
 10
963.0940802
 20
244.35577392
 30
0.0
 11
967.0940802
 21
244.35577392
 31
0.0
  0
LINE
  5
2C4
  8
0
 62
     4
 10
963.0940802
 20
269.35577392
 30
0.0
 11
967.0940802
 21
269.35577392
 31
0.0
  0
TEXT
  5
2C5
  8
TXT_DIM49
 10
943.8040984
 20
228.36389516
 30
0.0
 40
2.5
  1
30
 50
344.999965432
  7
ARIAL
  0
TEXT
  5
2C6
  8
TXT_DIM49
 10
947.38749832
 20
227.40372604
 30
0.0
 40
2.5
  1
°
 50
344.999965432
  7
ARIAL
  0
LINE
  5
2C7
  8
0
 62
     4
 10
936.2080218
 20
231.20461927
 30
0.0
 11
933.48583246
 21
230.43670966
 31
0.0
  0
LINE
  5
2C8
  8
0
 62
     4
 10
956.90162975
 20
223.96746399
 30
0.0
 11
958.42122268
 21
225.44761173
 31
0.0
  0
POLYLINE
  5
2C9
  8
0
 62
     4
 66
     1
 10
0.0
 20
0.0
 30
0.0
  0
VERTEX
  5
444
  8
0
 62
     4
 10
934.8469269458616
 20
230.8206645747455
 30
0.0
  0
VERTEX
  5
445
  8
0
 62
     4
 10
942.0553895837736
 20
227.4593032075962
 30
0.0
  0
VERTEX
  5
446
  8
0
 62
     4
 10
949.7380337557942
 20
225.4007448846776
 30
0.0
  0
VERTEX
  5
447
  8
0
 62
     4
 10
957.6614262024469
 20
224.70753786
 30
0.0
  0
SEQEND
  5
45E
  8
0
 62
     4
  0
LINE
  5
2CA
  8
0
 62
     4
 10
936.91142622
 20
234.39648178
 30
0.0
 11
933.84692713
 21
229.08861366
 31
0.0
  0
TEXT
  5
2CB
  8
TXT_DIM49
 10
809.43617801
 20
241.57341742
 30
0.0
 40
2.5
  1
100
 50
90.00020741
  7
ARIAL
  0
LINE
  5
2CC
  8
0
 62
     4
 10
811.93617801
 20
268.35577392
 30
0.0
 11
809.93617801
 21
270.35577392
 31
0.0
  0
LINE
  5
2CD
  8
0
 62
     4
 10
810.18617801
 20
220.10577392
 30
0.0
 11
811.68617801
 21
218.60577392
 31
0.0
  0
LINE
  5
2CE
  8
0
 62
     4
 10
810.93617801
 20
269.35577392
 30
0.0
 11
810.93617801
 21
219.35577392
 31
0.0
  0
LINE
  5
2CF
  8
0
 62
     4
 10
812.93617801
 20
269.35577392
 30
0.0
 11
808.93617801
 21
269.35577392
 31
0.0
  0
LINE
  5
2D0
  8
0
 62
     4
 10
812.93617801
 20
219.35577392
 30
0.0
 11
808.93617801
 21
219.35577392
 31
0.0
  0
LINE
  5
2D1
  8
0
 62
     5
 10
839.66142622
 20
231.85577392
 30
0.0
 11
842.17834782
 21
237.73027285
 31
0.0
  0
TEXT
  5
2D2
  8
TXT_DIM49
 10
842.17834782
 20
236.48027285
 30
0.0
 40
2.5
  1
Ø10
  7
ARIAL
  0
LINE
  5
2D3
  8
0
 62
     5
 10
860.66142622
 20
231.85577392
 30
0.0
 11
857.88812339
 21
226.0758316
 31
0.0
  0
TEXT
  5
2D4
  8
TXT_DIM49
 10
851.60437132
 20
224.8258316
 30
0.0
 40
2.5
  1
Ø10
  7
ARIAL
  0
LINE
  5
2D5
  8
0
 62
     5
 10
860.66142622
 20
256.85577392
 30
0.0
 11
858.14080763
 21
250.39916699
 31
0.0
  0
TEXT
  5
2D6
  8
TXT_DIM49
 10
851.85705556
 20
249.14916699
 30
0.0
 40
2.5
  1
Ø10
  7
ARIAL
  0
LINE
  5
2D7
  8
0
 62
     5
 10
839.66142622
 20
256.85577392
 30
0.0
 11
841.79932146
 21
261.92726612
 31
0.0
  0
TEXT
  5
2D8
  8
TXT_DIM49
 10
841.79932146
 20
260.67726612
 30
0.0
 40
2.5
  1
Ø10
  7
ARIAL
  0
LINE
  5
2D9
  8
0
 62
     5
 10
942.66142622
 20
244.35577392
 30
0.0
 11
935.29094193
 21
250.4929946
 31
0.0
  0
TEXT
  5
2DA
  8
TXT_DIM49
 10
912.21925068
 20
249.2429946
 30
0.0
 40
2.5
  1
Slobgat 14 x 40
  7
ARIAL
  0
TEXT
  5
2DB
  8
TXT_DIM49
 10
850.80652192
 20
330.0370275
 30
0.0
 40
2.5
  1
80
  7
ARIAL
  0
LINE
  5
2DC
  8
0
 62
     4
 10
833.66142622
 20
329.5370275
 30
0.0
 11
831.66142622
 21
327.5370275
 31
0.0
  0
LINE
  5
2DD
  8
0
 62
     4
 10
871.91142622
 20
327.7870275
 30
0.0
 11
873.41142622
 21
329.2870275
 31
0.0
  0
LINE
  5
2DE
  8
0
 62
     4
 10
832.66142622
 20
328.5370275
 30
0.0
 11
872.66142622
 21
328.5370275
 31
0.0
  0
LINE
  5
2DF
  8
0
 62
     4
 10
832.66142622
 20
326.5370275
 30
0.0
 11
832.66142622
 21
330.5370275
 31
0.0
  0
LINE
  5
2E0
  8
0
 62
     4
 10
872.66142622
 20
326.5370275
 30
0.0
 11
872.66142622
 21
330.5370275
 31
0.0
  0
TEXT
  5
2E1
  8
TXT_DIM49
 10
912.37906971
 20
330.0370275
 30
0.0
 40
2.5
  1
170
  7
ARIAL
  0
LINE
  5
2E2
  8
0
 62
     4
 10
873.66142622
 20
329.5370275
 30
0.0
 11
871.66142622
 21
327.5370275
 31
0.0
  0
LINE
  5
2E3
  8
0
 62
     4
 10
956.91142622
 20
327.7870275
 30
0.0
 11
958.41142622
 21
329.2870275
 31
0.0
  0
LINE
  5
2E4
  8
0
 62
     4
 10
872.66142622
 20
328.5370275
 30
0.0
 11
957.66142622
 21
328.5370275
 31
0.0
  0
LINE
  5
2E5
  8
0
 62
     4
 10
872.66142622
 20
326.5370275
 30
0.0
 11
872.66142622
 21
330.5370275
 31
0.0
  0
LINE
  5
2E6
  8
0
 62
     4
 10
957.66142622
 20
326.5370275
 30
0.0
 11
957.66142622
 21
330.5370275
 31
0.0
  0
TEXT
  5
2E7
  8
TXT_DIM49
 10
892.37906971
 20
343.52928852
 30
0.0
 40
2.5
  1
250
  7
ARIAL
  0
LINE
  5
2E8
  8
0
 62
     4
 10
833.66142622
 20
343.02928852
 30
0.0
 11
831.66142622
 21
341.02928852
 31
0.0
  0
LINE
  5
2E9
  8
0
 62
     4
 10
956.91142622
 20
341.27928852
 30
0.0
 11
958.41142622
 21
342.77928852
 31
0.0
  0
LINE
  5
2EA
  8
0
 62
     4
 10
832.66142622
 20
342.02928852
 30
0.0
 11
957.66142622
 21
342.02928852
 31
0.0
  0
LINE
  5
2EB
  8
0
 62
     4
 10
832.66142622
 20
340.02928852
 30
0.0
 11
832.66142622
 21
344.02928852
 31
0.0
  0
LINE
  5
2EC
  8
0
 62
     4
 10
957.66142622
 20
340.02928852
 30
0.0
 11
957.66142622
 21
344.02928852
 31
0.0
  0
TEXT
  5
2ED
  8
TXT_DIM49
 10
826.108755
 20
298.71538076
 30
0.0
 40
2.5
  1
8
 50
90.00020741
  7
ARIAL
  0
LINE
  5
2EE
  8
0
 62
     4
 10
828.608755
 20
300.6428329
 30
0.0
 11
826.608755
 21
302.6428329
 31
0.0
  0
LINE
  5
2EF
  8
0
 62
     4
 10
826.858755
 20
298.3928329
 30
0.0
 11
828.358755
 21
296.8928329
 31
0.0
  0
LINE
  5
2F0
  8
0
 62
     4
 10
827.608755
 20
301.6428329
 30
0.0
 11
827.608755
 21
297.6428329
 31
0.0
  0
LINE
  5
2F1
  8
0
 62
     4
 10
829.608755
 20
301.6428329
 30
0.0
 11
825.608755
 21
301.6428329
 31
0.0
  0
LINE
  5
2F2
  8
0
 62
     4
 10
829.608755
 20
297.6428329
 30
0.0
 11
825.608755
 21
297.6428329
 31
0.0
  0
TEXT
  5
2F3
  8
TXT_DIM49
 10
760.3147809
 20
330.6428329
 30
0.0
 40
2.5
  1
100
  7
ARIAL
  0
LINE
  5
2F4
  8
0
 62
     4
 10
739.0971374
 20
330.1428329
 30
0.0
 11
737.0971374
 21
328.1428329
 31
0.0
  0
LINE
  5
2F5
  8
0
 62
     4
 10
787.3471374
 20
328.3928329
 30
0.0
 11
788.8471374
 21
329.8928329
 31
0.0
  0
LINE
  5
2F6
  8
0
 62
     4
 10
738.0971374
 20
329.1428329
 30
0.0
 11
788.0971374
 21
329.1428329
 31
0.0
  0
LINE
  5
2F7
  8
0
 62
     4
 10
738.0971374
 20
327.1428329
 30
0.0
 11
738.0971374
 21
331.1428329
 31
0.0
  0
LINE
  5
2F8
  8
0
 62
     4
 10
788.0971374
 20
327.1428329
 30
0.0
 11
788.0971374
 21
331.1428329
 31
0.0
  0
TEXT
  5
2F9
  8
TXT_DIM49
 10
794.76353608
 20
306.53792861
 30
0.0
 40
2.5
  1
43
 50
90.00020741
  7
ARIAL
  0
LINE
  5
2FA
  8
0
 62
     4
 10
797.26353608
 20
318.1428329
 30
0.0
 11
795.26353608
 21
320.1428329
 31
0.0
  0
LINE
  5
2FB
  8
0
 62
     4
 10
795.51353608
 20
298.3928329
 30
0.0
 11
797.01353608
 21
296.8928329
 31
0.0
  0
LINE
  5
2FC
  8
0
 62
     4
 10
796.26353608
 20
319.1428329
 30
0.0
 11
796.26353608
 21
297.6428329
 31
0.0
  0
LINE
  5
2FD
  8
0
 62
     4
 10
794.26353608
 20
319.1428329
 30
0.0
 11
798.26353608
 21
319.1428329
 31
0.0
  0
LINE
  5
2FE
  8
0
 62
     4
 10
794.26353608
 20
297.6428329
 30
0.0
 11
798.26353608
 21
297.6428329
 31
0.0
  0
ENDSEC
  0
EOF
