  0
SECTION
  2
HEADER
  9
$ACADVER
  1
AC1006
  9
$DWGCODEPAGE
  3
ansi_1252
  9
$INSBASE
 10
0.0
 20
0.0
 30
0.0
  9
$EXTMIN
 10
-55.08890942
 20
80.0740344
  9
$EXTMAX
 10
927.74858206
 20
553.4177844
  9
$LIMMIN
 10
-55.08890942
 20
80.0740344
  9
$LIMMAX
 10
927.74858206
 20
553.4177844
  9
$ORTHOMODE
 70
     0
  9
$REGENMODE
 70
     1
  9
$FILLMODE
 70
     1
  9
$QTEXTMODE
 70
     0
  9
$MIRRTEXT
 70
     1
  9
$DRAGMODE
 70
     2
  9
$LTSCALE
 40
1.0
  9
$OSMODE
 70
    37
  9
$ATTMODE
 70
     1
  9
$TEXTSIZE
 40
1.0
  9
$TRACEWID
 40
0.05
  9
$TEXTSTYLE
  7
STANDARD
  9
$CLAYER
  8
0
  9
$CELTYPE
  6
BYBLOCK
  9
$CECOLOR
 62
   256
  9
$DIMSCALE
 40
1.0
  9
$DIMASZ
 40
0.18
  9
$DIMEXO
 40
0.0625
  9
$DIMDLI
 40
0.38
  9
$DIMRND
 40
0.0
  9
$DIMDLE
 40
0.0
  9
$DIMEXE
 40
0.18
  9
$DIMTP
 40
0.0
  9
$DIMTM
 40
0.0
  9
$DIMTXT
 40
0.18
  9
$DIMCEN
 40
0.09
  9
$DIMTSZ
 40
0.0
  9
$DIMTOL
 70
     0
  9
$DIMLIM
 70
     0
  9
$DIMTIH
 70
     1
  9
$DIMTOH
 70
     1
  9
$DIMSE1
 70
     0
  9
$DIMSE2
 70
     0
  9
$DIMTAD
 70
     0
  9
$DIMZIN
 70
     0
  9
$DIMBLK
  1

  9
$DIMASO
 70
     1
  9
$DIMSHO
 70
     1
  9
$DIMPOST
  1

  9
$DIMAPOST
  1

  9
$DIMALT
 70
     0
  9
$DIMALTD
 70
     2
  9
$DIMALTF
 40
25.4
  9
$DIMLFAC
 40
1.0
  9
$DIMTOFL
 70
     0
  9
$DIMTVP
 40
0.0
  9
$DIMTIX
 70
     0
  9
$DIMSOXD
 70
     0
  9
$DIMSAH
 70
     0
  9
$DIMBLK1
  1

  9
$DIMBLK2
  1

  9
$LUNITS
 70
     2
  9
$LUPREC
 70
     4
  9
$SKETCHINC
 40
0.1
  9
$FILLETRAD
 40
0.5
  9
$AUNITS
 70
     0
  9
$AUPREC
 70
     0
  9
$MENU
  1
.
  9
$ELEVATION
 40
0.0
  9
$THICKNESS
 40
0.0
  9
$LIMCHECK
 70
     0
  9
$CHAMFERA
 40
0.0
  9
$CHAMFERB
 40
0.0
  9
$SKPOLY
 70
     0
  9
$TDCREATE
 40
2447893.125
  9
$TDUPDATE
 40
2460791.515024641
  9
$TDINDWG
 40
0.0
  9
$TDUSRTIMER
 40
0.0
  9
$USRTIMER
 70
     1
  9
$ANGBASE
 50
0.0
  9
$ANGDIR
 70
     0
  9
$PDMODE
 70
     0
  9
$PDSIZE
 40
0.0
  9
$PLINEWID
 40
0.0
  9
$COORDS
 70
     1
  9
$SPLFRAME
 70
     0
  9
$SPLINETYPE
 70
     6
  9
$SPLINESEGS
 70
     8
  9
$ATTDIA
 70
     0
  9
$ATTREQ
 70
     1
  9
$HANDLING
 70
     1
  9
$HANDSEED
  5
44D
  9
$SURFTAB1
 70
     6
  9
$SURFTAB2
 70
     6
  9
$SURFTYPE
 70
     6
  9
$SURFU
 70
     6
  9
$SURFV
 70
     6
  9
$UCSNAME
  2

  9
$UCSORG
 10
0.0
 20
0.0
 30
0.0
  9
$UCSXDIR
 10
1.0
 20
0.0
 30
0.0
  9
$UCSYDIR
 10
0.0
 20
1.0
 30
0.0
  9
$USERI1
 70
     0
  9
$USERI2
 70
     0
  9
$USERI3
 70
     0
  9
$USERI4
 70
     0
  9
$USERI5
 70
     0
  9
$USERR1
 40
0.0
  9
$USERR2
 40
0.0
  9
$USERR3
 40
0.0
  9
$USERR4
 40
0.0
  9
$USERR5
 40
0.0
  9
$WORLDVIEW
 70
     1
  0
ENDSEC
  0
SECTION
  2
TABLES
  0
TABLE
  2
VPORT
 70
     1
  0
VPORT
  2
*ACTIVE
 70
     0
 10
0.0
 20
0.0
 11
1.0
 21
1.0
 12
436.32983632
 22
316.7459094
 13
0.0
 23
0.0
 14
1.0
 24
1.0
 15
0.0
 25
0.0
 16
0.0
 26
0.0
 36
1.0
 17
0.0
 27
0.0
 37
0.0
 40
473.34375
 41
2.076371541
 42
50.0
 43
0.0
 44
0.0
 50
0.0
 51
0.0
 71
     0
 72
   100
 73
     1
 74
     1
 75
     0
 76
     0
 77
     0
 78
     0
  0
ENDTAB
  0
TABLE
  2
LTYPE
 70
    19
  0
LTYPE
  2
CONTINUOUS
 70
     0
  3
Solid line
 72
    65
 73
     0
 40
0.0
  0
LTYPE
  2
DOT
 70
     0
  3
..............
 72
    65
 73
     2
 40
2.0
 49
0.5
 49
-1.5
  0
LTYPE
  2
HIDDEN
 70
     0
  3
-- -- -- -- --
 72
    65
 73
     2
 40
7.0
 49
4.0
 49
-3.0
  0
LTYPE
  2
DASHDOT
 70
     0
  3
--.--.--.--.--
 72
    65
 73
     4
 40
8.5
 49
4.0
 49
-2.0
 49
0.5
 49
-2.0
  0
LTYPE
  2
STRICHPUNKT2
 70
     0
  3
--.--.--.--.--
 72
    65
 73
     4
 40
18.5
 49
10.0
 49
-4.0
 49
0.5
 49
-4.0
  0
LTYPE
  2
STRICHPUNKT3
 70
     0
  3
--.--.--.--.--
 72
    65
 73
     4
 40
35.5
 49
25.0
 49
-5.0
 49
0.5
 49
-5.0
  0
LTYPE
  2
PHANTOM
 70
     0
  3
--..--..--..--
 72
    65
 73
     6
 40
23.0
 49
10.0
 49
-4.0
 49
0.5
 49
-4.0
 49
0.5
 49
-4.0
  0
LTYPE
  2
PHANTOM2
 70
     0
  3
--..--..--..--
 72
    65
 73
     6
 40
33.0
 49
20.0
 49
-4.0
 49
0.5
 49
-4.0
 49
0.5
 49
-4.0
  0
LTYPE
  2
PHANTOM3
 70
     0
  3
--..--..--..--
 72
    65
 73
     6
 40
50.0
 49
37.0
 49
-4.0
 49
0.5
 49
-4.0
 49
0.5
 49
-4.0
  0
LTYPE
  2
STR3PKT
 70
     0
  3
--...--...--...
 72
    65
 73
     8
 40
31.5
 49
20.0
 49
-2.5
 49
0.5
 49
-2.5
 49
0.5
 49
-2.5
 49
0.5
 49
-2.5
  0
LTYPE
  2
2STRPKT
 70
     0
  3
--.--.--.--.--
 72
    65
 73
     6
 40
28.0
 49
10.0
 49
-2.5
 49
10.0
 49
-2.5
 49
0.5
 49
-2.5
  0
LTYPE
  2
GESTRICHELT2
 70
     0
  3
-- -- -- -- --
 72
    65
 73
     2
 40
25.0
 49
10.0
 49
-15.0
  0
LTYPE
  2
2STR2PKT
 70
     0
  3
--..--..--..--
 72
    65
 73
     8
 40
31.0
 49
10.0
 49
-2.5
 49
10.0
 49
-2.5
 49
0.5
 49
-2.5
 49
0.5
 49
-2.5
  0
LTYPE
  2
STR3PKT2
 70
     0
  3
--...--...--...
 72
    65
 73
     8
 40
21.0
 49
10.0
 49
-2.5
 49
0.5
 49
-2.5
 49
0.5
 49
-2.5
 49
0.5
 49
-2.0
  0
LTYPE
  2
2STR3PKT
 70
     0
  3
--...--...--...
 72
    65
 73
    10
 40
34.0
 49
10.0
 49
-2.5
 49
10.0
 49
-2.5
 49
0.5
 49
-2.5
 49
0.5
 49
-2.5
 49
0.5
 49
-2.5
  0
LTYPE
  2
STRKSTR
 70
     0
  3
-- - -- - -- -
 72
    65
 73
     4
 40
30.0
 49
20.0
 49
-2.5
 49
5.0
 49
-2.5
  0
LTYPE
  2
STRKSTR2
 70
     0
  3
-- - -- - -- -
 72
    65
 73
     6
 40
37.5
 49
20.0
 49
-2.5
 49
5.0
 49
-2.5
 49
5.0
 49
-2.5
  0
LTYPE
  2
STRKSTR3
 70
     0
  3
-- - -- - -- -
 72
    65
 73
     8
 40
45.0
 49
20.0
 49
-2.5
 49
5.0
 49
-2.5
 49
5.0
 49
-2.5
 49
5.0
 49
-2.5
  0
LTYPE
  2
PUNKT2
 70
     0
  3
..............
 72
    65
 73
     2
 40
3.5
 49
0.5
 49
-3.0
  0
ENDTAB
  0
TABLE
  2
LAYER
 70
    17
  0
LAYER
  2
0
 70
     0
 62
     7
  6
CONTINUOUS
  0
LAYER
  2
LE_GREEN
 70
     0
 62
     3
  6
CONTINUOUS
  0
LAYER
  2
LE_RED
 70
     0
 62
     1
  6
CONTINUOUS
  0
LAYER
  2
LE_ALL
 70
     0
 62
     7
  6
CONTINUOUS
  0
LAYER
  2
LE_HIDDEN1
 70
     0
 62
     3
  6
HIDDEN
  0
LAYER
  2
LE_HIDDEN
 70
     0
 62
     7
  6
CONTINUOUS
  0
LAYER
  2
LE_MIDDLE
 70
     0
 62
     7
  6
CONTINUOUS
  0
LAYER
  2
TXT_YELLOW
 70
     0
 62
     2
  6
CONTINUOUS
  0
LAYER
  2
TXT_DIM49
 70
     0
 62
     2
  6
CONTINUOUS
  0
LAYER
  2
TXT_ALL
 70
     0
 62
     7
  6
CONTINUOUS
  0
LAYER
  2
DIM49
 70
     0
 62
     4
  6
CONTINUOUS
  0
LAYER
  2
HATCH
 70
     0
 62
     3
  6
CONTINUOUS
  0
LAYER
  2
APPLE
 70
     0
 62
     7
  6
CONTINUOUS
  0
LAYER
  2
10
 70
     0
 62
     7
  6
CONTINUOUS
  0
LAYER
  2
20
 70
     0
 62
     7
  6
CONTINUOUS
  0
LAYER
  2
47
 70
     0
 62
     7
  6
CONTINUOUS
  0
LAYER
  2
49
 70
     0
 62
     7
  6
CONTINUOUS
  0
ENDTAB
  0
TABLE
  2
STYLE
 70
     5
  0
STYLE
  2
MONOTXT
 70
     0
 40
0.0
 41
1.0
 50
0.0
 71
     0
 42
1.0
  3
monotxt.shx
  4

  0
STYLE
  2
STANDARD
 70
     0
 40
0.0
 41
1.0
 50
0.0
 71
     0
 42
1.0
  3
txt
  4

  0
STYLE
  2
ARIAL
 70
     0
 40
0.0
 41
1.0
 50
0.0
 71
     0
 42
1.0
  3
arial.ttf
  4

  0
STYLE
  2
ARIAL_NARROW
 70
     0
 40
0.0
 41
1.0
 50
0.0
 71
     0
 42
1.0
  3
ArialN.ttf
  4

  0
STYLE
  2
ISOCPEUR
 70
     0
 40
0.0
 41
1.0
 50
0.0
 71
     0
 42
1.0
  3
ISOCPEUR.ttf
  4

  0
ENDTAB
  0
TABLE
  2
VIEW
 70
     0
  0
ENDTAB
  0
TABLE
  2
UCS
 70
     0
  0
ENDTAB
  0
ENDSEC
  0
SECTION
  2
BLOCKS
  0
ENDSEC
  0
SECTION
  2
ENTITIES
  0
POLYLINE
  5
16E
  8
0
 66
     1
 10
0.0
 20
0.0
 30
0.0
 70
     1
  0
VERTEX
  5
16F
  8
0
 10
150.23260137
 20
151.26629542
 30
0.0
  0
VERTEX
  5
170
  8
0
 10
570.23260137
 20
151.26629542
 30
0.0
  0
VERTEX
  5
171
  8
0
 10
570.23260137
 20
448.26629542
 30
0.0
  0
VERTEX
  5
172
  8
0
 10
150.23260137
 20
448.26629542
 30
0.0
  0
SEQEND
  5
173
  8
0
  0
POLYLINE
  5
174
  8
0
 66
     1
 10
0.0
 20
0.0
 30
0.0
 70
     1
  0
VERTEX
  5
175
  8
0
 10
155.23260137
 20
156.26629542
 30
0.0
  0
VERTEX
  5
176
  8
0
 10
565.23260137
 20
156.26629542
 30
0.0
  0
VERTEX
  5
177
  8
0
 10
565.23260137
 20
443.26629542
 30
0.0
  0
VERTEX
  5
178
  8
0
 10
155.23260137
 20
443.26629542
 30
0.0
  0
SEQEND
  5
179
  8
0
  0
LINE
  5
17A
  8
0
 10
380.23260137
 20
156.26629542
 30
0.0
 11
380.23260137
 21
151.26629542
 31
0.0
  0
LINE
  5
17B
  8
0
 10
380.23260137
 20
443.26629542
 30
0.0
 11
380.23260137
 21
448.26629542
 31
0.0
  0
LINE
  5
17C
  8
0
 10
170.23260137
 20
156.26629542
 30
0.0
 11
170.23260137
 21
151.26629542
 31
0.0
  0
LINE
  5
17D
  8
0
 10
170.23260137
 20
443.26629542
 30
0.0
 11
170.23260137
 21
448.26629542
 31
0.0
  0
TEXT
  5
17E
  8
TXT_ALL
 62
     4
 10
569.23260137
 20
152.26629542
 30
0.0
 40
2.5
  1

 50
90.00020741
  0
POLYLINE
  5
17F
  8
0
 66
     1
 10
0.0
 20
0.0
 30
0.0
  0
VERTEX
  5
180
  8
0
 10
565.23260137
 20
433.26629542
 30
0.0
  0
VERTEX
  5
181
  8
0
 10
496.23930137
 20
433.26629542
 30
0.0
  0
VERTEX
  5
182
  8
0
 10
496.23930137
 20
443.26629542
 30
0.0
  0
SEQEND
  5
183
  8
0
  0
LINE
  5
184
  8
0
 10
498.14260137
 20
175.76629542
 30
0.0
 11
358.25260137
 21
175.76629542
 31
0.0
  0
LINE
  5
185
  8
0
 10
358.25260137
 20
166.01629542
 30
0.0
 11
498.14260137
 21
166.01629542
 31
0.0
  0
POLYLINE
  5
186
  8
0
 66
     1
 10
0.0
 20
0.0
 30
0.0
  0
VERTEX
  5
187
  8
0
 10
358.25260137
 20
175.76629542
 30
0.0
  0
VERTEX
  5
188
  8
0
 10
358.25260137
 20
166.01629542
 30
0.0
  0
VERTEX
  5
189
  8
0
 10
358.25260137
 20
156.26629542
 30
0.0
  0
SEQEND
  5
18A
  8
0
  0
POLYLINE
  5
18B
  8
0
 66
     1
 10
0.0
 20
0.0
 30
0.0
  0
VERTEX
  5
18C
  8
0
 10
428.19760137
 20
175.76629542
 30
0.0
  0
VERTEX
  5
18D
  8
0
 10
428.19760137
 20
166.01629542
 30
0.0
  0
VERTEX
  5
18E
  8
0
 10
428.19760137
 20
156.26629542
 30
0.0
  0
SEQEND
  5
18F
  8
0
  0
TEXT
  5
190
  8
TXT_ALL
 10
360.25260137
 20
169.59129547
 30
0.0
 40
2.5999999
  1
E-mail: verkoop@jonkers-bouwmetaal.nl
  7
ARIAL
  0
TEXT
  5
191
  8
TXT_ALL
 10
360.25260137
 20
159.84129547
 30
0.0
 40
2.5999999
  1
Telefoon: 0527-685156
  7
ARIAL
  0
TEXT
  5
192
  8
TXT_ALL
 10
430.19760137
 20
159.84129547
 30
0.0
 40
2.5999999
  1
Website: www.jonkers-bouwmetaal.nl
  7
ARIAL
  0
TEXT
  5
193
  8
TXT_ALL
 10
430.19760137
 20
169.59129547
 30
0.0
 40
2.5999999
  1
Adres: Hoornse Hop 10, 8321 WX Urk
  7
ARIAL
  0
TEXT
  5
194
  8
TXT_ALL
 10
158.67456162
 20
437.01629542
 30
0.0
 40
2.5
  1
Art. nr. 91013289
  7
ARIAL
  0
TEXT
  5
195
  8
TXT_ALL
 10
201.41259844
 20
437.01629542
 30
0.0
 40
2.5
  1
Omschrijving: Z02-anker 150x45x260 100x10
  7
ARIAL
  0
LINE
  5
196
  8
0
 10
565.23260137
 20
433.26629542
 30
0.0
 11
155.23260137
 21
433.26629542
 31
0.0
  0
LINE
  5
197
  8
0
 10
198.25260137
 20
433.26629542
 30
0.0
 11
198.25260137
 21
443.26629542
 31
0.0
  0
LINE
  5
198
  8
0
 10
358.25260137
 20
433.26629542
 30
0.0
 11
358.25260137
 21
443.26629542
 31
0.0
  0
TEXT
  5
199
  8
TXT_ALL
 10
429.24630137
 20
437.01629542
 30
0.0
 40
2.5
  1
Behandeling: Thermisch Verzinkt
  7
ARIAL
  0
LINE
  5
19A
  8
0
 10
498.14260137
 20
175.76629542
 30
0.0
 11
565.23260137
 21
175.76629542
 31
0.0
  0
LINE
  5
19B
  8
0
 10
498.14260137
 20
156.26629542
 30
0.0
 11
498.14260137
 21
175.76629542
 31
0.0
  0
LINE
  5
19C
  8
0
 10
498.14260137
 20
156.26629542
 30
0.0
 11
498.14260137
 21
175.76629542
 31
0.0
  0
TEXT
  5
19D
  8
TXT_ALL
 10
292.59779946
 20
157.42082883
 30
0.0
 40
2.5
  1

  0
TEXT
  5
19E
  8
TXT_ALL
 10
413.73298243
 20
167.51629542
 30
0.0
 40
2.5
  1

  0
POLYLINE
  5
19F
  8
0
 66
     1
 10
0.0
 20
0.0
 30
0.0
  0
VERTEX
  5
1A0
  8
0
 10
496.23930137
 20
433.26629542
 30
0.0
  0
VERTEX
  5
1A1
  8
0
 10
427.24630137
 20
433.26629542
 30
0.0
  0
VERTEX
  5
1A2
  8
0
 10
427.24630137
 20
443.26629542
 30
0.0
  0
SEQEND
  5
1A3
  8
0
  0
TEXT
  5
1A4
  8
TXT_ALL
 10
498.23930137
 20
437.01629542
 30
0.0
 40
2.5
  1
Verpakkingshoeveelheid: 1 st.
  7
ARIAL
  0
TEXT
  5
1A5
  8
TXT_ALL
 10
360.25260137
 20
437.01629542
 30
0.0
 40
2.5
  1
Materiaal: S355
  7
ARIAL
  0
TEXT
  5
1A6
  8
TXT_ALL
 10
533.34908679
 20
153.01678557
 30
0.0
 40
1.5
  1
Onderdeel van
  7
ARIAL
  0
LINE
  5
1A7
  8
0
 10
247.49001906
 20
217.61469644
 30
0.0
 11
251.52778714
 21
221.34735421
 31
0.0
  0
LINE
  5
1A8
  8
0
 10
247.49001906
 20
215.34696934
 30
0.0
 11
253.58548369
 21
220.98183568
 31
0.0
  0
LINE
  5
1A9
  8
0
 10
247.49001906
 20
217.61469644
 30
0.0
 11
247.49001906
 21
215.34696934
 31
0.0
  0
LINE
  5
1AA
  8
0
 10
242.93955392
 20
218.48688203
 30
0.0
 11
247.49001906
 21
217.61469644
 31
0.0
  0
POLYLINE
  5
1AB
  8
0
 66
     1
 10
0.0
 20
0.0
 30
0.0
  0
VERTEX
  5
1AC
  8
0
 10
242.93955392
 20
218.48688203
 30
0.0
  0
VERTEX
  5
1AD
  8
0
 10
242.93955392
 20
216.21915494
 30
0.0
  0
VERTEX
  5
1AE
  8
0
 10
247.49001906
 20
215.34696934
 30
0.0
  0
SEQEND
  5
1AF
  8
0
  0
LINE
  5
1B0
  8
0
 10
247.49001906
 20
215.34696934
 30
0.0
 11
253.58548369
 21
220.98183568
 31
0.0
  0
POLYLINE
  5
1B1
  8
0
 66
     1
 10
0.0
 20
0.0
 30
0.0
  0
VERTEX
  5
35A
  8
0
 10
245.1772760570973
 20
209.7482816658053
 30
0.0
  0
VERTEX
  5
35B
  8
0
 10
246.1634738337543
 20
210.8854646423295
 30
0.0
  0
VERTEX
  5
35C
  8
0
 10
246.8921985435768
 20
212.228174600878
 30
0.0
  0
VERTEX
  5
35D
  8
0
 10
247.3393161895197
 20
213.7319435033349
 30
0.0
  0
VERTEX
  5
35E
  8
0
 10
247.4900190728721
 20
215.3469693411237
 30
0.0
  0
SEQEND
  5
437
  8
0
  0
LINE
  5
1B2
  8
0
 10
245.17727604
 20
209.74828165
 30
0.0
 11
256.68618086
 21
220.38752646
 31
0.0
  0
POLYLINE
  5
1B3
  8
0
 66
     1
 10
0.0
 20
0.0
 30
0.0
  0
VERTEX
  5
35F
  8
0
 10
238.3890887572525
 20
208.0204321396402
 30
0.0
  0
VERTEX
  5
360
  8
0
 10
240.2903901100508
 20
207.856166870332
 30
0.0
  0
VERTEX
  5
361
  8
0
 10
242.1077842234438
 20
208.0994634719187
 30
0.0
  0
VERTEX
  5
362
  8
0
 10
243.7610668075825
 20
208.7395849055768
 30
0.0
  0
VERTEX
  5
363
  8
0
 10
245.1772760570973
 20
209.7482816658053
 30
0.0
  0
SEQEND
  5
438
  8
0
  0
LINE
  5
1B4
  8
0
 10
238.38908878
 20
212.55588634
 30
0.0
 11
238.38908878
 21
208.02043215
 31
0.0
  0
POLYLINE
  5
1B5
  8
0
 66
     1
 10
0.0
 20
0.0
 30
0.0
  0
VERTEX
  5
364
  8
0
 10
238.3890887686263
 20
212.5558863348201
 30
0.0
  0
VERTEX
  5
365
  8
0
 10
239.3397394450254
 20
212.473753700166
 30
0.0
  0
VERTEX
  5
366
  8
0
 10
240.2484365017219
 20
212.5954020009594
 30
0.0
  0
VERTEX
  5
367
  8
0
 10
241.0750777937912
 20
212.9154627177884
 30
0.0
  0
VERTEX
  5
368
  8
0
 10
241.7831824185486
 20
213.4198110979027
 30
0.0
  0
SEQEND
  5
439
  8
0
  0
POLYLINE
  5
1B6
  8
0
 66
     1
 10
0.0
 20
0.0
 30
0.0
  0
VERTEX
  5
369
  8
0
 10
241.7831824185486
 20
213.4198110979027
 30
0.0
  0
VERTEX
  5
36A
  8
0
 10
242.2762813068771
 20
213.9884025861648
 30
0.0
  0
VERTEX
  5
36B
  8
0
 10
242.6406436617884
 20
214.659757565439
 30
0.0
  0
VERTEX
  5
36C
  8
0
 10
242.8642024847598
 20
215.4116420166675
 30
0.0
  0
VERTEX
  5
36D
  8
0
 10
242.9395539264361
 20
216.2191549355618
 30
0.0
  0
SEQEND
  5
43A
  8
0
  0
LINE
  5
1B7
  8
0
 10
242.93955392
 20
216.21915494
 30
0.0
 11
247.49001906
 21
215.34696934
 31
0.0
  0
LINE
  5
1B8
  8
0
 10
238.38908878
 20
212.55588634
 30
0.0
 11
242.93955392
 21
216.76249969
 31
0.0
  0
POLYLINE
  5
1B9
  8
0
 66
     1
 10
0.0
 20
0.0
 30
0.0
  0
VERTEX
  5
36E
  8
0
 10
225.14251085
 20
220.3971601737777
 30
0.0
  0
VERTEX
  5
36F
  8
0
 10
225.1905476473505
 20
220.1918593507469
 30
0.0
  0
VERTEX
  5
370
  8
0
 10
225.3328120157167
 20
219.9944481230841
 30
0.0
  0
VERTEX
  5
371
  8
0
 10
225.5638368151926
 20
219.8125128935759
 30
0.0
  0
VERTEX
  5
372
  8
0
 10
225.8747438922742
 20
219.6530453310779
 30
0.0
  0
VERTEX
  5
373
  8
0
 10
226.2535852623209
 20
219.5221736846004
 30
0.0
  0
VERTEX
  5
374
  8
0
 10
226.6858022639052
 20
219.4249272781354
 30
0.0
  0
VERTEX
  5
375
  8
0
 10
227.1547850400085
 20
219.3650432365553
 30
0.0
  0
VERTEX
  5
376
  8
0
 10
227.6425108455128
 20
219.34482287
 30
0.0
  0
VERTEX
  5
377
  8
0
 10
228.1302366511894
 20
219.3650432358183
 30
0.0
  0
VERTEX
  5
378
  8
0
 10
228.5992194278035
 20
219.4249272766897
 30
0.0
  0
VERTEX
  5
379
  8
0
 10
229.0314364302171
 20
219.5221736825016
 30
0.0
  0
VERTEX
  5
37A
  8
0
 10
229.4102778013799
 20
219.6530453284066
 30
0.0
  0
VERTEX
  5
37B
  8
0
 10
229.7211848798215
 20
219.8125128904348
 30
0.0
  0
VERTEX
  5
37C
  8
0
 10
229.9522096808489
 20
219.9944481195939
 30
0.0
  0
VERTEX
  5
37D
  8
0
 10
230.0944740508987
 20
220.1918593470419
 30
0.0
  0
VERTEX
  5
37E
  8
0
 10
230.14251085
 20
220.39716017
 30
0.0
  0
SEQEND
  5
43B
  8
0
  0
POLYLINE
  5
1BA
  8
0
 66
     1
 10
0.0
 20
0.0
 30
0.0
  0
VERTEX
  5
37F
  8
0
 10
230.14251085
 20
220.39716017
 30
0.0
  0
VERTEX
  5
380
  8
0
 10
230.0944740511175
 20
220.602460992495
 30
0.0
  0
VERTEX
  5
381
  8
0
 10
229.9522096817075
 20
220.7998722195335
 30
0.0
  0
VERTEX
  5
382
  8
0
 10
229.7211848816912
 20
220.9818074483873
 30
0.0
  0
VERTEX
  5
383
  8
0
 10
229.4102778045529
 20
221.1412750102577
 30
0.0
  0
VERTEX
  5
384
  8
0
 10
229.0314364348809
 20
221.2721466561867
 30
0.0
  0
VERTEX
  5
385
  8
0
 10
228.599219434022
 20
221.3693930622261
 30
0.0
  0
VERTEX
  5
386
  8
0
 10
228.1302366588912
 20
221.4292771035369
 30
0.0
  0
VERTEX
  5
387
  8
0
 10
227.6425108544873
 20
221.44949747
 30
0.0
  0
VERTEX
  5
388
  8
0
 10
227.1547850499108
 20
221.4292771042738
 30
0.0
  0
VERTEX
  5
389
  8
0
 10
226.6858022742694
 20
221.3693930636717
 30
0.0
  0
VERTEX
  5
38A
  8
0
 10
226.2535852725811
 20
221.2721466582854
 30
0.0
  0
VERTEX
  5
38B
  8
0
 10
225.8747439017931
 20
221.141275012929
 30
0.0
  0
VERTEX
  5
38C
  8
0
 10
225.5638368232947
 20
220.9818074515283
 30
0.0
  0
VERTEX
  5
38D
  8
0
 10
225.3328120217269
 20
220.7998722230237
 30
0.0
  0
VERTEX
  5
38E
  8
0
 10
225.1905476506333
 20
220.6024609962001
 30
0.0
  0
VERTEX
  5
38F
  8
0
 10
225.14251085
 20
220.3971601737777
 30
0.0
  0
SEQEND
  5
43C
  8
0
  0
POLYLINE
  5
1BB
  8
0
 66
     1
 10
0.0
 20
0.0
 30
0.0
  0
VERTEX
  5
390
  8
0
 10
235.50261098
 20
229.9744086837777
 30
0.0
  0
VERTEX
  5
391
  8
0
 10
235.5506477773505
 20
229.7691078607469
 30
0.0
  0
VERTEX
  5
392
  8
0
 10
235.6929121457167
 20
229.5716966330841
 30
0.0
  0
VERTEX
  5
393
  8
0
 10
235.9239369451925
 20
229.3897614035759
 30
0.0
  0
VERTEX
  5
394
  8
0
 10
236.2348440222742
 20
229.2302938410779
 30
0.0
  0
VERTEX
  5
395
  8
0
 10
236.6136853923209
 20
229.0994221946004
 30
0.0
  0
VERTEX
  5
396
  8
0
 10
237.0459023939052
 20
229.0021757881354
 30
0.0
  0
VERTEX
  5
397
  8
0
 10
237.5148851700085
 20
228.9422917465553
 30
0.0
  0
VERTEX
  5
398
  8
0
 10
238.0026109755127
 20
228.92207138
 30
0.0
  0
VERTEX
  5
399
  8
0
 10
238.4903367811894
 20
228.9422917458183
 30
0.0
  0
VERTEX
  5
39A
  8
0
 10
238.9593195578035
 20
229.0021757866897
 30
0.0
  0
VERTEX
  5
39B
  8
0
 10
239.3915365602171
 20
229.0994221925016
 30
0.0
  0
VERTEX
  5
39C
  8
0
 10
239.7703779313799
 20
229.2302938384067
 30
0.0
  0
VERTEX
  5
39D
  8
0
 10
240.0812850098215
 20
229.3897614004348
 30
0.0
  0
VERTEX
  5
39E
  8
0
 10
240.3123098108489
 20
229.5716966295939
 30
0.0
  0
VERTEX
  5
39F
  8
0
 10
240.4545741808986
 20
229.7691078570419
 30
0.0
  0
VERTEX
  5
3A0
  8
0
 10
240.50261098
 20
229.97440868
 30
0.0
  0
SEQEND
  5
43D
  8
0
  0
POLYLINE
  5
1BC
  8
0
 66
     1
 10
0.0
 20
0.0
 30
0.0
  0
VERTEX
  5
3A1
  8
0
 10
240.50261098
 20
229.97440868
 30
0.0
  0
VERTEX
  5
3A2
  8
0
 10
240.4545741811175
 20
230.179709502495
 30
0.0
  0
VERTEX
  5
3A3
  8
0
 10
240.3123098117075
 20
230.3771207295335
 30
0.0
  0
VERTEX
  5
3A4
  8
0
 10
240.0812850116912
 20
230.5590559583873
 30
0.0
  0
VERTEX
  5
3A5
  8
0
 10
239.7703779345528
 20
230.7185235202577
 30
0.0
  0
VERTEX
  5
3A6
  8
0
 10
239.3915365648809
 20
230.8493951661867
 30
0.0
  0
VERTEX
  5
3A7
  8
0
 10
238.959319564022
 20
230.9466415722261
 30
0.0
  0
VERTEX
  5
3A8
  8
0
 10
238.4903367888912
 20
231.0065256135369
 30
0.0
  0
VERTEX
  5
3A9
  8
0
 10
238.0026109844872
 20
231.02674598
 30
0.0
  0
VERTEX
  5
3AA
  8
0
 10
237.5148851799108
 20
231.0065256142738
 30
0.0
  0
VERTEX
  5
3AB
  8
0
 10
237.0459024042694
 20
230.9466415736717
 30
0.0
  0
VERTEX
  5
3AC
  8
0
 10
236.6136854025811
 20
230.8493951682854
 30
0.0
  0
VERTEX
  5
3AD
  8
0
 10
236.234844031793
 20
230.718523522929
 30
0.0
  0
VERTEX
  5
3AE
  8
0
 10
235.9239369532947
 20
230.5590559615283
 30
0.0
  0
VERTEX
  5
3AF
  8
0
 10
235.6929121517269
 20
230.3771207330237
 30
0.0
  0
VERTEX
  5
3B0
  8
0
 10
235.5506477806333
 20
230.1797095062001
 30
0.0
  0
VERTEX
  5
3B1
  8
0
 10
235.50261098
 20
229.9744086837777
 30
0.0
  0
SEQEND
  5
43E
  8
0
  0
POLYLINE
  5
1BD
  8
0
 66
     1
 10
0.0
 20
0.0
 30
0.0
  0
VERTEX
  5
3B2
  8
0
 10
202.39018514
 20
224.7580881437777
 30
0.0
  0
VERTEX
  5
3B3
  8
0
 10
202.4382219373505
 20
224.5527873207469
 30
0.0
  0
VERTEX
  5
3B4
  8
0
 10
202.5804863057167
 20
224.3553760930841
 30
0.0
  0
VERTEX
  5
3B5
  8
0
 10
202.8115111051926
 20
224.1734408635759
 30
0.0
  0
VERTEX
  5
3B6
  8
0
 10
203.1224181822742
 20
224.0139733010779
 30
0.0
  0
VERTEX
  5
3B7
  8
0
 10
203.5012595523209
 20
223.8831016546004
 30
0.0
  0
VERTEX
  5
3B8
  8
0
 10
203.9334765539052
 20
223.7858552481354
 30
0.0
  0
VERTEX
  5
3B9
  8
0
 10
204.4024593300085
 20
223.7259712065553
 30
0.0
  0
VERTEX
  5
3BA
  8
0
 10
204.8901851355128
 20
223.70575084
 30
0.0
  0
VERTEX
  5
3BB
  8
0
 10
205.3779109411894
 20
223.7259712058183
 30
0.0
  0
VERTEX
  5
3BC
  8
0
 10
205.8468937178035
 20
223.7858552466897
 30
0.0
  0
VERTEX
  5
3BD
  8
0
 10
206.2791107202171
 20
223.8831016525016
 30
0.0
  0
VERTEX
  5
3BE
  8
0
 10
206.6579520913799
 20
224.0139732984067
 30
0.0
  0
VERTEX
  5
3BF
  8
0
 10
206.9688591698215
 20
224.1734408604349
 30
0.0
  0
VERTEX
  5
3C0
  8
0
 10
207.1998839708489
 20
224.3553760895939
 30
0.0
  0
VERTEX
  5
3C1
  8
0
 10
207.3421483408987
 20
224.5527873170419
 30
0.0
  0
VERTEX
  5
3C2
  8
0
 10
207.39018514
 20
224.75808814
 30
0.0
  0
SEQEND
  5
43F
  8
0
  0
POLYLINE
  5
1BE
  8
0
 66
     1
 10
0.0
 20
0.0
 30
0.0
  0
VERTEX
  5
3C3
  8
0
 10
207.39018514
 20
224.75808814
 30
0.0
  0
VERTEX
  5
3C4
  8
0
 10
207.3421483411175
 20
224.963388962495
 30
0.0
  0
VERTEX
  5
3C5
  8
0
 10
207.1998839717075
 20
225.1608001895335
 30
0.0
  0
VERTEX
  5
3C6
  8
0
 10
206.9688591716912
 20
225.3427354183873
 30
0.0
  0
VERTEX
  5
3C7
  8
0
 10
206.6579520945529
 20
225.5022029802577
 30
0.0
  0
VERTEX
  5
3C8
  8
0
 10
206.2791107248809
 20
225.6330746261867
 30
0.0
  0
VERTEX
  5
3C9
  8
0
 10
205.846893724022
 20
225.7303210322261
 30
0.0
  0
VERTEX
  5
3CA
  8
0
 10
205.3779109488912
 20
225.7902050735369
 30
0.0
  0
VERTEX
  5
3CB
  8
0
 10
204.8901851444872
 20
225.81042544
 30
0.0
  0
VERTEX
  5
3CC
  8
0
 10
204.4024593399108
 20
225.7902050742738
 30
0.0
  0
VERTEX
  5
3CD
  8
0
 10
203.9334765642694
 20
225.7303210336717
 30
0.0
  0
VERTEX
  5
3CE
  8
0
 10
203.5012595625811
 20
225.6330746282854
 30
0.0
  0
VERTEX
  5
3CF
  8
0
 10
203.1224181917931
 20
225.502202982929
 30
0.0
  0
VERTEX
  5
3D0
  8
0
 10
202.8115111132947
 20
225.3427354215283
 30
0.0
  0
VERTEX
  5
3D1
  8
0
 10
202.5804863117269
 20
225.1608001930237
 30
0.0
  0
VERTEX
  5
3D2
  8
0
 10
202.4382219406333
 20
224.9633889662001
 30
0.0
  0
VERTEX
  5
3D3
  8
0
 10
202.39018514
 20
224.7580881437777
 30
0.0
  0
SEQEND
  5
440
  8
0
  0
POLYLINE
  5
1BF
  8
0
 66
     1
 10
0.0
 20
0.0
 30
0.0
  0
VERTEX
  5
3D4
  8
0
 10
212.75028527
 20
234.3353366537777
 30
0.0
  0
VERTEX
  5
3D5
  8
0
 10
212.7983220673505
 20
234.1300358307469
 30
0.0
  0
VERTEX
  5
3D6
  8
0
 10
212.9405864357167
 20
233.932624603084
 30
0.0
  0
VERTEX
  5
3D7
  8
0
 10
213.1716112351926
 20
233.7506893735759
 30
0.0
  0
VERTEX
  5
3D8
  8
0
 10
213.4825183122742
 20
233.5912218110779
 30
0.0
  0
VERTEX
  5
3D9
  8
0
 10
213.8613596823209
 20
233.4603501646004
 30
0.0
  0
VERTEX
  5
3DA
  8
0
 10
214.2935766839052
 20
233.3631037581353
 30
0.0
  0
VERTEX
  5
3DB
  8
0
 10
214.7625594600085
 20
233.3032197165553
 30
0.0
  0
VERTEX
  5
3DC
  8
0
 10
215.2502852655128
 20
233.28299935
 30
0.0
  0
VERTEX
  5
3DD
  8
0
 10
215.7380110711894
 20
233.3032197158183
 30
0.0
  0
VERTEX
  5
3DE
  8
0
 10
216.2069938478035
 20
233.3631037566897
 30
0.0
  0
VERTEX
  5
3DF
  8
0
 10
216.6392108502171
 20
233.4603501625016
 30
0.0
  0
VERTEX
  5
3E0
  8
0
 10
217.0180522213799
 20
233.5912218084066
 30
0.0
  0
VERTEX
  5
3E1
  8
0
 10
217.3289592998215
 20
233.7506893704348
 30
0.0
  0
VERTEX
  5
3E2
  8
0
 10
217.5599841008489
 20
233.9326245995939
 30
0.0
  0
VERTEX
  5
3E3
  8
0
 10
217.7022484708987
 20
234.1300358270418
 30
0.0
  0
VERTEX
  5
3E4
  8
0
 10
217.75028527
 20
234.33533665
 30
0.0
  0
SEQEND
  5
441
  8
0
  0
POLYLINE
  5
1C0
  8
0
 66
     1
 10
0.0
 20
0.0
 30
0.0
  0
VERTEX
  5
3E5
  8
0
 10
217.75028527
 20
234.33533665
 30
0.0
  0
VERTEX
  5
3E6
  8
0
 10
217.7022484711175
 20
234.540637472495
 30
0.0
  0
VERTEX
  5
3E7
  8
0
 10
217.5599841017075
 20
234.7380486995335
 30
0.0
  0
VERTEX
  5
3E8
  8
0
 10
217.3289593016912
 20
234.9199839283873
 30
0.0
  0
VERTEX
  5
3E9
  8
0
 10
217.0180522245529
 20
235.0794514902577
 30
0.0
  0
VERTEX
  5
3EA
  8
0
 10
216.6392108548809
 20
235.2103231361866
 30
0.0
  0
VERTEX
  5
3EB
  8
0
 10
216.206993854022
 20
235.307569542226
 30
0.0
  0
VERTEX
  5
3EC
  8
0
 10
215.7380110788912
 20
235.3674535835368
 30
0.0
  0
VERTEX
  5
3ED
  8
0
 10
215.2502852744873
 20
235.38767395
 30
0.0
  0
VERTEX
  5
3EE
  8
0
 10
214.7625594699108
 20
235.3674535842738
 30
0.0
  0
VERTEX
  5
3EF
  8
0
 10
214.2935766942694
 20
235.3075695436717
 30
0.0
  0
VERTEX
  5
3F0
  8
0
 10
213.8613596925811
 20
235.2103231382854
 30
0.0
  0
VERTEX
  5
3F1
  8
0
 10
213.4825183217931
 20
235.0794514929289
 30
0.0
  0
VERTEX
  5
3F2
  8
0
 10
213.1716112432947
 20
234.9199839315283
 30
0.0
  0
VERTEX
  5
3F3
  8
0
 10
212.9405864417269
 20
234.7380487030237
 30
0.0
  0
VERTEX
  5
3F4
  8
0
 10
212.7983220706333
 20
234.5406374762001
 30
0.0
  0
VERTEX
  5
3F5
  8
0
 10
212.75028527
 20
234.3353366537777
 30
0.0
  0
SEQEND
  5
442
  8
0
  0
LINE
  5
1C1
  8
0
 10
238.38908878
 20
212.55588634
 30
0.0
 11
242.93955392
 21
216.76249969
 31
0.0
  0
LINE
  5
1C2
  8
0
 10
238.38908878
 20
212.55588634
 30
0.0
 11
238.38908878
 21
208.02043215
 31
0.0
  0
POLYLINE
  5
1C3
  8
0
 66
     1
 10
0.0
 20
0.0
 30
0.0
  0
VERTEX
  5
1C4
  8
0
 10
238.38908878
 20
212.55588634
 30
0.0
  0
VERTEX
  5
1C5
  8
0
 10
179.23304193
 20
223.89429906
 30
0.0
  0
VERTEX
  5
1C6
  8
0
 10
199.9532422
 20
243.04879608
 30
0.0
  0
VERTEX
  5
1C7
  8
0
 10
254.46359239
 20
232.60082194
 30
0.0
  0
SEQEND
  5
1C8
  8
0
  0
LINE
  5
1C9
  8
0
 10
179.23304193
 20
223.89429906
 30
0.0
 11
179.23304193
 21
219.35884487
 31
0.0
  0
LINE
  5
1CA
  8
0
 10
238.38908878
 20
208.02043215
 30
0.0
 11
179.23304193
 21
219.35884487
 31
0.0
  0
LINE
  5
1CB
  8
0
  6
STRICHPUNKT2
 62
     1
 10
215.25028527
 20
235.4692002
 30
0.0
 11
215.25028527
 21
233.28299934
 31
0.0
  0
LINE
  5
1CC
  8
0
  6
STRICHPUNKT2
 62
     1
 10
215.25028527
 20
234.33533665
 30
0.0
 11
213.69627025
 21
232.89874938
 31
0.0
  0
LINE
  5
1CD
  8
0
  6
STRICHPUNKT2
 62
     1
 10
215.25028527
 20
234.33533665
 30
0.0
 11
216.80430029
 21
235.77192393
 31
0.0
  0
LINE
  5
1CE
  8
0
  6
STRICHPUNKT2
 62
     1
 10
215.25028527
 20
234.33533665
 30
0.0
 11
218.66313413
 21
233.68119746
 31
0.0
  0
LINE
  5
1CF
  8
0
  6
STRICHPUNKT2
 62
     1
 10
215.25028527
 20
234.33533665
 30
0.0
 11
211.83743642
 21
234.98947585
 31
0.0
  0
LINE
  5
1D0
  8
0
  6
STRICHPUNKT2
 62
     1
 10
204.89018514
 20
225.89195169
 30
0.0
 11
204.89018514
 21
223.70575083
 31
0.0
  0
LINE
  5
1D1
  8
0
  6
STRICHPUNKT2
 62
     1
 10
204.89018514
 20
224.75808814
 30
0.0
 11
203.33617012
 21
223.32150087
 31
0.0
  0
LINE
  5
1D2
  8
0
  6
STRICHPUNKT2
 62
     1
 10
204.89018514
 20
224.75808814
 30
0.0
 11
206.44420016
 21
226.19467542
 31
0.0
  0
LINE
  5
1D3
  8
0
  6
STRICHPUNKT2
 62
     1
 10
204.89018514
 20
224.75808814
 30
0.0
 11
208.30303399
 21
224.10394895
 31
0.0
  0
LINE
  5
1D4
  8
0
  6
STRICHPUNKT2
 62
     1
 10
204.89018514
 20
224.75808814
 30
0.0
 11
201.47733628
 21
225.41222734
 31
0.0
  0
LINE
  5
1D5
  8
0
  6
STRICHPUNKT2
 62
     1
 10
238.00261098
 20
231.10827223
 30
0.0
 11
238.00261098
 21
228.92207137
 31
0.0
  0
LINE
  5
1D6
  8
0
  6
STRICHPUNKT2
 62
     1
 10
238.00261098
 20
229.97440868
 30
0.0
 11
236.44859596
 21
228.53782141
 31
0.0
  0
LINE
  5
1D7
  8
0
  6
STRICHPUNKT2
 62
     1
 10
238.00261098
 20
229.97440868
 30
0.0
 11
239.556626
 21
231.41099596
 31
0.0
  0
LINE
  5
1D8
  8
0
  6
STRICHPUNKT2
 62
     1
 10
238.00261098
 20
229.97440868
 30
0.0
 11
241.41545984
 21
229.32026949
 31
0.0
  0
LINE
  5
1D9
  8
0
  6
STRICHPUNKT2
 62
     1
 10
238.00261098
 20
229.97440868
 30
0.0
 11
234.58976213
 21
230.62854788
 31
0.0
  0
LINE
  5
1DA
  8
0
  6
STRICHPUNKT2
 62
     1
 10
227.64251085
 20
221.53102372
 30
0.0
 11
227.64251085
 21
219.34482286
 31
0.0
  0
LINE
  5
1DB
  8
0
  6
STRICHPUNKT2
 62
     1
 10
227.64251085
 20
220.39716017
 30
0.0
 11
226.08849583
 21
218.9605729
 31
0.0
  0
LINE
  5
1DC
  8
0
  6
STRICHPUNKT2
 62
     1
 10
227.64251085
 20
220.39716017
 30
0.0
 11
229.19652587
 21
221.83374745
 31
0.0
  0
LINE
  5
1DD
  8
0
  6
STRICHPUNKT2
 62
     1
 10
227.64251085
 20
220.39716017
 30
0.0
 11
231.0553597
 21
219.74302098
 31
0.0
  0
LINE
  5
1DE
  8
0
  6
STRICHPUNKT2
 62
     1
 10
227.64251085
 20
220.39716017
 30
0.0
 11
224.22966199
 21
221.05129937
 31
0.0
  0
POLYLINE
  5
1DF
  8
0
 66
     1
 10
0.0
 20
0.0
 30
0.0
  0
VERTEX
  5
3F6
  8
0
 10
248.6463905808806
 20
220.4140402900584
 30
0.0
  0
VERTEX
  5
3F7
  8
0
 10
248.1532916866194
 20
219.845448803352
 30
0.0
  0
VERTEX
  5
3F8
  8
0
 10
247.7889293263218
 20
219.1740938241942
 30
0.0
  0
VERTEX
  5
3F9
  8
0
 10
247.5653704987821
 20
218.4222093718104
 30
0.0
  0
VERTEX
  5
3FA
  8
0
 10
247.4900190535639
 20
217.6146964507195
 30
0.0
  0
SEQEND
  5
443
  8
0
  0
LINE
  5
1E0
  8
0
 10
247.49001906
 20
217.61469644
 30
0.0
 11
251.52778714
 21
221.34735421
 31
0.0
  0
LINE
  5
1E1
  8
0
 10
242.93955392
 20
218.48688203
 30
0.0
 11
247.49001906
 21
217.61469644
 31
0.0
  0
POLYLINE
  5
1E2
  8
0
 66
     1
 10
0.0
 20
0.0
 30
0.0
  0
VERTEX
  5
3FB
  8
0
 10
245.2522969617612
 20
224.0855697401168
 30
0.0
  0
VERTEX
  5
3FC
  8
0
 10
244.2660991732387
 20
222.9483867667041
 30
0.0
  0
VERTEX
  5
3FD
  8
0
 10
243.5373744526436
 20
221.6056768083884
 30
0.0
  0
VERTEX
  5
3FE
  8
0
 10
243.0902567975641
 20
220.1019079036208
 30
0.0
  0
VERTEX
  5
3FF
  8
0
 10
242.9395539071278
 20
218.486882061439
 30
0.0
  0
SEQEND
  5
444
  8
0
  0
POLYLINE
  5
1E3
  8
0
 66
     1
 10
0.0
 20
0.0
 30
0.0
  0
VERTEX
  5
400
  8
0
 10
252.0404841900771
 20
225.8134192366217
 30
0.0
  0
VERTEX
  5
401
  8
0
 10
250.13918286025
 20
225.9776844994618
 30
0.0
  0
VERTEX
  5
402
  8
0
 10
248.3217887682701
 20
225.7343879010629
 30
0.0
  0
VERTEX
  5
403
  8
0
 10
246.6685062011433
 20
225.0942664798536
 30
0.0
  0
VERTEX
  5
404
  8
0
 10
245.2522969617612
 20
224.0855697401168
 30
0.0
  0
SEQEND
  5
445
  8
0
  0
POLYLINE
  5
1E4
  8
0
 66
     1
 10
0.0
 20
0.0
 30
0.0
  0
VERTEX
  5
1E5
  8
0
 10
252.0404842
 20
225.81341923
 30
0.0
  0
VERTEX
  5
1E6
  8
0
 10
252.0404842
 20
221.27796504
 30
0.0
  0
SEQEND
  5
1E7
  8
0
  0
POLYLINE
  5
1E8
  8
0
 66
     1
 10
0.0
 20
0.0
 30
0.0
  0
VERTEX
  5
405
  8
0
 10
252.0404841950385
 20
221.2779650383108
 30
0.0
  0
VERTEX
  5
406
  8
0
 10
251.089833530125
 20
221.3600976697309
 30
0.0
  0
VERTEX
  5
407
  8
0
 10
250.1811364841351
 20
221.2384493705314
 30
0.0
  0
VERTEX
  5
408
  8
0
 10
249.3544952005716
 20
220.9183886599268
 30
0.0
  0
VERTEX
  5
409
  8
0
 10
248.6463905808806
 20
220.4140402900584
 30
0.0
  0
SEQEND
  5
446
  8
0
  0
LINE
  5
1E9
  8
0
 10
252.0404842
 20
225.81341923
 30
0.0
 11
272.76068447
 21
244.96791625
 31
0.0
  0
POLYLINE
  5
1EA
  8
0
 66
     1
 10
0.0
 20
0.0
 30
0.0
  0
VERTEX
  5
40A
  8
0
 10
272.760684460077
 20
244.9679162666217
 30
0.0
  0
VERTEX
  5
40B
  8
0
 10
270.85938313025
 20
245.1321815294618
 30
0.0
  0
VERTEX
  5
40C
  8
0
 10
269.0419890382701
 20
244.8888849310629
 30
0.0
  0
VERTEX
  5
40D
  8
0
 10
267.3887064711433
 20
244.2487635098536
 30
0.0
  0
VERTEX
  5
40E
  8
0
 10
265.9724972317612
 20
243.2400667701168
 30
0.0
  0
SEQEND
  5
447
  8
0
  0
LINE
  5
1EB
  8
0
 10
245.25229694
 20
224.08556973
 30
0.0
 11
265.97249721
 21
243.24006675
 31
0.0
  0
POLYLINE
  5
1EC
  8
0
 66
     1
 10
0.0
 20
0.0
 30
0.0
  0
VERTEX
  5
40F
  8
0
 10
349.1698014
 20
215.4852143752887
 30
0.0
  0
VERTEX
  5
410
  8
0
 10
349.2389821013269
 20
215.1937404352664
 30
0.0
  0
VERTEX
  5
411
  8
0
 10
349.4437893705032
 20
214.9137889934999
 30
0.0
  0
VERTEX
  5
412
  8
0
 10
349.7761268012273
 20
214.6564270430036
 30
0.0
  0
VERTEX
  5
413
  8
0
 10
350.2228564864359
 20
214.431828572846
 30
0.0
  0
VERTEX
  5
414
  8
0
 10
350.7663183838225
 20
214.248872371736
 30
0.0
  0
VERTEX
  5
415
  8
0
 10
351.3850284496402
 20
214.1147910332506
 30
0.0
  0
VERTEX
  5
416
  8
0
 10
352.0545279422838
 20
214.0348850381695
 30
0.0
  0
VERTEX
  5
417
  8
0
 10
352.7483503211229
 20
214.0123132167663
 30
0.0
  0
VERTEX
  5
418
  8
0
 10
353.4390675173066
 20
214.0479678744644
 30
0.0
  0
VERTEX
  5
419
  8
0
 10
354.0993742155391
 20
214.1404395173701
 30
0.0
  0
VERTEX
  5
41A
  8
0
 10
354.7031672831828
 20
214.286072572147
 30
0.0
  0
SEQEND
  5
448
  8
0
  0
POLYLINE
  5
1ED
  8
0
 66
     1
 10
0.0
 20
0.0
 30
0.0
  0
VERTEX
  5
41B
  8
0
 10
350.6364355350783
 20
216.6843561733396
 30
0.0
  0
VERTEX
  5
41C
  8
0
 10
350.1345862620749
 20
216.5009403803085
 30
0.0
  0
VERTEX
  5
41D
  8
0
 10
349.7241531412624
 20
216.2808989920159
 30
0.0
  0
VERTEX
  5
41E
  8
0
 10
349.419935791054
 20
216.0321663792926
 30
0.0
  0
VERTEX
  5
41F
  8
0
 10
349.2329038444286
 20
215.7637114765851
 30
0.0
  0
VERTEX
  5
420
  8
0
 10
349.1698014
 20
215.4852143752887
 30
0.0
  0
SEQEND
  5
449
  8
0
  0
POLYLINE
  5
1EE
  8
0
 66
     1
 10
0.0
 20
0.0
 30
0.0
  0
VERTEX
  5
1EF
  8
0
 10
350.63643552
 20
216.68435618
 30
0.0
  0
VERTEX
  5
1F0
  8
0
 10
361.21753736
 20
219.86346797
 30
0.0
  0
SEQEND
  5
1F1
  8
0
  0
POLYLINE
  5
1F2
  8
0
 66
     1
 10
0.0
 20
0.0
 30
0.0
  0
VERTEX
  5
421
  8
0
 10
366.75090323
 20
218.66432616
 30
0.0
  0
VERTEX
  5
422
  8
0
 10
366.6817225268168
 20
218.955800098605
 30
0.0
  0
VERTEX
  5
423
  8
0
 10
366.4769152570918
 20
219.2357515389058
 30
0.0
  0
VERTEX
  5
424
  8
0
 10
366.1445778270744
 20
219.493113488047
 30
0.0
  0
VERTEX
  5
425
  8
0
 10
365.6978481436806
 20
219.7177119571061
 30
0.0
  0
VERTEX
  5
426
  8
0
 10
365.1543862489845
 20
219.9006681574983
 30
0.0
  0
VERTEX
  5
427
  8
0
 10
364.5356761864309
 20
220.034749495741
 30
0.0
  0
VERTEX
  5
428
  8
0
 10
363.8661766972734
 20
220.1146554911121
 30
0.0
  0
VERTEX
  5
429
  8
0
 10
363.1723543217641
 20
220.1372273133555
 30
0.0
  0
VERTEX
  5
42A
  8
0
 10
362.4816371283725
 20
220.1015726570226
 30
0.0
  0
VERTEX
  5
42B
  8
0
 10
361.8213304320355
 20
220.0091010159402
 30
0.0
  0
VERTEX
  5
42C
  8
0
 10
361.2175373650783
 20
219.8634679633396
 30
0.0
  0
SEQEND
  5
44A
  8
0
  0
POLYLINE
  5
1F3
  8
0
 66
     1
 10
0.0
 20
0.0
 30
0.0
  0
VERTEX
  5
42D
  8
0
 10
365.2842691131828
 20
217.465184362147
 30
0.0
  0
VERTEX
  5
42E
  8
0
 10
365.7861183820319
 20
217.6486001559302
 30
0.0
  0
VERTEX
  5
42F
  8
0
 10
366.1965514987221
 20
217.8686415445335
 30
0.0
  0
VERTEX
  5
430
  8
0
 10
366.5007688450764
 20
218.1173741571615
 30
0.0
  0
VERTEX
  5
431
  8
0
 10
366.6878007883197
 20
218.3858290594244
 30
0.0
  0
VERTEX
  5
432
  8
0
 10
366.75090323
 20
218.66432616
 30
0.0
  0
SEQEND
  5
44B
  8
0
  0
LINE
  5
1F4
  8
0
 10
365.28426911
 20
217.46518435
 30
0.0
 11
354.70316728
 21
214.28607255
 31
0.0
  0
POLYLINE
  5
1F5
  8
0
 66
     1
 10
0.0
 20
0.0
 30
0.0
  0
VERTEX
  5
1F6
  8
0
 10
361.25164761
 20
204.88096497
 30
0.0
  0
VERTEX
  5
1F7
  8
0
 10
381.97184788
 20
224.03546199
 30
0.0
  0
VERTEX
  5
1F8
  8
0
 10
381.97184788
 20
219.5000078
 30
0.0
  0
SEQEND
  5
1F9
  8
0
  0
LINE
  5
1FA
  8
0
 10
361.25164761
 20
200.34551078
 30
0.0
 11
381.97184788
 21
219.5000078
 31
0.0
  0
LINE
  5
1FB
  8
0
 10
361.25164761
 20
204.88096497
 30
0.0
 11
361.25164761
 21
200.34551078
 31
0.0
  0
POLYLINE
  5
1FC
  8
0
 66
     1
 10
0.0
 20
0.0
 30
0.0
  0
VERTEX
  5
1FD
  8
0
 10
361.25164761
 20
204.88096497
 30
0.0
  0
VERTEX
  5
1FE
  8
0
 10
252.0404842
 20
225.81341923
 30
0.0
  0
VERTEX
  5
1FF
  8
0
 10
272.76068447
 20
244.96791625
 30
0.0
  0
VERTEX
  5
200
  8
0
 10
381.97184788
 20
224.03546199
 30
0.0
  0
SEQEND
  5
201
  8
0
  0
LINE
  5
202
  8
0
 10
252.0404842
 20
225.81341923
 30
0.0
 11
252.0404842
 21
221.27796504
 31
0.0
  0
LINE
  5
203
  8
0
 10
361.25164761
 20
200.34551078
 30
0.0
 11
252.0404842
 21
221.27796504
 31
0.0
  0
LINE
  5
204
  8
0
  6
STRICHPUNKT2
 62
     1
 10
352.6698014
 20
216.84585062
 30
0.0
 11
352.6698014
 21
214.01194213
 31
0.0
  0
LINE
  5
205
  8
0
  6
STRICHPUNKT2
 62
     1
 10
363.25090323
 20
220.02496242
 30
0.0
 11
363.25090323
 21
216.85425577
 31
0.0
  0
LINE
  5
206
  8
0
  6
STRICHPUNKT2
 62
     1
 10
348.60014685
 20
214.26247906
 30
0.0
 11
367.32055779
 21
219.88706146
 31
0.0
  0
LINE
  5
207
  8
0
  6
STRICHPUNKT2
 62
     1
 10
355.5746098
 20
213.77215463
 30
0.0
 11
349.764993
 21
217.1982741
 31
0.0
  0
LINE
  5
208
  8
0
  6
STRICHPUNKT2
 62
     1
 10
366.15571163
 20
216.95126643
 30
0.0
 11
360.34609484
 21
220.37738589
 31
0.0
  0
POLYLINE
  5
209
  8
0
 66
     1
 10
0.0
 20
0.0
 30
0.0
  0
VERTEX
  5
20A
  8
0
 10
406.52385804
 20
384.32662594
 30
0.0
  0
VERTEX
  5
20B
  8
0
 10
406.52385804
 20
381.82662594
 30
0.0
  0
VERTEX
  5
20C
  8
0
 10
411.52385804
 20
381.82662594
 30
0.0
  0
SEQEND
  5
20D
  8
0
  0
LINE
  5
20E
  8
0
 10
411.52385804
 20
384.32662594
 30
0.0
 11
411.52385804
 21
381.82662594
 31
0.0
  0
LINE
  5
20F
  8
0
 10
406.52385804
 20
384.32662594
 30
0.0
 11
411.52385804
 21
384.32662594
 31
0.0
  0
POLYLINE
  5
210
  8
0
 66
     1
 10
0.0
 20
0.0
 30
0.0
  0
VERTEX
  5
211
  8
0
 10
406.52385804
 20
381.82662594
 30
0.0
 42
-0.414213562
  0
VERTEX
  5
212
  8
0
 10
401.52385804
 20
376.82662594
 30
0.0
  0
VERTEX
  5
213
  8
0
 10
401.52385804
 20
371.82662594
 30
0.0
  0
SEQEND
  5
214
  8
0
  0
ARC
  5
215
  8
0
 10
401.52385804
 20
381.82662594
 30
0.0
 40
10.0
 50
-90.0
 51
0.0
  0
LINE
  5
216
  8
0
 10
406.52385804
 20
381.82662594
 30
0.0
 11
411.52385804
 21
381.82662594
 31
0.0
  0
POLYLINE
  5
217
  8
0
 66
     1
 10
0.0
 20
0.0
 30
0.0
  0
VERTEX
  5
218
  8
0
 10
401.52385804
 20
376.82662594
 30
0.0
  0
VERTEX
  5
219
  8
0
 10
336.52385804
 20
376.82662594
 30
0.0
  0
VERTEX
  5
21A
  8
0
 10
336.52385804
 20
371.82662594
 30
0.0
  0
SEQEND
  5
21B
  8
0
  0
LINE
  5
21C
  8
0
 10
401.52385804
 20
371.82662594
 30
0.0
 11
336.52385804
 21
371.82662594
 31
0.0
  0
LINE
  5
21D
  8
0
 10
401.52385804
 20
376.82662594
 30
0.0
 11
401.52385804
 21
371.82662594
 31
0.0
  0
LINE
  5
21E
  8
0
  6
STRICHPUNKT2
 62
     1
 10
384.02385804
 20
371.82662594
 30
0.0
 11
384.02385804
 21
370.57662594
 31
0.0
  0
LINE
  5
21F
  8
0
  6
STRICHPUNKT2
 62
     1
 10
384.02385804
 20
378.07662594
 30
0.0
 11
384.02385804
 21
376.82662594
 31
0.0
  0
LINE
  5
220
  8
0
  6
STRICHPUNKT2
 62
     1
 10
359.02385804
 20
371.82662594
 30
0.0
 11
359.02385804
 21
370.57662594
 31
0.0
  0
LINE
  5
221
  8
0
  6
STRICHPUNKT2
 62
     1
 10
359.02385804
 20
378.07662594
 30
0.0
 11
359.02385804
 21
376.82662594
 31
0.0
  0
POLYLINE
  5
222
  8
0
 66
     1
 10
0.0
 20
0.0
 30
0.0
  0
VERTEX
  5
223
  8
0
 10
416.52385804
 20
394.32662594
 30
0.0
 42
0.414213562
  0
VERTEX
  5
224
  8
0
 10
406.52385804
 20
384.32662594
 30
0.0
  0
VERTEX
  5
225
  8
0
 10
411.52385804
 20
384.32662594
 30
0.0
  0
SEQEND
  5
226
  8
0
  0
ARC
  5
227
  8
0
 10
416.52385804
 20
384.32662594
 30
0.0
 40
5.0
 50
90.0
 51
180.0
  0
LINE
  5
228
  8
0
 10
416.52385804
 20
394.32662594
 30
0.0
 11
416.52385804
 21
389.32662594
 31
0.0
  0
POLYLINE
  5
229
  8
0
 66
     1
 10
0.0
 20
0.0
 30
0.0
  0
VERTEX
  5
22A
  8
0
 10
536.52385804
 20
394.32662594
 30
0.0
  0
VERTEX
  5
22B
  8
0
 10
416.52385804
 20
394.32662594
 30
0.0
  0
VERTEX
  5
22C
  8
0
 10
416.52385804
 20
389.32662594
 30
0.0
  0
SEQEND
  5
22D
  8
0
  0
LINE
  5
22E
  8
0
 10
536.52385804
 20
389.32662594
 30
0.0
 11
416.52385804
 21
389.32662594
 31
0.0
  0
LINE
  5
22F
  8
0
 10
536.52385804
 20
394.32662594
 30
0.0
 11
536.52385804
 21
389.32662594
 31
0.0
  0
LINE
  5
230
  8
0
  6
STRICHPUNKT2
 62
     1
 10
518.27385804
 20
389.32662594
 30
0.0
 11
518.27385804
 21
387.82662594
 31
0.0
  0
LINE
  5
231
  8
0
  6
STRICHPUNKT2
 62
     1
 10
518.27385804
 20
395.82662594
 30
0.0
 11
518.27385804
 21
394.32662594
 31
0.0
  0
LINE
  5
232
  8
0
  6
STRICHPUNKT2
 62
     1
 10
524.77385804
 20
389.32662594
 30
0.0
 11
524.77385804
 21
387.82662594
 31
0.0
  0
LINE
  5
233
  8
0
  6
STRICHPUNKT2
 62
     1
 10
524.77385804
 20
395.82662594
 30
0.0
 11
524.77385804
 21
394.32662594
 31
0.0
  0
LINE
  5
234
  8
0
 10
406.52385804
 20
280.45432223
 30
0.0
 11
406.52385804
 21
330.45432223
 31
0.0
  0
POLYLINE
  5
235
  8
0
 66
     1
 10
0.0
 20
0.0
 30
0.0
  0
VERTEX
  5
236
  8
0
 10
406.52385804
 20
280.45432223
 30
0.0
  0
VERTEX
  5
237
  8
0
 10
401.52385804
 20
280.45432223
 30
0.0
  0
VERTEX
  5
238
  8
0
 10
401.52385804
 20
330.45432223
 30
0.0
  0
VERTEX
  5
239
  8
0
 10
406.52385804
 20
330.45432223
 30
0.0
  0
SEQEND
  5
23A
  8
0
  0
CIRCLE
  5
23B
  8
0
 10
384.02385804
 20
292.95432223
 30
0.0
 40
2.5
  0
CIRCLE
  5
23C
  8
0
 10
384.02385804
 20
317.95432223
 30
0.0
 40
2.5
  0
CIRCLE
  5
23D
  8
0
 10
359.02385804
 20
292.95432223
 30
0.0
 40
2.5
  0
CIRCLE
  5
23E
  8
0
 10
359.02385804
 20
317.95432223
 30
0.0
 40
2.5
  0
LINE
  5
23F
  8
0
 10
336.52385804
 20
330.45432223
 30
0.0
 11
401.52385804
 21
330.45432223
 31
0.0
  0
LINE
  5
240
  8
0
 10
401.52385804
 20
280.45432223
 30
0.0
 11
401.52385804
 21
330.45432223
 31
0.0
  0
POLYLINE
  5
241
  8
0
 66
     1
 10
0.0
 20
0.0
 30
0.0
  0
VERTEX
  5
242
  8
0
 10
401.52385804
 20
280.45432223
 30
0.0
  0
VERTEX
  5
243
  8
0
 10
336.52385804
 20
280.45432223
 30
0.0
  0
VERTEX
  5
244
  8
0
 10
336.52385804
 20
330.45432223
 30
0.0
  0
SEQEND
  5
245
  8
0
  0
LINE
  5
246
  8
0
  6
STRICHPUNKT2
 62
     1
 10
359.02385804
 20
317.95432223
 30
0.0
 11
359.02385804
 21
314.20432223
 31
0.0
  0
LINE
  5
247
  8
0
  6
STRICHPUNKT2
 62
     1
 10
359.02385804
 20
317.95432223
 30
0.0
 11
359.02385804
 21
321.70432223
 31
0.0
  0
LINE
  5
248
  8
0
  6
STRICHPUNKT2
 62
     1
 10
359.02385804
 20
317.95432223
 30
0.0
 11
362.77385804
 21
317.95432223
 31
0.0
  0
LINE
  5
249
  8
0
  6
STRICHPUNKT2
 62
     1
 10
359.02385804
 20
317.95432223
 30
0.0
 11
355.27385804
 21
317.95432223
 31
0.0
  0
LINE
  5
24A
  8
0
  6
STRICHPUNKT2
 62
     1
 10
359.02385804
 20
292.95432223
 30
0.0
 11
359.02385804
 21
289.20432223
 31
0.0
  0
LINE
  5
24B
  8
0
  6
STRICHPUNKT2
 62
     1
 10
359.02385804
 20
292.95432223
 30
0.0
 11
359.02385804
 21
296.70432223
 31
0.0
  0
LINE
  5
24C
  8
0
  6
STRICHPUNKT2
 62
     1
 10
359.02385804
 20
292.95432223
 30
0.0
 11
362.77385804
 21
292.95432223
 31
0.0
  0
LINE
  5
24D
  8
0
  6
STRICHPUNKT2
 62
     1
 10
359.02385804
 20
292.95432223
 30
0.0
 11
355.27385804
 21
292.95432223
 31
0.0
  0
LINE
  5
24E
  8
0
  6
STRICHPUNKT2
 62
     1
 10
384.02385804
 20
317.95432223
 30
0.0
 11
384.02385804
 21
314.20432223
 31
0.0
  0
LINE
  5
24F
  8
0
  6
STRICHPUNKT2
 62
     1
 10
384.02385804
 20
317.95432223
 30
0.0
 11
384.02385804
 21
321.70432223
 31
0.0
  0
LINE
  5
250
  8
0
  6
STRICHPUNKT2
 62
     1
 10
384.02385804
 20
317.95432223
 30
0.0
 11
387.77385804
 21
317.95432223
 31
0.0
  0
LINE
  5
251
  8
0
  6
STRICHPUNKT2
 62
     1
 10
384.02385804
 20
317.95432223
 30
0.0
 11
380.27385804
 21
317.95432223
 31
0.0
  0
LINE
  5
252
  8
0
  6
STRICHPUNKT2
 62
     1
 10
384.02385804
 20
292.95432223
 30
0.0
 11
384.02385804
 21
289.20432223
 31
0.0
  0
LINE
  5
253
  8
0
  6
STRICHPUNKT2
 62
     1
 10
384.02385804
 20
292.95432223
 30
0.0
 11
384.02385804
 21
296.70432223
 31
0.0
  0
LINE
  5
254
  8
0
  6
STRICHPUNKT2
 62
     1
 10
384.02385804
 20
292.95432223
 30
0.0
 11
387.77385804
 21
292.95432223
 31
0.0
  0
LINE
  5
255
  8
0
  6
STRICHPUNKT2
 62
     1
 10
384.02385804
 20
292.95432223
 30
0.0
 11
380.27385804
 21
292.95432223
 31
0.0
  0
LINE
  5
256
  8
0
 10
406.52385804
 20
330.45432223
 30
0.0
 11
416.52385804
 21
330.45432223
 31
0.0
  0
LINE
  5
257
  8
0
 10
416.52385804
 20
280.45432223
 30
0.0
 11
416.52385804
 21
330.45432223
 31
0.0
  0
POLYLINE
  5
258
  8
0
 66
     1
 10
0.0
 20
0.0
 30
0.0
  0
VERTEX
  5
259
  8
0
 10
416.52385804
 20
280.45432223
 30
0.0
  0
VERTEX
  5
25A
  8
0
 10
406.52385804
 20
280.45432223
 30
0.0
  0
VERTEX
  5
25B
  8
0
 10
406.52385804
 20
330.45432223
 30
0.0
  0
SEQEND
  5
25C
  8
0
  0
POLYLINE
  5
25D
  8
0
 66
     1
 10
0.0
 20
0.0
 30
0.0
 70
     1
  0
VERTEX
  5
25E
  8
0
 10
521.30494695
 20
298.07515711
 30
0.0
 42
-1.0
  0
VERTEX
  5
25F
  8
0
 10
515.24276913
 20
301.57515711
 30
0.0
  0
VERTEX
  5
260
  8
0
 10
521.74276913
 20
312.83348736
 30
0.0
 42
-1.0
  0
VERTEX
  5
261
  8
0
 10
527.80494695
 20
309.33348736
 30
0.0
  0
SEQEND
  5
262
  8
0
  0
LINE
  5
263
  8
0
 10
416.52385804
 20
330.45432223
 30
0.0
 11
536.52385804
 21
330.45432223
 31
0.0
  0
LINE
  5
264
  8
0
 10
536.52385804
 20
280.45432223
 30
0.0
 11
536.52385804
 21
330.45432223
 31
0.0
  0
POLYLINE
  5
265
  8
0
 66
     1
 10
0.0
 20
0.0
 30
0.0
  0
VERTEX
  5
266
  8
0
 10
536.52385804
 20
280.45432223
 30
0.0
  0
VERTEX
  5
267
  8
0
 10
416.52385804
 20
280.45432223
 30
0.0
  0
VERTEX
  5
268
  8
0
 10
416.52385804
 20
330.45432223
 30
0.0
  0
SEQEND
  5
269
  8
0
  0
LINE
  5
26A
  8
0
  6
STRICHPUNKT2
 62
     1
 10
515.77385804
 20
295.49503009
 30
0.0
 11
527.27385804
 21
315.41361438
 31
0.0
  0
LINE
  5
26B
  8
0
  6
STRICHPUNKT2
 62
     1
 10
522.60398506
 20
297.32515711
 30
0.0
 11
513.94373102
 21
302.32515711
 31
0.0
  0
LINE
  5
26C
  8
0
  6
STRICHPUNKT2
 62
     1
 10
529.10398506
 20
308.58348736
 30
0.0
 11
520.44373102
 21
313.58348736
 31
0.0
  0
LINE
  5
26D
  8
0
 10
244.32858695
 20
381.82662594
 30
0.0
 11
244.32858695
 21
384.32662594
 31
0.0
  0
LINE
  5
26E
  8
0
 10
294.32858695
 20
384.32662594
 30
0.0
 11
244.32858695
 21
384.32662594
 31
0.0
  0
POLYLINE
  5
26F
  8
0
 66
     1
 10
0.0
 20
0.0
 30
0.0
  0
VERTEX
  5
270
  8
0
 10
294.32858695
 20
384.32662594
 30
0.0
  0
VERTEX
  5
271
  8
0
 10
294.32858695
 20
381.82662594
 30
0.0
  0
VERTEX
  5
272
  8
0
 10
244.32858695
 20
381.82662594
 30
0.0
  0
SEQEND
  5
273
  8
0
  0
LINE
  5
274
  8
0
 10
294.32858695
 20
381.82662594
 30
0.0
 11
244.32858695
 21
381.82662594
 31
0.0
  0
LINE
  5
275
  8
0
 10
244.32858695
 20
376.82662594
 30
0.0
 11
244.32858695
 21
381.82662594
 31
0.0
  0
LINE
  5
276
  8
0
 10
294.32858695
 20
381.82662594
 30
0.0
 11
294.32858695
 21
376.82662594
 31
0.0
  0
POLYLINE
  5
277
  8
0
 66
     1
 10
0.0
 20
0.0
 30
0.0
  0
VERTEX
  5
278
  8
0
 10
294.32858695
 20
376.82662594
 30
0.0
  0
VERTEX
  5
279
  8
0
 10
244.32858695
 20
376.82662594
 30
0.0
  0
VERTEX
  5
27A
  8
0
 10
244.32858695
 20
371.82662594
 30
0.0
  0
SEQEND
  5
27B
  8
0
  0
LINE
  5
27C
  8
0
 10
294.32858695
 20
371.82662594
 30
0.0
 11
244.32858695
 21
371.82662594
 31
0.0
  0
LINE
  5
27D
  8
0
 10
294.32858695
 20
376.82662594
 30
0.0
 11
294.32858695
 21
371.82662594
 31
0.0
  0
LINE
  5
27E
  8
0
  6
STRICHPUNKT2
 62
     1
 10
256.82858695
 20
371.82662594
 30
0.0
 11
256.82858695
 21
370.57662594
 31
0.0
  0
LINE
  5
27F
  8
0
  6
STRICHPUNKT2
 62
     1
 10
256.82858695
 20
378.07662594
 30
0.0
 11
256.82858695
 21
376.82662594
 31
0.0
  0
LINE
  5
280
  8
0
  6
STRICHPUNKT2
 62
     1
 10
281.82858695
 20
371.82662594
 30
0.0
 11
281.82858695
 21
370.57662594
 31
0.0
  0
LINE
  5
281
  8
0
  6
STRICHPUNKT2
 62
     1
 10
281.82858695
 20
378.07662594
 30
0.0
 11
281.82858695
 21
376.82662594
 31
0.0
  0
LINE
  5
282
  8
0
 10
244.32858695
 20
384.32662594
 30
0.0
 11
244.32858695
 21
394.32662594
 31
0.0
  0
LINE
  5
283
  8
0
 10
294.32858695
 20
394.32662594
 30
0.0
 11
244.32858695
 21
394.32662594
 31
0.0
  0
POLYLINE
  5
284
  8
0
 66
     1
 10
0.0
 20
0.0
 30
0.0
  0
VERTEX
  5
285
  8
0
 10
294.32858695
 20
394.32662594
 30
0.0
  0
VERTEX
  5
286
  8
0
 10
294.32858695
 20
384.32662594
 30
0.0
  0
VERTEX
  5
287
  8
0
 10
244.32858695
 20
384.32662594
 30
0.0
  0
SEQEND
  5
288
  8
0
  0
LINE
  5
289
  8
0
 10
294.32858695
 20
394.32662594
 30
0.0
 11
244.32858695
 21
394.32662594
 31
0.0
  0
LINE
  5
28A
  8
0
  6
STRICHPUNKT2
 62
     1
 10
274.95775207
 20
395.82662594
 30
0.0
 11
274.95775207
 21
394.32662594
 31
0.0
  0
LINE
  5
28B
  8
0
  6
STRICHPUNKT2
 62
     1
 10
263.69942182
 20
395.82662594
 30
0.0
 11
263.69942182
 21
394.32662594
 31
0.0
  0
TEXT
  5
28C
  8
TXT_DIM49
 10
368.74150154
 20
406.76585486
 30
0.0
 40
2.5
  1
140
  7
ARIAL
  0
LINE
  5
28D
  8
0
 62
     4
 10
337.52385804
 20
406.26585486
 30
0.0
 11
335.52385804
 21
404.26585486
 31
0.0
  0
LINE
  5
28E
  8
0
 62
     4
 10
405.77385804
 20
404.51585486
 30
0.0
 11
407.27385804
 21
406.01585486
 31
0.0
  0
LINE
  5
28F
  8
0
 62
     4
 10
336.52385804
 20
405.26585486
 30
0.0
 11
406.52385804
 21
405.26585486
 31
0.0
  0
LINE
  5
290
  8
0
 62
     4
 10
336.52385804
 20
403.26585486
 30
0.0
 11
336.52385804
 21
407.26585486
 31
0.0
  0
LINE
  5
291
  8
0
 62
     4
 10
406.52385804
 20
403.26585486
 30
0.0
 11
406.52385804
 21
407.26585486
 31
0.0
  0
TEXT
  5
292
  8
TXT_DIM49
 10
468.74150154
 20
406.76585486
 30
0.0
 40
2.5
  1
260
  7
ARIAL
  0
LINE
  5
293
  8
0
 62
     4
 10
407.52385804
 20
406.26585486
 30
0.0
 11
405.52385804
 21
404.26585486
 31
0.0
  0
LINE
  5
294
  8
0
 62
     4
 10
535.77385804
 20
404.51585486
 30
0.0
 11
537.27385804
 21
406.01585486
 31
0.0
  0
LINE
  5
295
  8
0
 62
     4
 10
406.52385804
 20
405.26585486
 30
0.0
 11
536.52385804
 21
405.26585486
 31
0.0
  0
LINE
  5
296
  8
0
 62
     4
 10
406.52385804
 20
403.26585486
 30
0.0
 11
406.52385804
 21
407.26585486
 31
0.0
  0
LINE
  5
297
  8
0
 62
     4
 10
536.52385804
 20
403.26585486
 30
0.0
 11
536.52385804
 21
407.26585486
 31
0.0
  0
TEXT
  5
298
  8
TXT_DIM49
 10
433.74150154
 20
416.76585486
 30
0.0
 40
2.5
  1
400
  7
ARIAL
  0
LINE
  5
299
  8
0
 62
     4
 10
535.52385804
 20
414.26585486
 30
0.0
 11
537.52385804
 21
416.26585486
 31
0.0
  0
LINE
  5
29A
  8
0
 62
     4
 10
337.27385804
 20
416.01585486
 30
0.0
 11
335.77385804
 21
414.51585486
 31
0.0
  0
LINE
  5
29B
  8
0
 62
     4
 10
536.52385804
 20
415.26585486
 30
0.0
 11
336.52385804
 21
415.26585486
 31
0.0
  0
LINE
  5
29C
  8
0
 62
     4
 10
536.52385804
 20
413.26585486
 30
0.0
 11
536.52385804
 21
417.26585486
 31
0.0
  0
LINE
  5
29D
  8
0
 62
     4
 10
336.52385804
 20
413.26585486
 30
0.0
 11
336.52385804
 21
417.26585486
 31
0.0
  0
TEXT
  5
29E
  8
TXT_DIM49
 10
325.14841289
 20
372.47172164
 30
0.0
 40
2.5
  1
10
 50
90.00020741
  7
ARIAL
  0
LINE
  5
29F
  8
0
 62
     4
 10
327.64841289
 20
375.82662594
 30
0.0
 11
325.64841289
 21
377.82662594
 31
0.0
  0
LINE
  5
2A0
  8
0
 62
     4
 10
325.89841289
 20
372.57662594
 30
0.0
 11
327.39841289
 21
371.07662594
 31
0.0
  0
LINE
  5
2A1
  8
0
 62
     4
 10
326.64841289
 20
376.82662594
 30
0.0
 11
326.64841289
 21
371.82662594
 31
0.0
  0
LINE
  5
2A2
  8
0
 62
     4
 10
328.64841289
 20
376.82662594
 30
0.0
 11
324.64841289
 21
376.82662594
 31
0.0
  0
LINE
  5
2A3
  8
0
 62
     4
 10
328.64841289
 20
371.82662594
 30
0.0
 11
324.64841289
 21
371.82662594
 31
0.0
  0
TEXT
  5
2A4
  8
TXT_DIM49
 10
345.91895375
 20
340.86894391
 30
0.0
 40
2.5
  1
45
  7
ARIAL
  0
LINE
  5
2A5
  8
0
 62
     4
 10
337.52385804
 20
340.36894391
 30
0.0
 11
335.52385804
 21
338.36894391
 31
0.0
  0
LINE
  5
2A6
  8
0
 62
     4
 10
358.27385804
 20
338.61894391
 30
0.0
 11
359.77385804
 21
340.11894391
 31
0.0
  0
LINE
  5
2A7
  8
0
 62
     4
 10
336.52385804
 20
339.36894391
 30
0.0
 11
359.02385804
 21
339.36894391
 31
0.0
  0
LINE
  5
2A8
  8
0
 62
     4
 10
336.52385804
 20
337.36894391
 30
0.0
 11
336.52385804
 21
341.36894391
 31
0.0
  0
LINE
  5
2A9
  8
0
 62
     4
 10
359.02385804
 20
337.36894391
 30
0.0
 11
359.02385804
 21
341.36894391
 31
0.0
  0
TEXT
  5
2AA
  8
TXT_DIM49
 10
369.66895375
 20
340.86894391
 30
0.0
 40
2.5
  1
50
  7
ARIAL
  0
LINE
  5
2AB
  8
0
 62
     4
 10
360.02385804
 20
340.36894391
 30
0.0
 11
358.02385804
 21
338.36894391
 31
0.0
  0
LINE
  5
2AC
  8
0
 62
     4
 10
383.27385804
 20
338.61894391
 30
0.0
 11
384.77385804
 21
340.11894391
 31
0.0
  0
LINE
  5
2AD
  8
0
 62
     4
 10
359.02385804
 20
339.36894391
 30
0.0
 11
384.02385804
 21
339.36894391
 31
0.0
  0
LINE
  5
2AE
  8
0
 62
     4
 10
359.02385804
 20
337.36894391
 30
0.0
 11
359.02385804
 21
341.36894391
 31
0.0
  0
LINE
  5
2AF
  8
0
 62
     4
 10
384.02385804
 20
337.36894391
 30
0.0
 11
384.02385804
 21
341.36894391
 31
0.0
  0
TEXT
  5
2B0
  8
TXT_DIM49
 10
449.99150154
 20
340.86894391
 30
0.0
 40
2.5
  1
275
  7
ARIAL
  0
LINE
  5
2B1
  8
0
 62
     4
 10
385.02385804
 20
340.36894391
 30
0.0
 11
383.02385804
 21
338.36894391
 31
0.0
  0
LINE
  5
2B2
  8
0
 62
     4
 10
520.77385804
 20
338.61894391
 30
0.0
 11
522.27385804
 21
340.11894391
 31
0.0
  0
LINE
  5
2B3
  8
0
 62
     4
 10
384.02385804
 20
339.36894391
 30
0.0
 11
521.52385804
 21
339.36894391
 31
0.0
  0
LINE
  5
2B4
  8
0
 62
     4
 10
384.02385804
 20
337.36894391
 30
0.0
 11
384.02385804
 21
341.36894391
 31
0.0
  0
LINE
  5
2B5
  8
0
 62
     4
 10
521.52385804
 20
337.36894391
 30
0.0
 11
521.52385804
 21
341.36894391
 31
0.0
  0
TEXT
  5
2B6
  8
TXT_DIM49
 10
527.16895375
 20
340.86894391
 30
0.0
 40
2.5
  1
30
  7
ARIAL
  0
LINE
  5
2B7
  8
0
 62
     4
 10
522.52385804
 20
340.36894391
 30
0.0
 11
520.52385804
 21
338.36894391
 31
0.0
  0
LINE
  5
2B8
  8
0
 62
     4
 10
535.77385804
 20
338.61894391
 30
0.0
 11
537.27385804
 21
340.11894391
 31
0.0
  0
LINE
  5
2B9
  8
0
 62
     4
 10
521.52385804
 20
339.36894391
 30
0.0
 11
536.52385804
 21
339.36894391
 31
0.0
  0
LINE
  5
2BA
  8
0
 62
     4
 10
521.52385804
 20
337.36894391
 30
0.0
 11
521.52385804
 21
341.36894391
 31
0.0
  0
LINE
  5
2BB
  8
0
 62
     4
 10
536.52385804
 20
337.36894391
 30
0.0
 11
536.52385804
 21
341.36894391
 31
0.0
  0
TEXT
  5
2BC
  8
TXT_DIM49
 10
327.14966581
 20
322.34941794
 30
0.0
 40
2.5
  1
25
 50
90.00020741
  7
ARIAL
  0
LINE
  5
2BD
  8
0
 62
     4
 10
329.64966581
 20
329.45432223
 30
0.0
 11
327.64966581
 21
331.45432223
 31
0.0
  0
LINE
  5
2BE
  8
0
 62
     4
 10
327.89966581
 20
318.70432223
 30
0.0
 11
329.39966581
 21
317.20432223
 31
0.0
  0
LINE
  5
2BF
  8
0
 62
     4
 10
328.64966581
 20
330.45432223
 30
0.0
 11
328.64966581
 21
317.95432223
 31
0.0
  0
LINE
  5
2C0
  8
0
 62
     4
 10
330.64966581
 20
330.45432223
 30
0.0
 11
326.64966581
 21
330.45432223
 31
0.0
  0
LINE
  5
2C1
  8
0
 62
     4
 10
330.64966581
 20
317.95432223
 30
0.0
 11
326.64966581
 21
317.95432223
 31
0.0
  0
TEXT
  5
2C2
  8
TXT_DIM49
 10
327.14966581
 20
303.59941794
 30
0.0
 40
2.5
  1
50
 50
90.00020741
  7
ARIAL
  0
LINE
  5
2C3
  8
0
 62
     4
 10
329.64966581
 20
316.95432223
 30
0.0
 11
327.64966581
 21
318.95432223
 31
0.0
  0
LINE
  5
2C4
  8
0
 62
     4
 10
327.89966581
 20
293.70432223
 30
0.0
 11
329.39966581
 21
292.20432223
 31
0.0
  0
LINE
  5
2C5
  8
0
 62
     4
 10
328.64966581
 20
317.95432223
 30
0.0
 11
328.64966581
 21
292.95432223
 31
0.0
  0
LINE
  5
2C6
  8
0
 62
     4
 10
330.64966581
 20
317.95432223
 30
0.0
 11
326.64966581
 21
317.95432223
 31
0.0
  0
LINE
  5
2C7
  8
0
 62
     4
 10
330.64966581
 20
292.95432223
 30
0.0
 11
326.64966581
 21
292.95432223
 31
0.0
  0
TEXT
  5
2C8
  8
TXT_DIM49
 10
327.14966581
 20
284.84941794
 30
0.0
 40
2.5
  1
25
 50
90.00020741
  7
ARIAL
  0
LINE
  5
2C9
  8
0
 62
     4
 10
329.64966581
 20
291.95432223
 30
0.0
 11
327.64966581
 21
293.95432223
 31
0.0
  0
LINE
  5
2CA
  8
0
 62
     4
 10
327.89966581
 20
281.20432223
 30
0.0
 11
329.39966581
 21
279.70432223
 31
0.0
  0
LINE
  5
2CB
  8
0
 62
     4
 10
328.64966581
 20
292.95432223
 30
0.0
 11
328.64966581
 21
280.45432223
 31
0.0
  0
LINE
  5
2CC
  8
0
 62
     4
 10
330.64966581
 20
292.95432223
 30
0.0
 11
326.64966581
 21
292.95432223
 31
0.0
  0
LINE
  5
2CD
  8
0
 62
     4
 10
330.64966581
 20
280.45432223
 30
0.0
 11
326.64966581
 21
280.45432223
 31
0.0
  0
TEXT
  5
2CE
  8
TXT_DIM49
 10
545.02385804
 20
316.09941794
 30
0.0
 40
2.5
  1
50
 50
90.00020741
  7
ARIAL
  0
LINE
  5
2CF
  8
0
 62
     4
 10
547.52385804
 20
329.45432223
 30
0.0
 11
545.52385804
 21
331.45432223
 31
0.0
  0
LINE
  5
2D0
  8
0
 62
     4
 10
545.77385804
 20
306.20432223
 30
0.0
 11
547.27385804
 21
304.70432223
 31
0.0
  0
LINE
  5
2D1
  8
0
 62
     4
 10
546.52385804
 20
330.45432223
 30
0.0
 11
546.52385804
 21
305.45432223
 31
0.0
  0
LINE
  5
2D2
  8
0
 62
     4
 10
544.52385804
 20
330.45432223
 30
0.0
 11
548.52385804
 21
330.45432223
 31
0.0
  0
LINE
  5
2D3
  8
0
 62
     4
 10
544.52385804
 20
305.45432223
 30
0.0
 11
548.52385804
 21
305.45432223
 31
0.0
  0
TEXT
  5
2D4
  8
TXT_DIM49
 10
545.02385804
 20
291.09941794
 30
0.0
 40
2.5
  1
50
 50
90.00020741
  7
ARIAL
  0
LINE
  5
2D5
  8
0
 62
     4
 10
547.52385804
 20
304.45432223
 30
0.0
 11
545.52385804
 21
306.45432223
 31
0.0
  0
LINE
  5
2D6
  8
0
 62
     4
 10
545.77385804
 20
281.20432223
 30
0.0
 11
547.27385804
 21
279.70432223
 31
0.0
  0
LINE
  5
2D7
  8
0
 62
     4
 10
546.52385804
 20
305.45432223
 30
0.0
 11
546.52385804
 21
280.45432223
 31
0.0
  0
LINE
  5
2D8
  8
0
 62
     4
 10
544.52385804
 20
305.45432223
 30
0.0
 11
548.52385804
 21
305.45432223
 31
0.0
  0
LINE
  5
2D9
  8
0
 62
     4
 10
544.52385804
 20
280.45432223
 30
0.0
 11
548.52385804
 21
280.45432223
 31
0.0
  0
TEXT
  5
2DA
  8
TXT_DIM49
 10
522.36530991
 20
288.33827394
 30
0.0
 40
2.5
  1
30
 50
344.999965432
  7
ARIAL
  0
TEXT
  5
2DB
  8
TXT_DIM49
 10
525.94870983
 20
287.37810483
 30
0.0
 40
2.5
  1
°
 50
344.999965432
  7
ARIAL
  0
LINE
  5
2DC
  8
0
 62
     4
 10
514.48866614
 20
291.29481966
 30
0.0
 11
511.76622583
 21
290.52780024
 31
0.0
  0
LINE
  5
2DD
  8
0
 62
     4
 10
535.76430362
 20
283.90193796
 30
0.0
 11
537.28341246
 21
285.38258252
 31
0.0
  0
POLYLINE
  5
2DE
  8
0
 62
     4
 66
     1
 10
0.0
 20
0.0
 30
0.0
  0
VERTEX
  5
433
  8
0
 62
     4
 10
513.1274461214182
 20
290.9113100871932
 30
0.0
  0
VERTEX
  5
434
  8
0
 62
     4
 10
520.5197698015195
 20
287.4642130921848
 30
0.0
  0
VERTEX
  5
435
  8
0
 62
     4
 10
528.3983695939154
 20
285.3531487415136
 30
0.0
  0
VERTEX
  5
436
  8
0
 62
     4
 10
536.5238582357841
 20
284.6422606558565
 30
0.0
  0
SEQEND
  5
44C
  8
0
 62
     4
  0
LINE
  5
2DF
  8
0
 62
     4
 10
515.77385804
 20
295.49503009
 30
0.0
 11
512.12744599
 21
289.17925915
 31
0.0
  0
LINE
  5
2E0
  8
0
 62
     5
 10
521.52385804
 20
305.45432223
 30
0.0
 11
514.48964445
 21
310.16086812
 31
0.0
  0
TEXT
  5
2E1
  8
TXT_DIM49
 10
491.41795321
 20
308.91086812
 30
0.0
 40
2.5
  1
Slobgat 14 x 40
  7
ARIAL
  0
LINE
  5
2E2
  8
0
 62
     5
 10
384.02385804
 20
292.95432223
 30
0.0
 11
387.48968286
 21
286.26687785
 31
0.0
  0
TEXT
  5
2E3
  8
TXT_DIM49
 10
387.48968286
 20
285.01687785
 30
0.0
 40
2.5
  1
Ø10
  7
ARIAL
  0
LINE
  5
2E4
  8
0
 62
     5
 10
359.02385804
 20
292.95432223
 30
0.0
 11
362.57964305
 21
298.51608372
 31
0.0
  0
TEXT
  5
2E5
  8
TXT_DIM49
 10
362.57964305
 20
297.26608372
 30
0.0
 40
2.5
  1
Ø10
  7
ARIAL
  0
LINE
  5
2E6
  8
0
 62
     5
 10
359.02385804
 20
317.95432223
 30
0.0
 11
362.99127112
 21
323.52877894
 31
0.0
  0
TEXT
  5
2E7
  8
TXT_DIM49
 10
362.99127112
 20
322.27877894
 30
0.0
 40
2.5
  1
Ø10
  7
ARIAL
  0
LINE
  5
2E8
  8
0
 62
     5
 10
384.02385804
 20
317.95432223
 30
0.0
 11
388.10762817
 21
310.14734428
 31
0.0
  0
TEXT
  5
2E9
  8
TXT_DIM49
 10
388.10762817
 20
308.89734428
 30
0.0
 40
2.5
  1
Ø10
  7
ARIAL
  0
TEXT
  5
2EA
  8
TXT_DIM49
 10
231.04189801
 20
381.22172164
 30
0.0
 40
2.5
  1
45
 50
90.00020741
  7
ARIAL
  0
LINE
  5
2EB
  8
0
 62
     4
 10
231.54189801
 20
372.82662594
 30
0.0
 11
233.54189801
 21
370.82662594
 31
0.0
  0
LINE
  5
2EC
  8
0
 62
     4
 10
233.29189801
 20
393.57662594
 30
0.0
 11
231.79189801
 21
395.07662594
 31
0.0
  0
LINE
  5
2ED
  8
0
 62
     4
 10
232.54189801
 20
371.82662594
 30
0.0
 11
232.54189801
 21
394.32662594
 31
0.0
  0
LINE
  5
2EE
  8
0
 62
     4
 10
234.54189801
 20
371.82662594
 30
0.0
 11
230.54189801
 21
371.82662594
 31
0.0
  0
LINE
  5
2EF
  8
0
 62
     4
 10
234.54189801
 20
394.32662594
 30
0.0
 11
230.54189801
 21
394.32662594
 31
0.0
  0
TEXT
  5
2F0
  8
TXT_DIM49
 10
266.54623045
 20
405.82662594
 30
0.0
 40
2.5
  1
100
  7
ARIAL
  0
LINE
  5
2F1
  8
0
 62
     4
 10
245.32858695
 20
405.32662594
 30
0.0
 11
243.32858695
 21
403.32662594
 31
0.0
  0
LINE
  5
2F2
  8
0
 62
     4
 10
293.57858695
 20
403.57662594
 30
0.0
 11
295.07858695
 21
405.07662594
 31
0.0
  0
LINE
  5
2F3
  8
0
 62
     4
 10
244.32858695
 20
404.32662594
 30
0.0
 11
294.32858695
 21
404.32662594
 31
0.0
  0
LINE
  5
2F4
  8
0
 62
     4
 10
244.32858695
 20
402.32662594
 30
0.0
 11
244.32858695
 21
406.32662594
 31
0.0
  0
LINE
  5
2F5
  8
0
 62
     4
 10
294.32858695
 20
402.32662594
 30
0.0
 11
294.32858695
 21
406.32662594
 31
0.0
  0
ENDSEC
  0
EOF
