  0
SECTION
  2
HEADER
  9
$ACADVER
  1
AC1006
  9
$DWGCODEPAGE
  3
ansi_1252
  9
$INSBASE
 10
0.0
 20
0.0
 30
0.0
  9
$EXTMIN
 10
458.20296609
 20
671.54232111
  9
$EXTMAX
 10
1441.04045757
 20
1144.88607111
  9
$LIMMIN
 10
458.20296609
 20
671.54232111
  9
$LIMMAX
 10
1441.04045757
 20
1144.88607111
  9
$ORTHOMODE
 70
     0
  9
$REGENMODE
 70
     1
  9
$FILLMODE
 70
     1
  9
$QTEXTMODE
 70
     0
  9
$MIRRTEXT
 70
     1
  9
$DRAGMODE
 70
     2
  9
$LTSCALE
 40
1.0
  9
$OSMODE
 70
    37
  9
$ATTMODE
 70
     1
  9
$TEXTSIZE
 40
1.0
  9
$TRACEWID
 40
0.05
  9
$TEXTSTYLE
  7
STANDARD
  9
$CLAYER
  8
0
  9
$CELTYPE
  6
BYBLOCK
  9
$CECOLOR
 62
   256
  9
$DIMSCALE
 40
1.0
  9
$DIMASZ
 40
0.18
  9
$DIMEXO
 40
0.0625
  9
$DIMDLI
 40
0.38
  9
$DIMRND
 40
0.0
  9
$DIMDLE
 40
0.0
  9
$DIMEXE
 40
0.18
  9
$DIMTP
 40
0.0
  9
$DIMTM
 40
0.0
  9
$DIMTXT
 40
0.18
  9
$DIMCEN
 40
0.09
  9
$DIMTSZ
 40
0.0
  9
$DIMTOL
 70
     0
  9
$DIMLIM
 70
     0
  9
$DIMTIH
 70
     1
  9
$DIMTOH
 70
     1
  9
$DIMSE1
 70
     0
  9
$DIMSE2
 70
     0
  9
$DIMTAD
 70
     0
  9
$DIMZIN
 70
     0
  9
$DIMBLK
  1

  9
$DIMASO
 70
     1
  9
$DIMSHO
 70
     1
  9
$DIMPOST
  1

  9
$DIMAPOST
  1

  9
$DIMALT
 70
     0
  9
$DIMALTD
 70
     2
  9
$DIMALTF
 40
25.4
  9
$DIMLFAC
 40
1.0
  9
$DIMTOFL
 70
     0
  9
$DIMTVP
 40
0.0
  9
$DIMTIX
 70
     0
  9
$DIMSOXD
 70
     0
  9
$DIMSAH
 70
     0
  9
$DIMBLK1
  1

  9
$DIMBLK2
  1

  9
$LUNITS
 70
     2
  9
$LUPREC
 70
     4
  9
$SKETCHINC
 40
0.1
  9
$FILLETRAD
 40
0.5
  9
$AUNITS
 70
     0
  9
$AUPREC
 70
     0
  9
$MENU
  1
.
  9
$ELEVATION
 40
0.0
  9
$THICKNESS
 40
0.0
  9
$LIMCHECK
 70
     0
  9
$CHAMFERA
 40
0.0
  9
$CHAMFERB
 40
0.0
  9
$SKPOLY
 70
     0
  9
$TDCREATE
 40
2447893.125
  9
$TDUPDATE
 40
2460791.506125683
  9
$TDINDWG
 40
0.0
  9
$TDUSRTIMER
 40
0.0
  9
$USRTIMER
 70
     1
  9
$ANGBASE
 50
0.0
  9
$ANGDIR
 70
     0
  9
$PDMODE
 70
     0
  9
$PDSIZE
 40
0.0
  9
$PLINEWID
 40
0.0
  9
$COORDS
 70
     1
  9
$SPLFRAME
 70
     0
  9
$SPLINETYPE
 70
     6
  9
$SPLINESEGS
 70
     8
  9
$ATTDIA
 70
     0
  9
$ATTREQ
 70
     1
  9
$HANDLING
 70
     1
  9
$HANDSEED
  5
446
  9
$SURFTAB1
 70
     6
  9
$SURFTAB2
 70
     6
  9
$SURFTYPE
 70
     6
  9
$SURFU
 70
     6
  9
$SURFV
 70
     6
  9
$UCSNAME
  2

  9
$UCSORG
 10
0.0
 20
0.0
 30
0.0
  9
$UCSXDIR
 10
1.0
 20
0.0
 30
0.0
  9
$UCSYDIR
 10
0.0
 20
1.0
 30
0.0
  9
$USERI1
 70
     0
  9
$USERI2
 70
     0
  9
$USERI3
 70
     0
  9
$USERI4
 70
     0
  9
$USERI5
 70
     0
  9
$USERR1
 40
0.0
  9
$USERR2
 40
0.0
  9
$USERR3
 40
0.0
  9
$USERR4
 40
0.0
  9
$USERR5
 40
0.0
  9
$WORLDVIEW
 70
     1
  0
ENDSEC
  0
SECTION
  2
TABLES
  0
TABLE
  2
VPORT
 70
     1
  0
VPORT
  2
*ACTIVE
 70
     0
 10
0.0
 20
0.0
 11
1.0
 21
1.0
 12
949.62171183
 22
908.21419611
 13
0.0
 23
0.0
 14
1.0
 24
1.0
 15
0.0
 25
0.0
 16
0.0
 26
0.0
 36
1.0
 17
0.0
 27
0.0
 37
0.0
 40
473.34375
 41
2.076371541
 42
50.0
 43
0.0
 44
0.0
 50
0.0
 51
0.0
 71
     0
 72
   100
 73
     1
 74
     1
 75
     0
 76
     0
 77
     0
 78
     0
  0
ENDTAB
  0
TABLE
  2
LTYPE
 70
    19
  0
LTYPE
  2
CONTINUOUS
 70
     0
  3
Solid line
 72
    65
 73
     0
 40
0.0
  0
LTYPE
  2
DOT
 70
     0
  3
..............
 72
    65
 73
     2
 40
2.0
 49
0.5
 49
-1.5
  0
LTYPE
  2
HIDDEN
 70
     0
  3
-- -- -- -- --
 72
    65
 73
     2
 40
7.0
 49
4.0
 49
-3.0
  0
LTYPE
  2
DASHDOT
 70
     0
  3
--.--.--.--.--
 72
    65
 73
     4
 40
8.5
 49
4.0
 49
-2.0
 49
0.5
 49
-2.0
  0
LTYPE
  2
STRICHPUNKT2
 70
     0
  3
--.--.--.--.--
 72
    65
 73
     4
 40
18.5
 49
10.0
 49
-4.0
 49
0.5
 49
-4.0
  0
LTYPE
  2
STRICHPUNKT3
 70
     0
  3
--.--.--.--.--
 72
    65
 73
     4
 40
35.5
 49
25.0
 49
-5.0
 49
0.5
 49
-5.0
  0
LTYPE
  2
PHANTOM
 70
     0
  3
--..--..--..--
 72
    65
 73
     6
 40
23.0
 49
10.0
 49
-4.0
 49
0.5
 49
-4.0
 49
0.5
 49
-4.0
  0
LTYPE
  2
PHANTOM2
 70
     0
  3
--..--..--..--
 72
    65
 73
     6
 40
33.0
 49
20.0
 49
-4.0
 49
0.5
 49
-4.0
 49
0.5
 49
-4.0
  0
LTYPE
  2
PHANTOM3
 70
     0
  3
--..--..--..--
 72
    65
 73
     6
 40
50.0
 49
37.0
 49
-4.0
 49
0.5
 49
-4.0
 49
0.5
 49
-4.0
  0
LTYPE
  2
STR3PKT
 70
     0
  3
--...--...--...
 72
    65
 73
     8
 40
31.5
 49
20.0
 49
-2.5
 49
0.5
 49
-2.5
 49
0.5
 49
-2.5
 49
0.5
 49
-2.5
  0
LTYPE
  2
2STRPKT
 70
     0
  3
--.--.--.--.--
 72
    65
 73
     6
 40
28.0
 49
10.0
 49
-2.5
 49
10.0
 49
-2.5
 49
0.5
 49
-2.5
  0
LTYPE
  2
GESTRICHELT2
 70
     0
  3
-- -- -- -- --
 72
    65
 73
     2
 40
25.0
 49
10.0
 49
-15.0
  0
LTYPE
  2
2STR2PKT
 70
     0
  3
--..--..--..--
 72
    65
 73
     8
 40
31.0
 49
10.0
 49
-2.5
 49
10.0
 49
-2.5
 49
0.5
 49
-2.5
 49
0.5
 49
-2.5
  0
LTYPE
  2
STR3PKT2
 70
     0
  3
--...--...--...
 72
    65
 73
     8
 40
21.0
 49
10.0
 49
-2.5
 49
0.5
 49
-2.5
 49
0.5
 49
-2.5
 49
0.5
 49
-2.0
  0
LTYPE
  2
2STR3PKT
 70
     0
  3
--...--...--...
 72
    65
 73
    10
 40
34.0
 49
10.0
 49
-2.5
 49
10.0
 49
-2.5
 49
0.5
 49
-2.5
 49
0.5
 49
-2.5
 49
0.5
 49
-2.5
  0
LTYPE
  2
STRKSTR
 70
     0
  3
-- - -- - -- -
 72
    65
 73
     4
 40
30.0
 49
20.0
 49
-2.5
 49
5.0
 49
-2.5
  0
LTYPE
  2
STRKSTR2
 70
     0
  3
-- - -- - -- -
 72
    65
 73
     6
 40
37.5
 49
20.0
 49
-2.5
 49
5.0
 49
-2.5
 49
5.0
 49
-2.5
  0
LTYPE
  2
STRKSTR3
 70
     0
  3
-- - -- - -- -
 72
    65
 73
     8
 40
45.0
 49
20.0
 49
-2.5
 49
5.0
 49
-2.5
 49
5.0
 49
-2.5
 49
5.0
 49
-2.5
  0
LTYPE
  2
PUNKT2
 70
     0
  3
..............
 72
    65
 73
     2
 40
3.5
 49
0.5
 49
-3.0
  0
ENDTAB
  0
TABLE
  2
LAYER
 70
    16
  0
LAYER
  2
0
 70
     0
 62
     7
  6
CONTINUOUS
  0
LAYER
  2
LE_GREEN
 70
     0
 62
     3
  6
CONTINUOUS
  0
LAYER
  2
LE_RED
 70
     0
 62
     1
  6
CONTINUOUS
  0
LAYER
  2
LE_ALL
 70
     0
 62
     7
  6
CONTINUOUS
  0
LAYER
  2
LE_HIDDEN1
 70
     0
 62
     3
  6
HIDDEN
  0
LAYER
  2
LE_HIDDEN
 70
     0
 62
     7
  6
CONTINUOUS
  0
LAYER
  2
LE_MIDDLE
 70
     0
 62
     7
  6
CONTINUOUS
  0
LAYER
  2
TXT_YELLOW
 70
     0
 62
     2
  6
CONTINUOUS
  0
LAYER
  2
TXT_DIM49
 70
     0
 62
     2
  6
CONTINUOUS
  0
LAYER
  2
TXT_ALL
 70
     0
 62
     7
  6
CONTINUOUS
  0
LAYER
  2
DIM49
 70
     0
 62
     4
  6
CONTINUOUS
  0
LAYER
  2
HATCH
 70
     0
 62
     3
  6
CONTINUOUS
  0
LAYER
  2
APPLE
 70
     0
 62
     7
  6
CONTINUOUS
  0
LAYER
  2
10
 70
     0
 62
     7
  6
CONTINUOUS
  0
LAYER
  2
47
 70
     0
 62
     7
  6
CONTINUOUS
  0
LAYER
  2
49
 70
     0
 62
     7
  6
CONTINUOUS
  0
ENDTAB
  0
TABLE
  2
STYLE
 70
     5
  0
STYLE
  2
MONOTXT
 70
     0
 40
0.0
 41
1.0
 50
0.0
 71
     0
 42
1.0
  3
monotxt.shx
  4

  0
STYLE
  2
STANDARD
 70
     0
 40
0.0
 41
1.0
 50
0.0
 71
     0
 42
1.0
  3
txt
  4

  0
STYLE
  2
ARIAL
 70
     0
 40
0.0
 41
1.0
 50
0.0
 71
     0
 42
1.0
  3
arial.ttf
  4

  0
STYLE
  2
ARIAL_NARROW
 70
     0
 40
0.0
 41
1.0
 50
0.0
 71
     0
 42
1.0
  3
ArialN.ttf
  4

  0
STYLE
  2
ISOCPEUR
 70
     0
 40
0.0
 41
1.0
 50
0.0
 71
     0
 42
1.0
  3
ISOCPEUR.ttf
  4

  0
ENDTAB
  0
TABLE
  2
VIEW
 70
     0
  0
ENDTAB
  0
TABLE
  2
UCS
 70
     0
  0
ENDTAB
  0
ENDSEC
  0
SECTION
  2
BLOCKS
  0
ENDSEC
  0
SECTION
  2
ENTITIES
  0
POLYLINE
  5
16D
  8
0
 66
     1
 10
0.0
 20
0.0
 30
0.0
 70
     1
  0
VERTEX
  5
16E
  8
0
 10
589.63515921
 20
726.54388812
 30
0.0
  0
VERTEX
  5
16F
  8
0
 10
1009.63515921
 20
726.54388812
 30
0.0
  0
VERTEX
  5
170
  8
0
 10
1009.63515921
 20
1023.54388812
 30
0.0
  0
VERTEX
  5
171
  8
0
 10
589.63515921
 20
1023.54388812
 30
0.0
  0
SEQEND
  5
172
  8
0
  0
POLYLINE
  5
173
  8
0
 66
     1
 10
0.0
 20
0.0
 30
0.0
 70
     1
  0
VERTEX
  5
174
  8
0
 10
594.63515921
 20
731.54388812
 30
0.0
  0
VERTEX
  5
175
  8
0
 10
1004.63515921
 20
731.54388812
 30
0.0
  0
VERTEX
  5
176
  8
0
 10
1004.63515921
 20
1018.54388812
 30
0.0
  0
VERTEX
  5
177
  8
0
 10
594.63515921
 20
1018.54388812
 30
0.0
  0
SEQEND
  5
178
  8
0
  0
LINE
  5
179
  8
0
 10
819.63515921
 20
731.54388812
 30
0.0
 11
819.63515921
 21
726.54388812
 31
0.0
  0
LINE
  5
17A
  8
0
 10
819.63515921
 20
1018.54388812
 30
0.0
 11
819.63515921
 21
1023.54388812
 31
0.0
  0
LINE
  5
17B
  8
0
 10
609.63515921
 20
731.54388812
 30
0.0
 11
609.63515921
 21
726.54388812
 31
0.0
  0
LINE
  5
17C
  8
0
 10
609.63515921
 20
1018.54388812
 30
0.0
 11
609.63515921
 21
1023.54388812
 31
0.0
  0
TEXT
  5
17D
  8
TXT_ALL
 62
     4
 10
1008.63515921
 20
727.54388812
 30
0.0
 40
2.5
  1

 50
90.00020741
  0
POLYLINE
  5
17E
  8
0
 66
     1
 10
0.0
 20
0.0
 30
0.0
  0
VERTEX
  5
17F
  8
0
 10
1004.63515921
 20
1008.54388812
 30
0.0
  0
VERTEX
  5
180
  8
0
 10
935.64185921
 20
1008.54388812
 30
0.0
  0
VERTEX
  5
181
  8
0
 10
935.64185921
 20
1018.54388812
 30
0.0
  0
SEQEND
  5
182
  8
0
  0
LINE
  5
183
  8
0
 10
937.54515921
 20
751.04388812
 30
0.0
 11
797.65515921
 21
751.04388812
 31
0.0
  0
LINE
  5
184
  8
0
 10
797.65515921
 20
741.29388812
 30
0.0
 11
937.54515921
 21
741.29388812
 31
0.0
  0
POLYLINE
  5
185
  8
0
 66
     1
 10
0.0
 20
0.0
 30
0.0
  0
VERTEX
  5
186
  8
0
 10
797.65515921
 20
751.04388812
 30
0.0
  0
VERTEX
  5
187
  8
0
 10
797.65515921
 20
741.29388812
 30
0.0
  0
VERTEX
  5
188
  8
0
 10
797.65515921
 20
731.54388812
 30
0.0
  0
SEQEND
  5
189
  8
0
  0
POLYLINE
  5
18A
  8
0
 66
     1
 10
0.0
 20
0.0
 30
0.0
  0
VERTEX
  5
18B
  8
0
 10
867.60015921
 20
751.04388812
 30
0.0
  0
VERTEX
  5
18C
  8
0
 10
867.60015921
 20
741.29388812
 30
0.0
  0
VERTEX
  5
18D
  8
0
 10
867.60015921
 20
731.54388812
 30
0.0
  0
SEQEND
  5
18E
  8
0
  0
TEXT
  5
18F
  8
TXT_ALL
 10
799.65515921
 20
744.86888817
 30
0.0
 40
2.5999999
  1
E-mail: verkoop@jonkers-bouwmetaal.nl
  7
ARIAL
  0
TEXT
  5
190
  8
TXT_ALL
 10
799.65515921
 20
735.11888817
 30
0.0
 40
2.5999999
  1
Telefoon: 0527-685156
  7
ARIAL
  0
TEXT
  5
191
  8
TXT_ALL
 10
869.60015921
 20
735.11888817
 30
0.0
 40
2.5999999
  1
Website: www.jonkers-bouwmetaal.nl
  7
ARIAL
  0
TEXT
  5
192
  8
TXT_ALL
 10
869.60015921
 20
744.86888817
 30
0.0
 40
2.5999999
  1
Adres: Hoornse Hop 10, 8321 WX Urk
  7
ARIAL
  0
TEXT
  5
193
  8
TXT_ALL
 10
598.07711946
 20
1012.29388812
 30
0.0
 40
2.5
  1
Art. nr. 91013089
  7
ARIAL
  0
TEXT
  5
194
  8
TXT_ALL
 10
640.81515628
 20
1012.29388812
 30
0.0
 40
2.5
  1
Omschrijving: T02-anker 300x46 100x5/8
  7
ARIAL
  0
LINE
  5
195
  8
0
 10
1004.63515921
 20
1008.54388812
 30
0.0
 11
594.63515921
 21
1008.54388812
 31
0.0
  0
LINE
  5
196
  8
0
 10
637.65515921
 20
1008.54388812
 30
0.0
 11
637.65515921
 21
1018.54388812
 31
0.0
  0
LINE
  5
197
  8
0
 10
797.65515921
 20
1008.54388812
 30
0.0
 11
797.65515921
 21
1018.54388812
 31
0.0
  0
TEXT
  5
198
  8
TXT_ALL
 10
868.64885921
 20
1012.29388812
 30
0.0
 40
2.5
  1
Behandeling: Thermisch Verzinkt
  7
ARIAL
  0
LINE
  5
199
  8
0
 10
937.54515921
 20
751.04388812
 30
0.0
 11
1004.63515921
 21
751.04388812
 31
0.0
  0
LINE
  5
19A
  8
0
 10
937.54515921
 20
731.54388812
 30
0.0
 11
937.54515921
 21
751.04388812
 31
0.0
  0
LINE
  5
19B
  8
0
 10
937.54515921
 20
731.54388812
 30
0.0
 11
937.54515921
 21
751.04388812
 31
0.0
  0
TEXT
  5
19C
  8
TXT_ALL
 10
732.0003573
 20
732.69842153
 30
0.0
 40
2.5
  1

  0
TEXT
  5
19D
  8
TXT_ALL
 10
853.13554027
 20
742.79388812
 30
0.0
 40
2.5
  1

  0
POLYLINE
  5
19E
  8
0
 66
     1
 10
0.0
 20
0.0
 30
0.0
  0
VERTEX
  5
19F
  8
0
 10
935.64185921
 20
1008.54388812
 30
0.0
  0
VERTEX
  5
1A0
  8
0
 10
866.64885921
 20
1008.54388812
 30
0.0
  0
VERTEX
  5
1A1
  8
0
 10
866.64885921
 20
1018.54388812
 30
0.0
  0
SEQEND
  5
1A2
  8
0
  0
TEXT
  5
1A3
  8
TXT_ALL
 10
937.64185921
 20
1012.29388812
 30
0.0
 40
2.5
  1
Verpakkingshoeveelheid: 1 st.
  7
ARIAL
  0
TEXT
  5
1A4
  8
TXT_ALL
 10
799.65515921
 20
1012.29388812
 30
0.0
 40
2.5
  1
Materiaal: S355
  7
ARIAL
  0
TEXT
  5
1A5
  8
TXT_ALL
 10
971.85726963
 20
728.29437827
 30
0.0
 40
1.5
  1
Onderdeel van
  7
ARIAL
  0
POLYLINE
  5
1A6
  8
0
 66
     1
 10
0.0
 20
0.0
 30
0.0
  0
VERTEX
  5
35D
  8
0
 10
709.40001558
 20
795.97244761
 30
0.0
  0
VERTEX
  5
35E
  8
0
 10
709.3327640615645
 20
796.3039921142444
 30
0.0
  0
VERTEX
  5
35F
  8
0
 10
709.1335939443904
 20
796.6227955491519
 30
0.0
  0
VERTEX
  5
360
  8
0
 10
708.8101592243677
 20
796.9166064775341
 30
0.0
  0
VERTEX
  5
361
  8
0
 10
708.3748893163739
 20
797.17413391021
 30
0.0
  0
VERTEX
  5
362
  8
0
 10
707.8445113988332
 20
797.3854812123874
 30
0.0
  0
VERTEX
  5
363
  8
0
 10
707.2394075976307
 20
797.5425264257872
 30
0.0
  0
VERTEX
  5
364
  8
0
 10
706.5828317124476
 20
797.6392343909441
 30
0.0
  0
VERTEX
  5
365
  8
0
 10
705.900015586282
 20
797.671888675
 30
0.0
  0
VERTEX
  5
366
  8
0
 10
705.2171994598751
 20
797.6392343921343
 30
0.0
  0
VERTEX
  5
367
  8
0
 10
704.5606235739771
 20
797.5425264281218
 30
0.0
  0
VERTEX
  5
368
  8
0
 10
703.9555197716135
 20
797.3854812157767
 30
0.0
  0
VERTEX
  5
369
  8
0
 10
703.4251418525103
 20
797.1741339145237
 30
0.0
  0
VERTEX
  5
36A
  8
0
 10
702.9898719426126
 20
796.9166064826065
 30
0.0
  0
VERTEX
  5
36B
  8
0
 10
702.6664372204176
 20
796.6227955547881
 30
0.0
  0
VERTEX
  5
36C
  8
0
 10
702.4672671008866
 20
796.3039921202278
 30
0.0
  0
VERTEX
  5
36D
  8
0
 10
702.40001558
 20
795.9724476161007
 30
0.0
  0
SEQEND
  5
436
  8
0
  0
POLYLINE
  5
1A7
  8
0
 66
     1
 10
0.0
 20
0.0
 30
0.0
  0
VERTEX
  5
36E
  8
0
 10
702.40001558
 20
795.9724476161007
 30
0.0
  0
VERTEX
  5
36F
  8
0
 10
702.4672670962907
 20
795.6409031109912
 30
0.0
  0
VERTEX
  5
370
  8
0
 10
702.6664372120033
 20
795.3220996750754
 30
0.0
  0
VERTEX
  5
371
  8
0
 10
702.9898719312695
 20
795.0282887456362
 30
0.0
  0
VERTEX
  5
372
  8
0
 10
703.4251418391838
 20
794.770761311947
 30
0.0
  0
VERTEX
  5
373
  8
0
 10
703.9555197572491
 20
794.5594140088837
 30
0.0
  0
VERTEX
  5
374
  8
0
 10
704.5606235594672
 20
794.4023687947964
 30
0.0
  0
VERTEX
  5
375
  8
0
 10
705.2171994460119
 20
794.3056608292047
 30
0.0
  0
VERTEX
  5
376
  8
0
 10
705.9000155737178
 20
794.273006545
 30
0.0
  0
VERTEX
  5
377
  8
0
 10
706.5828317016651
 20
794.3056608280145
 30
0.0
  0
VERTEX
  5
378
  8
0
 10
707.2394075889248
 20
794.4023687924619
 30
0.0
  0
VERTEX
  5
379
  8
0
 10
707.844511392304
 20
794.5594140054943
 30
0.0
  0
VERTEX
  5
37A
  8
0
 10
708.3748893119318
 20
794.7707613076332
 30
0.0
  0
VERTEX
  5
37B
  8
0
 10
708.81015922175
 20
795.0282887405638
 30
0.0
  0
VERTEX
  5
37C
  8
0
 10
709.1335939431884
 20
795.3220996694391
 30
0.0
  0
VERTEX
  5
37D
  8
0
 10
709.3327640612581
 20
795.6409031050077
 30
0.0
  0
VERTEX
  5
37E
  8
0
 10
709.40001558
 20
795.97244761
 30
0.0
  0
SEQEND
  5
437
  8
0
  0
POLYLINE
  5
1A8
  8
0
 66
     1
 10
0.0
 20
0.0
 30
0.0
  0
VERTEX
  5
37F
  8
0
 10
764.42309386
 20
795.06915211
 30
0.0
  0
VERTEX
  5
380
  8
0
 10
764.3508635445639
 20
795.412626641759
 30
0.0
  0
VERTEX
  5
381
  8
0
 10
764.1371538659517
 20
795.7419244456476
 30
0.0
  0
VERTEX
  5
382
  8
0
 10
763.7907855770195
 20
796.0434539306673
 30
0.0
  0
VERTEX
  5
383
  8
0
 10
763.3260548439193
 20
796.3047696283518
 30
0.0
  0
VERTEX
  5
384
  8
0
 10
762.7621431794769
 20
796.5150858728313
 30
0.0
  0
VERTEX
  5
385
  8
0
 10
762.1223257364926
 20
796.6657219734312
 30
0.0
  0
VERTEX
  5
386
  8
0
 10
761.4330106382397
 20
796.7504605055448
 30
0.0
  0
VERTEX
  5
387
  8
0
 10
760.7226489972792
 20
796.7658039315123
 30
0.0
  0
VERTEX
  5
388
  8
0
 10
760.0205606109826
 20
796.7111189596211
 30
0.0
  0
VERTEX
  5
389
  8
0
 10
759.3557238025534
 20
796.5886626828819
 30
0.0
  0
VERTEX
  5
38A
  8
0
 10
758.7555793562125
 20
796.4034894187214
 30
0.0
  0
VERTEX
  5
38B
  8
0
 10
758.2448979134834
 20
796.1632420947282
 30
0.0
  0
SEQEND
  5
438
  8
0
  0
POLYLINE
  5
1A9
  8
0
 66
     1
 10
0.0
 20
0.0
 30
0.0
  0
VERTEX
  5
38C
  8
0
 10
763.6012898209606
 20
793.9750621336078
 30
0.0
  0
VERTEX
  5
38D
  8
0
 10
763.9524560371467
 20
794.2179810351644
 30
0.0
  0
VERTEX
  5
38E
  8
0
 10
764.211230556015
 20
794.4868595730119
 30
0.0
  0
VERTEX
  5
38F
  8
0
 10
764.369721083537
 20
794.773497293381
 30
0.0
  0
VERTEX
  5
390
  8
0
 10
764.42309386
 20
795.06915211
 30
0.0
  0
SEQEND
  5
439
  8
0
  0
POLYLINE
  5
1AA
  8
0
 66
     1
 10
0.0
 20
0.0
 30
0.0
  0
VERTEX
  5
1AB
  8
0
 10
763.60128981
 20
793.97506213
 30
0.0
  0
VERTEX
  5
1AC
  8
0
 10
752.01299762
 20
787.28723753
 30
0.0
  0
SEQEND
  5
1AD
  8
0
  0
POLYLINE
  5
1AE
  8
0
 66
     1
 10
0.0
 20
0.0
 30
0.0
  0
VERTEX
  5
391
  8
0
 10
745.83480166
 20
788.3813275161007
 30
0.0
  0
VERTEX
  5
392
  8
0
 10
745.9070319734863
 20
788.0378529828288
 30
0.0
  0
VERTEX
  5
393
  8
0
 10
746.1207416513836
 20
787.7085551773537
 30
0.0
  0
VERTEX
  5
394
  8
0
 10
746.4671099407938
 20
787.4070256908501
 30
0.0
  0
VERTEX
  5
395
  8
0
 10
746.931840675428
 20
787.1457099919475
 30
0.0
  0
VERTEX
  5
396
  8
0
 10
747.495752342241
 20
786.9353937466536
 30
0.0
  0
VERTEX
  5
397
  8
0
 10
748.1355697881444
 20
786.7847576457476
 30
0.0
  0
VERTEX
  5
398
  8
0
 10
748.8248848895289
 20
786.7000191138998
 30
0.0
  0
VERTEX
  5
399
  8
0
 10
749.5352465334722
 20
786.6846756887871
 30
0.0
  0
VERTEX
  5
39A
  8
0
 10
750.2373349222403
 20
786.7393606620925
 30
0.0
  0
VERTEX
  5
39B
  8
0
 10
750.9021717322912
 20
786.8618169407281
 30
0.0
  0
VERTEX
  5
39C
  8
0
 10
751.5023161791132
 20
787.046990207148
 30
0.0
  0
VERTEX
  5
39D
  8
0
 10
752.0129976209606
 20
787.2872375336078
 30
0.0
  0
SEQEND
  5
43A
  8
0
  0
POLYLINE
  5
1AF
  8
0
 66
     1
 10
0.0
 20
0.0
 30
0.0
  0
VERTEX
  5
39E
  8
0
 10
746.6566057134835
 20
789.4754174947282
 30
0.0
  0
VERTEX
  5
39F
  8
0
 10
746.3054394928542
 20
789.2324985932273
 30
0.0
  0
VERTEX
  5
3A0
  8
0
 10
746.0466649699811
 20
788.963620054971
 30
0.0
  0
VERTEX
  5
3A1
  8
0
 10
745.8881744390782
 20
788.6769823338067
 30
0.0
  0
VERTEX
  5
3A2
  8
0
 10
745.83480166
 20
788.3813275161007
 30
0.0
  0
SEQEND
  5
43B
  8
0
  0
LINE
  5
1B0
  8
0
 10
746.65660571
 20
789.47541749
 30
0.0
 11
758.2448979
 21
796.16324209
 31
0.0
  0
POLYLINE
  5
1B1
  8
0
 66
     1
 10
0.0
 20
0.0
 30
0.0
  0
VERTEX
  5
3A3
  8
0
 10
762.184702482269
 20
793.157522550206
 30
0.0
  0
VERTEX
  5
3A4
  8
0
 10
761.4878776992992
 20
793.24949574849
 30
0.0
  0
VERTEX
  5
3A5
  8
0
 10
760.7670118302426
 20
793.2700770930579
 30
0.0
  0
VERTEX
  5
3A6
  8
0
 10
760.0527898862648
 20
793.2183905002793
 30
0.0
  0
VERTEX
  5
3A7
  8
0
 10
759.3756140673677
 20
793.0966361071622
 30
0.0
  0
VERTEX
  5
3A8
  8
0
 10
758.7643096355808
 20
792.9099966183854
 30
0.0
  0
VERTEX
  5
3A9
  8
0
 10
758.2448979134834
 20
792.6664166947281
 30
0.0
  0
SEQEND
  5
43C
  8
0
  0
LINE
  5
1B2
  8
0
 10
748.07319303
 20
786.79613167
 30
0.0
 11
758.2448979
 21
792.66641669
 31
0.0
  0
POLYLINE
  5
1B3
  8
0
 66
     1
 10
0.0
 20
0.0
 30
0.0
  0
VERTEX
  5
3AA
  8
0
 10
652.06140835
 20
794.66854271
 30
0.0
  0
VERTEX
  5
3AB
  8
0
 10
652.0133715511174
 20
794.9053602130316
 30
0.0
  0
VERTEX
  5
3AC
  8
0
 10
651.8711071817074
 20
795.1330769522514
 30
0.0
  0
VERTEX
  5
3AD
  8
0
 10
651.6400823816912
 20
795.3429419010957
 30
0.0
  0
VERTEX
  5
3AE
  8
0
 10
651.3291753045528
 20
795.5268900672928
 30
0.0
  0
VERTEX
  5
3AF
  8
0
 10
650.9503339348809
 20
795.677852425991
 30
0.0
  0
VERTEX
  5
3B0
  8
0
 10
650.5181169340219
 20
795.7900275784194
 30
0.0
  0
VERTEX
  5
3B1
  8
0
 10
650.0491341588912
 20
795.8591046963886
 30
0.0
  0
VERTEX
  5
3B2
  8
0
 10
649.5614083544872
 20
795.882429185
 30
0.0
  0
VERTEX
  5
3B3
  8
0
 10
649.0736825499108
 20
795.8591046972388
 30
0.0
  0
VERTEX
  5
3B4
  8
0
 10
648.6046997742693
 20
795.790027580087
 30
0.0
  0
VERTEX
  5
3B5
  8
0
 10
648.1724827725811
 20
795.6778524284119
 30
0.0
  0
VERTEX
  5
3B6
  8
0
 10
647.793641401793
 20
795.5268900703741
 30
0.0
  0
VERTEX
  5
3B7
  8
0
 10
647.4827343232947
 20
795.3429419047189
 30
0.0
  0
VERTEX
  5
3B8
  8
0
 10
647.2517095217269
 20
795.1330769562773
 30
0.0
  0
VERTEX
  5
3B9
  8
0
 10
647.1094451506333
 20
794.9053602173055
 30
0.0
  0
VERTEX
  5
3BA
  8
0
 10
647.06140835
 20
794.6685427143576
 30
0.0
  0
SEQEND
  5
43D
  8
0
  0
POLYLINE
  5
1B4
  8
0
 66
     1
 10
0.0
 20
0.0
 30
0.0
  0
VERTEX
  5
3BB
  8
0
 10
647.06140835
 20
794.6685427143576
 30
0.0
  0
VERTEX
  5
3BC
  8
0
 10
647.1094451473505
 20
794.431725210708
 30
0.0
  0
VERTEX
  5
3BD
  8
0
 10
647.2517095157167
 20
794.2040084707681
 30
0.0
  0
VERTEX
  5
3BE
  8
0
 10
647.4827343151925
 20
793.9941435211688
 30
0.0
  0
VERTEX
  5
3BF
  8
0
 10
647.7936413922741
 20
793.8101953542479
 30
0.0
  0
VERTEX
  5
3C0
  8
0
 10
648.1724827623208
 20
793.6592329949168
 30
0.0
  0
VERTEX
  5
3C1
  8
0
 10
648.6046997639052
 20
793.5470578419975
 30
0.0
  0
VERTEX
  5
3C2
  8
0
 10
649.0736825400085
 20
793.4779807237177
 30
0.0
  0
VERTEX
  5
3C3
  8
0
 10
649.5614083455127
 20
793.454656235
 30
0.0
  0
VERTEX
  5
3C4
  8
0
 10
650.0491341511894
 20
793.4779807228675
 30
0.0
  0
VERTEX
  5
3C5
  8
0
 10
650.5181169278035
 20
793.5470578403299
 30
0.0
  0
VERTEX
  5
3C6
  8
0
 10
650.9503339302171
 20
793.6592329924958
 30
0.0
  0
VERTEX
  5
3C7
  8
0
 10
651.3291753013799
 20
793.8101953511665
 30
0.0
  0
VERTEX
  5
3C8
  8
0
 10
651.6400823798215
 20
793.9941435175456
 30
0.0
  0
VERTEX
  5
3C9
  8
0
 10
651.8711071808489
 20
794.2040084667422
 30
0.0
  0
VERTEX
  5
3CA
  8
0
 10
652.0133715508986
 20
794.4317252064341
 30
0.0
  0
VERTEX
  5
3CB
  8
0
 10
652.06140835
 20
794.66854271
 30
0.0
  0
SEQEND
  5
43E
  8
0
  0
POLYLINE
  5
1B5
  8
0
 66
     1
 10
0.0
 20
0.0
 30
0.0
  0
VERTEX
  5
3CC
  8
0
 10
656.434972
 20
806.62020969
 30
0.0
  0
VERTEX
  5
3CD
  8
0
 10
656.3869352011175
 20
806.8570271930316
 30
0.0
  0
VERTEX
  5
3CE
  8
0
 10
656.2446708317075
 20
807.0847439322514
 30
0.0
  0
VERTEX
  5
3CF
  8
0
 10
656.0136460316912
 20
807.2946088810958
 30
0.0
  0
VERTEX
  5
3D0
  8
0
 10
655.7027389545528
 20
807.4785570472928
 30
0.0
  0
VERTEX
  5
3D1
  8
0
 10
655.3238975848809
 20
807.629519405991
 30
0.0
  0
VERTEX
  5
3D2
  8
0
 10
654.891680584022
 20
807.7416945584195
 30
0.0
  0
VERTEX
  5
3D3
  8
0
 10
654.4226978088913
 20
807.8107716763886
 30
0.0
  0
VERTEX
  5
3D4
  8
0
 10
653.9349720044872
 20
807.834096165
 30
0.0
  0
VERTEX
  5
3D5
  8
0
 10
653.4472461999109
 20
807.8107716772388
 30
0.0
  0
VERTEX
  5
3D6
  8
0
 10
652.9782634242694
 20
807.741694560087
 30
0.0
  0
VERTEX
  5
3D7
  8
0
 10
652.5460464225812
 20
807.629519408412
 30
0.0
  0
VERTEX
  5
3D8
  8
0
 10
652.1672050517931
 20
807.4785570503741
 30
0.0
  0
VERTEX
  5
3D9
  8
0
 10
651.8562979732948
 20
807.294608884719
 30
0.0
  0
VERTEX
  5
3DA
  8
0
 10
651.6252731717269
 20
807.0847439362773
 30
0.0
  0
VERTEX
  5
3DB
  8
0
 10
651.4830088006333
 20
806.8570271973056
 30
0.0
  0
VERTEX
  5
3DC
  8
0
 10
651.434972
 20
806.6202096943576
 30
0.0
  0
SEQEND
  5
43F
  8
0
  0
POLYLINE
  5
1B6
  8
0
 66
     1
 10
0.0
 20
0.0
 30
0.0
  0
VERTEX
  5
3DD
  8
0
 10
651.434972
 20
806.6202096943576
 30
0.0
  0
VERTEX
  5
3DE
  8
0
 10
651.4830087973505
 20
806.383392190708
 30
0.0
  0
VERTEX
  5
3DF
  8
0
 10
651.6252731657167
 20
806.1556754507682
 30
0.0
  0
VERTEX
  5
3E0
  8
0
 10
651.8562979651925
 20
805.9458105011688
 30
0.0
  0
VERTEX
  5
3E1
  8
0
 10
652.1672050422742
 20
805.7618623342479
 30
0.0
  0
VERTEX
  5
3E2
  8
0
 10
652.5460464123208
 20
805.6108999749168
 30
0.0
  0
VERTEX
  5
3E3
  8
0
 10
652.9782634139052
 20
805.4987248219975
 30
0.0
  0
VERTEX
  5
3E4
  8
0
 10
653.4472461900085
 20
805.4296477037177
 30
0.0
  0
VERTEX
  5
3E5
  8
0
 10
653.9349719955128
 20
805.406323215
 30
0.0
  0
VERTEX
  5
3E6
  8
0
 10
654.4226978011894
 20
805.4296477028676
 30
0.0
  0
VERTEX
  5
3E7
  8
0
 10
654.8916805778035
 20
805.4987248203299
 30
0.0
  0
VERTEX
  5
3E8
  8
0
 10
655.3238975802171
 20
805.6108999724959
 30
0.0
  0
VERTEX
  5
3E9
  8
0
 10
655.70273895138
 20
805.7618623311665
 30
0.0
  0
VERTEX
  5
3EA
  8
0
 10
656.0136460298215
 20
805.9458104975456
 30
0.0
  0
VERTEX
  5
3EB
  8
0
 10
656.2446708308489
 20
806.1556754467422
 30
0.0
  0
VERTEX
  5
3EC
  8
0
 10
656.3869352008986
 20
806.3833921864341
 30
0.0
  0
VERTEX
  5
3ED
  8
0
 10
656.434972
 20
806.62020969
 30
0.0
  0
SEQEND
  5
440
  8
0
  0
LINE
  5
1B7
  8
0
 10
770.44695699
 20
778.07468971
 30
0.0
 11
622.76016043
 21
790.81631312
 31
0.0
  0
LINE
  5
1B8
  8
0
 10
631.50728773
 20
814.71964708
 30
0.0
 11
622.76016043
 21
790.81631312
 31
0.0
  0
LINE
  5
1B9
  8
0
 10
673.35188008
 20
811.10952044
 30
0.0
 11
779.19408428
 21
801.97802367
 31
0.0
  0
LINE
  5
1BA
  8
0
 10
631.50728773
 20
814.71964708
 30
0.0
 11
664.9982624
 21
811.8302257
 31
0.0
  0
POLYLINE
  5
1BB
  8
0
 66
     1
 10
0.0
 20
0.0
 30
0.0
  0
VERTEX
  5
1BC
  8
0
 10
779.19408428
 20
801.97802367
 30
0.0
  0
VERTEX
  5
1BD
  8
0
 10
770.44695699
 20
778.07468971
 30
0.0
  0
VERTEX
  5
1BE
  8
0
 10
770.44695699
 20
774.57786431
 30
0.0
  0
VERTEX
  5
1BF
  8
0
 10
622.76016043
 20
787.31948772
 30
0.0
  0
SEQEND
  5
1C0
  8
0
  0
LINE
  5
1C1
  8
0
 10
622.76016043
 20
790.81631312
 30
0.0
 11
622.76016043
 21
787.31948772
 31
0.0
  0
LINE
  5
1C2
  8
0
 10
779.19408428
 20
798.48119827
 30
0.0
 11
770.44695699
 21
774.57786431
 31
0.0
  0
LINE
  5
1C3
  8
0
 10
779.19408428
 20
801.97802367
 30
0.0
 11
779.19408428
 21
798.48119827
 31
0.0
  0
LINE
  5
1C4
  8
0
  6
STRICHPUNKT2
 62
     1
 10
653.934972
 20
807.71296762
 30
0.0
 11
653.934972
 21
805.40632321
 31
0.0
  0
LINE
  5
1C5
  8
0
  6
STRICHPUNKT2
 62
     1
 10
653.934972
 20
806.62020969
 30
0.0
 11
653.27893745
 21
804.82745964
 31
0.0
  0
LINE
  5
1C6
  8
0
  6
STRICHPUNKT2
 62
     1
 10
653.934972
 20
806.62020969
 30
0.0
 11
654.59100654
 21
808.41295973
 31
0.0
  0
LINE
  5
1C7
  8
0
  6
STRICHPUNKT2
 62
     1
 10
653.934972
 20
806.62020969
 30
0.0
 11
657.62714191
 21
806.3016691
 31
0.0
  0
LINE
  5
1C8
  8
0
  6
STRICHPUNKT2
 62
     1
 10
653.934972
 20
806.62020969
 30
0.0
 11
650.24280208
 21
806.93875027
 31
0.0
  0
LINE
  5
1C9
  8
0
  6
STRICHPUNKT2
 62
     1
 10
649.56140835
 20
795.76130064
 30
0.0
 11
649.56140835
 21
793.45465623
 31
0.0
  0
LINE
  5
1CA
  8
0
  6
STRICHPUNKT2
 62
     1
 10
649.56140835
 20
794.66854271
 30
0.0
 11
648.9053738
 21
792.87579266
 31
0.0
  0
LINE
  5
1CB
  8
0
  6
STRICHPUNKT2
 62
     1
 10
649.56140835
 20
794.66854271
 30
0.0
 11
650.2174429
 21
796.46129275
 31
0.0
  0
LINE
  5
1CC
  8
0
  6
STRICHPUNKT2
 62
     1
 10
649.56140835
 20
794.66854271
 30
0.0
 11
653.25357826
 21
794.35000212
 31
0.0
  0
LINE
  5
1CD
  8
0
  6
STRICHPUNKT2
 62
     1
 10
649.56140835
 20
794.66854271
 30
0.0
 11
645.86923843
 21
794.98708329
 31
0.0
  0
LINE
  5
1CE
  8
0
  6
STRICHPUNKT2
 62
     1
 10
760.92309386
 20
796.59901322
 30
0.0
 11
760.92309386
 21
792.42942413
 31
0.0
  0
LINE
  5
1CF
  8
0
  6
STRICHPUNKT2
 62
     1
 10
749.33480166
 20
789.91118862
 30
0.0
 11
749.33480166
 21
786.68188645
 31
0.0
  0
LINE
  5
1D0
  8
0
  6
STRICHPUNKT2
 62
     1
 10
764.30301241
 20
797.01976761
 30
0.0
 11
745.95488311
 21
786.430712
 31
0.0
  0
LINE
  5
1D1
  8
0
  6
STRICHPUNKT2
 62
     1
 10
756.90579992
 20
796.71028707
 30
0.0
 11
764.94038779
 21
793.42801714
 31
0.0
  0
LINE
  5
1D2
  8
0
  6
STRICHPUNKT2
 62
     1
 10
745.31750773
 20
790.02246248
 30
0.0
 11
753.3520956
 21
786.74019254
 31
0.0
  0
LINE
  5
1D3
  8
0
  6
STRICHPUNKT2
 62
     1
 10
758.2448979
 20
792.66641669
 30
0.0
 11
760.05350621
 21
791.9275685
 31
0.0
  0
LINE
  5
1D4
  8
0
  6
STRICHPUNKT2
 62
     1
 10
705.90001558
 20
797.50230872
 30
0.0
 11
705.90001558
 21
794.27300655
 31
0.0
  0
LINE
  5
1D5
  8
0
  6
STRICHPUNKT2
 62
     1
 10
705.90001558
 20
795.97244761
 30
0.0
 11
706.81846394
 21
798.48229768
 31
0.0
  0
LINE
  5
1D6
  8
0
  6
STRICHPUNKT2
 62
     1
 10
705.90001558
 20
795.97244761
 30
0.0
 11
704.98156721
 21
793.46259755
 31
0.0
  0
LINE
  5
1D7
  8
0
  6
STRICHPUNKT2
 62
     1
 10
705.90001558
 20
795.97244761
 30
0.0
 11
700.7309777
 21
796.41840443
 31
0.0
  0
LINE
  5
1D8
  8
0
  6
STRICHPUNKT2
 62
     1
 10
705.90001558
 20
795.97244761
 30
0.0
 11
711.06905346
 21
795.52649079
 31
0.0
  0
POLYLINE
  5
1D9
  8
0
 66
     1
 10
0.0
 20
0.0
 30
0.0
  0
VERTEX
  5
3EE
  8
0
 10
667.0064229213674
 20
803.977727769882
 30
0.0
  0
VERTEX
  5
3EF
  8
0
 10
666.9279791885671
 20
803.9362802312814
 30
0.0
  0
VERTEX
  5
3F0
  8
0
 10
666.84429196711
 20
803.8007074691377
 30
0.0
  0
VERTEX
  5
3F1
  8
0
 10
666.7585773099977
 20
803.5762194686912
 30
0.0
  0
VERTEX
  5
3F2
  8
0
 10
666.6741291834469
 20
803.2714431779399
 30
0.0
  0
VERTEX
  5
3F3
  8
0
 10
666.5941928816152
 20
802.8980909788644
 30
0.0
  0
VERTEX
  5
3F4
  8
0
 10
666.5218403117657
 20
802.4705105871552
 30
0.0
  0
VERTEX
  5
3F5
  8
0
 10
666.4598519425931
 20
802.0051336775427
 30
0.0
  0
VERTEX
  5
3F6
  8
0
 10
666.410609952371
 20
801.5198444237498
 30
0.0
  0
VERTEX
  5
3F7
  8
0
 10
666.3760066831762
 20
801.0332922197221
 30
0.0
  0
VERTEX
  5
3F8
  8
0
 10
666.3573719192435
 20
800.564174993875
 30
0.0
  0
VERTEX
  5
3F9
  8
0
 10
666.3554217841031
 20
800.1305206581869
 30
0.0
  0
VERTEX
  5
3FA
  8
0
 10
666.3702312203553
 20
799.7489943056502
 30
0.0
  0
VERTEX
  5
3FB
  8
0
 10
666.4012311096676
 20
799.43425778009
 30
0.0
  0
VERTEX
  5
3FC
  8
0
 10
666.447230143674
 20
799.1984062297264
 30
0.0
  0
VERTEX
  5
3FD
  8
0
 10
666.5064606052871
 20
799.0505032974098
 30
0.0
  0
VERTEX
  5
3FE
  8
0
 10
666.5766463010743
 20
798.9962328099074
 30
0.0
  0
SEQEND
  5
441
  8
0
  0
POLYLINE
  5
1DA
  8
0
 66
     1
 10
0.0
 20
0.0
 30
0.0
  0
VERTEX
  5
3FF
  8
0
 10
666.5766463
 20
798.99623281
 30
0.0
  0
VERTEX
  5
400
  8
0
 10
666.6550900326648
 20
799.0376803500637
 30
0.0
  0
VERTEX
  5
401
  8
0
 10
666.7387772539058
 20
799.1732531130215
 30
0.0
  0
VERTEX
  5
402
  8
0
 10
666.8244919107502
 20
799.3977411136349
 30
0.0
  0
VERTEX
  5
403
  8
0
 10
666.9089400370123
 20
799.7025174039542
 30
0.0
  0
VERTEX
  5
404
  8
0
 10
666.9888763385661
 20
800.0758696020898
 30
0.0
  0
VERTEX
  5
405
  8
0
 10
667.0612289081791
 20
800.5034499924783
 30
0.0
  0
VERTEX
  5
406
  8
0
 10
667.123217277183
 20
800.9688269005443
 30
0.0
  0
VERTEX
  5
407
  8
0
 10
667.1724592673258
 20
801.4541161527378
 30
0.0
  0
VERTEX
  5
408
  8
0
 10
667.207062536546
 20
801.940668355293
 30
0.0
  0
VERTEX
  5
409
  8
0
 10
667.225697300616
 20
802.4097855799702
 30
0.0
  0
VERTEX
  5
40A
  8
0
 10
667.2276474360052
 20
802.8434399149495
 30
0.0
  0
VERTEX
  5
40B
  8
0
 10
667.2128380001038
 20
803.2249662673722
 30
0.0
  0
VERTEX
  5
40C
  8
0
 10
667.1818381112274
 20
803.5397027935104
 30
0.0
  0
VERTEX
  5
40D
  8
0
 10
667.1358390777177
 20
803.7755543451984
 30
0.0
  0
VERTEX
  5
40E
  8
0
 10
667.0766086166318
 20
803.9234572795925
 30
0.0
  0
VERTEX
  5
40F
  8
0
 10
667.0064229213674
 20
803.977727769882
 30
0.0
  0
SEQEND
  5
442
  8
0
  0
POLYLINE
  5
1DB
  8
0
 66
     1
 10
0.0
 20
0.0
 30
0.0
  0
VERTEX
  5
410
  8
0
 10
671.3799865713675
 20
815.929394749882
 30
0.0
  0
VERTEX
  5
411
  8
0
 10
671.3015428386403
 20
815.8879472113614
 30
0.0
  0
VERTEX
  5
412
  8
0
 10
671.2178556172631
 20
815.7523744494631
 30
0.0
  0
VERTEX
  5
413
  8
0
 10
671.1321409602284
 20
815.5278864494086
 30
0.0
  0
VERTEX
  5
414
  8
0
 10
671.047692833744
 20
815.2231101591653
 30
0.0
  0
VERTEX
  5
415
  8
0
 10
670.9677565319593
 20
814.8497579606735
 30
0.0
  0
VERTEX
  5
416
  8
0
 10
670.8954039621299
 20
814.4221775695758
 30
0.0
  0
VERTEX
  5
417
  8
0
 10
670.8334155929449
 20
813.9568006605492
 30
0.0
  0
VERTEX
  5
418
  8
0
 10
670.7841736026742
 20
813.4715114072623
 30
0.0
  0
VERTEX
  5
419
  8
0
 10
670.7495703333927
 20
812.9849592036078
 30
0.0
  0
VERTEX
  5
41A
  8
0
 10
670.7309355693365
 20
812.5158419779535
 30
0.0
  0
VERTEX
  5
41B
  8
0
 10
670.7289854340393
 20
812.0821876422381
 30
0.0
  0
VERTEX
  5
41C
  8
0
 10
670.743794870107
 20
811.7006612894248
 30
0.0
  0
VERTEX
  5
41D
  8
0
 10
670.7747947592154
 20
811.3859247633237
 30
0.0
  0
VERTEX
  5
41E
  8
0
 10
670.8207937930085
 20
811.1500732121536
 30
0.0
  0
VERTEX
  5
41F
  8
0
 10
670.88002425441
 20
811.0021702787799
 30
0.0
  0
VERTEX
  5
420
  8
0
 10
670.95020995
 20
810.9478997900001
 30
0.0
  0
SEQEND
  5
443
  8
0
  0
POLYLINE
  5
1DC
  8
0
 66
     1
 10
0.0
 20
0.0
 30
0.0
  0
VERTEX
  5
421
  8
0
 10
670.95020995
 20
810.9478997900001
 30
0.0
  0
VERTEX
  5
422
  8
0
 10
671.0286536826649
 20
810.9893473300638
 30
0.0
  0
VERTEX
  5
423
  8
0
 10
671.1123409039059
 20
811.1249200930215
 30
0.0
  0
VERTEX
  5
424
  8
0
 10
671.1980555607503
 20
811.3494080936349
 30
0.0
  0
VERTEX
  5
425
  8
0
 10
671.2825036870123
 20
811.6541843839542
 30
0.0
  0
VERTEX
  5
426
  8
0
 10
671.3624399885662
 20
812.0275365820899
 30
0.0
  0
VERTEX
  5
427
  8
0
 10
671.4347925581792
 20
812.4551169724783
 30
0.0
  0
VERTEX
  5
428
  8
0
 10
671.4967809271831
 20
812.9204938805443
 30
0.0
  0
VERTEX
  5
429
  8
0
 10
671.5460229173259
 20
813.4057831327378
 30
0.0
  0
VERTEX
  5
42A
  8
0
 10
671.580626186546
 20
813.8923353352931
 30
0.0
  0
VERTEX
  5
42B
  8
0
 10
671.5992609506161
 20
814.3614525599702
 30
0.0
  0
VERTEX
  5
42C
  8
0
 10
671.6012110860053
 20
814.7951068949495
 30
0.0
  0
VERTEX
  5
42D
  8
0
 10
671.5864016501039
 20
815.1766332473723
 30
0.0
  0
VERTEX
  5
42E
  8
0
 10
671.5554017612275
 20
815.4913697735104
 30
0.0
  0
VERTEX
  5
42F
  8
0
 10
671.5094027277178
 20
815.7272213251985
 30
0.0
  0
VERTEX
  5
430
  8
0
 10
671.4501722666319
 20
815.8751242595926
 30
0.0
  0
VERTEX
  5
431
  8
0
 10
671.3799865713675
 20
815.929394749882
 30
0.0
  0
SEQEND
  5
444
  8
0
  0
POLYLINE
  5
1DD
  8
0
 66
     1
 10
0.0
 20
0.0
 30
0.0
  0
VERTEX
  5
1DE
  8
0
 10
662.14330618
 20
804.0284675
 30
0.0
  0
VERTEX
  5
1DF
  8
0
 10
662.14330618
 20
787.41854687
 30
0.0
  0
VERTEX
  5
1E0
  8
0
 10
664.60475279
 20
787.20618648
 30
0.0
  0
SEQEND
  5
1E1
  8
0
  0
LINE
  5
1E2
  8
0
 10
664.60475279
 20
803.81610711
 30
0.0
 11
664.60475279
 21
787.20618648
 31
0.0
  0
LINE
  5
1E3
  8
0
 10
662.14330618
 20
804.0284675
 30
0.0
 11
664.60475279
 21
803.81610711
 31
0.0
  0
LINE
  5
1E4
  8
0
 10
670.89043347
 20
827.93180146
 30
0.0
 11
662.14330618
 21
804.0284675
 31
0.0
  0
LINE
  5
1E5
  8
0
 10
670.89043347
 20
827.93180146
 30
0.0
 11
673.35188008
 21
827.71944107
 31
0.0
  0
LINE
  5
1E6
  8
0
 10
673.35188008
 20
811.10952044
 30
0.0
 11
673.35188008
 21
827.71944107
 31
0.0
  0
LINE
  5
1E7
  8
0
 10
673.35188008
 20
811.10952044
 30
0.0
 11
664.60475279
 21
787.20618648
 31
0.0
  0
LINE
  5
1E8
  8
0
 10
673.35188008
 20
827.71944107
 30
0.0
 11
664.60475279
 21
803.81610711
 31
0.0
  0
LINE
  5
1E9
  8
0
  6
STRICHPUNKT2
 62
     1
 10
672.39582156
 20
813.33246707
 30
0.0
 11
670.78417359
 21
813.4715114
 31
0.0
  0
LINE
  5
1EA
  8
0
  6
STRICHPUNKT2
 62
     1
 10
671.16509826
 20
813.43864727
 30
0.0
 11
670.50906371
 21
811.64589722
 31
0.0
  0
LINE
  5
1EB
  8
0
  6
STRICHPUNKT2
 62
     1
 10
671.16509826
 20
813.43864727
 30
0.0
 11
671.82113281
 21
815.23139732
 31
0.0
  0
LINE
  5
1EC
  8
0
  6
STRICHPUNKT2
 62
     1
 10
671.16509826
 20
813.43864727
 30
0.0
 11
671.16509826
 21
810.16037346
 31
0.0
  0
LINE
  5
1ED
  8
0
  6
STRICHPUNKT2
 62
     1
 10
671.16509826
 20
813.43864727
 30
0.0
 11
671.16509826
 21
816.71692108
 31
0.0
  0
LINE
  5
1EE
  8
0
  6
STRICHPUNKT2
 62
     1
 10
668.02225792
 20
801.38080009
 30
0.0
 11
666.41060994
 21
801.51984442
 31
0.0
  0
LINE
  5
1EF
  8
0
  6
STRICHPUNKT2
 62
     1
 10
666.79153461
 20
801.48698029
 30
0.0
 11
666.13550007
 21
799.69423024
 31
0.0
  0
LINE
  5
1F0
  8
0
  6
STRICHPUNKT2
 62
     1
 10
666.79153461
 20
801.48698029
 30
0.0
 11
667.44756916
 21
803.27973034
 31
0.0
  0
LINE
  5
1F1
  8
0
  6
STRICHPUNKT2
 62
     1
 10
666.79153461
 20
801.48698029
 30
0.0
 11
666.79153461
 21
798.20870648
 31
0.0
  0
LINE
  5
1F2
  8
0
  6
STRICHPUNKT2
 62
     1
 10
666.79153461
 20
801.48698029
 30
0.0
 11
666.79153461
 21
804.7652541
 31
0.0
  0
CIRCLE
  5
1F3
  8
0
 10
879.37364091
 20
879.40771861
 30
0.0
 40
3.5
  0
POLYLINE
  5
1F4
  8
0
 66
     1
 10
0.0
 20
0.0
 30
0.0
 70
     1
  0
VERTEX
  5
1F5
  8
0
 10
930.84255199
 20
888.95194724
 30
0.0
 42
-1.0
  0
VERTEX
  5
1F6
  8
0
 10
936.90472982
 20
885.45194724
 30
0.0
  0
VERTEX
  5
1F7
  8
0
 10
927.90472982
 20
869.86348997
 30
0.0
 42
-1.0
  0
VERTEX
  5
1F8
  8
0
 10
921.84255199
 20
873.36348997
 30
0.0
  0
SEQEND
  5
1F9
  8
0
  0
CIRCLE
  5
1FA
  8
0
 10
824.37364091
 20
866.90771861
 30
0.0
 40
2.5
  0
CIRCLE
  5
1FB
  8
0
 10
824.37364091
 20
891.90771861
 30
0.0
 40
2.5
  0
LINE
  5
1FC
  8
0
 10
839.37364091
 20
854.40771861
 30
0.0
 11
799.37364091
 21
854.40771861
 31
0.0
  0
LINE
  5
1FD
  8
0
 10
949.37364091
 20
854.40771861
 30
0.0
 11
841.87364091
 21
854.40771861
 31
0.0
  0
LINE
  5
1FE
  8
0
 10
799.37364091
 20
904.40771861
 30
0.0
 11
799.37364091
 21
854.40771861
 31
0.0
  0
LINE
  5
1FF
  8
0
 10
841.87364091
 20
904.40771861
 30
0.0
 11
949.37364091
 21
904.40771861
 31
0.0
  0
LINE
  5
200
  8
0
 10
799.37364091
 20
904.40771861
 30
0.0
 11
839.37364091
 21
904.40771861
 31
0.0
  0
LINE
  5
201
  8
0
 10
949.37364091
 20
904.40771861
 30
0.0
 11
949.37364091
 21
854.40771861
 31
0.0
  0
LINE
  5
202
  8
0
  6
STRICHPUNKT2
 62
     1
 10
824.37364091
 20
891.90771861
 30
0.0
 11
824.37364091
 21
888.15771861
 31
0.0
  0
LINE
  5
203
  8
0
  6
STRICHPUNKT2
 62
     1
 10
824.37364091
 20
891.90771861
 30
0.0
 11
824.37364091
 21
895.65771861
 31
0.0
  0
LINE
  5
204
  8
0
  6
STRICHPUNKT2
 62
     1
 10
824.37364091
 20
891.90771861
 30
0.0
 11
828.12364091
 21
891.90771861
 31
0.0
  0
LINE
  5
205
  8
0
  6
STRICHPUNKT2
 62
     1
 10
824.37364091
 20
891.90771861
 30
0.0
 11
820.62364091
 21
891.90771861
 31
0.0
  0
LINE
  5
206
  8
0
  6
STRICHPUNKT2
 62
     1
 10
824.37364091
 20
866.90771861
 30
0.0
 11
824.37364091
 21
863.15771861
 31
0.0
  0
LINE
  5
207
  8
0
  6
STRICHPUNKT2
 62
     1
 10
824.37364091
 20
866.90771861
 30
0.0
 11
824.37364091
 21
870.65771861
 31
0.0
  0
LINE
  5
208
  8
0
  6
STRICHPUNKT2
 62
     1
 10
824.37364091
 20
866.90771861
 30
0.0
 11
828.12364091
 21
866.90771861
 31
0.0
  0
LINE
  5
209
  8
0
  6
STRICHPUNKT2
 62
     1
 10
824.37364091
 20
866.90771861
 30
0.0
 11
820.62364091
 21
866.90771861
 31
0.0
  0
LINE
  5
20A
  8
0
  6
STRICHPUNKT2
 62
     1
 10
936.49864091
 20
891.74858061
 30
0.0
 11
922.24864091
 21
867.0668566
 31
0.0
  0
LINE
  5
20B
  8
0
  6
STRICHPUNKT2
 62
     1
 10
929.32700754
 20
889.82694724
 30
0.0
 11
938.42027428
 21
884.57694724
 31
0.0
  0
LINE
  5
20C
  8
0
  6
STRICHPUNKT2
 62
     1
 10
920.32700754
 20
874.23848997
 30
0.0
 11
929.42027428
 21
868.98848997
 31
0.0
  0
LINE
  5
20D
  8
0
  6
STRICHPUNKT2
 62
     1
 10
879.37364091
 20
879.40771861
 30
0.0
 11
879.37364091
 21
884.65771861
 31
0.0
  0
LINE
  5
20E
  8
0
  6
STRICHPUNKT2
 62
     1
 10
879.37364091
 20
879.40771861
 30
0.0
 11
879.37364091
 21
874.15771861
 31
0.0
  0
LINE
  5
20F
  8
0
  6
STRICHPUNKT2
 62
     1
 10
879.37364091
 20
879.40771861
 30
0.0
 11
874.12364091
 21
879.40771861
 31
0.0
  0
LINE
  5
210
  8
0
  6
STRICHPUNKT2
 62
     1
 10
879.37364091
 20
879.40771861
 30
0.0
 11
884.62364091
 21
879.40771861
 31
0.0
  0
POLYLINE
  5
211
  8
0
 66
     1
 10
0.0
 20
0.0
 30
0.0
  0
VERTEX
  5
212
  8
0
 10
839.37364091
 20
904.40771861
 30
0.0
  0
VERTEX
  5
213
  8
0
 10
839.37364091
 20
854.40771861
 30
0.0
  0
VERTEX
  5
214
  8
0
 10
841.87364091
 20
854.40771861
 30
0.0
  0
SEQEND
  5
215
  8
0
  0
LINE
  5
216
  8
0
 10
841.87364091
 20
904.40771861
 30
0.0
 11
841.87364091
 21
854.40771861
 31
0.0
  0
LINE
  5
217
  8
0
 10
839.37364091
 20
904.40771861
 30
0.0
 11
841.87364091
 21
904.40771861
 31
0.0
  0
LINE
  5
218
  8
0
  6
STRICHPUNKT2
 62
     1
 10
839.37364091
 20
891.90771861
 30
0.0
 11
838.12364091
 21
891.90771861
 31
0.0
  0
LINE
  5
219
  8
0
  6
STRICHPUNKT2
 62
     1
 10
843.12364091
 20
891.90771861
 30
0.0
 11
841.87364091
 21
891.90771861
 31
0.0
  0
LINE
  5
21A
  8
0
  6
STRICHPUNKT2
 62
     1
 10
839.37364091
 20
866.90771861
 30
0.0
 11
838.12364091
 21
866.90771861
 31
0.0
  0
LINE
  5
21B
  8
0
  6
STRICHPUNKT2
 62
     1
 10
843.12364091
 20
866.90771861
 30
0.0
 11
841.87364091
 21
866.90771861
 31
0.0
  0
POLYLINE
  5
21C
  8
0
 66
     1
 10
0.0
 20
0.0
 30
0.0
  0
VERTEX
  5
21D
  8
0
 10
949.37364091
 20
954.08421224
 30
0.0
  0
VERTEX
  5
21E
  8
0
 10
799.37364091
 20
954.08421224
 30
0.0
  0
VERTEX
  5
21F
  8
0
 10
799.37364091
 20
950.08421224
 30
0.0
  0
SEQEND
  5
220
  8
0
  0
LINE
  5
221
  8
0
 10
949.37364091
 20
950.08421224
 30
0.0
 11
799.37364091
 21
950.08421224
 31
0.0
  0
LINE
  5
222
  8
0
 10
949.37364091
 20
954.08421224
 30
0.0
 11
949.37364091
 21
950.08421224
 31
0.0
  0
LINE
  5
223
  8
0
  6
STRICHPUNKT2
 62
     1
 10
924.87364091
 20
950.08421224
 30
0.0
 11
924.87364091
 21
948.33421224
 31
0.0
  0
LINE
  5
224
  8
0
  6
STRICHPUNKT2
 62
     1
 10
924.87364091
 20
955.83421224
 30
0.0
 11
924.87364091
 21
954.08421224
 31
0.0
  0
LINE
  5
225
  8
0
  6
STRICHPUNKT2
 62
     1
 10
933.87364091
 20
950.08421224
 30
0.0
 11
933.87364091
 21
948.33421224
 31
0.0
  0
LINE
  5
226
  8
0
  6
STRICHPUNKT2
 62
     1
 10
933.87364091
 20
955.83421224
 30
0.0
 11
933.87364091
 21
954.08421224
 31
0.0
  0
LINE
  5
227
  8
0
  6
STRICHPUNKT2
 62
     1
 10
879.37364091
 20
950.08421224
 30
0.0
 11
879.37364091
 21
948.33421224
 31
0.0
  0
LINE
  5
228
  8
0
  6
STRICHPUNKT2
 62
     1
 10
879.37364091
 20
955.83421224
 30
0.0
 11
879.37364091
 21
954.08421224
 31
0.0
  0
LINE
  5
229
  8
0
  6
STRICHPUNKT2
 62
     1
 10
824.37364091
 20
950.08421224
 30
0.0
 11
824.37364091
 21
948.83421224
 31
0.0
  0
LINE
  5
22A
  8
0
  6
STRICHPUNKT2
 62
     1
 10
824.37364091
 20
955.33421224
 30
0.0
 11
824.37364091
 21
954.08421224
 31
0.0
  0
POLYLINE
  5
22B
  8
0
 66
     1
 10
0.0
 20
0.0
 30
0.0
  0
VERTEX
  5
22C
  8
0
 10
839.37364091
 20
973.08421224
 30
0.0
  0
VERTEX
  5
22D
  8
0
 10
839.37364091
 20
954.08421224
 30
0.0
  0
VERTEX
  5
22E
  8
0
 10
841.87364091
 20
954.08421224
 30
0.0
  0
SEQEND
  5
22F
  8
0
  0
LINE
  5
230
  8
0
 10
841.87364091
 20
973.08421224
 30
0.0
 11
841.87364091
 21
954.08421224
 31
0.0
  0
LINE
  5
231
  8
0
 10
839.37364091
 20
973.08421224
 30
0.0
 11
841.87364091
 21
973.08421224
 31
0.0
  0
LINE
  5
232
  8
0
  6
STRICHPUNKT2
 62
     1
 10
839.37364091
 20
963.58421224
 30
0.0
 11
838.12364091
 21
963.58421224
 31
0.0
  0
LINE
  5
233
  8
0
  6
STRICHPUNKT2
 62
     1
 10
843.12364091
 20
963.58421224
 30
0.0
 11
841.87364091
 21
963.58421224
 31
0.0
  0
POLYLINE
  5
234
  8
0
 66
     1
 10
0.0
 20
0.0
 30
0.0
  0
VERTEX
  5
235
  8
0
 10
723.4991557
 20
954.08421224
 30
0.0
  0
VERTEX
  5
236
  8
0
 10
773.4991557
 20
954.08421224
 30
0.0
  0
VERTEX
  5
237
  8
0
 10
773.4991557
 20
950.08421224
 30
0.0
  0
SEQEND
  5
238
  8
0
  0
LINE
  5
239
  8
0
 10
723.4991557
 20
950.08421224
 30
0.0
 11
773.4991557
 21
950.08421224
 31
0.0
  0
LINE
  5
23A
  8
0
 10
723.4991557
 20
954.08421224
 30
0.0
 11
723.4991557
 21
950.08421224
 31
0.0
  0
LINE
  5
23B
  8
0
  6
STRICHPUNKT2
 62
     1
 10
735.9991557
 20
950.08421224
 30
0.0
 11
735.9991557
 21
948.83421224
 31
0.0
  0
LINE
  5
23C
  8
0
  6
STRICHPUNKT2
 62
     1
 10
735.9991557
 20
955.33421224
 30
0.0
 11
735.9991557
 21
954.08421224
 31
0.0
  0
LINE
  5
23D
  8
0
  6
STRICHPUNKT2
 62
     1
 10
740.70492706
 20
950.08421224
 30
0.0
 11
740.70492706
 21
948.33421224
 31
0.0
  0
LINE
  5
23E
  8
0
  6
STRICHPUNKT2
 62
     1
 10
756.29338433
 20
950.08421224
 30
0.0
 11
756.29338433
 21
948.33421224
 31
0.0
  0
LINE
  5
23F
  8
0
  6
STRICHPUNKT2
 62
     1
 10
748.4991557
 20
950.08421224
 30
0.0
 11
748.4991557
 21
948.33421224
 31
0.0
  0
LINE
  5
240
  8
0
  6
STRICHPUNKT2
 62
     1
 10
760.9991557
 20
950.08421224
 30
0.0
 11
760.9991557
 21
948.83421224
 31
0.0
  0
LINE
  5
241
  8
0
  6
STRICHPUNKT2
 62
     1
 10
760.9991557
 20
955.33421224
 30
0.0
 11
760.9991557
 21
954.08421224
 31
0.0
  0
CIRCLE
  5
242
  8
0
 10
760.9991557
 20
963.58421224
 30
0.0
 40
2.5
  0
CIRCLE
  5
243
  8
0
 10
735.9991557
 20
963.58421224
 30
0.0
 40
2.5
  0
LINE
  5
244
  8
0
 10
773.4991557
 20
973.08421224
 30
0.0
 11
773.4991557
 21
954.08421224
 31
0.0
  0
LINE
  5
245
  8
0
 10
723.4991557
 20
954.08421224
 30
0.0
 11
773.4991557
 21
954.08421224
 31
0.0
  0
POLYLINE
  5
246
  8
0
 66
     1
 10
0.0
 20
0.0
 30
0.0
  0
VERTEX
  5
247
  8
0
 10
723.4991557
 20
954.08421224
 30
0.0
  0
VERTEX
  5
248
  8
0
 10
723.4991557
 20
973.08421224
 30
0.0
  0
VERTEX
  5
249
  8
0
 10
773.4991557
 20
973.08421224
 30
0.0
  0
SEQEND
  5
24A
  8
0
  0
LINE
  5
24B
  8
0
  6
STRICHPUNKT2
 62
     1
 10
735.9991557
 20
963.58421224
 30
0.0
 11
739.7491557
 21
963.58421224
 31
0.0
  0
LINE
  5
24C
  8
0
  6
STRICHPUNKT2
 62
     1
 10
735.9991557
 20
963.58421224
 30
0.0
 11
732.2491557
 21
963.58421224
 31
0.0
  0
LINE
  5
24D
  8
0
  6
STRICHPUNKT2
 62
     1
 10
735.9991557
 20
963.58421224
 30
0.0
 11
735.9991557
 21
959.83421224
 31
0.0
  0
LINE
  5
24E
  8
0
  6
STRICHPUNKT2
 62
     1
 10
735.9991557
 20
963.58421224
 30
0.0
 11
735.9991557
 21
967.33421224
 31
0.0
  0
LINE
  5
24F
  8
0
  6
STRICHPUNKT2
 62
     1
 10
760.9991557
 20
963.58421224
 30
0.0
 11
764.7491557
 21
963.58421224
 31
0.0
  0
LINE
  5
250
  8
0
  6
STRICHPUNKT2
 62
     1
 10
760.9991557
 20
963.58421224
 30
0.0
 11
757.2491557
 21
963.58421224
 31
0.0
  0
LINE
  5
251
  8
0
  6
STRICHPUNKT2
 62
     1
 10
760.9991557
 20
963.58421224
 30
0.0
 11
760.9991557
 21
959.83421224
 31
0.0
  0
LINE
  5
252
  8
0
  6
STRICHPUNKT2
 62
     1
 10
760.9991557
 20
963.58421224
 30
0.0
 11
760.9991557
 21
967.33421224
 31
0.0
  0
TEXT
  5
253
  8
TXT_DIM49
 10
810.01873661
 20
843.53655157
 30
0.0
 40
2.5
  1
50
  7
ARIAL
  0
LINE
  5
254
  8
0
 62
     4
 10
800.37364091
 20
843.03655157
 30
0.0
 11
798.37364091
 21
841.03655157
 31
0.0
  0
LINE
  5
255
  8
0
 62
     4
 10
823.62364091
 20
841.28655157
 30
0.0
 11
825.12364091
 21
842.78655157
 31
0.0
  0
LINE
  5
256
  8
0
 62
     4
 10
799.37364091
 20
842.03655157
 30
0.0
 11
824.37364091
 21
842.03655157
 31
0.0
  0
LINE
  5
257
  8
0
 62
     4
 10
799.37364091
 20
844.03655157
 30
0.0
 11
799.37364091
 21
840.03655157
 31
0.0
  0
LINE
  5
258
  8
0
 62
     4
 10
824.37364091
 20
844.03655157
 30
0.0
 11
824.37364091
 21
840.03655157
 31
0.0
  0
TEXT
  5
259
  8
TXT_DIM49
 10
874.09128441
 20
843.53655157
 30
0.0
 40
2.5
  1
210
  7
ARIAL
  0
LINE
  5
25A
  8
0
 62
     4
 10
825.37364091
 20
843.03655157
 30
0.0
 11
823.37364091
 21
841.03655157
 31
0.0
  0
LINE
  5
25B
  8
0
 62
     4
 10
928.62364091
 20
841.28655157
 30
0.0
 11
930.12364091
 21
842.78655157
 31
0.0
  0
LINE
  5
25C
  8
0
 62
     4
 10
824.37364091
 20
842.03655157
 30
0.0
 11
929.37364091
 21
842.03655157
 31
0.0
  0
LINE
  5
25D
  8
0
 62
     4
 10
824.37364091
 20
844.03655157
 30
0.0
 11
824.37364091
 21
840.03655157
 31
0.0
  0
LINE
  5
25E
  8
0
 62
     4
 10
929.37364091
 20
844.03655157
 30
0.0
 11
929.37364091
 21
840.03655157
 31
0.0
  0
TEXT
  5
25F
  8
TXT_DIM49
 10
937.51873661
 20
843.53655157
 30
0.0
 40
2.5
  1
40
  7
ARIAL
  0
LINE
  5
260
  8
0
 62
     4
 10
930.37364091
 20
843.03655157
 30
0.0
 11
928.37364091
 21
841.03655157
 31
0.0
  0
LINE
  5
261
  8
0
 62
     4
 10
948.62364091
 20
841.28655157
 30
0.0
 11
950.12364091
 21
842.78655157
 31
0.0
  0
LINE
  5
262
  8
0
 62
     4
 10
929.37364091
 20
842.03655157
 30
0.0
 11
949.37364091
 21
842.03655157
 31
0.0
  0
LINE
  5
263
  8
0
 62
     4
 10
929.37364091
 20
844.03655157
 30
0.0
 11
929.37364091
 21
840.03655157
 31
0.0
  0
LINE
  5
264
  8
0
 62
     4
 10
949.37364091
 20
844.03655157
 30
0.0
 11
949.37364091
 21
840.03655157
 31
0.0
  0
TEXT
  5
265
  8
TXT_DIM49
 10
965.57874702
 20
865.05281431
 30
0.0
 40
2.5
  1
50
 50
90.00020741
  7
ARIAL
  0
LINE
  5
266
  8
0
 62
     4
 10
966.07874702
 20
855.40771861
 30
0.0
 11
968.07874702
 21
853.40771861
 31
0.0
  0
LINE
  5
267
  8
0
 62
     4
 10
967.82874702
 20
878.65771861
 30
0.0
 11
966.32874702
 21
880.15771861
 31
0.0
  0
LINE
  5
268
  8
0
 62
     4
 10
967.07874702
 20
854.40771861
 30
0.0
 11
967.07874702
 21
879.40771861
 31
0.0
  0
LINE
  5
269
  8
0
 62
     4
 10
965.07874702
 20
854.40771861
 30
0.0
 11
969.07874702
 21
854.40771861
 31
0.0
  0
LINE
  5
26A
  8
0
 62
     4
 10
965.07874702
 20
879.40771861
 30
0.0
 11
969.07874702
 21
879.40771861
 31
0.0
  0
TEXT
  5
26B
  8
TXT_DIM49
 10
965.57874702
 20
890.05281431
 30
0.0
 40
2.5
  1
50
 50
90.00020741
  7
ARIAL
  0
LINE
  5
26C
  8
0
 62
     4
 10
966.07874702
 20
880.40771861
 30
0.0
 11
968.07874702
 21
878.40771861
 31
0.0
  0
LINE
  5
26D
  8
0
 62
     4
 10
967.82874702
 20
903.65771861
 30
0.0
 11
966.32874702
 21
905.15771861
 31
0.0
  0
LINE
  5
26E
  8
0
 62
     4
 10
967.07874702
 20
879.40771861
 30
0.0
 11
967.07874702
 21
904.40771861
 31
0.0
  0
LINE
  5
26F
  8
0
 62
     4
 10
965.07874702
 20
879.40771861
 30
0.0
 11
969.07874702
 21
879.40771861
 31
0.0
  0
LINE
  5
270
  8
0
 62
     4
 10
965.07874702
 20
904.40771861
 30
0.0
 11
969.07874702
 21
904.40771861
 31
0.0
  0
TEXT
  5
271
  8
TXT_DIM49
 10
787.87364091
 20
858.80281431
 30
0.0
 40
2.5
  1
25
 50
90.00020741
  7
ARIAL
  0
LINE
  5
272
  8
0
 62
     4
 10
788.37364091
 20
855.40771861
 30
0.0
 11
790.37364091
 21
853.40771861
 31
0.0
  0
LINE
  5
273
  8
0
 62
     4
 10
790.12364091
 20
866.15771861
 30
0.0
 11
788.62364091
 21
867.65771861
 31
0.0
  0
LINE
  5
274
  8
0
 62
     4
 10
789.37364091
 20
854.40771861
 30
0.0
 11
789.37364091
 21
866.90771861
 31
0.0
  0
LINE
  5
275
  8
0
 62
     4
 10
791.37364091
 20
854.40771861
 30
0.0
 11
787.37364091
 21
854.40771861
 31
0.0
  0
LINE
  5
276
  8
0
 62
     4
 10
791.37364091
 20
866.90771861
 30
0.0
 11
787.37364091
 21
866.90771861
 31
0.0
  0
TEXT
  5
277
  8
TXT_DIM49
 10
787.87364091
 20
877.55281431
 30
0.0
 40
2.5
  1
50
 50
90.00020741
  7
ARIAL
  0
LINE
  5
278
  8
0
 62
     4
 10
788.37364091
 20
867.90771861
 30
0.0
 11
790.37364091
 21
865.90771861
 31
0.0
  0
LINE
  5
279
  8
0
 62
     4
 10
790.12364091
 20
891.15771861
 30
0.0
 11
788.62364091
 21
892.65771861
 31
0.0
  0
LINE
  5
27A
  8
0
 62
     4
 10
789.37364091
 20
866.90771861
 30
0.0
 11
789.37364091
 21
891.90771861
 31
0.0
  0
LINE
  5
27B
  8
0
 62
     4
 10
791.37364091
 20
866.90771861
 30
0.0
 11
787.37364091
 21
866.90771861
 31
0.0
  0
LINE
  5
27C
  8
0
 62
     4
 10
791.37364091
 20
891.90771861
 30
0.0
 11
787.37364091
 21
891.90771861
 31
0.0
  0
TEXT
  5
27D
  8
TXT_DIM49
 10
787.87364091
 20
896.30281431
 30
0.0
 40
2.5
  1
25
 50
90.00020741
  7
ARIAL
  0
LINE
  5
27E
  8
0
 62
     4
 10
788.37364091
 20
892.90771861
 30
0.0
 11
790.37364091
 21
890.90771861
 31
0.0
  0
LINE
  5
27F
  8
0
 62
     4
 10
790.12364091
 20
903.65771861
 30
0.0
 11
788.62364091
 21
905.15771861
 31
0.0
  0
LINE
  5
280
  8
0
 62
     4
 10
789.37364091
 20
891.90771861
 30
0.0
 11
789.37364091
 21
904.40771861
 31
0.0
  0
LINE
  5
281
  8
0
 62
     4
 10
791.37364091
 20
891.90771861
 30
0.0
 11
787.37364091
 21
891.90771861
 31
0.0
  0
LINE
  5
282
  8
0
 62
     4
 10
791.37364091
 20
904.40771861
 30
0.0
 11
787.37364091
 21
904.40771861
 31
0.0
  0
TEXT
  5
283
  8
TXT_DIM49
 10
777.87364091
 20
876.62536211
 30
0.0
 40
2.5
  1
100
 50
90.00020741
  7
ARIAL
  0
LINE
  5
284
  8
0
 62
     4
 10
778.37364091
 20
855.40771861
 30
0.0
 11
780.37364091
 21
853.40771861
 31
0.0
  0
LINE
  5
285
  8
0
 62
     4
 10
780.12364091
 20
903.65771861
 30
0.0
 11
778.62364091
 21
905.15771861
 31
0.0
  0
LINE
  5
286
  8
0
 62
     4
 10
779.37364091
 20
854.40771861
 30
0.0
 11
779.37364091
 21
904.40771861
 31
0.0
  0
LINE
  5
287
  8
0
 62
     4
 10
781.37364091
 20
854.40771861
 30
0.0
 11
777.37364091
 21
854.40771861
 31
0.0
  0
LINE
  5
288
  8
0
 62
     4
 10
781.37364091
 20
904.40771861
 30
0.0
 11
777.37364091
 21
904.40771861
 31
0.0
  0
TEXT
  5
289
  8
TXT_DIM49
 10
836.59128441
 20
909.08964494
 30
0.0
 40
2.5
  1
160
  7
ARIAL
  0
LINE
  5
28A
  8
0
 62
     4
 10
800.37364091
 20
908.58964494
 30
0.0
 11
798.37364091
 21
906.58964494
 31
0.0
  0
LINE
  5
28B
  8
0
 62
     4
 10
878.62364091
 20
906.83964494
 30
0.0
 11
880.12364091
 21
908.33964494
 31
0.0
  0
LINE
  5
28C
  8
0
 62
     4
 10
799.37364091
 20
907.58964494
 30
0.0
 11
879.37364091
 21
907.58964494
 31
0.0
  0
LINE
  5
28D
  8
0
 62
     4
 10
799.37364091
 20
905.58964494
 30
0.0
 11
799.37364091
 21
909.58964494
 31
0.0
  0
LINE
  5
28E
  8
0
 62
     4
 10
879.37364091
 20
905.58964494
 30
0.0
 11
879.37364091
 21
909.58964494
 31
0.0
  0
TEXT
  5
28F
  8
TXT_DIM49
 10
911.59128441
 20
909.08964494
 30
0.0
 40
2.5
  1
140
  7
ARIAL
  0
LINE
  5
290
  8
0
 62
     4
 10
880.37364091
 20
908.58964494
 30
0.0
 11
878.37364091
 21
906.58964494
 31
0.0
  0
LINE
  5
291
  8
0
 62
     4
 10
948.62364091
 20
906.83964494
 30
0.0
 11
950.12364091
 21
908.33964494
 31
0.0
  0
LINE
  5
292
  8
0
 62
     4
 10
879.37364091
 20
907.58964494
 30
0.0
 11
949.37364091
 21
907.58964494
 31
0.0
  0
LINE
  5
293
  8
0
 62
     4
 10
879.37364091
 20
905.58964494
 30
0.0
 11
879.37364091
 21
909.58964494
 31
0.0
  0
LINE
  5
294
  8
0
 62
     4
 10
949.37364091
 20
905.58964494
 30
0.0
 11
949.37364091
 21
909.58964494
 31
0.0
  0
TEXT
  5
295
  8
TXT_DIM49
 10
929.75827668
 20
912.64898728
 30
0.0
 40
2.5
  1
30
 50
344.999965432
  7
ARIAL
  0
TEXT
  5
296
  8
TXT_DIM49
 10
933.34167661
 20
911.68881817
 30
0.0
 40
2.5
  1
°
 50
344.999965432
  7
ARIAL
  0
LINE
  5
297
  8
0
 62
     4
 10
922.82684625
 20
910.84364387
 30
0.0
 11
920.85825773
 21
912.87456958
 31
0.0
  0
LINE
  5
298
  8
0
 62
     4
 10
940.79990825
 20
907.72178846
 30
0.0
 11
941.38081249
 21
905.68155557
 31
0.0
  0
POLYLINE
  5
299
  8
0
 62
     4
 66
     1
 10
0.0
 20
0.0
 30
0.0
  0
VERTEX
  5
432
  8
0
 62
     4
 10
941.0903607133124
 20
906.7016719401117
 30
0.0
  0
VERTEX
  5
433
  8
0
 62
     4
 10
935.0088285876108
 20
909.5375370510118
 30
0.0
  0
VERTEX
  5
434
  8
0
 62
     4
 10
928.5272457879972
 20
911.2742719859963
 30
0.0
  0
VERTEX
  5
435
  8
0
 62
     4
 10
921.842551938805
 20
911.8591069300004
 30
0.0
  0
SEQEND
  5
445
  8
0
 62
     4
  0
LINE
  5
29A
  8
0
 62
     4
 10
921.84255199
 20
873.36348997
 30
0.0
 11
921.84255199
 21
913.85910673
 31
0.0
  0
LINE
  5
29B
  8
0
 62
     4
 10
930.84255199
 20
888.95194724
 30
0.0
 11
942.09036037
 21
908.43372282
 31
0.0
  0
TEXT
  5
29C
  8
TXT_DIM49
 10
871.59128441
 20
919.91617181
 30
0.0
 40
2.5
  1
300
  7
ARIAL
  0
LINE
  5
29D
  8
0
 62
     4
 10
800.37364091
 20
919.41617181
 30
0.0
 11
798.37364091
 21
917.41617181
 31
0.0
  0
LINE
  5
29E
  8
0
 62
     4
 10
948.62364091
 20
917.66617181
 30
0.0
 11
950.12364091
 21
919.16617181
 31
0.0
  0
LINE
  5
29F
  8
0
 62
     4
 10
799.37364091
 20
918.41617181
 30
0.0
 11
949.37364091
 21
918.41617181
 31
0.0
  0
LINE
  5
2A0
  8
0
 62
     4
 10
799.37364091
 20
916.41617181
 30
0.0
 11
799.37364091
 21
920.41617181
 31
0.0
  0
LINE
  5
2A1
  8
0
 62
     4
 10
949.37364091
 20
916.41617181
 30
0.0
 11
949.37364091
 21
920.41617181
 31
0.0
  0
LINE
  5
2A2
  8
0
 62
     5
 10
824.37364091
 20
891.90771861
 30
0.0
 11
821.12908845
 21
886.7856836
 31
0.0
  0
TEXT
  5
2A3
  8
TXT_DIM49
 10
814.84533638
 20
885.5356836
 30
0.0
 40
2.5
  1
Ø10
  7
ARIAL
  0
LINE
  5
2A4
  8
0
 62
     5
 10
824.37364091
 20
866.90771861
 30
0.0
 11
820.82011579
 21
861.36136031
 31
0.0
  0
TEXT
  5
2A5
  8
TXT_DIM49
 10
814.53636372
 20
860.11136031
 30
0.0
 40
2.5
  1
Ø10
  7
ARIAL
  0
LINE
  5
2A6
  8
0
 62
     5
 10
879.37364091
 20
879.40771861
 30
0.0
 11
874.86013791
 21
872.88996546
 31
0.0
  0
TEXT
  5
2A7
  8
TXT_DIM49
 10
868.57638585
 20
871.63996546
 30
0.0
 40
2.5
  1
Ø14
  7
ARIAL
  0
LINE
  5
2A8
  8
0
 62
     5
 10
929.37364091
 20
879.40771861
 30
0.0
 11
935.89985002
 21
873.815877
 31
0.0
  0
TEXT
  5
2A9
  8
TXT_DIM49
 10
935.89985002
 20
872.565877
 30
0.0
 40
2.5
  1
Slobgat 14 x 50
  7
ARIAL
  0
TEXT
  5
2AA
  8
TXT_DIM49
 10
817.51873661
 20
979.48747593
 30
0.0
 40
2.5
  1
80
  7
ARIAL
  0
LINE
  5
2AB
  8
0
 62
     4
 10
800.37364091
 20
978.98747593
 30
0.0
 11
798.37364091
 21
976.98747593
 31
0.0
  0
LINE
  5
2AC
  8
0
 62
     4
 10
838.62364091
 20
977.23747593
 30
0.0
 11
840.12364091
 21
978.73747593
 31
0.0
  0
LINE
  5
2AD
  8
0
 62
     4
 10
799.37364091
 20
977.98747593
 30
0.0
 11
839.37364091
 21
977.98747593
 31
0.0
  0
LINE
  5
2AE
  8
0
 62
     4
 10
799.37364091
 20
975.98747593
 30
0.0
 11
799.37364091
 21
979.98747593
 31
0.0
  0
LINE
  5
2AF
  8
0
 62
     4
 10
839.37364091
 20
975.98747593
 30
0.0
 11
839.37364091
 21
978.48747593
 31
0.0
  0
TEXT
  5
2B0
  8
TXT_DIM49
 10
839.69618876
 20
979.48747593
 30
0.0
 40
2.5
  1
5
  7
ARIAL
  0
LINE
  5
2B1
  8
0
 62
     4
 10
840.37364091
 20
978.98747593
 30
0.0
 11
838.37364091
 21
976.98747593
 31
0.0
  0
LINE
  5
2B2
  8
0
 62
     4
 10
841.12364091
 20
977.23747593
 30
0.0
 11
842.62364091
 21
978.73747593
 31
0.0
  0
LINE
  5
2B3
  8
0
 62
     4
 10
839.37364091
 20
977.98747593
 30
0.0
 11
841.87364091
 21
977.98747593
 31
0.0
  0
LINE
  5
2B4
  8
0
 62
     4
 10
839.37364091
 20
975.98747593
 30
0.0
 11
839.37364091
 21
978.48747593
 31
0.0
  0
LINE
  5
2B5
  8
0
 62
     4
 10
841.87364091
 20
975.98747593
 30
0.0
 11
841.87364091
 21
978.48747593
 31
0.0
  0
TEXT
  5
2B6
  8
TXT_DIM49
 10
892.84128441
 20
979.48747593
 30
0.0
 40
2.5
  1
215
  7
ARIAL
  0
LINE
  5
2B7
  8
0
 62
     4
 10
842.87364091
 20
978.98747593
 30
0.0
 11
840.87364091
 21
976.98747593
 31
0.0
  0
LINE
  5
2B8
  8
0
 62
     4
 10
948.62364091
 20
977.23747593
 30
0.0
 11
950.12364091
 21
978.73747593
 31
0.0
  0
LINE
  5
2B9
  8
0
 62
     4
 10
841.87364091
 20
977.98747593
 30
0.0
 11
949.37364091
 21
977.98747593
 31
0.0
  0
LINE
  5
2BA
  8
0
 62
     4
 10
841.87364091
 20
975.98747593
 30
0.0
 11
841.87364091
 21
978.48747593
 31
0.0
  0
LINE
  5
2BB
  8
0
 62
     4
 10
949.37364091
 20
975.98747593
 30
0.0
 11
949.37364091
 21
979.98747593
 31
0.0
  0
TEXT
  5
2BC
  8
TXT_DIM49
 10
832.01278096
 20
961.72930795
 30
0.0
 40
2.5
  1
38
 50
90.00020741
  7
ARIAL
  0
LINE
  5
2BD
  8
0
 62
     4
 10
834.51278096
 20
972.08421224
 30
0.0
 11
832.51278096
 21
974.08421224
 31
0.0
  0
LINE
  5
2BE
  8
0
 62
     4
 10
832.76278096
 20
954.83421224
 30
0.0
 11
834.26278096
 21
953.33421224
 31
0.0
  0
LINE
  5
2BF
  8
0
 62
     4
 10
833.51278096
 20
973.08421224
 30
0.0
 11
833.51278096
 21
954.08421224
 31
0.0
  0
LINE
  5
2C0
  8
0
 62
     4
 10
835.51278096
 20
973.08421224
 30
0.0
 11
831.51278096
 21
973.08421224
 31
0.0
  0
LINE
  5
2C1
  8
0
 62
     4
 10
835.51278096
 20
954.08421224
 30
0.0
 11
831.51278096
 21
954.08421224
 31
0.0
  0
TEXT
  5
2C2
  8
TXT_DIM49
 10
832.01278096
 20
951.1567601
 30
0.0
 40
2.5
  1
8
 50
90.00020741
  7
ARIAL
  0
LINE
  5
2C3
  8
0
 62
     4
 10
834.51278096
 20
953.08421224
 30
0.0
 11
832.51278096
 21
955.08421224
 31
0.0
  0
LINE
  5
2C4
  8
0
 62
     4
 10
832.76278096
 20
950.83421224
 30
0.0
 11
834.26278096
 21
949.33421224
 31
0.0
  0
LINE
  5
2C5
  8
0
 62
     4
 10
833.51278096
 20
954.08421224
 30
0.0
 11
833.51278096
 21
950.08421224
 31
0.0
  0
LINE
  5
2C6
  8
0
 62
     4
 10
835.51278096
 20
954.08421224
 30
0.0
 11
831.51278096
 21
954.08421224
 31
0.0
  0
LINE
  5
2C7
  8
0
 62
     4
 10
832.57400385
 20
950.08421224
 30
0.0
 11
835.51278096
 21
950.08421224
 31
0.0
  0
TEXT
  5
2C8
  8
TXT_DIM49
 10
745.7167992
 20
980.80453986
 30
0.0
 40
2.5
  1
100
  7
ARIAL
  0
LINE
  5
2C9
  8
0
 62
     4
 10
724.4991557
 20
980.30453986
 30
0.0
 11
722.4991557
 21
978.30453986
 31
0.0
  0
LINE
  5
2CA
  8
0
 62
     4
 10
772.7491557
 20
978.55453986
 30
0.0
 11
774.2491557
 21
980.05453986
 31
0.0
  0
LINE
  5
2CB
  8
0
 62
     4
 10
723.4991557
 20
979.30453986
 30
0.0
 11
773.4991557
 21
979.30453986
 31
0.0
  0
LINE
  5
2CC
  8
0
 62
     4
 10
723.4991557
 20
977.30453986
 30
0.0
 11
723.4991557
 21
981.30453986
 31
0.0
  0
LINE
  5
2CD
  8
0
 62
     4
 10
773.4991557
 20
977.30453986
 30
0.0
 11
773.4991557
 21
981.30453986
 31
0.0
  0
TEXT
  5
2CE
  8
TXT_DIM49
 10
727.8942514
 20
958.76323206
 30
0.0
 40
2.5
  1
25
  7
ARIAL
  0
LINE
  5
2CF
  8
0
 62
     4
 10
724.4991557
 20
958.26323206
 30
0.0
 11
722.4991557
 21
956.26323206
 31
0.0
  0
LINE
  5
2D0
  8
0
 62
     4
 10
735.2491557
 20
956.51323206
 30
0.0
 11
736.7491557
 21
958.01323206
 31
0.0
  0
LINE
  5
2D1
  8
0
 62
     4
 10
723.4991557
 20
957.26323206
 30
0.0
 11
735.9991557
 21
957.26323206
 31
0.0
  0
LINE
  5
2D2
  8
0
 62
     4
 10
723.4991557
 20
959.26323206
 30
0.0
 11
723.4991557
 21
955.26323206
 31
0.0
  0
LINE
  5
2D3
  8
0
 62
     4
 10
735.9991557
 20
959.26323206
 30
0.0
 11
735.9991557
 21
955.26323206
 31
0.0
  0
TEXT
  5
2D4
  8
TXT_DIM49
 10
746.6442514
 20
958.76323206
 30
0.0
 40
2.5
  1
50
  7
ARIAL
  0
LINE
  5
2D5
  8
0
 62
     4
 10
736.9991557
 20
958.26323206
 30
0.0
 11
734.9991557
 21
956.26323206
 31
0.0
  0
LINE
  5
2D6
  8
0
 62
     4
 10
760.2491557
 20
956.51323206
 30
0.0
 11
761.7491557
 21
958.01323206
 31
0.0
  0
LINE
  5
2D7
  8
0
 62
     4
 10
735.9991557
 20
957.26323206
 30
0.0
 11
760.9991557
 21
957.26323206
 31
0.0
  0
LINE
  5
2D8
  8
0
 62
     4
 10
735.9991557
 20
959.26323206
 30
0.0
 11
735.9991557
 21
955.26323206
 31
0.0
  0
LINE
  5
2D9
  8
0
 62
     4
 10
760.9991557
 20
959.26323206
 30
0.0
 11
760.9991557
 21
955.26323206
 31
0.0
  0
TEXT
  5
2DA
  8
TXT_DIM49
 10
765.3942514
 20
958.76323206
 30
0.0
 40
2.5
  1
25
  7
ARIAL
  0
LINE
  5
2DB
  8
0
 62
     4
 10
761.9991557
 20
958.26323206
 30
0.0
 11
759.9991557
 21
956.26323206
 31
0.0
  0
LINE
  5
2DC
  8
0
 62
     4
 10
772.7491557
 20
956.51323206
 30
0.0
 11
774.2491557
 21
958.01323206
 31
0.0
  0
LINE
  5
2DD
  8
0
 62
     4
 10
760.9991557
 20
957.26323206
 30
0.0
 11
773.4991557
 21
957.26323206
 31
0.0
  0
LINE
  5
2DE
  8
0
 62
     4
 10
760.9991557
 20
959.26323206
 30
0.0
 11
760.9991557
 21
955.26323206
 31
0.0
  0
LINE
  5
2DF
  8
0
 62
     4
 10
773.4991557
 20
959.26323206
 30
0.0
 11
773.4991557
 21
955.26323206
 31
0.0
  0
TEXT
  5
2E0
  8
TXT_DIM49
 10
779.31216877
 20
966.47930795
 30
0.0
 40
2.5
  1
19
 50
90.00020741
  7
ARIAL
  0
LINE
  5
2E1
  8
0
 62
     4
 10
781.81216877
 20
972.08421224
 30
0.0
 11
779.81216877
 21
974.08421224
 31
0.0
  0
LINE
  5
2E2
  8
0
 62
     4
 10
780.06216877
 20
964.33421224
 30
0.0
 11
781.56216877
 21
962.83421224
 31
0.0
  0
LINE
  5
2E3
  8
0
 62
     4
 10
780.81216877
 20
973.08421224
 30
0.0
 11
780.81216877
 21
963.58421224
 31
0.0
  0
LINE
  5
2E4
  8
0
 62
     4
 10
778.81216877
 20
973.08421224
 30
0.0
 11
782.81216877
 21
973.08421224
 31
0.0
  0
LINE
  5
2E5
  8
0
 62
     4
 10
778.81216877
 20
963.58421224
 30
0.0
 11
782.81216877
 21
963.58421224
 31
0.0
  0
TEXT
  5
2E6
  8
TXT_DIM49
 10
779.31216877
 20
954.97930795
 30
0.0
 40
2.5
  1
27
 50
90.00020741
  7
ARIAL
  0
LINE
  5
2E7
  8
0
 62
     4
 10
781.81216877
 20
962.58421224
 30
0.0
 11
779.81216877
 21
964.58421224
 31
0.0
  0
LINE
  5
2E8
  8
0
 62
     4
 10
780.06216877
 20
950.83421224
 30
0.0
 11
781.56216877
 21
949.33421224
 31
0.0
  0
LINE
  5
2E9
  8
0
 62
     4
 10
780.81216877
 20
963.58421224
 30
0.0
 11
780.81216877
 21
950.08421224
 31
0.0
  0
LINE
  5
2EA
  8
0
 62
     4
 10
778.81216877
 20
963.58421224
 30
0.0
 11
782.81216877
 21
963.58421224
 31
0.0
  0
LINE
  5
2EB
  8
0
 62
     4
 10
778.81216877
 20
950.08421224
 30
0.0
 11
782.81216877
 21
950.08421224
 31
0.0
  0
LINE
  5
2EC
  8
0
 62
     5
 10
735.9991557
 20
963.58421224
 30
0.0
 11
738.8611479
 21
968.55875563
 31
0.0
  0
TEXT
  5
2ED
  8
TXT_DIM49
 10
738.8611479
 20
967.30875563
 30
0.0
 40
2.5
  1
Ø10
  7
ARIAL
  0
LINE
  5
2EE
  8
0
 62
     5
 10
760.9991557
 20
963.58421224
 30
0.0
 11
763.03855014
 21
968.88789706
 31
0.0
  0
TEXT
  5
2EF
  8
TXT_DIM49
 10
763.03855014
 20
967.63789706
 30
0.0
 40
2.5
  1
Ø10
  7
ARIAL
  0
ENDSEC
  0
EOF
