  0
SECTION
  2
HEADER
  9
$ACADVER
  1
AC1006
  9
$DWGCODEPAGE
  3
ansi_1252
  9
$INSBASE
 10
0.0
 20
0.0
 30
0.0
  9
$EXTMIN
 10
430.55386422
 20
110.89477103
  9
$EXTMAX
 10
1413.39135571
 20
584.23852103
  9
$LIMMIN
 10
430.55386422
 20
110.89477103
  9
$LIMMAX
 10
1413.39135571
 20
584.23852103
  9
$ORTHOMODE
 70
     0
  9
$REGENMODE
 70
     1
  9
$FILLMODE
 70
     1
  9
$QTEXTMODE
 70
     0
  9
$MIRRTEXT
 70
     1
  9
$DRAGMODE
 70
     2
  9
$LTSCALE
 40
1.0
  9
$OSMODE
 70
    37
  9
$ATTMODE
 70
     1
  9
$TEXTSIZE
 40
1.0
  9
$TRACEWID
 40
0.05
  9
$TEXTSTYLE
  7
STANDARD
  9
$CLAYER
  8
0
  9
$CELTYPE
  6
BYBLOCK
  9
$CECOLOR
 62
   256
  9
$DIMSCALE
 40
1.0
  9
$DIMASZ
 40
0.18
  9
$DIMEXO
 40
0.0625
  9
$DIMDLI
 40
0.38
  9
$DIMRND
 40
0.0
  9
$DIMDLE
 40
0.0
  9
$DIMEXE
 40
0.18
  9
$DIMTP
 40
0.0
  9
$DIMTM
 40
0.0
  9
$DIMTXT
 40
0.18
  9
$DIMCEN
 40
0.09
  9
$DIMTSZ
 40
0.0
  9
$DIMTOL
 70
     0
  9
$DIMLIM
 70
     0
  9
$DIMTIH
 70
     1
  9
$DIMTOH
 70
     1
  9
$DIMSE1
 70
     0
  9
$DIMSE2
 70
     0
  9
$DIMTAD
 70
     0
  9
$DIMZIN
 70
     0
  9
$DIMBLK
  1

  9
$DIMASO
 70
     1
  9
$DIMSHO
 70
     1
  9
$DIMPOST
  1

  9
$DIMAPOST
  1

  9
$DIMALT
 70
     0
  9
$DIMALTD
 70
     2
  9
$DIMALTF
 40
25.4
  9
$DIMLFAC
 40
1.0
  9
$DIMTOFL
 70
     0
  9
$DIMTVP
 40
0.0
  9
$DIMTIX
 70
     0
  9
$DIMSOXD
 70
     0
  9
$DIMSAH
 70
     0
  9
$DIMBLK1
  1

  9
$DIMBLK2
  1

  9
$LUNITS
 70
     2
  9
$LUPREC
 70
     4
  9
$SKETCHINC
 40
0.1
  9
$FILLETRAD
 40
0.5
  9
$AUNITS
 70
     0
  9
$AUPREC
 70
     0
  9
$MENU
  1
.
  9
$ELEVATION
 40
0.0
  9
$THICKNESS
 40
0.0
  9
$LIMCHECK
 70
     0
  9
$CHAMFERA
 40
0.0
  9
$CHAMFERB
 40
0.0
  9
$SKPOLY
 70
     0
  9
$TDCREATE
 40
2447893.125
  9
$TDUPDATE
 40
2460791.506276574
  9
$TDINDWG
 40
0.0
  9
$TDUSRTIMER
 40
0.0
  9
$USRTIMER
 70
     1
  9
$ANGBASE
 50
0.0
  9
$ANGDIR
 70
     0
  9
$PDMODE
 70
     0
  9
$PDSIZE
 40
0.0
  9
$PLINEWID
 40
0.0
  9
$COORDS
 70
     1
  9
$SPLFRAME
 70
     0
  9
$SPLINETYPE
 70
     6
  9
$SPLINESEGS
 70
     8
  9
$ATTDIA
 70
     0
  9
$ATTREQ
 70
     1
  9
$HANDLING
 70
     1
  9
$HANDSEED
  5
406
  9
$SURFTAB1
 70
     6
  9
$SURFTAB2
 70
     6
  9
$SURFTYPE
 70
     6
  9
$SURFU
 70
     6
  9
$SURFV
 70
     6
  9
$UCSNAME
  2

  9
$UCSORG
 10
0.0
 20
0.0
 30
0.0
  9
$UCSXDIR
 10
1.0
 20
0.0
 30
0.0
  9
$UCSYDIR
 10
0.0
 20
1.0
 30
0.0
  9
$USERI1
 70
     0
  9
$USERI2
 70
     0
  9
$USERI3
 70
     0
  9
$USERI4
 70
     0
  9
$USERI5
 70
     0
  9
$USERR1
 40
0.0
  9
$USERR2
 40
0.0
  9
$USERR3
 40
0.0
  9
$USERR4
 40
0.0
  9
$USERR5
 40
0.0
  9
$WORLDVIEW
 70
     1
  0
ENDSEC
  0
SECTION
  2
TABLES
  0
TABLE
  2
VPORT
 70
     1
  0
VPORT
  2
*ACTIVE
 70
     0
 10
0.0
 20
0.0
 11
1.0
 21
1.0
 12
921.97260996
 22
347.56664603
 13
0.0
 23
0.0
 14
1.0
 24
1.0
 15
0.0
 25
0.0
 16
0.0
 26
0.0
 36
1.0
 17
0.0
 27
0.0
 37
0.0
 40
473.34375
 41
2.076371541
 42
50.0
 43
0.0
 44
0.0
 50
0.0
 51
0.0
 71
     0
 72
   100
 73
     1
 74
     1
 75
     0
 76
     0
 77
     0
 78
     0
  0
ENDTAB
  0
TABLE
  2
LTYPE
 70
    19
  0
LTYPE
  2
CONTINUOUS
 70
     0
  3
Solid line
 72
    65
 73
     0
 40
0.0
  0
LTYPE
  2
DOT
 70
     0
  3
..............
 72
    65
 73
     2
 40
2.0
 49
0.5
 49
-1.5
  0
LTYPE
  2
HIDDEN
 70
     0
  3
-- -- -- -- --
 72
    65
 73
     2
 40
7.0
 49
4.0
 49
-3.0
  0
LTYPE
  2
DASHDOT
 70
     0
  3
--.--.--.--.--
 72
    65
 73
     4
 40
8.5
 49
4.0
 49
-2.0
 49
0.5
 49
-2.0
  0
LTYPE
  2
STRICHPUNKT2
 70
     0
  3
--.--.--.--.--
 72
    65
 73
     4
 40
18.5
 49
10.0
 49
-4.0
 49
0.5
 49
-4.0
  0
LTYPE
  2
STRICHPUNKT3
 70
     0
  3
--.--.--.--.--
 72
    65
 73
     4
 40
35.5
 49
25.0
 49
-5.0
 49
0.5
 49
-5.0
  0
LTYPE
  2
PHANTOM
 70
     0
  3
--..--..--..--
 72
    65
 73
     6
 40
23.0
 49
10.0
 49
-4.0
 49
0.5
 49
-4.0
 49
0.5
 49
-4.0
  0
LTYPE
  2
PHANTOM2
 70
     0
  3
--..--..--..--
 72
    65
 73
     6
 40
33.0
 49
20.0
 49
-4.0
 49
0.5
 49
-4.0
 49
0.5
 49
-4.0
  0
LTYPE
  2
PHANTOM3
 70
     0
  3
--..--..--..--
 72
    65
 73
     6
 40
50.0
 49
37.0
 49
-4.0
 49
0.5
 49
-4.0
 49
0.5
 49
-4.0
  0
LTYPE
  2
STR3PKT
 70
     0
  3
--...--...--...
 72
    65
 73
     8
 40
31.5
 49
20.0
 49
-2.5
 49
0.5
 49
-2.5
 49
0.5
 49
-2.5
 49
0.5
 49
-2.5
  0
LTYPE
  2
2STRPKT
 70
     0
  3
--.--.--.--.--
 72
    65
 73
     6
 40
28.0
 49
10.0
 49
-2.5
 49
10.0
 49
-2.5
 49
0.5
 49
-2.5
  0
LTYPE
  2
GESTRICHELT2
 70
     0
  3
-- -- -- -- --
 72
    65
 73
     2
 40
25.0
 49
10.0
 49
-15.0
  0
LTYPE
  2
2STR2PKT
 70
     0
  3
--..--..--..--
 72
    65
 73
     8
 40
31.0
 49
10.0
 49
-2.5
 49
10.0
 49
-2.5
 49
0.5
 49
-2.5
 49
0.5
 49
-2.5
  0
LTYPE
  2
STR3PKT2
 70
     0
  3
--...--...--...
 72
    65
 73
     8
 40
21.0
 49
10.0
 49
-2.5
 49
0.5
 49
-2.5
 49
0.5
 49
-2.5
 49
0.5
 49
-2.0
  0
LTYPE
  2
2STR3PKT
 70
     0
  3
--...--...--...
 72
    65
 73
    10
 40
34.0
 49
10.0
 49
-2.5
 49
10.0
 49
-2.5
 49
0.5
 49
-2.5
 49
0.5
 49
-2.5
 49
0.5
 49
-2.5
  0
LTYPE
  2
STRKSTR
 70
     0
  3
-- - -- - -- -
 72
    65
 73
     4
 40
30.0
 49
20.0
 49
-2.5
 49
5.0
 49
-2.5
  0
LTYPE
  2
STRKSTR2
 70
     0
  3
-- - -- - -- -
 72
    65
 73
     6
 40
37.5
 49
20.0
 49
-2.5
 49
5.0
 49
-2.5
 49
5.0
 49
-2.5
  0
LTYPE
  2
STRKSTR3
 70
     0
  3
-- - -- - -- -
 72
    65
 73
     8
 40
45.0
 49
20.0
 49
-2.5
 49
5.0
 49
-2.5
 49
5.0
 49
-2.5
 49
5.0
 49
-2.5
  0
LTYPE
  2
PUNKT2
 70
     0
  3
..............
 72
    65
 73
     2
 40
3.5
 49
0.5
 49
-3.0
  0
ENDTAB
  0
TABLE
  2
LAYER
 70
    16
  0
LAYER
  2
0
 70
     0
 62
     7
  6
CONTINUOUS
  0
LAYER
  2
LE_GREEN
 70
     0
 62
     3
  6
CONTINUOUS
  0
LAYER
  2
LE_RED
 70
     0
 62
     1
  6
CONTINUOUS
  0
LAYER
  2
LE_ALL
 70
     0
 62
     7
  6
CONTINUOUS
  0
LAYER
  2
LE_HIDDEN1
 70
     0
 62
     3
  6
HIDDEN
  0
LAYER
  2
LE_HIDDEN
 70
     0
 62
     7
  6
CONTINUOUS
  0
LAYER
  2
LE_MIDDLE
 70
     0
 62
     7
  6
CONTINUOUS
  0
LAYER
  2
TXT_YELLOW
 70
     0
 62
     2
  6
CONTINUOUS
  0
LAYER
  2
TXT_DIM49
 70
     0
 62
     2
  6
CONTINUOUS
  0
LAYER
  2
TXT_ALL
 70
     0
 62
     7
  6
CONTINUOUS
  0
LAYER
  2
DIM49
 70
     0
 62
     4
  6
CONTINUOUS
  0
LAYER
  2
HATCH
 70
     0
 62
     3
  6
CONTINUOUS
  0
LAYER
  2
APPLE
 70
     0
 62
     7
  6
CONTINUOUS
  0
LAYER
  2
10
 70
     0
 62
     7
  6
CONTINUOUS
  0
LAYER
  2
47
 70
     0
 62
     7
  6
CONTINUOUS
  0
LAYER
  2
49
 70
     0
 62
     7
  6
CONTINUOUS
  0
ENDTAB
  0
TABLE
  2
STYLE
 70
     5
  0
STYLE
  2
MONOTXT
 70
     0
 40
0.0
 41
1.0
 50
0.0
 71
     0
 42
1.0
  3
monotxt.shx
  4

  0
STYLE
  2
STANDARD
 70
     0
 40
0.0
 41
1.0
 50
0.0
 71
     0
 42
1.0
  3
txt
  4

  0
STYLE
  2
ARIAL
 70
     0
 40
0.0
 41
1.0
 50
0.0
 71
     0
 42
1.0
  3
arial.ttf
  4

  0
STYLE
  2
ARIAL_NARROW
 70
     0
 40
0.0
 41
1.0
 50
0.0
 71
     0
 42
1.0
  3
ArialN.ttf
  4

  0
STYLE
  2
ISOCPEUR
 70
     0
 40
0.0
 41
1.0
 50
0.0
 71
     0
 42
1.0
  3
ISOCPEUR.ttf
  4

  0
ENDTAB
  0
TABLE
  2
VIEW
 70
     0
  0
ENDTAB
  0
TABLE
  2
UCS
 70
     0
  0
ENDTAB
  0
ENDSEC
  0
SECTION
  2
BLOCKS
  0
ENDSEC
  0
SECTION
  2
ENTITIES
  0
POLYLINE
  5
16D
  8
0
 66
     1
 10
0.0
 20
0.0
 30
0.0
 70
     1
  0
VERTEX
  5
16E
  8
0
 10
624.8416216
 20
140.70849193
 30
0.0
  0
VERTEX
  5
16F
  8
0
 10
1044.8416216
 20
140.70849193
 30
0.0
  0
VERTEX
  5
170
  8
0
 10
1044.8416216
 20
437.70849193
 30
0.0
  0
VERTEX
  5
171
  8
0
 10
624.8416216
 20
437.70849193
 30
0.0
  0
SEQEND
  5
172
  8
0
  0
POLYLINE
  5
173
  8
0
 66
     1
 10
0.0
 20
0.0
 30
0.0
 70
     1
  0
VERTEX
  5
174
  8
0
 10
629.8416216
 20
145.70849193
 30
0.0
  0
VERTEX
  5
175
  8
0
 10
1039.8416216
 20
145.70849193
 30
0.0
  0
VERTEX
  5
176
  8
0
 10
1039.8416216
 20
432.70849193
 30
0.0
  0
VERTEX
  5
177
  8
0
 10
629.8416216
 20
432.70849193
 30
0.0
  0
SEQEND
  5
178
  8
0
  0
LINE
  5
179
  8
0
 10
854.8416216
 20
145.70849193
 30
0.0
 11
854.8416216
 21
140.70849193
 31
0.0
  0
LINE
  5
17A
  8
0
 10
854.8416216
 20
432.70849193
 30
0.0
 11
854.8416216
 21
437.70849193
 31
0.0
  0
LINE
  5
17B
  8
0
 10
644.8416216
 20
145.70849193
 30
0.0
 11
644.8416216
 21
140.70849193
 31
0.0
  0
LINE
  5
17C
  8
0
 10
644.8416216
 20
432.70849193
 30
0.0
 11
644.8416216
 21
437.70849193
 31
0.0
  0
TEXT
  5
17D
  8
TXT_ALL
 62
     4
 10
1043.8416216
 20
141.70849193
 30
0.0
 40
2.5
  1

 50
90.00020741
  0
POLYLINE
  5
17E
  8
0
 66
     1
 10
0.0
 20
0.0
 30
0.0
  0
VERTEX
  5
17F
  8
0
 10
1039.8416216
 20
422.70849193
 30
0.0
  0
VERTEX
  5
180
  8
0
 10
970.8483216
 20
422.70849193
 30
0.0
  0
VERTEX
  5
181
  8
0
 10
970.8483216
 20
432.70849193
 30
0.0
  0
SEQEND
  5
182
  8
0
  0
LINE
  5
183
  8
0
 10
972.7516216
 20
165.20849193
 30
0.0
 11
832.8616216
 21
165.20849193
 31
0.0
  0
LINE
  5
184
  8
0
 10
832.8616216
 20
155.45849193
 30
0.0
 11
972.7516216
 21
155.45849193
 31
0.0
  0
POLYLINE
  5
185
  8
0
 66
     1
 10
0.0
 20
0.0
 30
0.0
  0
VERTEX
  5
186
  8
0
 10
832.8616216
 20
165.20849193
 30
0.0
  0
VERTEX
  5
187
  8
0
 10
832.8616216
 20
155.45849193
 30
0.0
  0
VERTEX
  5
188
  8
0
 10
832.8616216
 20
145.70849193
 30
0.0
  0
SEQEND
  5
189
  8
0
  0
POLYLINE
  5
18A
  8
0
 66
     1
 10
0.0
 20
0.0
 30
0.0
  0
VERTEX
  5
18B
  8
0
 10
902.8066216
 20
165.20849193
 30
0.0
  0
VERTEX
  5
18C
  8
0
 10
902.8066216
 20
155.45849193
 30
0.0
  0
VERTEX
  5
18D
  8
0
 10
902.8066216
 20
145.70849193
 30
0.0
  0
SEQEND
  5
18E
  8
0
  0
TEXT
  5
18F
  8
TXT_ALL
 10
834.8616216
 20
159.03349198
 30
0.0
 40
2.5999999
  1
E-mail: verkoop@jonkers-bouwmetaal.nl
  7
ARIAL
  0
TEXT
  5
190
  8
TXT_ALL
 10
834.8616216
 20
149.28349198
 30
0.0
 40
2.5999999
  1
Telefoon: 0527-685156
  7
ARIAL
  0
TEXT
  5
191
  8
TXT_ALL
 10
904.8066216
 20
149.28349198
 30
0.0
 40
2.5999999
  1
Website: www.jonkers-bouwmetaal.nl
  7
ARIAL
  0
TEXT
  5
192
  8
TXT_ALL
 10
904.8066216
 20
159.03349198
 30
0.0
 40
2.5999999
  1
Adres: Hoornse Hop 10, 8321 WX Urk
  7
ARIAL
  0
TEXT
  5
193
  8
TXT_ALL
 10
633.28358186
 20
426.45849193
 30
0.0
 40
2.5
  1
Art. nr. 91013089-01
  7
ARIAL
  0
TEXT
  5
194
  8
TXT_ALL
 10
676.02161867
 20
426.45849193
 30
0.0
 40
2.5
  1
Omschrijving: T03-anker 300x46 100x5/8
  7
ARIAL
  0
LINE
  5
195
  8
0
 10
1039.8416216
 20
422.70849193
 30
0.0
 11
629.8416216
 21
422.70849193
 31
0.0
  0
LINE
  5
196
  8
0
 10
672.8616216
 20
422.70849193
 30
0.0
 11
672.8616216
 21
432.70849193
 31
0.0
  0
LINE
  5
197
  8
0
 10
832.8616216
 20
422.70849193
 30
0.0
 11
832.8616216
 21
432.70849193
 31
0.0
  0
TEXT
  5
198
  8
TXT_ALL
 10
903.8553216
 20
426.45849193
 30
0.0
 40
2.5
  1
Behandeling: Thermisch Verzinkt
  7
ARIAL
  0
LINE
  5
199
  8
0
 10
972.7516216
 20
165.20849193
 30
0.0
 11
1039.8416216
 21
165.20849193
 31
0.0
  0
LINE
  5
19A
  8
0
 10
972.7516216
 20
145.70849193
 30
0.0
 11
972.7516216
 21
165.20849193
 31
0.0
  0
LINE
  5
19B
  8
0
 10
972.7516216
 20
145.70849193
 30
0.0
 11
972.7516216
 21
165.20849193
 31
0.0
  0
TEXT
  5
19C
  8
TXT_ALL
 10
767.2068197
 20
146.86302535
 30
0.0
 40
2.5
  1

  0
TEXT
  5
19D
  8
TXT_ALL
 10
888.34200266
 20
156.95849193
 30
0.0
 40
2.5
  1

  0
POLYLINE
  5
19E
  8
0
 66
     1
 10
0.0
 20
0.0
 30
0.0
  0
VERTEX
  5
19F
  8
0
 10
970.8483216
 20
422.70849193
 30
0.0
  0
VERTEX
  5
1A0
  8
0
 10
901.8553216
 20
422.70849193
 30
0.0
  0
VERTEX
  5
1A1
  8
0
 10
901.8553216
 20
432.70849193
 30
0.0
  0
SEQEND
  5
1A2
  8
0
  0
TEXT
  5
1A3
  8
TXT_ALL
 10
972.8483216
 20
426.45849193
 30
0.0
 40
2.5
  1
Verpakkingshoeveelheid: 1 st.
  7
ARIAL
  0
TEXT
  5
1A4
  8
TXT_ALL
 10
834.8616216
 20
426.45849193
 30
0.0
 40
2.5
  1
Materiaal: S355
  7
ARIAL
  0
TEXT
  5
1A5
  8
TXT_ALL
 10
1007.06373202
 20
142.45898208
 30
0.0
 40
1.5
  1
Onderdeel van
  7
ARIAL
  0
POLYLINE
  5
1A6
  8
0
 66
     1
 10
0.0
 20
0.0
 30
0.0
  0
VERTEX
  5
344
  8
0
 10
669.2005023
 20
222.5903616557191
 30
0.0
  0
VERTEX
  5
345
  8
0
 10
669.2715928670684
 20
222.2708922862059
 30
0.0
  0
VERTEX
  5
346
  8
0
 10
669.4819766482238
 20
221.964400779
 30
0.0
  0
VERTEX
  5
347
  8
0
 10
669.8231071847038
 20
221.6833377945708
 30
0.0
  0
VERTEX
  5
348
  8
0
 10
670.281126668427
 20
221.4391210058629
 30
0.0
  0
VERTEX
  5
349
  8
0
 10
670.8374288902619
 20
221.2416712760832
 30
0.0
  0
VERTEX
  5
34A
  8
0
 10
671.4694150834581
 20
221.0990096416631
 30
0.0
  0
VERTEX
  5
34B
  8
0
 10
672.151411957475
 20
221.0169314722309
 30
0.0
  0
VERTEX
  5
34C
  8
0
 10
672.8557146287521
 20
220.9987710442525
 30
0.0
  0
VERTEX
  5
34D
  8
0
 10
673.5537120812533
 20
221.0452660921104
 30
0.0
  0
VERTEX
  5
34E
  8
0
 10
674.2170494369959
 20
221.1545278389842
 30
0.0
  0
VERTEX
  5
34F
  8
0
 10
674.8187798214382
 20
221.3221177249773
 30
0.0
  0
SEQEND
  5
3F8
  8
0
  0
POLYLINE
  5
1A7
  8
0
 66
     1
 10
0.0
 20
0.0
 30
0.0
  0
VERTEX
  5
350
  8
0
 10
670.5822247685601
 20
223.8586055715614
 30
0.0
  0
VERTEX
  5
351
  8
0
 10
670.1078559523746
 20
223.6606038370184
 30
0.0
  0
VERTEX
  5
352
  8
0
 10
669.7211590380003
 20
223.426411216657
 30
0.0
  0
VERTEX
  5
353
  8
0
 10
669.4352104151031
 20
223.1639470753517
 30
0.0
  0
VERTEX
  5
354
  8
0
 10
669.259679609036
 20
222.8820867965293
 30
0.0
  0
VERTEX
  5
355
  8
0
 10
669.2005023
 20
222.5903616557191
 30
0.0
  0
SEQEND
  5
3F9
  8
0
  0
POLYLINE
  5
1A8
  8
0
 66
     1
 10
0.0
 20
0.0
 30
0.0
  0
VERTEX
  5
1A9
  8
0
 10
670.58222477
 20
223.85860557
 30
0.0
  0
VERTEX
  5
1AA
  8
0
 10
684.91124403
 20
228.81742281
 30
0.0
  0
SEQEND
  5
1AB
  8
0
  0
POLYLINE
  5
1AC
  8
0
 66
     1
 10
0.0
 20
0.0
 30
0.0
  0
VERTEX
  5
356
  8
0
 10
690.52952155
 20
227.54917889
 30
0.0
  0
VERTEX
  5
357
  8
0
 10
690.4584309804121
 20
227.8686482593971
 30
0.0
  0
VERTEX
  5
358
  8
0
 10
690.2480471968396
 20
228.1751397662592
 30
0.0
  0
VERTEX
  5
359
  8
0
 10
689.9069166581431
 20
228.456202750131
 30
0.0
  0
VERTEX
  5
35A
  8
0
 10
689.448897172494
 20
228.7004195380905
 30
0.0
  0
VERTEX
  5
35B
  8
0
 10
688.8925949491019
 20
228.8978692669612
 30
0.0
  0
VERTEX
  5
35C
  8
0
 10
688.2606087547806
 20
229.0405309003485
 30
0.0
  0
VERTEX
  5
35D
  8
0
 10
687.5786118801163
 20
229.1226090686663
 30
0.0
  0
VERTEX
  5
35E
  8
0
 10
686.874309208696
 20
229.1407694954938
 30
0.0
  0
VERTEX
  5
35F
  8
0
 10
686.1763117565615
 20
229.0942744464955
 30
0.0
  0
VERTEX
  5
360
  8
0
 10
685.5129744016806
 20
228.9850126985377
 30
0.0
  0
VERTEX
  5
361
  8
0
 10
684.9112440185601
 20
228.8174228115614
 30
0.0
  0
SEQEND
  5
3FA
  8
0
  0
POLYLINE
  5
1AD
  8
0
 66
     1
 10
0.0
 20
0.0
 30
0.0
  0
VERTEX
  5
362
  8
0
 10
689.1477990714382
 20
226.2809349649773
 30
0.0
  0
VERTEX
  5
363
  8
0
 10
689.6221678925612
 20
226.4789367004397
 30
0.0
  0
VERTEX
  5
364
  8
0
 10
690.0088648106811
 20
226.7131293223693
 30
0.0
  0
VERTEX
  5
365
  8
0
 10
690.2948134358016
 20
226.9755934657154
 30
0.0
  0
VERTEX
  5
366
  8
0
 10
690.4703442423445
 20
227.2574537468442
 30
0.0
  0
VERTEX
  5
367
  8
0
 10
690.52952155
 20
227.54917889
 30
0.0
  0
SEQEND
  5
3FB
  8
0
  0
LINE
  5
1AE
  8
0
 10
689.14779907
 20
226.28093496
 30
0.0
 11
674.81877982
 21
221.32211772
 31
0.0
  0
POLYLINE
  5
1AF
  8
0
 66
     1
 10
0.0
 20
0.0
 30
0.0
  0
VERTEX
  5
368
  8
0
 10
687.1229177861201
 20
225.580188039043
 30
0.0
  0
VERTEX
  5
369
  8
0
 10
686.3379876909001
 20
225.5493487108785
 30
0.0
  0
VERTEX
  5
36A
  8
0
 10
685.5880974988359
 20
225.4393757106384
 30
0.0
  0
VERTEX
  5
36B
  8
0
 10
684.9112440185601
 20
225.2558413515614
 30
0.0
  0
SEQEND
  5
3FC
  8
0
  0
LINE
  5
1B0
  8
0
 10
672.60710606
 20
220.99777104
 30
0.0
 11
684.91124403
 21
225.25584135
 31
0.0
  0
POLYLINE
  5
1B1
  8
0
 66
     1
 10
0.0
 20
0.0
 30
0.0
  0
VERTEX
  5
36C
  8
0
 10
779.02737643
 20
211.8300299440851
 30
0.0
  0
VERTEX
  5
36D
  8
0
 10
779.0754132273505
 20
211.608023019766
 30
0.0
  0
VERTEX
  5
36E
  8
0
 10
779.2176775957167
 20
211.394547696908
 30
0.0
  0
VERTEX
  5
36F
  8
0
 10
779.4487023951925
 20
211.1978077124689
 30
0.0
  0
VERTEX
  5
370
  8
0
 10
779.7596094722742
 20
211.0253636737349
 30
0.0
  0
VERTEX
  5
371
  8
0
 10
780.1384508423208
 20
210.8838425084219
 30
0.0
  0
VERTEX
  5
372
  8
0
 10
780.5706678439052
 20
210.7786827955592
 30
0.0
  0
VERTEX
  5
373
  8
0
 10
781.0396506200085
 20
210.7139257639471
 30
0.0
  0
VERTEX
  5
374
  8
0
 10
781.5273764255128
 20
210.69205999
 30
0.0
  0
VERTEX
  5
375
  8
0
 10
782.0151022311894
 20
210.7139257631501
 30
0.0
  0
VERTEX
  5
376
  8
0
 10
782.4840850078035
 20
210.7786827939959
 30
0.0
  0
VERTEX
  5
377
  8
0
 10
782.9163020102171
 20
210.8838425061523
 30
0.0
  0
VERTEX
  5
378
  8
0
 10
783.29514338138
 20
211.0253636708463
 30
0.0
  0
VERTEX
  5
379
  8
0
 10
783.6060504598215
 20
211.1978077090723
 30
0.0
  0
VERTEX
  5
37A
  8
0
 10
783.8370752608489
 20
211.3945476931339
 30
0.0
  0
VERTEX
  5
37B
  8
0
 10
783.9793396308986
 20
211.6080230157594
 30
0.0
  0
VERTEX
  5
37C
  8
0
 10
784.02737643
 20
211.83002994
 30
0.0
  0
SEQEND
  5
3FD
  8
0
  0
POLYLINE
  5
1B2
  8
0
 66
     1
 10
0.0
 20
0.0
 30
0.0
  0
VERTEX
  5
37D
  8
0
 10
784.02737643
 20
211.83002994
 30
0.0
  0
VERTEX
  5
37E
  8
0
 10
783.9793396311175
 20
212.0520368637398
 30
0.0
  0
VERTEX
  5
37F
  8
0
 10
783.8370752617075
 20
212.2655121859226
 30
0.0
  0
VERTEX
  5
380
  8
0
 10
783.6060504616912
 20
212.4622521696539
 30
0.0
  0
VERTEX
  5
381
  8
0
 10
783.2951433845528
 20
212.6346962077094
 30
0.0
  0
VERTEX
  5
382
  8
0
 10
782.9163020148809
 20
212.7762173724292
 30
0.0
  0
VERTEX
  5
383
  8
0
 10
782.484085014022
 20
212.8813770848317
 30
0.0
  0
VERTEX
  5
384
  8
0
 10
782.0151022388912
 20
212.9461341161525
 30
0.0
  0
VERTEX
  5
385
  8
0
 10
781.5273764344872
 20
212.96799989
 30
0.0
  0
VERTEX
  5
386
  8
0
 10
781.0396506299109
 20
212.9461341169495
 30
0.0
  0
VERTEX
  5
387
  8
0
 10
780.5706678542693
 20
212.881377086395
 30
0.0
  0
VERTEX
  5
388
  8
0
 10
780.1384508525812
 20
212.7762173746988
 30
0.0
  0
VERTEX
  5
389
  8
0
 10
779.7596094817931
 20
212.634696210598
 30
0.0
  0
VERTEX
  5
38A
  8
0
 10
779.4487024032948
 20
212.4622521730506
 30
0.0
  0
VERTEX
  5
38B
  8
0
 10
779.2176776017269
 20
212.2655121896967
 30
0.0
  0
VERTEX
  5
38C
  8
0
 10
779.0754132306333
 20
212.0520368677464
 30
0.0
  0
VERTEX
  5
38D
  8
0
 10
779.02737643
 20
211.8300299440851
 30
0.0
  0
SEQEND
  5
3FE
  8
0
  0
POLYLINE
  5
1B3
  8
0
 66
     1
 10
0.0
 20
0.0
 30
0.0
  0
VERTEX
  5
38E
  8
0
 10
769.35752179
 20
201.3360572240851
 30
0.0
  0
VERTEX
  5
38F
  8
0
 10
769.4055585873505
 20
201.114050299766
 30
0.0
  0
VERTEX
  5
390
  8
0
 10
769.5478229557167
 20
200.900574976908
 30
0.0
  0
VERTEX
  5
391
  8
0
 10
769.7788477551925
 20
200.7038349924689
 30
0.0
  0
VERTEX
  5
392
  8
0
 10
770.0897548322741
 20
200.5313909537349
 30
0.0
  0
VERTEX
  5
393
  8
0
 10
770.4685962023208
 20
200.3898697884219
 30
0.0
  0
VERTEX
  5
394
  8
0
 10
770.9008132039052
 20
200.2847100755592
 30
0.0
  0
VERTEX
  5
395
  8
0
 10
771.3697959800085
 20
200.2199530439471
 30
0.0
  0
VERTEX
  5
396
  8
0
 10
771.8575217855127
 20
200.19808727
 30
0.0
  0
VERTEX
  5
397
  8
0
 10
772.3452475911894
 20
200.2199530431501
 30
0.0
  0
VERTEX
  5
398
  8
0
 10
772.8142303678035
 20
200.2847100739959
 30
0.0
  0
VERTEX
  5
399
  8
0
 10
773.2464473702171
 20
200.3898697861523
 30
0.0
  0
VERTEX
  5
39A
  8
0
 10
773.6252887413799
 20
200.5313909508463
 30
0.0
  0
VERTEX
  5
39B
  8
0
 10
773.9361958198215
 20
200.7038349890723
 30
0.0
  0
VERTEX
  5
39C
  8
0
 10
774.1672206208489
 20
200.9005749731339
 30
0.0
  0
VERTEX
  5
39D
  8
0
 10
774.3094849908986
 20
201.1140502957594
 30
0.0
  0
VERTEX
  5
39E
  8
0
 10
774.35752179
 20
201.33605722
 30
0.0
  0
SEQEND
  5
3FF
  8
0
  0
POLYLINE
  5
1B4
  8
0
 66
     1
 10
0.0
 20
0.0
 30
0.0
  0
VERTEX
  5
39F
  8
0
 10
774.35752179
 20
201.33605722
 30
0.0
  0
VERTEX
  5
3A0
  8
0
 10
774.3094849911174
 20
201.5580641437398
 30
0.0
  0
VERTEX
  5
3A1
  8
0
 10
774.1672206217074
 20
201.7715394659226
 30
0.0
  0
VERTEX
  5
3A2
  8
0
 10
773.9361958216912
 20
201.9682794496539
 30
0.0
  0
VERTEX
  5
3A3
  8
0
 10
773.6252887445528
 20
202.1407234877094
 30
0.0
  0
VERTEX
  5
3A4
  8
0
 10
773.2464473748809
 20
202.2822446524292
 30
0.0
  0
VERTEX
  5
3A5
  8
0
 10
772.8142303740219
 20
202.3874043648316
 30
0.0
  0
VERTEX
  5
3A6
  8
0
 10
772.3452475988912
 20
202.4521613961525
 30
0.0
  0
VERTEX
  5
3A7
  8
0
 10
771.8575217944872
 20
202.47402717
 30
0.0
  0
VERTEX
  5
3A8
  8
0
 10
771.3697959899108
 20
202.4521613969495
 30
0.0
  0
VERTEX
  5
3A9
  8
0
 10
770.9008132142693
 20
202.3874043663949
 30
0.0
  0
VERTEX
  5
3AA
  8
0
 10
770.4685962125811
 20
202.2822446546988
 30
0.0
  0
VERTEX
  5
3AB
  8
0
 10
770.089754841793
 20
202.1407234905979
 30
0.0
  0
VERTEX
  5
3AC
  8
0
 10
769.7788477632947
 20
201.9682794530505
 30
0.0
  0
VERTEX
  5
3AD
  8
0
 10
769.5478229617269
 20
201.7715394696967
 30
0.0
  0
VERTEX
  5
3AE
  8
0
 10
769.4055585906333
 20
201.5580641477463
 30
0.0
  0
VERTEX
  5
3AF
  8
0
 10
769.35752179
 20
201.3360572240851
 30
0.0
  0
SEQEND
  5
400
  8
0
  0
POLYLINE
  5
1B5
  8
0
 66
     1
 10
0.0
 20
0.0
 30
0.0
  0
VERTEX
  5
1B6
  8
0
 10
790.07674617
 20
191.68746927
 30
0.0
  0
VERTEX
  5
1B7
  8
0
 10
809.41645547
 20
212.67541471
 30
0.0
  0
VERTEX
  5
1B8
  8
0
 10
809.41645547
 20
209.11383326
 30
0.0
  0
SEQEND
  5
1B9
  8
0
  0
LINE
  5
1BA
  8
0
 10
790.07674617
 20
188.12588782
 30
0.0
 11
809.41645547
 21
209.11383326
 31
0.0
  0
LINE
  5
1BB
  8
0
 10
790.07674617
 20
191.68746927
 30
0.0
 11
790.07674617
 21
188.12588782
 31
0.0
  0
POLYLINE
  5
1BC
  8
0
 66
     1
 10
0.0
 20
0.0
 30
0.0
  0
VERTEX
  5
1BD
  8
0
 10
790.07674617
 20
191.68746927
 30
0.0
  0
VERTEX
  5
1BE
  8
0
 10
651.75183591
 20
218.09707882
 30
0.0
  0
VERTEX
  5
1BF
  8
0
 10
671.0915452
 20
239.08502426
 30
0.0
  0
SEQEND
  5
1C0
  8
0
  0
LINE
  5
1C1
  8
0
 10
717.19984862
 20
230.28182108
 30
0.0
 11
809.41645547
 21
212.67541471
 31
0.0
  0
LINE
  5
1C2
  8
0
 10
671.0915452
 20
239.08502426
 30
0.0
 11
701.63775317
 21
233.25300583
 31
0.0
  0
LINE
  5
1C3
  8
0
 10
651.75183591
 20
218.09707882
 30
0.0
 11
651.75183591
 21
214.53549736
 31
0.0
  0
LINE
  5
1C4
  8
0
 10
790.07674617
 20
188.12588782
 30
0.0
 11
651.75183591
 21
214.53549736
 31
0.0
  0
LINE
  5
1C5
  8
0
  6
STRICHPUNKT2
 62
     1
 10
771.85752179
 20
202.44905143
 30
0.0
 11
771.85752179
 21
200.19808728
 31
0.0
  0
LINE
  5
1C6
  8
0
  6
STRICHPUNKT2
 62
     1
 10
771.85752179
 20
201.33605722
 30
0.0
 11
773.30799998
 21
202.91015313
 31
0.0
  0
LINE
  5
1C7
  8
0
  6
STRICHPUNKT2
 62
     1
 10
771.85752179
 20
201.33605722
 30
0.0
 11
770.40704359
 21
199.76196132
 31
0.0
  0
LINE
  5
1C8
  8
0
  6
STRICHPUNKT2
 62
     1
 10
771.85752179
 20
201.33605722
 30
0.0
 11
768.39939903
 21
201.99629746
 31
0.0
  0
LINE
  5
1C9
  8
0
  6
STRICHPUNKT2
 62
     1
 10
771.85752179
 20
201.33605722
 30
0.0
 11
775.31564454
 21
200.67581699
 31
0.0
  0
LINE
  5
1CA
  8
0
  6
STRICHPUNKT2
 62
     1
 10
781.52737643
 20
212.94302415
 30
0.0
 11
781.52737643
 21
210.69206
 31
0.0
  0
LINE
  5
1CB
  8
0
  6
STRICHPUNKT2
 62
     1
 10
781.52737643
 20
211.83002994
 30
0.0
 11
782.97785463
 21
213.40412585
 31
0.0
  0
LINE
  5
1CC
  8
0
  6
STRICHPUNKT2
 62
     1
 10
781.52737643
 20
211.83002994
 30
0.0
 11
780.07689824
 21
210.25593403
 31
0.0
  0
LINE
  5
1CD
  8
0
  6
STRICHPUNKT2
 62
     1
 10
781.52737643
 20
211.83002994
 30
0.0
 11
778.06925368
 21
212.49027018
 31
0.0
  0
LINE
  5
1CE
  8
0
  6
STRICHPUNKT2
 62
     1
 10
781.52737643
 20
211.83002994
 30
0.0
 11
784.98549919
 21
211.1697897
 31
0.0
  0
LINE
  5
1CF
  8
0
  6
STRICHPUNKT2
 62
     1
 10
672.7005023
 20
224.14855353
 30
0.0
 11
672.7005023
 21
220.99720372
 31
0.0
  0
LINE
  5
1D0
  8
0
  6
STRICHPUNKT2
 62
     1
 10
687.02952155
 20
229.10737077
 30
0.0
 11
687.02952155
 21
225.54786657
 31
0.0
  0
LINE
  5
1D1
  8
0
  6
STRICHPUNKT2
 62
     1
 10
668.52120501
 20
221.14403995
 30
0.0
 11
691.20881883
 21
228.99550058
 31
0.0
  0
LINE
  5
1D2
  8
0
  6
STRICHPUNKT2
 62
     1
 10
675.87791858
 20
220.68799576
 30
0.0
 11
669.52308601
 21
224.49272753
 31
0.0
  0
LINE
  5
1D3
  8
0
  6
STRICHPUNKT2
 62
     1
 10
690.20693783
 20
225.646813
 30
0.0
 11
683.85210527
 21
229.45154477
 31
0.0
  0
LINE
  5
1D4
  8
0
  6
STRICHPUNKT2
 62
     1
 10
685.37806364
 20
224.97634958
 30
0.0
 11
684.91124403
 21
225.25584135
 31
0.0
  0
POLYLINE
  5
1D5
  8
0
 66
     1
 10
0.0
 20
0.0
 30
0.0
  0
VERTEX
  5
3B0
  8
0
 10
712.833763793036
 20
235.9492345194204
 30
0.0
  0
VERTEX
  5
3B1
  8
0
 10
712.6597627187354
 20
235.9335510983864
 30
0.0
  0
VERTEX
  5
3B2
  8
0
 10
712.4744310540358
 20
235.8241013662214
 30
0.0
  0
VERTEX
  5
3B3
  8
0
 10
712.2848909908929
 20
235.6250914147622
 30
0.0
  0
VERTEX
  5
3B4
  8
0
 10
712.0984264476543
 20
235.3441690848545
 30
0.0
  0
VERTEX
  5
3B5
  8
0
 10
711.922203152163
 20
234.9921300641182
 30
0.0
  0
VERTEX
  5
3B6
  8
0
 10
711.7629932668523
 20
234.5825030147255
 30
0.0
  0
VERTEX
  5
3B7
  8
0
 10
711.6269151383432
 20
234.1310296744986
 30
0.0
  0
VERTEX
  5
3B8
  8
0
 10
711.5191981728125
 20
233.655059910753
 30
0.0
  0
VERTEX
  5
3B9
  8
0
 10
711.4439818728466
 20
233.1728849746241
 30
0.0
  0
VERTEX
  5
3BA
  8
0
 10
711.4041567586781
 20
232.7030345785428
 30
0.0
  0
VERTEX
  5
3BB
  8
0
 10
711.4012532871138
 20
232.2635648097764
 30
0.0
  0
VERTEX
  5
3BC
  8
0
 10
711.4353830369378
 20
231.8713642451196
 30
0.0
  0
VERTEX
  5
3BD
  8
0
 10
711.5052344210015
 20
231.5415049323579
 30
0.0
  0
VERTEX
  5
3BE
  8
0
 10
711.6081230897826
 20
231.2866631799224
 30
0.0
  0
VERTEX
  5
3BF
  8
0
 10
711.7400950894312
 20
231.1166324134646
 30
0.0
  0
VERTEX
  5
3C0
  8
0
 10
711.89607881
 20
231.03794682
 30
0.0
  0
SEQEND
  5
401
  8
0
  0
POLYLINE
  5
1D6
  8
0
 66
     1
 10
0.0
 20
0.0
 30
0.0
  0
VERTEX
  5
3C1
  8
0
 10
711.8960788123852
 20
231.0379468195446
 30
0.0
  0
VERTEX
  5
3C2
  8
0
 10
712.0700798865926
 20
231.053630243469
 30
0.0
  0
VERTEX
  5
3C3
  8
0
 10
712.255411550922
 20
231.163079977858
 30
0.0
  0
VERTEX
  5
3C4
  8
0
 10
712.4449516134775
 20
231.3620899308163
 30
0.0
  0
VERTEX
  5
3C5
  8
0
 10
712.6314161559802
 20
231.6430122614888
 30
0.0
  0
VERTEX
  5
3C6
  8
0
 10
712.8076394506613
 20
231.9950512822948
 30
0.0
  0
VERTEX
  5
3C7
  8
0
 10
712.966849335161
 20
232.4046783311454
 30
0.0
  0
VERTEX
  5
3C8
  8
0
 10
713.1029274629285
 20
232.856151670339
 30
0.0
  0
VERTEX
  5
3C9
  8
0
 10
713.2106444278487
 20
233.33212143271
 30
0.0
  0
VERTEX
  5
3CA
  8
0
 10
713.2858607273848
 20
233.8142963672917
 30
0.0
  0
VERTEX
  5
3CB
  8
0
 10
713.3256858413394
 20
234.2841467618306
 30
0.0
  0
VERTEX
  5
3CC
  8
0
 10
713.3285893129234
 20
234.7236165292329
 30
0.0
  0
VERTEX
  5
3CD
  8
0
 10
713.2944595633526
 20
235.1158170928636
 30
0.0
  0
VERTEX
  5
3CE
  8
0
 10
713.2246081797575
 20
235.4456764050724
 30
0.0
  0
VERTEX
  5
3CF
  8
0
 10
713.1217195116258
 20
235.7005181575297
 30
0.0
  0
VERTEX
  5
3D0
  8
0
 10
712.9897475127568
 20
235.8705489246455
 30
0.0
  0
VERTEX
  5
3D1
  8
0
 10
712.833763793036
 20
235.9492345194204
 30
0.0
  0
SEQEND
  5
402
  8
0
  0
POLYLINE
  5
1D7
  8
0
 66
     1
 10
0.0
 20
0.0
 30
0.0
  0
VERTEX
  5
3D2
  8
0
 10
703.163909143036
 20
225.4552617994204
 30
0.0
  0
VERTEX
  5
3D3
  8
0
 10
702.9899080687353
 20
225.4395783783864
 30
0.0
  0
VERTEX
  5
3D4
  8
0
 10
702.8045764040357
 20
225.3301286462214
 30
0.0
  0
VERTEX
  5
3D5
  8
0
 10
702.6150363408929
 20
225.1311186947621
 30
0.0
  0
VERTEX
  5
3D6
  8
0
 10
702.4285717976543
 20
224.8501963648545
 30
0.0
  0
VERTEX
  5
3D7
  8
0
 10
702.2523485021629
 20
224.4981573441182
 30
0.0
  0
VERTEX
  5
3D8
  8
0
 10
702.0931386168522
 20
224.0885302947254
 30
0.0
  0
VERTEX
  5
3D9
  8
0
 10
701.9570604883431
 20
223.6370569544986
 30
0.0
  0
VERTEX
  5
3DA
  8
0
 10
701.8493435228124
 20
223.161087190753
 30
0.0
  0
VERTEX
  5
3DB
  8
0
 10
701.7741272228466
 20
222.6789122546241
 30
0.0
  0
VERTEX
  5
3DC
  8
0
 10
701.7343021086781
 20
222.2090618585428
 30
0.0
  0
VERTEX
  5
3DD
  8
0
 10
701.7313986371138
 20
221.7695920897764
 30
0.0
  0
VERTEX
  5
3DE
  8
0
 10
701.7655283869377
 20
221.3773915251196
 30
0.0
  0
VERTEX
  5
3DF
  8
0
 10
701.8353797710015
 20
221.0475322123579
 30
0.0
  0
VERTEX
  5
3E0
  8
0
 10
701.9382684397825
 20
220.7926904599224
 30
0.0
  0
VERTEX
  5
3E1
  8
0
 10
702.0702404394311
 20
220.6226596934646
 30
0.0
  0
VERTEX
  5
3E2
  8
0
 10
702.2262241599999
 20
220.5439741
 30
0.0
  0
SEQEND
  5
403
  8
0
  0
POLYLINE
  5
1D8
  8
0
 66
     1
 10
0.0
 20
0.0
 30
0.0
  0
VERTEX
  5
3E3
  8
0
 10
702.2262241623852
 20
220.5439740995446
 30
0.0
  0
VERTEX
  5
3E4
  8
0
 10
702.4002252365925
 20
220.559657523469
 30
0.0
  0
VERTEX
  5
3E5
  8
0
 10
702.5855569009219
 20
220.669107257858
 30
0.0
  0
VERTEX
  5
3E6
  8
0
 10
702.7750969634775
 20
220.8681172108163
 30
0.0
  0
VERTEX
  5
3E7
  8
0
 10
702.9615615059802
 20
221.1490395414887
 30
0.0
  0
VERTEX
  5
3E8
  8
0
 10
703.1377848006613
 20
221.5010785622947
 30
0.0
  0
VERTEX
  5
3E9
  8
0
 10
703.2969946851609
 20
221.9107056111454
 30
0.0
  0
VERTEX
  5
3EA
  8
0
 10
703.4330728129285
 20
222.362178950339
 30
0.0
  0
VERTEX
  5
3EB
  8
0
 10
703.5407897778487
 20
222.8381487127099
 30
0.0
  0
VERTEX
  5
3EC
  8
0
 10
703.6160060773848
 20
223.3203236472917
 30
0.0
  0
VERTEX
  5
3ED
  8
0
 10
703.6558311913393
 20
223.7901740418306
 30
0.0
  0
VERTEX
  5
3EE
  8
0
 10
703.6587346629234
 20
224.2296438092329
 30
0.0
  0
VERTEX
  5
3EF
  8
0
 10
703.6246049133525
 20
224.6218443728636
 30
0.0
  0
VERTEX
  5
3F0
  8
0
 10
703.5547535297575
 20
224.9517036850724
 30
0.0
  0
VERTEX
  5
3F1
  8
0
 10
703.4518648616257
 20
225.2065454375297
 30
0.0
  0
VERTEX
  5
3F2
  8
0
 10
703.3198928627568
 20
225.3765762046455
 30
0.0
  0
VERTEX
  5
3F3
  8
0
 10
703.163909143036
 20
225.4552617994204
 30
0.0
  0
SEQEND
  5
404
  8
0
  0
LINE
  5
1D9
  8
0
 10
717.19984862
 20
247.19933299
 30
0.0
 11
717.19984862
 21
230.28182108
 31
0.0
  0
LINE
  5
1DA
  8
0
 10
697.86013933
 20
209.29387564
 30
0.0
 11
717.19984862
 21
230.28182108
 31
0.0
  0
POLYLINE
  5
1DB
  8
0
 66
     1
 10
0.0
 20
0.0
 30
0.0
  0
VERTEX
  5
1DC
  8
0
 10
697.86013933
 20
209.29387564
 30
0.0
  0
VERTEX
  5
1DD
  8
0
 10
697.86013933
 20
226.21138755
 30
0.0
  0
VERTEX
  5
1DE
  8
0
 10
717.19984862
 20
247.19933299
 30
0.0
  0
VERTEX
  5
1DF
  8
0
 10
714.89443345
 20
247.63949315
 30
0.0
  0
SEQEND
  5
1E0
  8
0
  0
LINE
  5
1E1
  8
0
 10
695.55472416
 20
226.65154771
 30
0.0
 11
714.89443345
 21
247.63949315
 31
0.0
  0
LINE
  5
1E2
  8
0
 10
697.86013933
 20
226.21138755
 30
0.0
 11
695.55472416
 21
226.65154771
 31
0.0
  0
LINE
  5
1E3
  8
0
 10
695.55472416
 20
209.7340358
 30
0.0
 11
695.55472416
 21
226.65154771
 31
0.0
  0
LINE
  5
1E4
  8
0
 10
697.86013933
 20
209.29387564
 30
0.0
 11
695.55472416
 21
209.7340358
 31
0.0
  0
LINE
  5
1E5
  8
0
  6
STRICHPUNKT2
 62
     1
 10
701.84934352
 20
223.16108719
 30
0.0
 11
703.84777424
 21
222.77953787
 31
0.0
  0
LINE
  5
1E6
  8
0
  6
STRICHPUNKT2
 62
     1
 10
702.69506665
 20
222.99961795
 30
0.0
 11
704.14554485
 21
224.57371386
 31
0.0
  0
LINE
  5
1E7
  8
0
  6
STRICHPUNKT2
 62
     1
 10
702.69506665
 20
222.99961795
 30
0.0
 11
701.24458846
 21
221.42552205
 31
0.0
  0
LINE
  5
1E8
  8
0
  6
STRICHPUNKT2
 62
     1
 10
702.69506665
 20
222.99961795
 30
0.0
 11
702.69506665
 21
219.66063534
 31
0.0
  0
LINE
  5
1E9
  8
0
  6
STRICHPUNKT2
 62
     1
 10
702.69506665
 20
222.99961795
 30
0.0
 11
702.69506665
 21
226.33860057
 31
0.0
  0
LINE
  5
1EA
  8
0
  6
STRICHPUNKT2
 62
     1
 10
711.51919817
 20
233.65505991
 30
0.0
 11
713.51762888
 21
233.27351059
 31
0.0
  0
LINE
  5
1EB
  8
0
  6
STRICHPUNKT2
 62
     1
 10
712.3649213
 20
233.49359067
 30
0.0
 11
713.8153995
 21
235.06768658
 31
0.0
  0
LINE
  5
1EC
  8
0
  6
STRICHPUNKT2
 62
     1
 10
712.3649213
 20
233.49359067
 30
0.0
 11
710.9144431
 21
231.91949477
 31
0.0
  0
LINE
  5
1ED
  8
0
  6
STRICHPUNKT2
 62
     1
 10
712.3649213
 20
233.49359067
 30
0.0
 11
712.3649213
 21
230.15460806
 31
0.0
  0
LINE
  5
1EE
  8
0
  6
STRICHPUNKT2
 62
     1
 10
712.3649213
 20
233.49359067
 30
0.0
 11
712.3649213
 21
236.83257329
 31
0.0
  0
POLYLINE
  5
1EF
  8
0
 66
     1
 10
0.0
 20
0.0
 30
0.0
 70
     1
  0
VERTEX
  5
1F0
  8
0
 10
867.39811688
 20
283.71438468
 30
0.0
 42
-1.0
  0
VERTEX
  5
1F1
  8
0
 10
861.33593905
 20
287.21438468
 30
0.0
  0
VERTEX
  5
1F2
  8
0
 10
870.33593905
 20
302.80284195
 30
0.0
 42
-1.0
  0
VERTEX
  5
1F3
  8
0
 10
876.39811688
 20
299.30284195
 30
0.0
  0
SEQEND
  5
1F4
  8
0
  0
CIRCLE
  5
1F5
  8
0
 10
973.86702796
 20
305.75861332
 30
0.0
 40
2.5
  0
CIRCLE
  5
1F6
  8
0
 10
973.86702796
 20
280.75861332
 30
0.0
 40
2.5
  0
LINE
  5
1F7
  8
0
 10
898.86702796
 20
318.25861332
 30
0.0
 11
998.86702796
 21
318.25861332
 31
0.0
  0
LINE
  5
1F8
  8
0
 10
848.86702796
 20
318.25861332
 30
0.0
 11
896.36702796
 21
318.25861332
 31
0.0
  0
LINE
  5
1F9
  8
0
 10
998.86702796
 20
268.25861332
 30
0.0
 11
998.86702796
 21
318.25861332
 31
0.0
  0
LINE
  5
1FA
  8
0
 10
896.36702796
 20
268.25861332
 30
0.0
 11
848.86702796
 21
268.25861332
 31
0.0
  0
LINE
  5
1FB
  8
0
 10
998.86702796
 20
268.25861332
 30
0.0
 11
898.86702796
 21
268.25861332
 31
0.0
  0
LINE
  5
1FC
  8
0
 10
848.86702796
 20
268.25861332
 30
0.0
 11
848.86702796
 21
318.25861332
 31
0.0
  0
LINE
  5
1FD
  8
0
  6
STRICHPUNKT2
 62
     1
 10
973.86702796
 20
280.75861332
 30
0.0
 11
973.86702796
 21
284.50861332
 31
0.0
  0
LINE
  5
1FE
  8
0
  6
STRICHPUNKT2
 62
     1
 10
973.86702796
 20
280.75861332
 30
0.0
 11
973.86702796
 21
277.00861332
 31
0.0
  0
LINE
  5
1FF
  8
0
  6
STRICHPUNKT2
 62
     1
 10
973.86702796
 20
280.75861332
 30
0.0
 11
970.11702796
 21
280.75861332
 31
0.0
  0
LINE
  5
200
  8
0
  6
STRICHPUNKT2
 62
     1
 10
973.86702796
 20
280.75861332
 30
0.0
 11
977.61702796
 21
280.75861332
 31
0.0
  0
LINE
  5
201
  8
0
  6
STRICHPUNKT2
 62
     1
 10
973.86702796
 20
305.75861332
 30
0.0
 11
973.86702796
 21
309.50861332
 31
0.0
  0
LINE
  5
202
  8
0
  6
STRICHPUNKT2
 62
     1
 10
973.86702796
 20
305.75861332
 30
0.0
 11
973.86702796
 21
302.00861332
 31
0.0
  0
LINE
  5
203
  8
0
  6
STRICHPUNKT2
 62
     1
 10
973.86702796
 20
305.75861332
 30
0.0
 11
970.11702796
 21
305.75861332
 31
0.0
  0
LINE
  5
204
  8
0
  6
STRICHPUNKT2
 62
     1
 10
973.86702796
 20
305.75861332
 30
0.0
 11
977.61702796
 21
305.75861332
 31
0.0
  0
LINE
  5
205
  8
0
  6
STRICHPUNKT2
 62
     1
 10
861.74202796
 20
280.91775131
 30
0.0
 11
875.99202796
 21
305.59947532
 31
0.0
  0
LINE
  5
206
  8
0
  6
STRICHPUNKT2
 62
     1
 10
868.91366133
 20
282.83938468
 30
0.0
 11
859.82039459
 21
288.08938468
 31
0.0
  0
LINE
  5
207
  8
0
  6
STRICHPUNKT2
 62
     1
 10
877.91366133
 20
298.42784195
 30
0.0
 11
868.82039459
 21
303.67784195
 31
0.0
  0
POLYLINE
  5
208
  8
0
 66
     1
 10
0.0
 20
0.0
 30
0.0
  0
VERTEX
  5
209
  8
0
 10
898.86702796
 20
268.25861332
 30
0.0
  0
VERTEX
  5
20A
  8
0
 10
898.86702796
 20
318.25861332
 30
0.0
  0
VERTEX
  5
20B
  8
0
 10
896.36702796
 20
318.25861332
 30
0.0
  0
SEQEND
  5
20C
  8
0
  0
LINE
  5
20D
  8
0
 10
896.36702796
 20
268.25861332
 30
0.0
 11
896.36702796
 21
318.25861332
 31
0.0
  0
LINE
  5
20E
  8
0
 10
898.86702796
 20
268.25861332
 30
0.0
 11
896.36702796
 21
268.25861332
 31
0.0
  0
LINE
  5
20F
  8
0
  6
STRICHPUNKT2
 62
     1
 10
898.86702796
 20
280.75861332
 30
0.0
 11
900.11702796
 21
280.75861332
 31
0.0
  0
LINE
  5
210
  8
0
  6
STRICHPUNKT2
 62
     1
 10
895.11702796
 20
280.75861332
 30
0.0
 11
896.36702796
 21
280.75861332
 31
0.0
  0
LINE
  5
211
  8
0
  6
STRICHPUNKT2
 62
     1
 10
898.86702796
 20
305.75861332
 30
0.0
 11
900.11702796
 21
305.75861332
 31
0.0
  0
LINE
  5
212
  8
0
  6
STRICHPUNKT2
 62
     1
 10
895.11702796
 20
305.75861332
 30
0.0
 11
896.36702796
 21
305.75861332
 31
0.0
  0
POLYLINE
  5
213
  8
0
 66
     1
 10
0.0
 20
0.0
 30
0.0
  0
VERTEX
  5
214
  8
0
 10
998.86702796
 20
359.44485588
 30
0.0
  0
VERTEX
  5
215
  8
0
 10
848.86702796
 20
359.44485588
 30
0.0
  0
VERTEX
  5
216
  8
0
 10
848.86702796
 20
355.44485588
 30
0.0
  0
SEQEND
  5
217
  8
0
  0
LINE
  5
218
  8
0
 10
998.86702796
 20
355.44485588
 30
0.0
 11
848.86702796
 21
355.44485588
 31
0.0
  0
LINE
  5
219
  8
0
 10
998.86702796
 20
359.44485588
 30
0.0
 11
998.86702796
 21
355.44485588
 31
0.0
  0
LINE
  5
21A
  8
0
  6
STRICHPUNKT2
 62
     1
 10
973.86702796
 20
355.44485588
 30
0.0
 11
973.86702796
 21
354.19485588
 31
0.0
  0
LINE
  5
21B
  8
0
  6
STRICHPUNKT2
 62
     1
 10
973.86702796
 20
360.69485588
 30
0.0
 11
973.86702796
 21
359.44485588
 31
0.0
  0
LINE
  5
21C
  8
0
  6
STRICHPUNKT2
 62
     1
 10
864.36702796
 20
355.44485588
 30
0.0
 11
864.36702796
 21
353.69485588
 31
0.0
  0
LINE
  5
21D
  8
0
  6
STRICHPUNKT2
 62
     1
 10
864.36702796
 20
361.19485588
 30
0.0
 11
864.36702796
 21
359.44485588
 31
0.0
  0
LINE
  5
21E
  8
0
  6
STRICHPUNKT2
 62
     1
 10
873.36702796
 20
355.44485588
 30
0.0
 11
873.36702796
 21
353.69485588
 31
0.0
  0
LINE
  5
21F
  8
0
  6
STRICHPUNKT2
 62
     1
 10
873.36702796
 20
361.19485588
 30
0.0
 11
873.36702796
 21
359.44485588
 31
0.0
  0
POLYLINE
  5
220
  8
0
 66
     1
 10
0.0
 20
0.0
 30
0.0
  0
VERTEX
  5
221
  8
0
 10
898.86702796
 20
359.44485588
 30
0.0
  0
VERTEX
  5
222
  8
0
 10
898.86702796
 20
378.44485588
 30
0.0
  0
VERTEX
  5
223
  8
0
 10
896.36702796
 20
378.44485588
 30
0.0
  0
SEQEND
  5
224
  8
0
  0
LINE
  5
225
  8
0
 10
896.36702796
 20
359.44485588
 30
0.0
 11
896.36702796
 21
378.44485588
 31
0.0
  0
LINE
  5
226
  8
0
 10
898.86702796
 20
359.44485588
 30
0.0
 11
896.36702796
 21
359.44485588
 31
0.0
  0
LINE
  5
227
  8
0
  6
STRICHPUNKT2
 62
     1
 10
898.86702796
 20
368.94485588
 30
0.0
 11
900.11702796
 21
368.94485588
 31
0.0
  0
LINE
  5
228
  8
0
  6
STRICHPUNKT2
 62
     1
 10
895.11702796
 20
368.94485588
 30
0.0
 11
896.36702796
 21
368.94485588
 31
0.0
  0
POLYLINE
  5
229
  8
0
 66
     1
 10
0.0
 20
0.0
 30
0.0
  0
VERTEX
  5
22A
  8
0
 10
807.89586783
 20
359.44485588
 30
0.0
  0
VERTEX
  5
22B
  8
0
 10
757.89586783
 20
359.44485588
 30
0.0
  0
VERTEX
  5
22C
  8
0
 10
757.89586783
 20
355.44485588
 30
0.0
  0
SEQEND
  5
22D
  8
0
  0
LINE
  5
22E
  8
0
 10
807.89586783
 20
355.44485588
 30
0.0
 11
757.89586783
 21
355.44485588
 31
0.0
  0
LINE
  5
22F
  8
0
 10
807.89586783
 20
359.44485588
 30
0.0
 11
807.89586783
 21
355.44485588
 31
0.0
  0
LINE
  5
230
  8
0
  6
STRICHPUNKT2
 62
     1
 10
795.39586783
 20
355.44485588
 30
0.0
 11
795.39586783
 21
354.19485588
 31
0.0
  0
LINE
  5
231
  8
0
  6
STRICHPUNKT2
 62
     1
 10
770.39586783
 20
355.44485588
 30
0.0
 11
770.39586783
 21
354.19485588
 31
0.0
  0
LINE
  5
232
  8
0
  6
STRICHPUNKT2
 62
     1
 10
790.69009646
 20
355.44485588
 30
0.0
 11
790.69009646
 21
353.69485588
 31
0.0
  0
LINE
  5
233
  8
0
  6
STRICHPUNKT2
 62
     1
 10
790.69009646
 20
361.19485588
 30
0.0
 11
790.69009646
 21
359.44485588
 31
0.0
  0
LINE
  5
234
  8
0
  6
STRICHPUNKT2
 62
     1
 10
775.10163919
 20
355.44485588
 30
0.0
 11
775.10163919
 21
353.69485588
 31
0.0
  0
LINE
  5
235
  8
0
  6
STRICHPUNKT2
 62
     1
 10
775.10163919
 20
361.19485588
 30
0.0
 11
775.10163919
 21
359.44485588
 31
0.0
  0
CIRCLE
  5
236
  8
0
 10
770.39586783
 20
368.94485588
 30
0.0
 40
2.5
  0
CIRCLE
  5
237
  8
0
 10
795.39586783
 20
368.94485588
 30
0.0
 40
2.5
  0
LINE
  5
238
  8
0
 10
807.89586783
 20
359.44485588
 30
0.0
 11
757.89586783
 21
359.44485588
 31
0.0
  0
LINE
  5
239
  8
0
 10
757.89586783
 20
378.44485588
 30
0.0
 11
757.89586783
 21
359.44485588
 31
0.0
  0
LINE
  5
23A
  8
0
 10
807.89586783
 20
378.44485588
 30
0.0
 11
757.89586783
 21
378.44485588
 31
0.0
  0
LINE
  5
23B
  8
0
 10
807.89586783
 20
359.44485588
 30
0.0
 11
807.89586783
 21
378.44485588
 31
0.0
  0
LINE
  5
23C
  8
0
  6
STRICHPUNKT2
 62
     1
 10
795.39586783
 20
368.94485588
 30
0.0
 11
791.64586783
 21
368.94485588
 31
0.0
  0
LINE
  5
23D
  8
0
  6
STRICHPUNKT2
 62
     1
 10
795.39586783
 20
368.94485588
 30
0.0
 11
799.14586783
 21
368.94485588
 31
0.0
  0
LINE
  5
23E
  8
0
  6
STRICHPUNKT2
 62
     1
 10
795.39586783
 20
368.94485588
 30
0.0
 11
795.39586783
 21
365.19485588
 31
0.0
  0
LINE
  5
23F
  8
0
  6
STRICHPUNKT2
 62
     1
 10
795.39586783
 20
368.94485588
 30
0.0
 11
795.39586783
 21
372.69485588
 31
0.0
  0
LINE
  5
240
  8
0
  6
STRICHPUNKT2
 62
     1
 10
770.39586783
 20
368.94485588
 30
0.0
 11
766.64586783
 21
368.94485588
 31
0.0
  0
LINE
  5
241
  8
0
  6
STRICHPUNKT2
 62
     1
 10
770.39586783
 20
368.94485588
 30
0.0
 11
774.14586783
 21
368.94485588
 31
0.0
  0
LINE
  5
242
  8
0
  6
STRICHPUNKT2
 62
     1
 10
770.39586783
 20
368.94485588
 30
0.0
 11
770.39586783
 21
365.19485588
 31
0.0
  0
LINE
  5
243
  8
0
  6
STRICHPUNKT2
 62
     1
 10
770.39586783
 20
368.94485588
 30
0.0
 11
770.39586783
 21
372.69485588
 31
0.0
  0
TEXT
  5
244
  8
TXT_DIM49
 10
984.51212367
 20
329.75861332
 30
0.0
 40
2.5
  1
50
  7
ARIAL
  0
LINE
  5
245
  8
0
 62
     4
 10
997.86702796
 20
327.25861332
 30
0.0
 11
999.86702796
 21
329.25861332
 31
0.0
  0
LINE
  5
246
  8
0
 62
     4
 10
974.61702796
 20
329.00861332
 30
0.0
 11
973.11702796
 21
327.50861332
 31
0.0
  0
LINE
  5
247
  8
0
 62
     4
 10
998.86702796
 20
328.25861332
 30
0.0
 11
973.86702796
 21
328.25861332
 31
0.0
  0
LINE
  5
248
  8
0
 62
     4
 10
998.86702796
 20
326.25861332
 30
0.0
 11
998.86702796
 21
330.25861332
 31
0.0
  0
LINE
  5
249
  8
0
 62
     4
 10
973.86702796
 20
326.25861332
 30
0.0
 11
973.86702796
 21
330.25861332
 31
0.0
  0
TEXT
  5
24A
  8
TXT_DIM49
 10
918.58467146
 20
329.75861332
 30
0.0
 40
2.5
  1
210
  7
ARIAL
  0
LINE
  5
24B
  8
0
 62
     4
 10
972.86702796
 20
327.25861332
 30
0.0
 11
974.86702796
 21
329.25861332
 31
0.0
  0
LINE
  5
24C
  8
0
 62
     4
 10
869.61702796
 20
329.00861332
 30
0.0
 11
868.11702796
 21
327.50861332
 31
0.0
  0
LINE
  5
24D
  8
0
 62
     4
 10
973.86702796
 20
328.25861332
 30
0.0
 11
868.86702796
 21
328.25861332
 31
0.0
  0
LINE
  5
24E
  8
0
 62
     4
 10
973.86702796
 20
326.25861332
 30
0.0
 11
973.86702796
 21
330.25861332
 31
0.0
  0
LINE
  5
24F
  8
0
 62
     4
 10
868.86702796
 20
326.25861332
 30
0.0
 11
868.86702796
 21
330.25861332
 31
0.0
  0
TEXT
  5
250
  8
TXT_DIM49
 10
857.01212367
 20
329.75861332
 30
0.0
 40
2.5
  1
40
  7
ARIAL
  0
LINE
  5
251
  8
0
 62
     4
 10
867.86702796
 20
327.25861332
 30
0.0
 11
869.86702796
 21
329.25861332
 31
0.0
  0
LINE
  5
252
  8
0
 62
     4
 10
849.61702796
 20
329.00861332
 30
0.0
 11
848.11702796
 21
327.50861332
 31
0.0
  0
LINE
  5
253
  8
0
 62
     4
 10
868.86702796
 20
328.25861332
 30
0.0
 11
848.86702796
 21
328.25861332
 31
0.0
  0
LINE
  5
254
  8
0
 62
     4
 10
868.86702796
 20
326.25861332
 30
0.0
 11
868.86702796
 21
330.25861332
 31
0.0
  0
LINE
  5
255
  8
0
 62
     4
 10
848.86702796
 20
326.25861332
 30
0.0
 11
848.86702796
 21
330.25861332
 31
0.0
  0
TEXT
  5
256
  8
TXT_DIM49
 10
835.72474831
 20
303.90370902
 30
0.0
 40
2.5
  1
50
 50
90.00020741
  7
ARIAL
  0
LINE
  5
257
  8
0
 62
     4
 10
838.22474831
 20
317.25861332
 30
0.0
 11
836.22474831
 21
319.25861332
 31
0.0
  0
LINE
  5
258
  8
0
 62
     4
 10
836.47474831
 20
294.00861332
 30
0.0
 11
837.97474831
 21
292.50861332
 31
0.0
  0
LINE
  5
259
  8
0
 62
     4
 10
837.22474831
 20
318.25861332
 30
0.0
 11
837.22474831
 21
293.25861332
 31
0.0
  0
LINE
  5
25A
  8
0
 62
     4
 10
839.22474831
 20
318.25861332
 30
0.0
 11
835.22474831
 21
318.25861332
 31
0.0
  0
LINE
  5
25B
  8
0
 62
     4
 10
839.22474831
 20
293.25861332
 30
0.0
 11
835.22474831
 21
293.25861332
 31
0.0
  0
TEXT
  5
25C
  8
TXT_DIM49
 10
835.72474831
 20
278.90370902
 30
0.0
 40
2.5
  1
50
 50
90.00020741
  7
ARIAL
  0
LINE
  5
25D
  8
0
 62
     4
 10
838.22474831
 20
292.25861332
 30
0.0
 11
836.22474831
 21
294.25861332
 31
0.0
  0
LINE
  5
25E
  8
0
 62
     4
 10
836.47474831
 20
269.00861332
 30
0.0
 11
837.97474831
 21
267.50861332
 31
0.0
  0
LINE
  5
25F
  8
0
 62
     4
 10
837.22474831
 20
293.25861332
 30
0.0
 11
837.22474831
 21
268.25861332
 31
0.0
  0
LINE
  5
260
  8
0
 62
     4
 10
839.22474831
 20
293.25861332
 30
0.0
 11
835.22474831
 21
293.25861332
 31
0.0
  0
LINE
  5
261
  8
0
 62
     4
 10
839.22474831
 20
268.25861332
 30
0.0
 11
835.22474831
 21
268.25861332
 31
0.0
  0
TEXT
  5
262
  8
TXT_DIM49
 10
1007.36702796
 20
310.15370902
 30
0.0
 40
2.5
  1
25
 50
90.00020741
  7
ARIAL
  0
LINE
  5
263
  8
0
 62
     4
 10
1009.86702796
 20
317.25861332
 30
0.0
 11
1007.86702796
 21
319.25861332
 31
0.0
  0
LINE
  5
264
  8
0
 62
     4
 10
1008.11702796
 20
306.50861332
 30
0.0
 11
1009.61702796
 21
305.00861332
 31
0.0
  0
LINE
  5
265
  8
0
 62
     4
 10
1008.86702796
 20
318.25861332
 30
0.0
 11
1008.86702796
 21
305.75861332
 31
0.0
  0
LINE
  5
266
  8
0
 62
     4
 10
1006.86702796
 20
318.25861332
 30
0.0
 11
1010.86702796
 21
318.25861332
 31
0.0
  0
LINE
  5
267
  8
0
 62
     4
 10
1006.86702796
 20
305.75861332
 30
0.0
 11
1010.86702796
 21
305.75861332
 31
0.0
  0
TEXT
  5
268
  8
TXT_DIM49
 10
1007.36702796
 20
291.40370902
 30
0.0
 40
2.5
  1
50
 50
90.00020741
  7
ARIAL
  0
LINE
  5
269
  8
0
 62
     4
 10
1009.86702796
 20
304.75861332
 30
0.0
 11
1007.86702796
 21
306.75861332
 31
0.0
  0
LINE
  5
26A
  8
0
 62
     4
 10
1008.11702796
 20
281.50861332
 30
0.0
 11
1009.61702796
 21
280.00861332
 31
0.0
  0
LINE
  5
26B
  8
0
 62
     4
 10
1008.86702796
 20
305.75861332
 30
0.0
 11
1008.86702796
 21
280.75861332
 31
0.0
  0
LINE
  5
26C
  8
0
 62
     4
 10
1006.86702796
 20
305.75861332
 30
0.0
 11
1010.86702796
 21
305.75861332
 31
0.0
  0
LINE
  5
26D
  8
0
 62
     4
 10
1006.86702796
 20
280.75861332
 30
0.0
 11
1010.86702796
 21
280.75861332
 31
0.0
  0
TEXT
  5
26E
  8
TXT_DIM49
 10
1007.36702796
 20
272.65370902
 30
0.0
 40
2.5
  1
25
 50
90.00020741
  7
ARIAL
  0
LINE
  5
26F
  8
0
 62
     4
 10
1009.86702796
 20
279.75861332
 30
0.0
 11
1007.86702796
 21
281.75861332
 31
0.0
  0
LINE
  5
270
  8
0
 62
     4
 10
1008.11702796
 20
269.00861332
 30
0.0
 11
1009.61702796
 21
267.50861332
 31
0.0
  0
LINE
  5
271
  8
0
 62
     4
 10
1008.86702796
 20
280.75861332
 30
0.0
 11
1008.86702796
 21
268.25861332
 31
0.0
  0
LINE
  5
272
  8
0
 62
     4
 10
1006.86702796
 20
280.75861332
 30
0.0
 11
1010.86702796
 21
280.75861332
 31
0.0
  0
LINE
  5
273
  8
0
 62
     4
 10
1006.86702796
 20
268.25861332
 30
0.0
 11
1010.86702796
 21
268.25861332
 31
0.0
  0
TEXT
  5
274
  8
TXT_DIM49
 10
921.08467146
 20
259.75861332
 30
0.0
 40
2.5
  1
300
  7
ARIAL
  0
LINE
  5
275
  8
0
 62
     4
 10
997.86702796
 20
257.25861332
 30
0.0
 11
999.86702796
 21
259.25861332
 31
0.0
  0
LINE
  5
276
  8
0
 62
     4
 10
849.61702796
 20
259.00861332
 30
0.0
 11
848.11702796
 21
257.50861332
 31
0.0
  0
LINE
  5
277
  8
0
 62
     4
 10
998.86702796
 20
258.25861332
 30
0.0
 11
848.86702796
 21
258.25861332
 31
0.0
  0
LINE
  5
278
  8
0
 62
     4
 10
998.86702796
 20
260.25861332
 30
0.0
 11
998.86702796
 21
256.25861332
 31
0.0
  0
LINE
  5
279
  8
0
 62
     4
 10
848.86702796
 20
260.25861332
 30
0.0
 11
848.86702796
 21
256.25861332
 31
0.0
  0
TEXT
  5
27A
  8
TXT_DIM49
 10
1017.36702796
 20
290.47625682
 30
0.0
 40
2.5
  1
100
 50
90.00020741
  7
ARIAL
  0
LINE
  5
27B
  8
0
 62
     4
 10
1019.86702796
 20
317.25861332
 30
0.0
 11
1017.86702796
 21
319.25861332
 31
0.0
  0
LINE
  5
27C
  8
0
 62
     4
 10
1018.11702796
 20
269.00861332
 30
0.0
 11
1019.61702796
 21
267.50861332
 31
0.0
  0
LINE
  5
27D
  8
0
 62
     4
 10
1018.86702796
 20
318.25861332
 30
0.0
 11
1018.86702796
 21
268.25861332
 31
0.0
  0
LINE
  5
27E
  8
0
 62
     4
 10
1016.86702796
 20
318.25861332
 30
0.0
 11
1020.86702796
 21
318.25861332
 31
0.0
  0
LINE
  5
27F
  8
0
 62
     4
 10
1016.86702796
 20
268.25861332
 30
0.0
 11
1020.86702796
 21
268.25861332
 31
0.0
  0
TEXT
  5
280
  8
TXT_DIM49
 10
871.9961863
 20
312.67613489
 30
0.0
 40
2.5
  1
30
 50
346.042748341
  7
ARIAL
  0
TEXT
  5
281
  8
TXT_DIM49
 10
875.59650814
 20
311.78150513
 30
0.0
 40
2.5
  1
°
 50
346.042748341
  7
ARIAL
  0
LINE
  5
282
  8
0
 62
     4
 10
868.37623944
 20
310.40882042
 30
0.0
 11
866.41999431
 21
312.45163833
 31
0.0
  0
LINE
  5
283
  8
0
 62
     4
 10
880.95941061
 20
308.73534787
 30
0.0
 11
881.55266784
 21
306.69867267
 31
0.0
  0
POLYLINE
  5
284
  8
0
 62
     4
 66
     1
 10
0.0
 20
0.0
 30
0.0
  0
VERTEX
  5
3F4
  8
0
 62
     4
 10
881.2560393532376
 20
307.7170102880424
 30
0.0
  0
VERTEX
  5
3F5
  8
0
 62
     4
 10
876.8774941796953
 20
309.7587594931493
 30
0.0
  0
VERTEX
  5
3F6
  8
0
 62
     4
 10
872.2109229188677
 20
311.009163535377
 30
0.0
  0
VERTEX
  5
3F7
  8
0
 62
     4
 10
867.3981169794941
 20
311.43022952
 30
0.0
  0
SEQEND
  5
405
  8
0
 62
     4
  0
LINE
  5
285
  8
0
 62
     4
 10
867.39811688
 20
283.76438468
 30
0.0
 11
867.39811688
 21
313.43022937
 31
0.0
  0
LINE
  5
286
  8
0
 62
     4
 10
867.39811688
 20
283.71438468
 30
0.0
 11
882.25603922
 21
309.44906108
 31
0.0
  0
LINE
  5
287
  8
0
 62
     5
 10
868.86702796
 20
293.25861332
 30
0.0
 11
861.07690454
 21
299.51401359
 31
0.0
  0
TEXT
  5
288
  8
TXT_DIM49
 10
838.00536606
 20
298.26401359
 30
0.0
 40
2.5
  1
Slobgat 14 x 50
  7
ARIAL
  0
LINE
  5
289
  8
0
 62
     5
 10
973.86702796
 20
305.75861332
 30
0.0
 11
969.41582818
 21
299.78668711
 31
0.0
  0
TEXT
  5
28A
  8
TXT_DIM49
 10
963.13222889
 20
298.53668711
 30
0.0
 40
2.5
  1
Ø10
  7
ARIAL
  0
LINE
  5
28B
  8
0
 62
     5
 10
973.86702796
 20
280.75861332
 30
0.0
 11
970.18700179
 21
275.3406095
 31
0.0
  0
TEXT
  5
28C
  8
TXT_DIM49
 10
963.9034025
 20
274.0906095
 30
0.0
 40
2.5
  1
Ø10
  7
ARIAL
  0
TEXT
  5
28D
  8
TXT_DIM49
 10
870.76212367
 20
393.58381218
 30
0.0
 40
2.5
  1
95
  7
ARIAL
  0
LINE
  5
28E
  8
0
 62
     4
 10
849.86702796
 20
393.08381218
 30
0.0
 11
847.86702796
 21
391.08381218
 31
0.0
  0
LINE
  5
28F
  8
0
 62
     4
 10
895.61702796
 20
391.33381218
 30
0.0
 11
897.11702796
 21
392.83381218
 31
0.0
  0
LINE
  5
290
  8
0
 62
     4
 10
848.86702796
 20
392.08381218
 30
0.0
 11
896.36702796
 21
392.08381218
 31
0.0
  0
LINE
  5
291
  8
0
 62
     4
 10
848.86702796
 20
390.08381218
 30
0.0
 11
848.86702796
 21
394.08381218
 31
0.0
  0
LINE
  5
292
  8
0
 62
     4
 10
896.36702796
 20
390.08381218
 30
0.0
 11
896.36702796
 21
392.58381218
 31
0.0
  0
TEXT
  5
293
  8
TXT_DIM49
 10
896.68957582
 20
393.58381218
 30
0.0
 40
2.5
  1
5
  7
ARIAL
  0
LINE
  5
294
  8
0
 62
     4
 10
897.36702796
 20
393.08381218
 30
0.0
 11
895.36702796
 21
391.08381218
 31
0.0
  0
LINE
  5
295
  8
0
 62
     4
 10
898.11702796
 20
391.33381218
 30
0.0
 11
899.61702796
 21
392.83381218
 31
0.0
  0
LINE
  5
296
  8
0
 62
     4
 10
896.36702796
 20
392.08381218
 30
0.0
 11
898.86702796
 21
392.08381218
 31
0.0
  0
LINE
  5
297
  8
0
 62
     4
 10
896.36702796
 20
390.08381218
 30
0.0
 11
896.36702796
 21
392.58381218
 31
0.0
  0
LINE
  5
298
  8
0
 62
     4
 10
898.86702796
 20
390.08381218
 30
0.0
 11
898.86702796
 21
392.58381218
 31
0.0
  0
TEXT
  5
299
  8
TXT_DIM49
 10
946.08467146
 20
393.58381218
 30
0.0
 40
2.5
  1
200
  7
ARIAL
  0
LINE
  5
29A
  8
0
 62
     4
 10
899.86702796
 20
393.08381218
 30
0.0
 11
897.86702796
 21
391.08381218
 31
0.0
  0
LINE
  5
29B
  8
0
 62
     4
 10
998.11702796
 20
391.33381218
 30
0.0
 11
999.61702796
 21
392.83381218
 31
0.0
  0
LINE
  5
29C
  8
0
 62
     4
 10
898.86702796
 20
392.08381218
 30
0.0
 11
998.86702796
 21
392.08381218
 31
0.0
  0
LINE
  5
29D
  8
0
 62
     4
 10
898.86702796
 20
390.08381218
 30
0.0
 11
898.86702796
 21
392.58381218
 31
0.0
  0
LINE
  5
29E
  8
0
 62
     4
 10
998.86702796
 20
390.08381218
 30
0.0
 11
998.86702796
 21
394.08381218
 31
0.0
  0
TEXT
  5
29F
  8
TXT_DIM49
 10
842.49158282
 20
367.08995158
 30
0.0
 40
2.5
  1
38
 50
90.00020741
  7
ARIAL
  0
LINE
  5
2A0
  8
0
 62
     4
 10
844.99158282
 20
377.44485588
 30
0.0
 11
842.99158282
 21
379.44485588
 31
0.0
  0
LINE
  5
2A1
  8
0
 62
     4
 10
843.24158282
 20
360.19485588
 30
0.0
 11
844.74158282
 21
358.69485588
 31
0.0
  0
LINE
  5
2A2
  8
0
 62
     4
 10
843.99158282
 20
378.44485588
 30
0.0
 11
843.99158282
 21
359.44485588
 31
0.0
  0
LINE
  5
2A3
  8
0
 62
     4
 10
845.99158282
 20
378.44485588
 30
0.0
 11
841.99158282
 21
378.44485588
 31
0.0
  0
LINE
  5
2A4
  8
0
 62
     4
 10
845.99158282
 20
359.44485588
 30
0.0
 11
841.99158282
 21
359.44485588
 31
0.0
  0
TEXT
  5
2A5
  8
TXT_DIM49
 10
842.49158282
 20
356.51740373
 30
0.0
 40
2.5
  1
8
 50
90.00020741
  7
ARIAL
  0
LINE
  5
2A6
  8
0
 62
     4
 10
844.99158282
 20
358.44485588
 30
0.0
 11
842.99158282
 21
360.44485588
 31
0.0
  0
LINE
  5
2A7
  8
0
 62
     4
 10
843.24158282
 20
356.19485588
 30
0.0
 11
844.74158282
 21
354.69485588
 31
0.0
  0
LINE
  5
2A8
  8
0
 62
     4
 10
843.99158282
 20
359.44485588
 30
0.0
 11
843.99158282
 21
355.44485588
 31
0.0
  0
LINE
  5
2A9
  8
0
 62
     4
 10
845.99158282
 20
359.44485588
 30
0.0
 11
841.99158282
 21
359.44485588
 31
0.0
  0
LINE
  5
2AA
  8
0
 62
     4
 10
845.99158282
 20
355.44485588
 30
0.0
 11
841.99158282
 21
355.44485588
 31
0.0
  0
TEXT
  5
2AB
  8
TXT_DIM49
 10
832.97395339
 20
365.08995158
 30
0.0
 40
2.5
  1
46
 50
90.00020741
  7
ARIAL
  0
LINE
  5
2AC
  8
0
 62
     4
 10
833.47395339
 20
356.44485588
 30
0.0
 11
835.47395339
 21
354.44485588
 31
0.0
  0
LINE
  5
2AD
  8
0
 62
     4
 10
835.22395339
 20
377.69485588
 30
0.0
 11
833.72395339
 21
379.19485588
 31
0.0
  0
LINE
  5
2AE
  8
0
 62
     4
 10
834.47395339
 20
355.44485588
 30
0.0
 11
834.47395339
 21
378.44485588
 31
0.0
  0
LINE
  5
2AF
  8
0
 62
     4
 10
836.47395339
 20
355.44485588
 30
0.0
 11
832.47395339
 21
355.44485588
 31
0.0
  0
LINE
  5
2B0
  8
0
 62
     4
 10
836.47395339
 20
378.44485588
 30
0.0
 11
832.47395339
 21
378.44485588
 31
0.0
  0
TEXT
  5
2B1
  8
TXT_DIM49
 10
780.11351133
 20
395.67351236
 30
0.0
 40
2.5
  1
100
  7
ARIAL
  0
LINE
  5
2B2
  8
0
 62
     4
 10
806.89586783
 20
393.17351236
 30
0.0
 11
808.89586783
 21
395.17351236
 31
0.0
  0
LINE
  5
2B3
  8
0
 62
     4
 10
758.64586783
 20
394.92351236
 30
0.0
 11
757.14586783
 21
393.42351236
 31
0.0
  0
LINE
  5
2B4
  8
0
 62
     4
 10
807.89586783
 20
394.17351236
 30
0.0
 11
757.89586783
 21
394.17351236
 31
0.0
  0
LINE
  5
2B5
  8
0
 62
     4
 10
807.89586783
 20
392.17351236
 30
0.0
 11
807.89586783
 21
396.17351236
 31
0.0
  0
LINE
  5
2B6
  8
0
 62
     4
 10
757.89586783
 20
392.17351236
 30
0.0
 11
757.89586783
 21
396.17351236
 31
0.0
  0
TEXT
  5
2B7
  8
TXT_DIM49
 10
799.79096353
 20
385.00099328
 30
0.0
 40
2.5
  1
25
  7
ARIAL
  0
LINE
  5
2B8
  8
0
 62
     4
 10
806.89586783
 20
382.50099328
 30
0.0
 11
808.89586783
 21
384.50099328
 31
0.0
  0
LINE
  5
2B9
  8
0
 62
     4
 10
796.14586783
 20
384.25099328
 30
0.0
 11
794.64586783
 21
382.75099328
 31
0.0
  0
LINE
  5
2BA
  8
0
 62
     4
 10
807.89586783
 20
383.50099328
 30
0.0
 11
795.39586783
 21
383.50099328
 31
0.0
  0
LINE
  5
2BB
  8
0
 62
     4
 10
807.89586783
 20
381.50099328
 30
0.0
 11
807.89586783
 21
385.50099328
 31
0.0
  0
LINE
  5
2BC
  8
0
 62
     4
 10
795.39586783
 20
381.50099328
 30
0.0
 11
795.39586783
 21
385.50099328
 31
0.0
  0
TEXT
  5
2BD
  8
TXT_DIM49
 10
781.04096353
 20
385.00099328
 30
0.0
 40
2.5
  1
50
  7
ARIAL
  0
LINE
  5
2BE
  8
0
 62
     4
 10
794.39586783
 20
382.50099328
 30
0.0
 11
796.39586783
 21
384.50099328
 31
0.0
  0
LINE
  5
2BF
  8
0
 62
     4
 10
771.14586783
 20
384.25099328
 30
0.0
 11
769.64586783
 21
382.75099328
 31
0.0
  0
LINE
  5
2C0
  8
0
 62
     4
 10
795.39586783
 20
383.50099328
 30
0.0
 11
770.39586783
 21
383.50099328
 31
0.0
  0
LINE
  5
2C1
  8
0
 62
     4
 10
795.39586783
 20
381.50099328
 30
0.0
 11
795.39586783
 21
385.50099328
 31
0.0
  0
LINE
  5
2C2
  8
0
 62
     4
 10
770.39586783
 20
381.50099328
 30
0.0
 11
770.39586783
 21
385.50099328
 31
0.0
  0
TEXT
  5
2C3
  8
TXT_DIM49
 10
762.29096353
 20
385.00099328
 30
0.0
 40
2.5
  1
25
  7
ARIAL
  0
LINE
  5
2C4
  8
0
 62
     4
 10
769.39586783
 20
382.50099328
 30
0.0
 11
771.39586783
 21
384.50099328
 31
0.0
  0
LINE
  5
2C5
  8
0
 62
     4
 10
758.64586783
 20
384.25099328
 30
0.0
 11
757.14586783
 21
382.75099328
 31
0.0
  0
LINE
  5
2C6
  8
0
 62
     4
 10
770.39586783
 20
383.50099328
 30
0.0
 11
757.89586783
 21
383.50099328
 31
0.0
  0
LINE
  5
2C7
  8
0
 62
     4
 10
770.39586783
 20
381.50099328
 30
0.0
 11
770.39586783
 21
385.50099328
 31
0.0
  0
LINE
  5
2C8
  8
0
 62
     4
 10
757.89586783
 20
381.50099328
 30
0.0
 11
757.89586783
 21
385.50099328
 31
0.0
  0
TEXT
  5
2C9
  8
TXT_DIM49
 10
748.60629158
 20
371.83995158
 30
0.0
 40
2.5
  1
19
 50
90.00020741
  7
ARIAL
  0
LINE
  5
2CA
  8
0
 62
     4
 10
751.10629158
 20
377.44485588
 30
0.0
 11
749.10629158
 21
379.44485588
 31
0.0
  0
LINE
  5
2CB
  8
0
 62
     4
 10
749.35629158
 20
369.69485588
 30
0.0
 11
750.85629158
 21
368.19485588
 31
0.0
  0
LINE
  5
2CC
  8
0
 62
     4
 10
750.10629158
 20
378.44485588
 30
0.0
 11
750.10629158
 21
368.94485588
 31
0.0
  0
LINE
  5
2CD
  8
0
 62
     4
 10
752.10629158
 20
378.44485588
 30
0.0
 11
748.10629158
 21
378.44485588
 31
0.0
  0
LINE
  5
2CE
  8
0
 62
     4
 10
752.10629158
 20
368.94485588
 30
0.0
 11
748.10629158
 21
368.94485588
 31
0.0
  0
TEXT
  5
2CF
  8
TXT_DIM49
 10
748.60629158
 20
360.33995158
 30
0.0
 40
2.5
  1
27
 50
90.00020741
  7
ARIAL
  0
LINE
  5
2D0
  8
0
 62
     4
 10
751.10629158
 20
367.94485588
 30
0.0
 11
749.10629158
 21
369.94485588
 31
0.0
  0
LINE
  5
2D1
  8
0
 62
     4
 10
749.35629158
 20
356.19485588
 30
0.0
 11
750.85629158
 21
354.69485588
 31
0.0
  0
LINE
  5
2D2
  8
0
 62
     4
 10
750.10629158
 20
368.94485588
 30
0.0
 11
750.10629158
 21
355.44485588
 31
0.0
  0
LINE
  5
2D3
  8
0
 62
     4
 10
752.10629158
 20
368.94485588
 30
0.0
 11
748.10629158
 21
368.94485588
 31
0.0
  0
LINE
  5
2D4
  8
0
 62
     4
 10
752.10629158
 20
355.44485588
 30
0.0
 11
748.10629158
 21
355.44485588
 31
0.0
  0
LINE
  5
2D5
  8
0
 62
     5
 10
795.39586783
 20
368.94485588
 30
0.0
 11
792.42613821
 21
374.34346152
 31
0.0
  0
TEXT
  5
2D6
  8
TXT_DIM49
 10
786.14238614
 20
373.09346152
 30
0.0
 40
2.5
  1
Ø10
  7
ARIAL
  0
LINE
  5
2D7
  8
0
 62
     5
 10
770.39586783
 20
368.94485588
 30
0.0
 11
767.46552551
 21
373.9572457
 31
0.0
  0
TEXT
  5
2D8
  8
TXT_DIM49
 10
761.18177345
 20
372.7072457
 30
0.0
 40
2.5
  1
Ø10
  7
ARIAL
  0
ENDSEC
  0
EOF
