  0
SECTION
  2
HEADER
  9
$ACADVER
  1
AC1006
  9
$DWGCODEPAGE
  3
ansi_1252
  9
$INSBASE
 10
0.0
 20
0.0
 30
0.0
  9
$EXTMIN
 10
788.73875638
 20
310.84162962
  9
$EXTMAX
 10
1748.88093265
 20
773.25510304
  9
$LIMMIN
 10
788.73875638
 20
310.84162962
  9
$LIMMAX
 10
1748.88093265
 20
773.25510304
  9
$ORTHOMODE
 70
     0
  9
$REGENMODE
 70
     1
  9
$FILLMODE
 70
     1
  9
$QTEXTMODE
 70
     0
  9
$MIRRTEXT
 70
     1
  9
$DRAGMODE
 70
     2
  9
$LTSCALE
 40
1.0
  9
$OSMODE
 70
    37
  9
$ATTMODE
 70
     1
  9
$TEXTSIZE
 40
1.0
  9
$TRACEWID
 40
0.05
  9
$TEXTSTYLE
  7
STANDARD
  9
$CLAYER
  8
0
  9
$CELTYPE
  6
BYBLOCK
  9
$CECOLOR
 62
   256
  9
$DIMSCALE
 40
1.0
  9
$DIMASZ
 40
0.18
  9
$DIMEXO
 40
0.0625
  9
$DIMDLI
 40
0.38
  9
$DIMRND
 40
0.0
  9
$DIMDLE
 40
0.0
  9
$DIMEXE
 40
0.18
  9
$DIMTP
 40
0.0
  9
$DIMTM
 40
0.0
  9
$DIMTXT
 40
0.18
  9
$DIMCEN
 40
0.09
  9
$DIMTSZ
 40
0.0
  9
$DIMTOL
 70
     0
  9
$DIMLIM
 70
     0
  9
$DIMTIH
 70
     1
  9
$DIMTOH
 70
     1
  9
$DIMSE1
 70
     0
  9
$DIMSE2
 70
     0
  9
$DIMTAD
 70
     0
  9
$DIMZIN
 70
     0
  9
$DIMBLK
  1

  9
$DIMASO
 70
     1
  9
$DIMSHO
 70
     1
  9
$DIMPOST
  1

  9
$DIMAPOST
  1

  9
$DIMALT
 70
     0
  9
$DIMALTD
 70
     2
  9
$DIMALTF
 40
25.4
  9
$DIMLFAC
 40
1.0
  9
$DIMTOFL
 70
     0
  9
$DIMTVP
 40
0.0
  9
$DIMTIX
 70
     0
  9
$DIMSOXD
 70
     0
  9
$DIMSAH
 70
     0
  9
$DIMBLK1
  1

  9
$DIMBLK2
  1

  9
$LUNITS
 70
     2
  9
$LUPREC
 70
     4
  9
$SKETCHINC
 40
0.1
  9
$FILLETRAD
 40
0.5
  9
$AUNITS
 70
     0
  9
$AUPREC
 70
     0
  9
$MENU
  1
.
  9
$ELEVATION
 40
0.0
  9
$THICKNESS
 40
0.0
  9
$LIMCHECK
 70
     0
  9
$CHAMFERA
 40
0.0
  9
$CHAMFERB
 40
0.0
  9
$SKPOLY
 70
     0
  9
$TDCREATE
 40
2447893.125
  9
$TDUPDATE
 40
2460791.505393692
  9
$TDINDWG
 40
0.0
  9
$TDUSRTIMER
 40
0.0
  9
$USRTIMER
 70
     1
  9
$ANGBASE
 50
0.0
  9
$ANGDIR
 70
     0
  9
$PDMODE
 70
     0
  9
$PDSIZE
 40
0.0
  9
$PLINEWID
 40
0.0
  9
$COORDS
 70
     1
  9
$SPLFRAME
 70
     0
  9
$SPLINETYPE
 70
     6
  9
$SPLINESEGS
 70
     8
  9
$ATTDIA
 70
     0
  9
$ATTREQ
 70
     1
  9
$HANDLING
 70
     1
  9
$HANDSEED
  5
442
  9
$SURFTAB1
 70
     6
  9
$SURFTAB2
 70
     6
  9
$SURFTYPE
 70
     6
  9
$SURFU
 70
     6
  9
$SURFV
 70
     6
  9
$UCSNAME
  2

  9
$UCSORG
 10
0.0
 20
0.0
 30
0.0
  9
$UCSXDIR
 10
1.0
 20
0.0
 30
0.0
  9
$UCSYDIR
 10
0.0
 20
1.0
 30
0.0
  9
$USERI1
 70
     0
  9
$USERI2
 70
     0
  9
$USERI3
 70
     0
  9
$USERI4
 70
     0
  9
$USERI5
 70
     0
  9
$USERR1
 40
0.0
  9
$USERR2
 40
0.0
  9
$USERR3
 40
0.0
  9
$USERR4
 40
0.0
  9
$USERR5
 40
0.0
  9
$WORLDVIEW
 70
     1
  0
ENDSEC
  0
SECTION
  2
TABLES
  0
TABLE
  2
VPORT
 70
     1
  0
VPORT
  2
*ACTIVE
 70
     0
 10
0.0
 20
0.0
 11
1.0
 21
1.0
 12
1268.80984452
 22
542.04836633
 13
0.0
 23
0.0
 14
1.0
 24
1.0
 15
0.0
 25
0.0
 16
0.0
 26
0.0
 36
1.0
 17
0.0
 27
0.0
 37
0.0
 40
462.413473424
 41
2.076371541
 42
50.0
 43
0.0
 44
0.0
 50
0.0
 51
0.0
 71
     0
 72
   100
 73
     1
 74
     1
 75
     0
 76
     0
 77
     0
 78
     0
  0
ENDTAB
  0
TABLE
  2
LTYPE
 70
    19
  0
LTYPE
  2
CONTINUOUS
 70
     0
  3
Solid line
 72
    65
 73
     0
 40
0.0
  0
LTYPE
  2
DOT
 70
     0
  3
..............
 72
    65
 73
     2
 40
2.0
 49
0.5
 49
-1.5
  0
LTYPE
  2
HIDDEN
 70
     0
  3
-- -- -- -- --
 72
    65
 73
     2
 40
7.0
 49
4.0
 49
-3.0
  0
LTYPE
  2
DASHDOT
 70
     0
  3
--.--.--.--.--
 72
    65
 73
     4
 40
8.5
 49
4.0
 49
-2.0
 49
0.5
 49
-2.0
  0
LTYPE
  2
STRICHPUNKT2
 70
     0
  3
--.--.--.--.--
 72
    65
 73
     4
 40
18.5
 49
10.0
 49
-4.0
 49
0.5
 49
-4.0
  0
LTYPE
  2
STRICHPUNKT3
 70
     0
  3
--.--.--.--.--
 72
    65
 73
     4
 40
35.5
 49
25.0
 49
-5.0
 49
0.5
 49
-5.0
  0
LTYPE
  2
PHANTOM
 70
     0
  3
--..--..--..--
 72
    65
 73
     6
 40
23.0
 49
10.0
 49
-4.0
 49
0.5
 49
-4.0
 49
0.5
 49
-4.0
  0
LTYPE
  2
PHANTOM2
 70
     0
  3
--..--..--..--
 72
    65
 73
     6
 40
33.0
 49
20.0
 49
-4.0
 49
0.5
 49
-4.0
 49
0.5
 49
-4.0
  0
LTYPE
  2
PHANTOM3
 70
     0
  3
--..--..--..--
 72
    65
 73
     6
 40
50.0
 49
37.0
 49
-4.0
 49
0.5
 49
-4.0
 49
0.5
 49
-4.0
  0
LTYPE
  2
STR3PKT
 70
     0
  3
--...--...--...
 72
    65
 73
     8
 40
31.5
 49
20.0
 49
-2.5
 49
0.5
 49
-2.5
 49
0.5
 49
-2.5
 49
0.5
 49
-2.5
  0
LTYPE
  2
2STRPKT
 70
     0
  3
--.--.--.--.--
 72
    65
 73
     6
 40
28.0
 49
10.0
 49
-2.5
 49
10.0
 49
-2.5
 49
0.5
 49
-2.5
  0
LTYPE
  2
GESTRICHELT2
 70
     0
  3
-- -- -- -- --
 72
    65
 73
     2
 40
25.0
 49
10.0
 49
-15.0
  0
LTYPE
  2
2STR2PKT
 70
     0
  3
--..--..--..--
 72
    65
 73
     8
 40
31.0
 49
10.0
 49
-2.5
 49
10.0
 49
-2.5
 49
0.5
 49
-2.5
 49
0.5
 49
-2.5
  0
LTYPE
  2
STR3PKT2
 70
     0
  3
--...--...--...
 72
    65
 73
     8
 40
21.0
 49
10.0
 49
-2.5
 49
0.5
 49
-2.5
 49
0.5
 49
-2.5
 49
0.5
 49
-2.0
  0
LTYPE
  2
2STR3PKT
 70
     0
  3
--...--...--...
 72
    65
 73
    10
 40
34.0
 49
10.0
 49
-2.5
 49
10.0
 49
-2.5
 49
0.5
 49
-2.5
 49
0.5
 49
-2.5
 49
0.5
 49
-2.5
  0
LTYPE
  2
STRKSTR
 70
     0
  3
-- - -- - -- -
 72
    65
 73
     4
 40
30.0
 49
20.0
 49
-2.5
 49
5.0
 49
-2.5
  0
LTYPE
  2
STRKSTR2
 70
     0
  3
-- - -- - -- -
 72
    65
 73
     6
 40
37.5
 49
20.0
 49
-2.5
 49
5.0
 49
-2.5
 49
5.0
 49
-2.5
  0
LTYPE
  2
STRKSTR3
 70
     0
  3
-- - -- - -- -
 72
    65
 73
     8
 40
45.0
 49
20.0
 49
-2.5
 49
5.0
 49
-2.5
 49
5.0
 49
-2.5
 49
5.0
 49
-2.5
  0
LTYPE
  2
PUNKT2
 70
     0
  3
..............
 72
    65
 73
     2
 40
3.5
 49
0.5
 49
-3.0
  0
ENDTAB
  0
TABLE
  2
LAYER
 70
    16
  0
LAYER
  2
0
 70
     0
 62
     7
  6
CONTINUOUS
  0
LAYER
  2
LE_GREEN
 70
     0
 62
     3
  6
CONTINUOUS
  0
LAYER
  2
LE_RED
 70
     0
 62
     1
  6
CONTINUOUS
  0
LAYER
  2
LE_ALL
 70
     0
 62
     7
  6
CONTINUOUS
  0
LAYER
  2
LE_HIDDEN1
 70
     0
 62
     3
  6
HIDDEN
  0
LAYER
  2
LE_HIDDEN
 70
     0
 62
     7
  6
CONTINUOUS
  0
LAYER
  2
LE_MIDDLE
 70
     0
 62
     7
  6
CONTINUOUS
  0
LAYER
  2
TXT_YELLOW
 70
     0
 62
     2
  6
CONTINUOUS
  0
LAYER
  2
TXT_DIM49
 70
     0
 62
     2
  6
CONTINUOUS
  0
LAYER
  2
TXT_ALL
 70
     0
 62
     7
  6
CONTINUOUS
  0
LAYER
  2
DIM49
 70
     0
 62
     4
  6
CONTINUOUS
  0
LAYER
  2
HATCH
 70
     0
 62
     3
  6
CONTINUOUS
  0
LAYER
  2
APPLE
 70
     0
 62
     7
  6
CONTINUOUS
  0
LAYER
  2
10
 70
     0
 62
     7
  6
CONTINUOUS
  0
LAYER
  2
47
 70
     0
 62
     7
  6
CONTINUOUS
  0
LAYER
  2
49
 70
     0
 62
     7
  6
CONTINUOUS
  0
ENDTAB
  0
TABLE
  2
STYLE
 70
     5
  0
STYLE
  2
MONOTXT
 70
     0
 40
0.0
 41
1.0
 50
0.0
 71
     0
 42
1.0
  3
monotxt.shx
  4

  0
STYLE
  2
STANDARD
 70
     0
 40
0.0
 41
1.0
 50
0.0
 71
     0
 42
1.0
  3
txt
  4

  0
STYLE
  2
ARIAL
 70
     0
 40
0.0
 41
1.0
 50
0.0
 71
     0
 42
1.0
  3
arial.ttf
  4

  0
STYLE
  2
ARIAL_NARROW
 70
     0
 40
0.0
 41
1.0
 50
0.0
 71
     0
 42
1.0
  3
ArialN.ttf
  4

  0
STYLE
  2
ISOCPEUR
 70
     0
 40
0.0
 41
1.0
 50
0.0
 71
     0
 42
1.0
  3
ISOCPEUR.ttf
  4

  0
ENDTAB
  0
TABLE
  2
VIEW
 70
     0
  0
ENDTAB
  0
TABLE
  2
UCS
 70
     0
  0
ENDTAB
  0
ENDSEC
  0
SECTION
  2
BLOCKS
  0
ENDSEC
  0
SECTION
  2
ENTITIES
  0
POLYLINE
  5
16D
  8
0
 66
     1
 10
0.0
 20
0.0
 30
0.0
 70
     1
  0
VERTEX
  5
16E
  8
0
 10
847.11223991
 20
406.47734765
 30
0.0
  0
VERTEX
  5
16F
  8
0
 10
1267.11223991
 20
406.47734765
 30
0.0
  0
VERTEX
  5
170
  8
0
 10
1267.11223991
 20
703.47734765
 30
0.0
  0
VERTEX
  5
171
  8
0
 10
847.11223991
 20
703.47734765
 30
0.0
  0
SEQEND
  5
172
  8
0
  0
POLYLINE
  5
173
  8
0
 66
     1
 10
0.0
 20
0.0
 30
0.0
 70
     1
  0
VERTEX
  5
174
  8
0
 10
852.11223991
 20
411.47734765
 30
0.0
  0
VERTEX
  5
175
  8
0
 10
1262.11223991
 20
411.47734765
 30
0.0
  0
VERTEX
  5
176
  8
0
 10
1262.11223991
 20
698.47734765
 30
0.0
  0
VERTEX
  5
177
  8
0
 10
852.11223991
 20
698.47734765
 30
0.0
  0
SEQEND
  5
178
  8
0
  0
LINE
  5
179
  8
0
 10
1077.11223991
 20
411.47734765
 30
0.0
 11
1077.11223991
 21
406.47734765
 31
0.0
  0
LINE
  5
17A
  8
0
 10
1077.11223991
 20
698.47734765
 30
0.0
 11
1077.11223991
 21
703.47734765
 31
0.0
  0
LINE
  5
17B
  8
0
 10
867.11223991
 20
411.47734765
 30
0.0
 11
867.11223991
 21
406.47734765
 31
0.0
  0
LINE
  5
17C
  8
0
 10
867.11223991
 20
698.47734765
 30
0.0
 11
867.11223991
 21
703.47734765
 31
0.0
  0
TEXT
  5
17D
  8
TXT_ALL
 62
     4
 10
1266.11223991
 20
407.47734765
 30
0.0
 40
2.5
  1

 50
90.00020741
  0
POLYLINE
  5
17E
  8
0
 66
     1
 10
0.0
 20
0.0
 30
0.0
  0
VERTEX
  5
17F
  8
0
 10
1262.11223991
 20
688.47734765
 30
0.0
  0
VERTEX
  5
180
  8
0
 10
1193.11893991
 20
688.47734765
 30
0.0
  0
VERTEX
  5
181
  8
0
 10
1193.11893991
 20
698.47734765
 30
0.0
  0
SEQEND
  5
182
  8
0
  0
LINE
  5
183
  8
0
 10
1195.02223991
 20
430.97734765
 30
0.0
 11
1055.13223991
 21
430.97734765
 31
0.0
  0
LINE
  5
184
  8
0
 10
1055.13223991
 20
421.22734765
 30
0.0
 11
1195.02223991
 21
421.22734765
 31
0.0
  0
POLYLINE
  5
185
  8
0
 66
     1
 10
0.0
 20
0.0
 30
0.0
  0
VERTEX
  5
186
  8
0
 10
1055.13223991
 20
430.97734765
 30
0.0
  0
VERTEX
  5
187
  8
0
 10
1055.13223991
 20
421.22734765
 30
0.0
  0
VERTEX
  5
188
  8
0
 10
1055.13223991
 20
411.47734765
 30
0.0
  0
SEQEND
  5
189
  8
0
  0
POLYLINE
  5
18A
  8
0
 66
     1
 10
0.0
 20
0.0
 30
0.0
  0
VERTEX
  5
18B
  8
0
 10
1125.07723991
 20
430.97734765
 30
0.0
  0
VERTEX
  5
18C
  8
0
 10
1125.07723991
 20
421.22734765
 30
0.0
  0
VERTEX
  5
18D
  8
0
 10
1125.07723991
 20
411.47734765
 30
0.0
  0
SEQEND
  5
18E
  8
0
  0
TEXT
  5
18F
  8
TXT_ALL
 10
1057.13223991
 20
424.8023477
 30
0.0
 40
2.5999999
  1
E-mail: verkoop@jonkers-bouwmetaal.nl
  7
ARIAL
  0
TEXT
  5
190
  8
TXT_ALL
 10
1057.13223991
 20
415.0523477
 30
0.0
 40
2.5999999
  1
Telefoon: 0527-685156
  7
ARIAL
  0
TEXT
  5
191
  8
TXT_ALL
 10
1127.07723991
 20
415.0523477
 30
0.0
 40
2.5999999
  1
Website: www.jonkers-bouwmetaal.nl
  7
ARIAL
  0
TEXT
  5
192
  8
TXT_ALL
 10
1127.07723991
 20
424.8023477
 30
0.0
 40
2.5999999
  1
Adres: Hoornse Hop 10, 8321 WX Urk
  7
ARIAL
  0
TEXT
  5
193
  8
TXT_ALL
 10
855.55420016
 20
692.22734765
 30
0.0
 40
2.5
  1
Art. nr. 91013088
  7
ARIAL
  0
TEXT
  5
194
  8
TXT_ALL
 10
898.29223698
 20
692.22734765
 30
0.0
 40
2.5
  1
Omschrijving: T01-anker 400x48 100x5/10
  7
ARIAL
  0
LINE
  5
195
  8
0
 10
1262.11223991
 20
688.47734765
 30
0.0
 11
852.11223991
 21
688.47734765
 31
0.0
  0
LINE
  5
196
  8
0
 10
895.13223991
 20
688.47734765
 30
0.0
 11
895.13223991
 21
698.47734765
 31
0.0
  0
LINE
  5
197
  8
0
 10
1055.13223991
 20
688.47734765
 30
0.0
 11
1055.13223991
 21
698.47734765
 31
0.0
  0
TEXT
  5
198
  8
TXT_ALL
 10
1126.12593991
 20
692.22734765
 30
0.0
 40
2.5
  1
Behandeling: Thermisch Verzinkt
  7
ARIAL
  0
LINE
  5
199
  8
0
 10
1195.02223991
 20
430.97734765
 30
0.0
 11
1262.11223991
 21
430.97734765
 31
0.0
  0
LINE
  5
19A
  8
0
 10
1195.02223991
 20
411.47734765
 30
0.0
 11
1195.02223991
 21
430.97734765
 31
0.0
  0
LINE
  5
19B
  8
0
 10
1195.02223991
 20
411.47734765
 30
0.0
 11
1195.02223991
 21
430.97734765
 31
0.0
  0
TEXT
  5
19C
  8
TXT_ALL
 10
989.477438
 20
412.63188107
 30
0.0
 40
2.5
  1

  0
TEXT
  5
19D
  8
TXT_ALL
 10
1110.61262096
 20
422.72734765
 30
0.0
 40
2.5
  1

  0
POLYLINE
  5
19E
  8
0
 66
     1
 10
0.0
 20
0.0
 30
0.0
  0
VERTEX
  5
19F
  8
0
 10
1193.11893991
 20
688.47734765
 30
0.0
  0
VERTEX
  5
1A0
  8
0
 10
1124.12593991
 20
688.47734765
 30
0.0
  0
VERTEX
  5
1A1
  8
0
 10
1124.12593991
 20
698.47734765
 30
0.0
  0
SEQEND
  5
1A2
  8
0
  0
TEXT
  5
1A3
  8
TXT_ALL
 10
1195.11893991
 20
692.22734765
 30
0.0
 40
2.5
  1
Verpakkingshoeveelheid: 1 st.
  7
ARIAL
  0
TEXT
  5
1A4
  8
TXT_ALL
 10
1057.13223991
 20
692.22734765
 30
0.0
 40
2.5
  1
Materiaal: S355
  7
ARIAL
  0
TEXT
  5
1A5
  8
TXT_ALL
 10
1230.22872532
 20
408.2278378
 30
0.0
 40
1.5
  1
Onderdeel van
  7
ARIAL
  0
POLYLINE
  5
1A6
  8
0
 66
     1
 10
0.0
 20
0.0
 30
0.0
  0
VERTEX
  5
361
  8
0
 10
993.55491119
 20
470.75816507
 30
0.0
  0
VERTEX
  5
362
  8
0
 10
993.4876596715645
 20
471.0478718870223
 30
0.0
  0
VERTEX
  5
363
  8
0
 10
993.2884895543905
 20
471.3264454335613
 30
0.0
  0
VERTEX
  5
364
  8
0
 10
992.9650548343677
 20
471.5831802844737
 30
0.0
  0
VERTEX
  5
365
  8
0
 10
992.529784926374
 20
471.8082102634398
 30
0.0
  0
VERTEX
  5
366
  8
0
 10
991.9994070088333
 20
471.9928875945863
 30
0.0
  0
VERTEX
  5
367
  8
0
 10
991.3943032076307
 20
472.1301152316612
 30
0.0
  0
VERTEX
  5
368
  8
0
 10
990.7377273224477
 20
472.2146195935422
 30
0.0
  0
VERTEX
  5
369
  8
0
 10
990.0549111962821
 20
472.243153225
 30
0.0
  0
VERTEX
  5
36A
  8
0
 10
989.3720950698752
 20
472.2146195945822
 30
0.0
  0
VERTEX
  5
36B
  8
0
 10
988.7155191839771
 20
472.1301152337012
 30
0.0
  0
VERTEX
  5
36C
  8
0
 10
988.1104153816135
 20
471.9928875975478
 30
0.0
  0
VERTEX
  5
36D
  8
0
 10
987.5800374625103
 20
471.8082102672093
 30
0.0
  0
VERTEX
  5
36E
  8
0
 10
987.1447675526126
 20
471.583180288906
 30
0.0
  0
VERTEX
  5
36F
  8
0
 10
986.8213328304176
 20
471.3264454384863
 30
0.0
  0
VERTEX
  5
370
  8
0
 10
986.6221627108866
 20
471.0478718922507
 30
0.0
  0
VERTEX
  5
371
  8
0
 10
986.55491119
 20
470.7581650753308
 30
0.0
  0
SEQEND
  5
433
  8
0
  0
POLYLINE
  5
1A7
  8
0
 66
     1
 10
0.0
 20
0.0
 30
0.0
  0
VERTEX
  5
372
  8
0
 10
986.55491119
 20
470.7581650753308
 30
0.0
  0
VERTEX
  5
373
  8
0
 10
986.6221627062907
 20
470.4684582575525
 30
0.0
  0
VERTEX
  5
374
  8
0
 10
986.8213328220033
 20
470.1898847101325
 30
0.0
  0
VERTEX
  5
375
  8
0
 10
987.1447675412695
 20
469.9331498582966
 30
0.0
  0
VERTEX
  5
376
  8
0
 10
987.5800374491838
 20
469.7081198784449
 30
0.0
  0
VERTEX
  5
377
  8
0
 10
988.1104153672492
 20
469.5234425465244
 30
0.0
  0
VERTEX
  5
378
  8
0
 10
988.7155191694673
 20
469.3862149088488
 30
0.0
  0
VERTEX
  5
379
  8
0
 10
989.372095056012
 20
469.3017105465879
 30
0.0
  0
VERTEX
  5
37A
  8
0
 10
990.0549111837179
 20
469.273176915
 30
0.0
  0
VERTEX
  5
37B
  8
0
 10
990.7377273116651
 20
469.3017105455478
 30
0.0
  0
VERTEX
  5
37C
  8
0
 10
991.3943031989248
 20
469.3862149068088
 30
0.0
  0
VERTEX
  5
37D
  8
0
 10
991.999407002304
 20
469.5234425435628
 30
0.0
  0
VERTEX
  5
37E
  8
0
 10
992.5297849219319
 20
469.7081198746754
 30
0.0
  0
VERTEX
  5
37F
  8
0
 10
992.9650548317501
 20
469.9331498538642
 30
0.0
  0
VERTEX
  5
380
  8
0
 10
993.2884895531885
 20
470.1898847052075
 30
0.0
  0
VERTEX
  5
381
  8
0
 10
993.4876596712581
 20
470.4684582523242
 30
0.0
  0
VERTEX
  5
382
  8
0
 10
993.55491119
 20
470.75816507
 30
0.0
  0
SEQEND
  5
434
  8
0
  0
POLYLINE
  5
1A8
  8
0
 66
     1
 10
0.0
 20
0.0
 30
0.0
  0
VERTEX
  5
383
  8
0
 10
1045.54626715
 20
463.07526956
 30
0.0
  0
VERTEX
  5
384
  8
0
 10
1045.480193014885
 20
463.3624535900927
 30
0.0
  0
VERTEX
  5
385
  8
0
 10
1045.284465347444
 20
463.6387945136671
 30
0.0
  0
VERTEX
  5
386
  8
0
 10
1044.966474168445
 20
463.8938586235677
 30
0.0
  0
VERTEX
  5
387
  8
0
 10
1044.538225759103
 20
464.118015553817
 30
0.0
  0
VERTEX
  5
388
  8
0
 10
1044.015889344139
 20
464.30280188996
 30
0.0
  0
VERTEX
  5
389
  8
0
 10
1043.419186596043
 20
464.4412407192301
 30
0.0
  0
VERTEX
  5
38A
  8
0
 10
1042.770647010816
 20
464.5281050553928
 30
0.0
  0
VERTEX
  5
38B
  8
0
 10
1042.094757269704
 20
464.5601151922285
 30
0.0
  0
VERTEX
  5
38C
  8
0
 10
1041.41703670418
 20
464.5360625342479
 30
0.0
  0
VERTEX
  5
38D
  8
0
 10
1040.763073771511
 20
464.4568552292071
 30
0.0
  0
VERTEX
  5
38E
  8
0
 10
1040.157559920367
 20
464.325483879492
 30
0.0
  0
SEQEND
  5
435
  8
0
  0
POLYLINE
  5
1A9
  8
0
 66
     1
 10
0.0
 20
0.0
 30
0.0
  0
VERTEX
  5
38F
  8
0
 10
1043.934974369055
 20
461.8250552376313
 30
0.0
  0
VERTEX
  5
390
  8
0
 10
1044.483137261039
 20
462.0093439838673
 30
0.0
  0
VERTEX
  5
391
  8
0
 10
1044.93399523473
 20
462.2361954422569
 30
0.0
  0
VERTEX
  5
392
  8
0
 10
1045.269545402698
 20
462.4965513693906
 30
0.0
  0
VERTEX
  5
393
  8
0
 10
1045.47638915107
 20
462.7800156788696
 30
0.0
  0
VERTEX
  5
394
  8
0
 10
1045.54626715
 20
463.07526956
 30
0.0
  0
SEQEND
  5
436
  8
0
  0
POLYLINE
  5
1AA
  8
0
 66
     1
 10
0.0
 20
0.0
 30
0.0
  0
VERTEX
  5
1AB
  8
0
 10
1043.93497438
 20
461.82505525
 30
0.0
  0
VERTEX
  5
1AC
  8
0
 10
1028.78074055
 20
457.70385188
 30
0.0
  0
SEQEND
  5
1AD
  8
0
  0
POLYLINE
  5
1AE
  8
0
 66
     1
 10
0.0
 20
0.0
 30
0.0
  0
VERTEX
  5
395
  8
0
 10
1023.39203331
 20
458.9540661953308
 30
0.0
  0
VERTEX
  5
396
  8
0
 10
1023.458107442685
 20
458.6668821651374
 30
0.0
  0
VERTEX
  5
397
  8
0
 10
1023.653835107788
 20
458.3905412412649
 30
0.0
  0
VERTEX
  5
398
  8
0
 10
1023.971826284629
 20
458.13547713088
 30
0.0
  0
VERTEX
  5
399
  8
0
 10
1024.400074692074
 20
457.9113201999785
 30
0.0
  0
VERTEX
  5
39A
  8
0
 10
1024.922411105475
 20
457.7265338630399
 30
0.0
  0
VERTEX
  5
39B
  8
0
 10
1025.5191138524
 20
457.5880950328609
 30
0.0
  0
VERTEX
  5
39C
  8
0
 10
1026.167653436892
 20
457.5012306957104
 30
0.0
  0
VERTEX
  5
39D
  8
0
 10
1026.843543177732
 20
457.4692205578453
 30
0.0
  0
VERTEX
  5
39E
  8
0
 10
1027.52126374346
 20
457.4932732147937
 30
0.0
  0
VERTEX
  5
39F
  8
0
 10
1028.175226676799
 20
457.5724805188385
 30
0.0
  0
VERTEX
  5
3A0
  8
0
 10
1028.780740529055
 20
457.7038518676313
 30
0.0
  0
SEQEND
  5
437
  8
0
  0
POLYLINE
  5
1AF
  8
0
 66
     1
 10
0.0
 20
0.0
 30
0.0
  0
VERTEX
  5
3A1
  8
0
 10
1025.003326080367
 20
460.204280509492
 30
0.0
  0
VERTEX
  5
3A2
  8
0
 10
1024.45516319355
 20
460.0199917639058
 30
0.0
  0
VERTEX
  5
3A3
  8
0
 10
1024.00430522385
 20
459.7931403068634
 30
0.0
  0
VERTEX
  5
3A4
  8
0
 10
1023.668755058281
 20
459.5327843815912
 30
0.0
  0
VERTEX
  5
3A5
  8
0
 10
1023.461911310429
 20
459.249320074265
 30
0.0
  0
VERTEX
  5
3A6
  8
0
 10
1023.39203331
 20
458.9540661953308
 30
0.0
  0
SEQEND
  5
438
  8
0
  0
LINE
  5
1B0
  8
0
 10
1025.00332608
 20
460.2042805
 30
0.0
 11
1040.15755991
 21
464.32548387
 31
0.0
  0
POLYLINE
  5
1B1
  8
0
 66
     1
 10
0.0
 20
0.0
 30
0.0
  0
VERTEX
  5
3A7
  8
0
 10
893.54384551
 20
486.50846499
 30
0.0
  0
VERTEX
  5
3A8
  8
0
 10
893.4958087111174
 20
486.7153984307302
 30
0.0
  0
VERTEX
  5
3A9
  8
0
 10
893.3535443417074
 20
486.9143795354009
 30
0.0
  0
VERTEX
  5
3AA
  8
0
 10
893.1225195416912
 20
487.0977615717669
 30
0.0
  0
VERTEX
  5
3AB
  8
0
 10
892.8116124645528
 20
487.2584972710284
 30
0.0
  0
VERTEX
  5
3AC
  8
0
 10
892.4327710948809
 20
487.3904096504187
 30
0.0
  0
VERTEX
  5
3AD
  8
0
 10
892.0005540940219
 20
487.4884293911866
 30
0.0
  0
VERTEX
  5
3AE
  8
0
 10
891.5315713188912
 20
487.548789649673
 30
0.0
  0
VERTEX
  5
3AF
  8
0
 10
891.0438455144872
 20
487.569170815
 30
0.0
  0
VERTEX
  5
3B0
  8
0
 10
890.5561197099108
 20
487.5487896504158
 30
0.0
  0
VERTEX
  5
3B1
  8
0
 10
890.0871369342693
 20
487.4884293926437
 30
0.0
  0
VERTEX
  5
3B2
  8
0
 10
889.6549199325812
 20
487.3904096525342
 30
0.0
  0
VERTEX
  5
3B3
  8
0
 10
889.276078561793
 20
487.2584972737209
 30
0.0
  0
VERTEX
  5
3B4
  8
0
 10
888.9651714832947
 20
487.0977615749329
 30
0.0
  0
VERTEX
  5
3B5
  8
0
 10
888.7341466817269
 20
486.9143795389188
 30
0.0
  0
VERTEX
  5
3B6
  8
0
 10
888.5918823106333
 20
486.7153984344648
 30
0.0
  0
VERTEX
  5
3B7
  8
0
 10
888.54384551
 20
486.5084649938077
 30
0.0
  0
SEQEND
  5
439
  8
0
  0
POLYLINE
  5
1B2
  8
0
 66
     1
 10
0.0
 20
0.0
 30
0.0
  0
VERTEX
  5
3B8
  8
0
 10
888.54384551
 20
486.5084649938077
 30
0.0
  0
VERTEX
  5
3B9
  8
0
 10
888.5918823073505
 20
486.3015315525375
 30
0.0
  0
VERTEX
  5
3BA
  8
0
 10
888.7341466757167
 20
486.1025504472375
 30
0.0
  0
VERTEX
  5
3BB
  8
0
 10
888.9651714751925
 20
485.9191684102119
 30
0.0
  0
VERTEX
  5
3BC
  8
0
 10
889.2760785522742
 20
485.7584327103178
 30
0.0
  0
VERTEX
  5
3BD
  8
0
 10
889.6549199223208
 20
485.6265203303745
 30
0.0
  0
VERTEX
  5
3BE
  8
0
 10
890.0871369239052
 20
485.5285005891777
 30
0.0
  0
VERTEX
  5
3BF
  8
0
 10
890.5561197000085
 20
485.4681403304199
 30
0.0
  0
VERTEX
  5
3C0
  8
0
 10
891.0438455055128
 20
485.447759165
 30
0.0
  0
VERTEX
  5
3C1
  8
0
 10
891.5315713111894
 20
485.4681403296771
 30
0.0
  0
VERTEX
  5
3C2
  8
0
 10
892.0005540878035
 20
485.5285005877205
 30
0.0
  0
VERTEX
  5
3C3
  8
0
 10
892.4327710902171
 20
485.6265203282591
 30
0.0
  0
VERTEX
  5
3C4
  8
0
 10
892.8116124613799
 20
485.7584327076253
 30
0.0
  0
VERTEX
  5
3C5
  8
0
 10
893.1225195398215
 20
485.9191684070458
 30
0.0
  0
VERTEX
  5
3C6
  8
0
 10
893.3535443408489
 20
486.1025504437196
 30
0.0
  0
VERTEX
  5
3C7
  8
0
 10
893.4958087108986
 20
486.3015315488029
 30
0.0
  0
VERTEX
  5
3C8
  8
0
 10
893.54384551
 20
486.50846499
 30
0.0
  0
SEQEND
  5
43A
  8
0
  0
POLYLINE
  5
1B3
  8
0
 66
     1
 10
0.0
 20
0.0
 30
0.0
  0
VERTEX
  5
3C9
  8
0
 10
905.02617292
 20
495.93055335
 30
0.0
  0
VERTEX
  5
3CA
  8
0
 10
904.9781361211175
 20
496.1374867907302
 30
0.0
  0
VERTEX
  5
3CB
  8
0
 10
904.8358717517075
 20
496.3364678954009
 30
0.0
  0
VERTEX
  5
3CC
  8
0
 10
904.6048469516912
 20
496.5198499317669
 30
0.0
  0
VERTEX
  5
3CD
  8
0
 10
904.2939398745528
 20
496.6805856310285
 30
0.0
  0
VERTEX
  5
3CE
  8
0
 10
903.9150985048809
 20
496.8124980104187
 30
0.0
  0
VERTEX
  5
3CF
  8
0
 10
903.482881504022
 20
496.9105177511866
 30
0.0
  0
VERTEX
  5
3D0
  8
0
 10
903.0138987288913
 20
496.970878009673
 30
0.0
  0
VERTEX
  5
3D1
  8
0
 10
902.5261729244872
 20
496.991259175
 30
0.0
  0
VERTEX
  5
3D2
  8
0
 10
902.0384471199109
 20
496.9708780104158
 30
0.0
  0
VERTEX
  5
3D3
  8
0
 10
901.5694643442694
 20
496.9105177526437
 30
0.0
  0
VERTEX
  5
3D4
  8
0
 10
901.1372473425812
 20
496.8124980125342
 30
0.0
  0
VERTEX
  5
3D5
  8
0
 10
900.7584059717931
 20
496.680585633721
 30
0.0
  0
VERTEX
  5
3D6
  8
0
 10
900.4474988932948
 20
496.5198499349329
 30
0.0
  0
VERTEX
  5
3D7
  8
0
 10
900.2164740917269
 20
496.3364678989188
 30
0.0
  0
VERTEX
  5
3D8
  8
0
 10
900.0742097206333
 20
496.1374867944648
 30
0.0
  0
VERTEX
  5
3D9
  8
0
 10
900.02617292
 20
495.9305533538077
 30
0.0
  0
SEQEND
  5
43B
  8
0
  0
POLYLINE
  5
1B4
  8
0
 66
     1
 10
0.0
 20
0.0
 30
0.0
  0
VERTEX
  5
3DA
  8
0
 10
900.02617292
 20
495.9305533538077
 30
0.0
  0
VERTEX
  5
3DB
  8
0
 10
900.0742097173505
 20
495.7236199125375
 30
0.0
  0
VERTEX
  5
3DC
  8
0
 10
900.2164740857168
 20
495.5246388072375
 30
0.0
  0
VERTEX
  5
3DD
  8
0
 10
900.4474988851925
 20
495.3412567702119
 30
0.0
  0
VERTEX
  5
3DE
  8
0
 10
900.7584059622742
 20
495.1805210703178
 30
0.0
  0
VERTEX
  5
3DF
  8
0
 10
901.1372473323208
 20
495.0486086903746
 30
0.0
  0
VERTEX
  5
3E0
  8
0
 10
901.5694643339052
 20
494.9505889491778
 30
0.0
  0
VERTEX
  5
3E1
  8
0
 10
902.0384471100085
 20
494.8902286904199
 30
0.0
  0
VERTEX
  5
3E2
  8
0
 10
902.5261729155128
 20
494.869847525
 30
0.0
  0
VERTEX
  5
3E3
  8
0
 10
903.0138987211894
 20
494.8902286896771
 30
0.0
  0
VERTEX
  5
3E4
  8
0
 10
903.4828814978035
 20
494.9505889477206
 30
0.0
  0
VERTEX
  5
3E5
  8
0
 10
903.9150985002171
 20
495.0486086882592
 30
0.0
  0
VERTEX
  5
3E6
  8
0
 10
904.29393987138
 20
495.1805210676254
 30
0.0
  0
VERTEX
  5
3E7
  8
0
 10
904.6048469498215
 20
495.3412567670459
 30
0.0
  0
VERTEX
  5
3E8
  8
0
 10
904.8358717508489
 20
495.5246388037197
 30
0.0
  0
VERTEX
  5
3E9
  8
0
 10
904.9781361208986
 20
495.723619908803
 30
0.0
  0
VERTEX
  5
3EA
  8
0
 10
905.02617292
 20
495.93055335
 30
0.0
  0
SEQEND
  5
43C
  8
0
  0
LINE
  5
1B5
  8
0
 10
1040.75251844
 20
447.69518064
 30
0.0
 11
863.09556229
 21
486.66916941
 31
0.0
  0
LINE
  5
1B6
  8
0
 10
886.06021711
 20
505.51334612
 30
0.0
 11
863.09556229
 21
486.66916941
 31
0.0
  0
LINE
  5
1B7
  8
0
 10
970.44727128
 20
487.00070146
 30
0.0
 11
1063.71717325
 21
466.53935735
 31
0.0
  0
LINE
  5
1B8
  8
0
 10
886.06021711
 20
505.51334612
 30
0.0
 11
951.68244127
 21
491.11728822
 31
0.0
  0
POLYLINE
  5
1B9
  8
0
 66
     1
 10
0.0
 20
0.0
 30
0.0
  0
VERTEX
  5
1BA
  8
0
 10
1063.71717325
 20
466.53935735
 30
0.0
  0
VERTEX
  5
1BB
  8
0
 10
1040.75251844
 20
447.69518064
 30
0.0
  0
VERTEX
  5
1BC
  8
0
 10
1040.75251844
 20
443.16753085
 30
0.0
  0
VERTEX
  5
1BD
  8
0
 10
863.09556229
 20
482.14151962
 30
0.0
  0
SEQEND
  5
1BE
  8
0
  0
LINE
  5
1BF
  8
0
 10
863.09556229
 20
486.66916941
 30
0.0
 11
863.09556229
 21
482.14151962
 31
0.0
  0
LINE
  5
1C0
  8
0
 10
1063.71717325
 20
462.01170755
 30
0.0
 11
1040.75251844
 21
443.16753085
 31
0.0
  0
LINE
  5
1C1
  8
0
 10
1063.71717325
 20
466.53935735
 30
0.0
 11
1063.71717325
 21
462.01170755
 31
0.0
  0
LINE
  5
1C2
  8
0
  6
STRICHPUNKT2
 62
     1
 10
902.52617292
 20
497.0624658
 30
0.0
 11
902.52617292
 21
494.86984753
 31
0.0
  0
LINE
  5
1C3
  8
0
  6
STRICHPUNKT2
 62
     1
 10
902.52617292
 20
495.93055335
 30
0.0
 11
900.80382381
 21
494.5172401
 31
0.0
  0
LINE
  5
1C4
  8
0
  6
STRICHPUNKT2
 62
     1
 10
902.52617292
 20
495.93055335
 30
0.0
 11
904.24852203
 21
497.3438666
 31
0.0
  0
LINE
  5
1C5
  8
0
  6
STRICHPUNKT2
 62
     1
 10
902.52617292
 20
495.93055335
 30
0.0
 11
905.85724085
 21
495.19979106
 31
0.0
  0
LINE
  5
1C6
  8
0
  6
STRICHPUNKT2
 62
     1
 10
902.52617292
 20
495.93055335
 30
0.0
 11
899.19510499
 21
496.66131564
 31
0.0
  0
LINE
  5
1C7
  8
0
  6
STRICHPUNKT2
 62
     1
 10
891.04384551
 20
487.64037744
 30
0.0
 11
891.04384551
 21
485.44775918
 31
0.0
  0
LINE
  5
1C8
  8
0
  6
STRICHPUNKT2
 62
     1
 10
891.04384551
 20
486.50846499
 30
0.0
 11
889.3214964
 21
485.09515174
 31
0.0
  0
LINE
  5
1C9
  8
0
  6
STRICHPUNKT2
 62
     1
 10
891.04384551
 20
486.50846499
 30
0.0
 11
892.76619462
 21
487.92177825
 31
0.0
  0
LINE
  5
1CA
  8
0
  6
STRICHPUNKT2
 62
     1
 10
891.04384551
 20
486.50846499
 30
0.0
 11
894.37491344
 21
485.77770271
 31
0.0
  0
LINE
  5
1CB
  8
0
  6
STRICHPUNKT2
 62
     1
 10
891.04384551
 20
486.50846499
 30
0.0
 11
887.71277759
 21
487.23922728
 31
0.0
  0
LINE
  5
1CC
  8
0
  6
STRICHPUNKT2
 62
     1
 10
1042.04626715
 20
464.65994699
 30
0.0
 11
1042.04626715
 21
461.31142013
 31
0.0
  0
LINE
  5
1CD
  8
0
  6
STRICHPUNKT2
 62
     1
 10
1026.89203331
 20
460.53874361
 30
0.0
 11
1026.89203331
 21
457.46907804
 31
0.0
  0
LINE
  5
1CE
  8
0
  6
STRICHPUNKT2
 62
     1
 10
1046.46625201
 20
464.27728721
 30
0.0
 11
1022.47204845
 21
457.75204854
 31
0.0
  0
LINE
  5
1CF
  8
0
  6
STRICHPUNKT2
 62
     1
 10
1039.2132063
 20
464.95059103
 30
0.0
 11
1044.87932799
 21
461.19994809
 31
0.0
  0
LINE
  5
1D0
  8
0
  6
STRICHPUNKT2
 62
     1
 10
1024.05897247
 20
460.82938765
 30
0.0
 11
1029.72509416
 21
457.07874472
 31
0.0
  0
LINE
  5
1D1
  8
0
  6
STRICHPUNKT2
 62
     1
 10
990.05491119
 20
472.34284249
 30
0.0
 11
990.05491119
 21
469.27317692
 31
0.0
  0
LINE
  5
1D2
  8
0
  6
STRICHPUNKT2
 62
     1
 10
990.05491119
 20
470.75816507
 30
0.0
 11
985.3914161
 21
471.78123227
 31
0.0
  0
LINE
  5
1D3
  8
0
  6
STRICHPUNKT2
 62
     1
 10
990.05491119
 20
470.75816507
 30
0.0
 11
994.71840629
 21
469.73509786
 31
0.0
  0
LINE
  5
1D4
  8
0
  6
STRICHPUNKT2
 62
     1
 10
990.05491119
 20
470.75816507
 30
0.0
 11
987.64362244
 21
468.77952651
 31
0.0
  0
LINE
  5
1D5
  8
0
  6
STRICHPUNKT2
 62
     1
 10
990.05491119
 20
470.75816507
 30
0.0
 11
992.46619995
 21
472.73680362
 31
0.0
  0
POLYLINE
  5
1D6
  8
0
 66
     1
 10
0.0
 20
0.0
 30
0.0
  0
VERTEX
  5
3EB
  8
0
 10
953.7594852536458
 20
483.9120331092003
 30
0.0
  0
VERTEX
  5
3EC
  8
0
 10
953.5510566461927
 20
483.9085785755968
 30
0.0
  0
VERTEX
  5
3ED
  8
0
 10
953.3300509868853
 20
483.8114148132902
 30
0.0
  0
VERTEX
  5
3EE
  8
0
 10
953.1049613992889
 20
483.6242757711843
 30
0.0
  0
VERTEX
  5
3EF
  8
0
 10
952.8844379500425
 20
483.3543530977349
 30
0.0
  0
VERTEX
  5
3F0
  8
0
 10
952.6769552316492
 20
483.0120197699317
 30
0.0
  0
VERTEX
  5
3F1
  8
0
 10
952.4904866886374
 20
482.6104314656096
 30
0.0
  0
VERTEX
  5
3F2
  8
0
 10
952.3321982025586
 20
482.1650209981254
 30
0.0
  0
VERTEX
  5
3F3
  8
0
 10
952.2081727111773
 20
481.6929052419947
 30
0.0
  0
VERTEX
  5
3F4
  8
0
 10
952.1231764445839
 20
481.212227341001
 30
0.0
  0
VERTEX
  5
3F5
  8
0
 10
952.0804757616447
 20
480.7414594773545
 30
0.0
  0
VERTEX
  5
3F6
  8
0
 10
952.0817116256619
 20
480.2986929960867
 30
0.0
  0
VERTEX
  5
3F7
  8
0
 10
952.1268365430743
 20
479.9009431648051
 30
0.0
  0
VERTEX
  5
3F8
  8
0
 10
952.2141163886081
 20
479.5634952865001
 30
0.0
  0
VERTEX
  5
3F9
  8
0
 10
952.3401970467389
 20
479.2993172939214
 30
0.0
  0
VERTEX
  5
3FA
  8
0
 10
952.5002333084706
 20
479.1185613991944
 30
0.0
  0
VERTEX
  5
3FB
  8
0
 10
952.6880750700001
 20
479.02817395
 30
0.0
  0
SEQEND
  5
43D
  8
0
  0
POLYLINE
  5
1D7
  8
0
 66
     1
 10
0.0
 20
0.0
 30
0.0
  0
VERTEX
  5
3FC
  8
0
 10
952.6880750700001
 20
479.02817395
 30
0.0
  0
VERTEX
  5
3FD
  8
0
 10
952.8965036772644
 20
479.0316284852132
 30
0.0
  0
VERTEX
  5
3FE
  8
0
 10
953.1175093361928
 20
479.1287922486715
 30
0.0
  0
VERTEX
  5
3FF
  8
0
 10
953.3425989232736
 20
479.3159312914439
 30
0.0
  0
VERTEX
  5
400
  8
0
 10
953.5631223719265
 20
479.5858539650816
 30
0.0
  0
VERTEX
  5
401
  8
0
 10
953.77060508971
 20
479.9281872926349
 30
0.0
  0
VERTEX
  5
402
  8
0
 10
953.9570736321557
 20
480.3297755963385
 30
0.0
  0
VERTEX
  5
403
  8
0
 10
954.1153621177662
 20
480.7751860629297
 30
0.0
  0
VERTEX
  5
404
  8
0
 10
954.2393876088228
 20
481.2473018180054
 30
0.0
  0
VERTEX
  5
405
  8
0
 10
954.3243838752693
 20
481.7279797179048
 30
0.0
  0
VERTEX
  5
406
  8
0
 10
954.36708455826
 20
482.1987475805443
 30
0.0
  0
VERTEX
  5
407
  8
0
 10
954.365848694498
 20
482.6415140610134
 30
0.0
  0
VERTEX
  5
408
  8
0
 10
954.3207237775349
 20
483.0392638918128
 30
0.0
  0
VERTEX
  5
409
  8
0
 10
954.2334439326188
 20
483.3767117700405
 30
0.0
  0
VERTEX
  5
40A
  8
0
 10
954.1073632752355
 20
483.6408897630084
 30
0.0
  0
VERTEX
  5
40B
  8
0
 10
953.9473270143301
 20
483.8216456586229
 30
0.0
  0
VERTEX
  5
40C
  8
0
 10
953.7594852536458
 20
483.9120331092003
 30
0.0
  0
SEQEND
  5
43E
  8
0
  0
POLYLINE
  5
1D8
  8
0
 66
     1
 10
0.0
 20
0.0
 30
0.0
  0
VERTEX
  5
40D
  8
0
 10
965.2418126636458
 20
493.3341214692002
 30
0.0
  0
VERTEX
  5
40E
  8
0
 10
965.0333840559986
 20
493.3306669355513
 30
0.0
  0
VERTEX
  5
40F
  8
0
 10
964.8123783964822
 20
493.2335031730333
 30
0.0
  0
VERTEX
  5
410
  8
0
 10
964.5872888086848
 20
493.0463641305649
 30
0.0
  0
VERTEX
  5
411
  8
0
 10
964.366765359269
 20
492.7764414566284
 30
0.0
  0
VERTEX
  5
412
  8
0
 10
964.1592826407592
 20
492.4341081282513
 30
0.0
  0
VERTEX
  5
413
  8
0
 10
963.9728140977029
 20
492.0325198233136
 30
0.0
  0
VERTEX
  5
414
  8
0
 10
963.8145256116657
 20
491.5871093552238
 30
0.0
  0
VERTEX
  5
415
  8
0
 10
963.6905001204218
 20
491.114993598551
 30
0.0
  0
VERTEX
  5
416
  8
0
 10
963.6055038540646
 20
490.6343156971324
 30
0.0
  0
VERTEX
  5
417
  8
0
 10
963.5628031714573
 20
490.1635478332273
 30
0.0
  0
VERTEX
  5
418
  8
0
 10
963.5640390358923
 20
489.7207813519097
 30
0.0
  0
VERTEX
  5
419
  8
0
 10
963.6091639537921
 20
489.3230315208193
 30
0.0
  0
VERTEX
  5
41A
  8
0
 10
963.6964437998611
 20
488.9855836429667
 30
0.0
  0
VERTEX
  5
41B
  8
0
 10
963.8225244585485
 20
488.7214056511073
 30
0.0
  0
VERTEX
  5
41C
  8
0
 10
963.9825607208279
 20
488.5406497573569
 30
0.0
  0
VERTEX
  5
41D
  8
0
 10
964.1704024828645
 20
488.4502623093716
 30
0.0
  0
SEQEND
  5
43F
  8
0
  0
POLYLINE
  5
1D9
  8
0
 66
     1
 10
0.0
 20
0.0
 30
0.0
  0
VERTEX
  5
41E
  8
0
 10
964.17040248
 20
488.45026231
 30
0.0
  0
VERTEX
  5
41F
  8
0
 10
964.3788310872643
 20
488.4537168452132
 30
0.0
  0
VERTEX
  5
420
  8
0
 10
964.5998367461928
 20
488.5508806086715
 30
0.0
  0
VERTEX
  5
421
  8
0
 10
964.8249263332735
 20
488.7380196514438
 30
0.0
  0
VERTEX
  5
422
  8
0
 10
965.0454497819264
 20
489.0079423250816
 30
0.0
  0
VERTEX
  5
423
  8
0
 10
965.2529324997099
 20
489.3502756526349
 30
0.0
  0
VERTEX
  5
424
  8
0
 10
965.4394010421556
 20
489.7518639563385
 30
0.0
  0
VERTEX
  5
425
  8
0
 10
965.5976895277661
 20
490.1972744229297
 30
0.0
  0
VERTEX
  5
426
  8
0
 10
965.7217150188227
 20
490.6693901780054
 30
0.0
  0
VERTEX
  5
427
  8
0
 10
965.8067112852692
 20
491.1500680779048
 30
0.0
  0
VERTEX
  5
428
  8
0
 10
965.8494119682599
 20
491.6208359405443
 30
0.0
  0
VERTEX
  5
429
  8
0
 10
965.848176104498
 20
492.0636024210134
 30
0.0
  0
VERTEX
  5
42A
  8
0
 10
965.8030511875348
 20
492.4613522518128
 30
0.0
  0
VERTEX
  5
42B
  8
0
 10
965.7157713426187
 20
492.7988001300404
 30
0.0
  0
VERTEX
  5
42C
  8
0
 10
965.5896906852354
 20
493.0629781230084
 30
0.0
  0
VERTEX
  5
42D
  8
0
 10
965.42965442433
 20
493.2437340186228
 30
0.0
  0
VERTEX
  5
42E
  8
0
 10
965.2418126636458
 20
493.3341214692002
 30
0.0
  0
SEQEND
  5
440
  8
0
  0
POLYLINE
  5
1DA
  8
0
 66
     1
 10
0.0
 20
0.0
 30
0.0
  0
VERTEX
  5
1DB
  8
0
 10
945.26190451
 20
485.84876883
 30
0.0
  0
VERTEX
  5
1DC
  8
0
 10
945.26190451
 20
468.64369961
 30
0.0
  0
VERTEX
  5
1DD
  8
0
 10
947.48261646
 20
468.15652475
 30
0.0
  0
SEQEND
  5
1DE
  8
0
  0
LINE
  5
1DF
  8
0
 10
947.48261646
 20
485.36159397
 30
0.0
 11
947.48261646
 21
468.15652475
 31
0.0
  0
LINE
  5
1E0
  8
0
 10
945.26190451
 20
485.84876883
 30
0.0
 11
947.48261646
 21
485.36159397
 31
0.0
  0
LINE
  5
1E1
  8
0
 10
968.22655932
 20
504.69294554
 30
0.0
 11
945.26190451
 21
485.84876883
 31
0.0
  0
LINE
  5
1E2
  8
0
 10
968.22655932
 20
504.69294554
 30
0.0
 11
970.44727128
 21
504.20577068
 31
0.0
  0
LINE
  5
1E3
  8
0
 10
970.44727128
 20
487.00070146
 30
0.0
 11
970.44727128
 21
504.20577068
 31
0.0
  0
LINE
  5
1E4
  8
0
 10
970.44727128
 20
487.00070146
 30
0.0
 11
947.48261646
 21
468.15652475
 31
0.0
  0
LINE
  5
1E5
  8
0
 10
970.44727128
 20
504.20577068
 30
0.0
 11
947.48261646
 21
485.36159397
 31
0.0
  0
LINE
  5
1E6
  8
0
  6
STRICHPUNKT2
 62
     1
 10
965.81646355
 20
490.64860446
 30
0.0
 11
963.69050013
 21
491.1149936
 31
0.0
  0
LINE
  5
1E7
  8
0
  6
STRICHPUNKT2
 62
     1
 10
964.70610757
 20
490.89219189
 30
0.0
 11
962.98375846
 21
489.47887864
 31
0.0
  0
LINE
  5
1E8
  8
0
  6
STRICHPUNKT2
 62
     1
 10
964.70610757
 20
490.89219189
 30
0.0
 11
966.42845668
 21
492.30550514
 31
0.0
  0
LINE
  5
1E9
  8
0
  6
STRICHPUNKT2
 62
     1
 10
964.70610757
 20
490.89219189
 30
0.0
 11
964.70610757
 21
487.49645454
 31
0.0
  0
LINE
  5
1EA
  8
0
  6
STRICHPUNKT2
 62
     1
 10
964.70610757
 20
490.89219189
 30
0.0
 11
964.70610757
 21
494.28792924
 31
0.0
  0
LINE
  5
1EB
  8
0
  6
STRICHPUNKT2
 62
     1
 10
954.33413614
 20
481.2265161
 30
0.0
 11
952.20817272
 21
481.69290524
 31
0.0
  0
LINE
  5
1EC
  8
0
  6
STRICHPUNKT2
 62
     1
 10
953.22378016
 20
481.47010353
 30
0.0
 11
951.50143105
 21
480.05679028
 31
0.0
  0
LINE
  5
1ED
  8
0
  6
STRICHPUNKT2
 62
     1
 10
953.22378016
 20
481.47010353
 30
0.0
 11
954.94612928
 21
482.88341679
 31
0.0
  0
LINE
  5
1EE
  8
0
  6
STRICHPUNKT2
 62
     1
 10
953.22378016
 20
481.47010353
 30
0.0
 11
953.22378016
 21
478.07436619
 31
0.0
  0
LINE
  5
1EF
  8
0
  6
STRICHPUNKT2
 62
     1
 10
953.22378016
 20
481.47010353
 30
0.0
 11
953.22378016
 21
484.86584088
 31
0.0
  0
CIRCLE
  5
1F0
  8
0
 10
1170.53275919
 20
574.66417702
 30
0.0
 40
3.5
  0
POLYLINE
  5
1F1
  8
0
 66
     1
 10
0.0
 20
0.0
 30
0.0
 70
     1
  0
VERTEX
  5
1F2
  8
0
 10
1222.00167028
 20
584.20840566
 30
0.0
 42
-1.0
  0
VERTEX
  5
1F3
  8
0
 10
1228.06384811
 20
580.70840566
 30
0.0
  0
VERTEX
  5
1F4
  8
0
 10
1219.06384811
 20
565.11994839
 30
0.0
 42
-1.0
  0
VERTEX
  5
1F5
  8
0
 10
1213.00167028
 20
568.61994839
 30
0.0
  0
SEQEND
  5
1F6
  8
0
  0
CIRCLE
  5
1F7
  8
0
 10
1065.53275919
 20
562.16417702
 30
0.0
 40
2.5
  0
CIRCLE
  5
1F8
  8
0
 10
1065.53275919
 20
587.16417702
 30
0.0
 40
2.5
  0
LINE
  5
1F9
  8
0
 10
1133.03275919
 20
549.66417702
 30
0.0
 11
1040.53275919
 21
549.66417702
 31
0.0
  0
LINE
  5
1FA
  8
0
 10
1240.53275919
 20
549.66417702
 30
0.0
 11
1135.53275919
 21
549.66417702
 31
0.0
  0
LINE
  5
1FB
  8
0
 10
1040.53275919
 20
599.66417702
 30
0.0
 11
1040.53275919
 21
549.66417702
 31
0.0
  0
LINE
  5
1FC
  8
0
 10
1135.53275919
 20
599.66417702
 30
0.0
 11
1240.53275919
 21
599.66417702
 31
0.0
  0
LINE
  5
1FD
  8
0
 10
1040.53275919
 20
599.66417702
 30
0.0
 11
1133.03275919
 21
599.66417702
 31
0.0
  0
LINE
  5
1FE
  8
0
 10
1240.53275919
 20
599.66417702
 30
0.0
 11
1240.53275919
 21
549.66417702
 31
0.0
  0
LINE
  5
1FF
  8
0
  6
STRICHPUNKT2
 62
     1
 10
1065.53275919
 20
587.16417702
 30
0.0
 11
1065.53275919
 21
583.41417702
 31
0.0
  0
LINE
  5
200
  8
0
  6
STRICHPUNKT2
 62
     1
 10
1065.53275919
 20
587.16417702
 30
0.0
 11
1065.53275919
 21
590.91417702
 31
0.0
  0
LINE
  5
201
  8
0
  6
STRICHPUNKT2
 62
     1
 10
1065.53275919
 20
587.16417702
 30
0.0
 11
1069.28275919
 21
587.16417702
 31
0.0
  0
LINE
  5
202
  8
0
  6
STRICHPUNKT2
 62
     1
 10
1065.53275919
 20
587.16417702
 30
0.0
 11
1061.78275919
 21
587.16417702
 31
0.0
  0
LINE
  5
203
  8
0
  6
STRICHPUNKT2
 62
     1
 10
1065.53275919
 20
562.16417702
 30
0.0
 11
1065.53275919
 21
558.41417702
 31
0.0
  0
LINE
  5
204
  8
0
  6
STRICHPUNKT2
 62
     1
 10
1065.53275919
 20
562.16417702
 30
0.0
 11
1065.53275919
 21
565.91417702
 31
0.0
  0
LINE
  5
205
  8
0
  6
STRICHPUNKT2
 62
     1
 10
1065.53275919
 20
562.16417702
 30
0.0
 11
1069.28275919
 21
562.16417702
 31
0.0
  0
LINE
  5
206
  8
0
  6
STRICHPUNKT2
 62
     1
 10
1065.53275919
 20
562.16417702
 30
0.0
 11
1061.78275919
 21
562.16417702
 31
0.0
  0
LINE
  5
207
  8
0
  6
STRICHPUNKT2
 62
     1
 10
1227.65775919
 20
587.00503903
 30
0.0
 11
1213.40775919
 21
562.32331502
 31
0.0
  0
LINE
  5
208
  8
0
  6
STRICHPUNKT2
 62
     1
 10
1220.48612582
 20
585.08340566
 30
0.0
 11
1229.57939256
 21
579.83340566
 31
0.0
  0
LINE
  5
209
  8
0
  6
STRICHPUNKT2
 62
     1
 10
1211.48612582
 20
569.49494839
 30
0.0
 11
1220.57939256
 21
564.24494839
 31
0.0
  0
LINE
  5
20A
  8
0
  6
STRICHPUNKT2
 62
     1
 10
1170.53275919
 20
574.66417702
 30
0.0
 11
1165.28275919
 21
574.66417702
 31
0.0
  0
LINE
  5
20B
  8
0
  6
STRICHPUNKT2
 62
     1
 10
1170.53275919
 20
574.66417702
 30
0.0
 11
1175.78275919
 21
574.66417702
 31
0.0
  0
LINE
  5
20C
  8
0
  6
STRICHPUNKT2
 62
     1
 10
1170.53275919
 20
574.66417702
 30
0.0
 11
1170.53275919
 21
569.41417702
 31
0.0
  0
LINE
  5
20D
  8
0
  6
STRICHPUNKT2
 62
     1
 10
1170.53275919
 20
574.66417702
 30
0.0
 11
1170.53275919
 21
579.91417702
 31
0.0
  0
POLYLINE
  5
20E
  8
0
 66
     1
 10
0.0
 20
0.0
 30
0.0
  0
VERTEX
  5
20F
  8
0
 10
1133.03275919
 20
599.66417702
 30
0.0
  0
VERTEX
  5
210
  8
0
 10
1133.03275919
 20
549.66417702
 30
0.0
  0
VERTEX
  5
211
  8
0
 10
1135.53275919
 20
549.66417702
 30
0.0
  0
SEQEND
  5
212
  8
0
  0
LINE
  5
213
  8
0
 10
1135.53275919
 20
599.66417702
 30
0.0
 11
1135.53275919
 21
549.66417702
 31
0.0
  0
LINE
  5
214
  8
0
 10
1133.03275919
 20
599.66417702
 30
0.0
 11
1135.53275919
 21
599.66417702
 31
0.0
  0
LINE
  5
215
  8
0
  6
STRICHPUNKT2
 62
     1
 10
1133.03275919
 20
587.16417702
 30
0.0
 11
1131.78275919
 21
587.16417702
 31
0.0
  0
LINE
  5
216
  8
0
  6
STRICHPUNKT2
 62
     1
 10
1136.78275919
 20
587.16417702
 30
0.0
 11
1135.53275919
 21
587.16417702
 31
0.0
  0
LINE
  5
217
  8
0
  6
STRICHPUNKT2
 62
     1
 10
1133.03275919
 20
562.16417702
 30
0.0
 11
1131.78275919
 21
562.16417702
 31
0.0
  0
LINE
  5
218
  8
0
  6
STRICHPUNKT2
 62
     1
 10
1136.78275919
 20
562.16417702
 30
0.0
 11
1135.53275919
 21
562.16417702
 31
0.0
  0
POLYLINE
  5
219
  8
0
 66
     1
 10
0.0
 20
0.0
 30
0.0
  0
VERTEX
  5
21A
  8
0
 10
1240.53275919
 20
637.03145469
 30
0.0
  0
VERTEX
  5
21B
  8
0
 10
1040.53275919
 20
637.03145469
 30
0.0
  0
VERTEX
  5
21C
  8
0
 10
1040.53275919
 20
632.03145469
 30
0.0
  0
SEQEND
  5
21D
  8
0
  0
LINE
  5
21E
  8
0
 10
1240.53275919
 20
632.03145469
 30
0.0
 11
1040.53275919
 21
632.03145469
 31
0.0
  0
LINE
  5
21F
  8
0
 10
1240.53275919
 20
637.03145469
 30
0.0
 11
1240.53275919
 21
632.03145469
 31
0.0
  0
LINE
  5
220
  8
0
  6
STRICHPUNKT2
 62
     1
 10
1216.03275919
 20
632.03145469
 30
0.0
 11
1216.03275919
 21
630.28145469
 31
0.0
  0
LINE
  5
221
  8
0
  6
STRICHPUNKT2
 62
     1
 10
1216.03275919
 20
638.78145469
 30
0.0
 11
1216.03275919
 21
637.03145469
 31
0.0
  0
LINE
  5
222
  8
0
  6
STRICHPUNKT2
 62
     1
 10
1225.03275919
 20
632.03145469
 30
0.0
 11
1225.03275919
 21
630.28145469
 31
0.0
  0
LINE
  5
223
  8
0
  6
STRICHPUNKT2
 62
     1
 10
1225.03275919
 20
638.78145469
 30
0.0
 11
1225.03275919
 21
637.03145469
 31
0.0
  0
LINE
  5
224
  8
0
  6
STRICHPUNKT2
 62
     1
 10
1170.53275919
 20
632.03145469
 30
0.0
 11
1170.53275919
 21
630.28145469
 31
0.0
  0
LINE
  5
225
  8
0
  6
STRICHPUNKT2
 62
     1
 10
1170.53275919
 20
638.78145469
 30
0.0
 11
1170.53275919
 21
637.03145469
 31
0.0
  0
LINE
  5
226
  8
0
  6
STRICHPUNKT2
 62
     1
 10
1065.53275919
 20
632.03145469
 30
0.0
 11
1065.53275919
 21
630.78145469
 31
0.0
  0
LINE
  5
227
  8
0
  6
STRICHPUNKT2
 62
     1
 10
1065.53275919
 20
638.28145469
 30
0.0
 11
1065.53275919
 21
637.03145469
 31
0.0
  0
POLYLINE
  5
228
  8
0
 66
     1
 10
0.0
 20
0.0
 30
0.0
  0
VERTEX
  5
229
  8
0
 10
1133.03275919
 20
656.03145469
 30
0.0
  0
VERTEX
  5
22A
  8
0
 10
1133.03275919
 20
637.03145469
 30
0.0
  0
VERTEX
  5
22B
  8
0
 10
1135.53275919
 20
637.03145469
 30
0.0
  0
SEQEND
  5
22C
  8
0
  0
LINE
  5
22D
  8
0
 10
1135.53275919
 20
656.03145469
 30
0.0
 11
1135.53275919
 21
637.03145469
 31
0.0
  0
LINE
  5
22E
  8
0
 10
1133.03275919
 20
656.03145469
 30
0.0
 11
1135.53275919
 21
656.03145469
 31
0.0
  0
LINE
  5
22F
  8
0
  6
STRICHPUNKT2
 62
     1
 10
1133.03275919
 20
646.53145469
 30
0.0
 11
1131.78275919
 21
646.53145469
 31
0.0
  0
LINE
  5
230
  8
0
  6
STRICHPUNKT2
 62
     1
 10
1136.78275919
 20
646.53145469
 30
0.0
 11
1135.53275919
 21
646.53145469
 31
0.0
  0
POLYLINE
  5
231
  8
0
 66
     1
 10
0.0
 20
0.0
 30
0.0
  0
VERTEX
  5
232
  8
0
 10
952.37731719
 20
637.03145469
 30
0.0
  0
VERTEX
  5
233
  8
0
 10
1002.37731719
 20
637.03145469
 30
0.0
  0
VERTEX
  5
234
  8
0
 10
1002.37731719
 20
632.03145469
 30
0.0
  0
SEQEND
  5
235
  8
0
  0
LINE
  5
236
  8
0
 10
952.37731719
 20
632.03145469
 30
0.0
 11
1002.37731719
 21
632.03145469
 31
0.0
  0
LINE
  5
237
  8
0
 10
952.37731719
 20
637.03145469
 30
0.0
 11
952.37731719
 21
632.03145469
 31
0.0
  0
LINE
  5
238
  8
0
  6
STRICHPUNKT2
 62
     1
 10
964.87731719
 20
632.03145469
 30
0.0
 11
964.87731719
 21
630.78145469
 31
0.0
  0
LINE
  5
239
  8
0
  6
STRICHPUNKT2
 62
     1
 10
964.87731719
 20
638.28145469
 30
0.0
 11
964.87731719
 21
637.03145469
 31
0.0
  0
LINE
  5
23A
  8
0
  6
STRICHPUNKT2
 62
     1
 10
977.37731719
 20
632.03145469
 30
0.0
 11
977.37731719
 21
630.28145469
 31
0.0
  0
LINE
  5
23B
  8
0
  6
STRICHPUNKT2
 62
     1
 10
969.58308855
 20
632.03145469
 30
0.0
 11
969.58308855
 21
630.28145469
 31
0.0
  0
LINE
  5
23C
  8
0
  6
STRICHPUNKT2
 62
     1
 10
989.87731719
 20
632.03145469
 30
0.0
 11
989.87731719
 21
630.78145469
 31
0.0
  0
LINE
  5
23D
  8
0
  6
STRICHPUNKT2
 62
     1
 10
989.87731719
 20
638.28145469
 30
0.0
 11
989.87731719
 21
637.03145469
 31
0.0
  0
LINE
  5
23E
  8
0
  6
STRICHPUNKT2
 62
     1
 10
985.17154582
 20
632.03145469
 30
0.0
 11
985.17154582
 21
630.28145469
 31
0.0
  0
CIRCLE
  5
23F
  8
0
 10
989.87731719
 20
646.53145469
 30
0.0
 40
2.5
  0
CIRCLE
  5
240
  8
0
 10
964.87731719
 20
646.53145469
 30
0.0
 40
2.5
  0
LINE
  5
241
  8
0
 10
1002.37731719
 20
656.03145469
 30
0.0
 11
1002.37731719
 21
637.03145469
 31
0.0
  0
LINE
  5
242
  8
0
 10
952.37731719
 20
637.03145469
 30
0.0
 11
1002.37731719
 21
637.03145469
 31
0.0
  0
POLYLINE
  5
243
  8
0
 66
     1
 10
0.0
 20
0.0
 30
0.0
  0
VERTEX
  5
244
  8
0
 10
952.37731719
 20
637.03145469
 30
0.0
  0
VERTEX
  5
245
  8
0
 10
952.37731719
 20
656.03145469
 30
0.0
  0
VERTEX
  5
246
  8
0
 10
1002.37731719
 20
656.03145469
 30
0.0
  0
SEQEND
  5
247
  8
0
  0
LINE
  5
248
  8
0
  6
STRICHPUNKT2
 62
     1
 10
964.87731719
 20
646.53145469
 30
0.0
 11
968.62731719
 21
646.53145469
 31
0.0
  0
LINE
  5
249
  8
0
  6
STRICHPUNKT2
 62
     1
 10
964.87731719
 20
646.53145469
 30
0.0
 11
961.12731719
 21
646.53145469
 31
0.0
  0
LINE
  5
24A
  8
0
  6
STRICHPUNKT2
 62
     1
 10
964.87731719
 20
646.53145469
 30
0.0
 11
964.87731719
 21
642.78145469
 31
0.0
  0
LINE
  5
24B
  8
0
  6
STRICHPUNKT2
 62
     1
 10
964.87731719
 20
646.53145469
 30
0.0
 11
964.87731719
 21
650.28145469
 31
0.0
  0
LINE
  5
24C
  8
0
  6
STRICHPUNKT2
 62
     1
 10
989.87731719
 20
646.53145469
 30
0.0
 11
993.62731719
 21
646.53145469
 31
0.0
  0
LINE
  5
24D
  8
0
  6
STRICHPUNKT2
 62
     1
 10
989.87731719
 20
646.53145469
 30
0.0
 11
986.12731719
 21
646.53145469
 31
0.0
  0
LINE
  5
24E
  8
0
  6
STRICHPUNKT2
 62
     1
 10
989.87731719
 20
646.53145469
 30
0.0
 11
989.87731719
 21
642.78145469
 31
0.0
  0
LINE
  5
24F
  8
0
  6
STRICHPUNKT2
 62
     1
 10
989.87731719
 20
646.53145469
 30
0.0
 11
989.87731719
 21
650.28145469
 31
0.0
  0
TEXT
  5
250
  8
TXT_DIM49
 10
1202.75040269
 20
612.75104213
 30
0.0
 40
2.5
  1
140
  7
ARIAL
  0
LINE
  5
251
  8
0
 62
     4
 10
1239.53275919
 20
610.25104213
 30
0.0
 11
1241.53275919
 21
612.25104213
 31
0.0
  0
LINE
  5
252
  8
0
 62
     4
 10
1171.28275919
 20
612.00104213
 30
0.0
 11
1169.78275919
 21
610.50104213
 31
0.0
  0
LINE
  5
253
  8
0
 62
     4
 10
1240.53275919
 20
611.25104213
 30
0.0
 11
1170.53275919
 21
611.25104213
 31
0.0
  0
LINE
  5
254
  8
0
 62
     4
 10
1240.53275919
 20
609.25104213
 30
0.0
 11
1240.53275919
 21
613.25104213
 31
0.0
  0
LINE
  5
255
  8
0
 62
     4
 10
1170.53275919
 20
609.25104213
 30
0.0
 11
1170.53275919
 21
613.25104213
 31
0.0
  0
TEXT
  5
256
  8
TXT_DIM49
 10
1029.03275919
 20
554.05927273
 30
0.0
 40
2.5
  1
25
 50
90.00020741
  7
ARIAL
  0
LINE
  5
257
  8
0
 62
     4
 10
1029.53275919
 20
550.66417702
 30
0.0
 11
1031.53275919
 21
548.66417702
 31
0.0
  0
LINE
  5
258
  8
0
 62
     4
 10
1031.28275919
 20
561.41417702
 30
0.0
 11
1029.78275919
 21
562.91417702
 31
0.0
  0
LINE
  5
259
  8
0
 62
     4
 10
1030.53275919
 20
549.66417702
 30
0.0
 11
1030.53275919
 21
562.16417702
 31
0.0
  0
LINE
  5
25A
  8
0
 62
     4
 10
1032.53275919
 20
549.66417702
 30
0.0
 11
1028.53275919
 21
549.66417702
 31
0.0
  0
LINE
  5
25B
  8
0
 62
     4
 10
1032.53275919
 20
562.16417702
 30
0.0
 11
1028.53275919
 21
562.16417702
 31
0.0
  0
TEXT
  5
25C
  8
TXT_DIM49
 10
1029.03275919
 20
572.80927273
 30
0.0
 40
2.5
  1
50
 50
90.00020741
  7
ARIAL
  0
LINE
  5
25D
  8
0
 62
     4
 10
1029.53275919
 20
563.16417702
 30
0.0
 11
1031.53275919
 21
561.16417702
 31
0.0
  0
LINE
  5
25E
  8
0
 62
     4
 10
1031.28275919
 20
586.41417702
 30
0.0
 11
1029.78275919
 21
587.91417702
 31
0.0
  0
LINE
  5
25F
  8
0
 62
     4
 10
1030.53275919
 20
562.16417702
 30
0.0
 11
1030.53275919
 21
587.16417702
 31
0.0
  0
LINE
  5
260
  8
0
 62
     4
 10
1032.53275919
 20
562.16417702
 30
0.0
 11
1028.53275919
 21
562.16417702
 31
0.0
  0
LINE
  5
261
  8
0
 62
     4
 10
1032.53275919
 20
587.16417702
 30
0.0
 11
1028.53275919
 21
587.16417702
 31
0.0
  0
TEXT
  5
262
  8
TXT_DIM49
 10
1029.03275919
 20
591.55927273
 30
0.0
 40
2.5
  1
25
 50
90.00020741
  7
ARIAL
  0
LINE
  5
263
  8
0
 62
     4
 10
1029.53275919
 20
588.16417702
 30
0.0
 11
1031.53275919
 21
586.16417702
 31
0.0
  0
LINE
  5
264
  8
0
 62
     4
 10
1031.28275919
 20
598.91417702
 30
0.0
 11
1029.78275919
 21
600.41417702
 31
0.0
  0
LINE
  5
265
  8
0
 62
     4
 10
1030.53275919
 20
587.16417702
 30
0.0
 11
1030.53275919
 21
599.66417702
 31
0.0
  0
LINE
  5
266
  8
0
 62
     4
 10
1032.53275919
 20
587.16417702
 30
0.0
 11
1028.53275919
 21
587.16417702
 31
0.0
  0
LINE
  5
267
  8
0
 62
     4
 10
1032.53275919
 20
599.66417702
 30
0.0
 11
1028.53275919
 21
599.66417702
 31
0.0
  0
TEXT
  5
268
  8
TXT_DIM49
 10
1051.1778549
 20
540.70352932
 30
0.0
 40
2.5
  1
50
  7
ARIAL
  0
LINE
  5
269
  8
0
 62
     4
 10
1041.53275919
 20
540.20352932
 30
0.0
 11
1039.53275919
 21
538.20352932
 31
0.0
  0
LINE
  5
26A
  8
0
 62
     4
 10
1064.78275919
 20
538.45352932
 30
0.0
 11
1066.28275919
 21
539.95352932
 31
0.0
  0
LINE
  5
26B
  8
0
 62
     4
 10
1040.53275919
 20
539.20352932
 30
0.0
 11
1065.53275919
 21
539.20352932
 31
0.0
  0
LINE
  5
26C
  8
0
 62
     4
 10
1040.53275919
 20
541.20352932
 30
0.0
 11
1040.53275919
 21
537.20352932
 31
0.0
  0
LINE
  5
26D
  8
0
 62
     4
 10
1065.53275919
 20
541.20352932
 30
0.0
 11
1065.53275919
 21
537.20352932
 31
0.0
  0
TEXT
  5
26E
  8
TXT_DIM49
 10
1140.25040269
 20
540.70352932
 30
0.0
 40
2.5
  1
310
  7
ARIAL
  0
LINE
  5
26F
  8
0
 62
     4
 10
1066.53275919
 20
540.20352932
 30
0.0
 11
1064.53275919
 21
538.20352932
 31
0.0
  0
LINE
  5
270
  8
0
 62
     4
 10
1219.78275919
 20
538.45352932
 30
0.0
 11
1221.28275919
 21
539.95352932
 31
0.0
  0
LINE
  5
271
  8
0
 62
     4
 10
1065.53275919
 20
539.20352932
 30
0.0
 11
1220.53275919
 21
539.20352932
 31
0.0
  0
LINE
  5
272
  8
0
 62
     4
 10
1065.53275919
 20
541.20352932
 30
0.0
 11
1065.53275919
 21
537.20352932
 31
0.0
  0
LINE
  5
273
  8
0
 62
     4
 10
1220.53275919
 20
541.20352932
 30
0.0
 11
1220.53275919
 21
537.20352932
 31
0.0
  0
TEXT
  5
274
  8
TXT_DIM49
 10
1228.6778549
 20
540.70352932
 30
0.0
 40
2.5
  1
40
  7
ARIAL
  0
LINE
  5
275
  8
0
 62
     4
 10
1221.53275919
 20
540.20352932
 30
0.0
 11
1219.53275919
 21
538.20352932
 31
0.0
  0
LINE
  5
276
  8
0
 62
     4
 10
1239.78275919
 20
538.45352932
 30
0.0
 11
1241.28275919
 21
539.95352932
 31
0.0
  0
LINE
  5
277
  8
0
 62
     4
 10
1220.53275919
 20
539.20352932
 30
0.0
 11
1240.53275919
 21
539.20352932
 31
0.0
  0
LINE
  5
278
  8
0
 62
     4
 10
1220.53275919
 20
541.20352932
 30
0.0
 11
1220.53275919
 21
537.20352932
 31
0.0
  0
LINE
  5
279
  8
0
 62
     4
 10
1240.53275919
 20
541.20352932
 30
0.0
 11
1240.53275919
 21
537.20352932
 31
0.0
  0
TEXT
  5
27A
  8
TXT_DIM49
 10
1209.6460149
 20
578.80778278
 30
0.0
 40
2.5
  1
50
 50
60.000138273
  7
ARIAL
  0
LINE
  5
27B
  8
0
 62
     4
 10
1205.25647975
 20
570.20488488
 30
0.0
 11
1205.98853056
 21
567.47283407
 31
0.0
  0
LINE
  5
27C
  8
0
 62
     4
 10
1218.39702421
 20
589.46497552
 30
0.0
 11
1217.8479861
 21
591.51401362
 31
0.0
  0
LINE
  5
27D
  8
0
 62
     4
 10
1205.62250516
 20
568.83885948
 30
0.0
 11
1218.12250516
 21
590.48949457
 31
0.0
  0
LINE
  5
27E
  8
0
 62
     4
 10
1207.35455596
 20
567.83885948
 30
0.0
 11
1203.89045435
 21
569.83885948
 31
0.0
  0
LINE
  5
27F
  8
0
 62
     4
 10
1219.85455596
 20
589.48949457
 30
0.0
 11
1216.39045435
 21
591.48949457
 31
0.0
  0
TEXT
  5
280
  8
TXT_DIM49
 10
1208.96220792
 20
558.33320294
 30
0.0
 40
2.5
  1
14
 50
329.999930863
  7
ARIAL
  0
LINE
  5
281
  8
0
 62
     4
 10
1208.15353865
 20
558.22273809
 30
0.0
 11
1205.42148785
 21
557.49068728
 31
0.0
  0
LINE
  5
282
  8
0
 62
     4
 10
1211.82517202
 20
554.08219363
 30
0.0
 11
1213.87421013
 21
554.63123174
 31
0.0
  0
LINE
  5
283
  8
0
 62
     4
 10
1206.78751325
 20
557.85671269
 30
0.0
 11
1212.84969108
 21
554.35671269
 31
0.0
  0
LINE
  5
284
  8
0
 62
     4
 10
1207.78751325
 20
559.5887635
 30
0.0
 11
1205.78751325
 21
556.12466188
 31
0.0
  0
LINE
  5
285
  8
0
 62
     4
 10
1213.84969108
 20
556.0887635
 30
0.0
 11
1211.84969108
 21
552.62466188
 31
0.0
  0
TEXT
  5
286
  8
TXT_DIM49
 10
1219.11185487
 20
601.16720912
 30
0.0
 40
2.5
  1
30
 50
344.999965432
  7
ARIAL
  0
TEXT
  5
287
  8
TXT_DIM49
 10
1222.6952548
 20
600.20704001
 30
0.0
 40
2.5
  1
°
 50
344.999965432
  7
ARIAL
  0
LINE
  5
288
  8
0
 62
     4
 10
1213.98245687
 20
599.1207691
 30
0.0
 11
1212.02088369
 21
601.1584714
 31
0.0
  0
LINE
  5
289
  8
0
 62
     4
 10
1228.46753794
 20
596.93589369
 30
0.0
 11
1229.05547448
 21
594.89767618
 31
0.0
  0
POLYLINE
  5
28A
  8
0
 62
     4
 66
     1
 10
0.0
 20
0.0
 30
0.0
  0
VERTEX
  5
42F
  8
0
 62
     4
 10
1228.761506531391
 20
595.91678494168
 30
0.0
  0
VERTEX
  5
430
  8
0
 62
     4
 10
1223.782033235915
 20
598.2387516106699
 30
0.0
  0
VERTEX
  5
431
  8
0
 62
     4
 10
1218.475004049178
 20
599.6607658822562
 30
0.0
  0
VERTEX
  5
432
  8
0
 62
     4
 10
1213.001670376379
 20
600.1396205700001
 30
0.0
  0
SEQEND
  5
441
  8
0
 62
     4
  0
LINE
  5
28B
  8
0
 62
     4
 10
1213.00167028
 20
568.61994839
 30
0.0
 11
1213.00167028
 21
602.13962025
 31
0.0
  0
LINE
  5
28C
  8
0
 62
     4
 10
1222.00167028
 20
584.20840566
 30
0.0
 11
1229.76150621
 21
597.64883575
 31
0.0
  0
TEXT
  5
28D
  8
TXT_DIM49
 10
1017.17328366
 20
571.88182052
 30
0.0
 40
2.5
  1
100
 50
90.00020741
  7
ARIAL
  0
LINE
  5
28E
  8
0
 62
     4
 10
1017.67328366
 20
550.66417702
 30
0.0
 11
1019.67328366
 21
548.66417702
 31
0.0
  0
LINE
  5
28F
  8
0
 62
     4
 10
1019.42328366
 20
598.91417702
 30
0.0
 11
1017.92328366
 21
600.41417702
 31
0.0
  0
LINE
  5
290
  8
0
 62
     4
 10
1018.67328366
 20
549.66417702
 30
0.0
 11
1018.67328366
 21
599.66417702
 31
0.0
  0
LINE
  5
291
  8
0
 62
     4
 10
1020.67328366
 20
549.66417702
 30
0.0
 11
1016.67328366
 21
549.66417702
 31
0.0
  0
LINE
  5
292
  8
0
 62
     4
 10
1020.67328366
 20
599.66417702
 30
0.0
 11
1016.67328366
 21
599.66417702
 31
0.0
  0
TEXT
  5
293
  8
TXT_DIM49
 10
1248.47871098
 20
560.30927273
 30
0.0
 40
2.5
  1
50
 50
90.00020741
  7
ARIAL
  0
LINE
  5
294
  8
0
 62
     4
 10
1248.97871098
 20
550.66417702
 30
0.0
 11
1250.97871098
 21
548.66417702
 31
0.0
  0
LINE
  5
295
  8
0
 62
     4
 10
1250.72871098
 20
573.91417702
 30
0.0
 11
1249.22871098
 21
575.41417702
 31
0.0
  0
LINE
  5
296
  8
0
 62
     4
 10
1249.97871098
 20
549.66417702
 30
0.0
 11
1249.97871098
 21
574.66417702
 31
0.0
  0
LINE
  5
297
  8
0
 62
     4
 10
1247.97871098
 20
549.66417702
 30
0.0
 11
1251.97871098
 21
549.66417702
 31
0.0
  0
LINE
  5
298
  8
0
 62
     4
 10
1247.97871098
 20
574.66417702
 30
0.0
 11
1251.97871098
 21
574.66417702
 31
0.0
  0
TEXT
  5
299
  8
TXT_DIM49
 10
1248.47871098
 20
585.30927273
 30
0.0
 40
2.5
  1
50
 50
90.00020741
  7
ARIAL
  0
LINE
  5
29A
  8
0
 62
     4
 10
1248.97871098
 20
575.66417702
 30
0.0
 11
1250.97871098
 21
573.66417702
 31
0.0
  0
LINE
  5
29B
  8
0
 62
     4
 10
1250.72871098
 20
598.91417702
 30
0.0
 11
1249.22871098
 21
600.41417702
 31
0.0
  0
LINE
  5
29C
  8
0
 62
     4
 10
1249.97871098
 20
574.66417702
 30
0.0
 11
1249.97871098
 21
599.66417702
 31
0.0
  0
LINE
  5
29D
  8
0
 62
     4
 10
1247.97871098
 20
574.66417702
 30
0.0
 11
1251.97871098
 21
574.66417702
 31
0.0
  0
LINE
  5
29E
  8
0
 62
     4
 10
1247.97871098
 20
599.66417702
 30
0.0
 11
1251.97871098
 21
599.66417702
 31
0.0
  0
LINE
  5
29F
  8
0
 62
     4
 10
1065.53275919
 20
562.16417702
 30
0.0
 11
1068.90822434
 21
569.90120774
 31
0.0
  0
TEXT
  5
2A0
  8
TXT_DIM49
 10
1068.90822434
 20
568.65120774
 30
0.0
 40
2.5
  1
Ø10
  7
ARIAL
  0
LINE
  5
2A1
  8
0
 62
     5
 10
1065.53275919
 20
587.16417702
 30
0.0
 11
1067.6206445
 21
592.82830911
 31
0.0
  0
TEXT
  5
2A2
  8
TXT_DIM49
 10
1067.6206445
 20
591.57830911
 30
0.0
 40
2.5
  1
Ø10
  7
ARIAL
  0
LINE
  5
2A3
  8
0
 62
     5
 10
1170.53275919
 20
574.66417702
 30
0.0
 11
1174.49157837
 21
583.89755511
 31
0.0
  0
TEXT
  5
2A4
  8
TXT_DIM49
 10
1174.49157837
 20
582.64755511
 30
0.0
 40
2.5
  1
Ø14
  7
ARIAL
  0
LINE
  5
2A5
  8
0
 62
     5
 10
1220.53275919
 20
574.66417702
 30
0.0
 11
1225.52022101
 21
568.43587677
 31
0.0
  0
TEXT
  5
2A6
  8
TXT_DIM49
 10
1225.52022101
 20
567.18587677
 30
0.0
 40
2.5
  1
Slobgat 14 x 50
  7
ARIAL
  0
TEXT
  5
2A7
  8
TXT_DIM49
 10
1084.00040269
 20
668.53145469
 30
0.0
 40
2.5
  1
185
  7
ARIAL
  0
LINE
  5
2A8
  8
0
 62
     4
 10
1041.53275919
 20
668.03145469
 30
0.0
 11
1039.53275919
 21
666.03145469
 31
0.0
  0
LINE
  5
2A9
  8
0
 62
     4
 10
1132.28275919
 20
666.28145469
 30
0.0
 11
1133.78275919
 21
667.78145469
 31
0.0
  0
LINE
  5
2AA
  8
0
 62
     4
 10
1040.53275919
 20
667.03145469
 30
0.0
 11
1133.03275919
 21
667.03145469
 31
0.0
  0
LINE
  5
2AB
  8
0
 62
     4
 10
1040.53275919
 20
665.03145469
 30
0.0
 11
1040.53275919
 21
669.03145469
 31
0.0
  0
LINE
  5
2AC
  8
0
 62
     4
 10
1133.03275919
 20
665.03145469
 30
0.0
 11
1133.03275919
 21
667.53145469
 31
0.0
  0
TEXT
  5
2AD
  8
TXT_DIM49
 10
1133.35530705
 20
668.53145469
 30
0.0
 40
2.5
  1
5
  7
ARIAL
  0
LINE
  5
2AE
  8
0
 62
     4
 10
1134.03275919
 20
668.03145469
 30
0.0
 11
1132.03275919
 21
666.03145469
 31
0.0
  0
LINE
  5
2AF
  8
0
 62
     4
 10
1134.78275919
 20
666.28145469
 30
0.0
 11
1136.28275919
 21
667.78145469
 31
0.0
  0
LINE
  5
2B0
  8
0
 62
     4
 10
1133.03275919
 20
667.03145469
 30
0.0
 11
1135.53275919
 21
667.03145469
 31
0.0
  0
LINE
  5
2B1
  8
0
 62
     4
 10
1133.03275919
 20
665.03145469
 30
0.0
 11
1133.03275919
 21
667.53145469
 31
0.0
  0
LINE
  5
2B2
  8
0
 62
     4
 10
1135.53275919
 20
665.03145469
 30
0.0
 11
1135.53275919
 21
667.53145469
 31
0.0
  0
TEXT
  5
2B3
  8
TXT_DIM49
 10
1185.25040269
 20
668.53145469
 30
0.0
 40
2.5
  1
210
  7
ARIAL
  0
LINE
  5
2B4
  8
0
 62
     4
 10
1136.53275919
 20
668.03145469
 30
0.0
 11
1134.53275919
 21
666.03145469
 31
0.0
  0
LINE
  5
2B5
  8
0
 62
     4
 10
1239.78275919
 20
666.28145469
 30
0.0
 11
1241.28275919
 21
667.78145469
 31
0.0
  0
LINE
  5
2B6
  8
0
 62
     4
 10
1135.53275919
 20
667.03145469
 30
0.0
 11
1240.53275919
 21
667.03145469
 31
0.0
  0
LINE
  5
2B7
  8
0
 62
     4
 10
1135.53275919
 20
665.03145469
 30
0.0
 11
1135.53275919
 21
667.53145469
 31
0.0
  0
LINE
  5
2B8
  8
0
 62
     4
 10
1240.53275919
 20
665.03145469
 30
0.0
 11
1240.53275919
 21
669.03145469
 31
0.0
  0
TEXT
  5
2B9
  8
TXT_DIM49
 10
1105.28987405
 20
644.6765504
 30
0.0
 40
2.5
  1
38
 50
90.00020741
  7
ARIAL
  0
LINE
  5
2BA
  8
0
 62
     4
 10
1107.78987405
 20
655.03145469
 30
0.0
 11
1105.78987405
 21
657.03145469
 31
0.0
  0
LINE
  5
2BB
  8
0
 62
     4
 10
1106.03987405
 20
637.78145469
 30
0.0
 11
1107.53987405
 21
636.28145469
 31
0.0
  0
LINE
  5
2BC
  8
0
 62
     4
 10
1106.78987405
 20
656.03145469
 30
0.0
 11
1106.78987405
 21
637.03145469
 31
0.0
  0
LINE
  5
2BD
  8
0
 62
     4
 10
1108.78987405
 20
656.03145469
 30
0.0
 11
1104.78987405
 21
656.03145469
 31
0.0
  0
LINE
  5
2BE
  8
0
 62
     4
 10
1108.78987405
 20
637.03145469
 30
0.0
 11
1106.28987405
 21
637.03145469
 31
0.0
  0
TEXT
  5
2BF
  8
TXT_DIM49
 10
1105.28987405
 20
632.6765504
 30
0.0
 40
2.5
  1
10
 50
90.00020741
  7
ARIAL
  0
LINE
  5
2C0
  8
0
 62
     4
 10
1107.78987405
 20
636.03145469
 30
0.0
 11
1105.78987405
 21
638.03145469
 31
0.0
  0
LINE
  5
2C1
  8
0
 62
     4
 10
1106.03987405
 20
632.78145469
 30
0.0
 11
1107.53987405
 21
631.28145469
 31
0.0
  0
LINE
  5
2C2
  8
0
 62
     4
 10
1106.78987405
 20
637.03145469
 30
0.0
 11
1106.78987405
 21
632.03145469
 31
0.0
  0
LINE
  5
2C3
  8
0
 62
     4
 10
1108.78987405
 20
637.03145469
 30
0.0
 11
1106.28987405
 21
637.03145469
 31
0.0
  0
LINE
  5
2C4
  8
0
 62
     4
 10
1108.78987405
 20
632.03145469
 30
0.0
 11
1106.28987405
 21
632.03145469
 31
0.0
  0
TEXT
  5
2C5
  8
TXT_DIM49
 10
1095.28987405
 20
642.1765504
 30
0.0
 40
2.5
  1
48
 50
90.00020741
  7
ARIAL
  0
LINE
  5
2C6
  8
0
 62
     4
 10
1097.78987405
 20
655.03145469
 30
0.0
 11
1095.78987405
 21
657.03145469
 31
0.0
  0
LINE
  5
2C7
  8
0
 62
     4
 10
1096.03987405
 20
632.78145469
 30
0.0
 11
1097.53987405
 21
631.28145469
 31
0.0
  0
LINE
  5
2C8
  8
0
 62
     4
 10
1096.78987405
 20
656.03145469
 30
0.0
 11
1096.78987405
 21
632.03145469
 31
0.0
  0
LINE
  5
2C9
  8
0
 62
     4
 10
1098.78987405
 20
656.03145469
 30
0.0
 11
1094.78987405
 21
656.03145469
 31
0.0
  0
LINE
  5
2CA
  8
0
 62
     4
 10
1098.78987405
 20
632.03145469
 30
0.0
 11
1094.78987405
 21
632.03145469
 31
0.0
  0
TEXT
  5
2CB
  8
TXT_DIM49
 10
974.59496069
 20
672.66581565
 30
0.0
 40
2.5
  1
100
  7
ARIAL
  0
LINE
  5
2CC
  8
0
 62
     4
 10
953.37731719
 20
672.16581565
 30
0.0
 11
951.37731719
 21
670.16581565
 31
0.0
  0
LINE
  5
2CD
  8
0
 62
     4
 10
1001.62731719
 20
670.41581565
 30
0.0
 11
1003.12731719
 21
671.91581565
 31
0.0
  0
LINE
  5
2CE
  8
0
 62
     4
 10
952.37731719
 20
671.16581565
 30
0.0
 11
1002.37731719
 21
671.16581565
 31
0.0
  0
LINE
  5
2CF
  8
0
 62
     4
 10
952.37731719
 20
669.16581565
 30
0.0
 11
952.37731719
 21
673.16581565
 31
0.0
  0
LINE
  5
2D0
  8
0
 62
     4
 10
1002.37731719
 20
669.16581565
 30
0.0
 11
1002.37731719
 21
673.16581565
 31
0.0
  0
TEXT
  5
2D1
  8
TXT_DIM49
 10
956.77241289
 20
662.66581565
 30
0.0
 40
2.5
  1
25
  7
ARIAL
  0
LINE
  5
2D2
  8
0
 62
     4
 10
953.37731719
 20
662.16581565
 30
0.0
 11
951.37731719
 21
660.16581565
 31
0.0
  0
LINE
  5
2D3
  8
0
 62
     4
 10
964.12731719
 20
660.41581565
 30
0.0
 11
965.62731719
 21
661.91581565
 31
0.0
  0
LINE
  5
2D4
  8
0
 62
     4
 10
952.37731719
 20
661.16581565
 30
0.0
 11
964.87731719
 21
661.16581565
 31
0.0
  0
LINE
  5
2D5
  8
0
 62
     4
 10
952.37731719
 20
659.16581565
 30
0.0
 11
952.37731719
 21
663.16581565
 31
0.0
  0
LINE
  5
2D6
  8
0
 62
     4
 10
964.87731719
 20
659.16581565
 30
0.0
 11
964.87731719
 21
663.16581565
 31
0.0
  0
TEXT
  5
2D7
  8
TXT_DIM49
 10
975.52241289
 20
662.66581565
 30
0.0
 40
2.5
  1
50
  7
ARIAL
  0
LINE
  5
2D8
  8
0
 62
     4
 10
965.87731719
 20
662.16581565
 30
0.0
 11
963.87731719
 21
660.16581565
 31
0.0
  0
LINE
  5
2D9
  8
0
 62
     4
 10
989.12731719
 20
660.41581565
 30
0.0
 11
990.62731719
 21
661.91581565
 31
0.0
  0
LINE
  5
2DA
  8
0
 62
     4
 10
964.87731719
 20
661.16581565
 30
0.0
 11
989.87731719
 21
661.16581565
 31
0.0
  0
LINE
  5
2DB
  8
0
 62
     4
 10
964.87731719
 20
659.16581565
 30
0.0
 11
964.87731719
 21
663.16581565
 31
0.0
  0
LINE
  5
2DC
  8
0
 62
     4
 10
989.87731719
 20
659.16581565
 30
0.0
 11
989.87731719
 21
663.16581565
 31
0.0
  0
TEXT
  5
2DD
  8
TXT_DIM49
 10
994.27241289
 20
662.66581565
 30
0.0
 40
2.5
  1
25
  7
ARIAL
  0
LINE
  5
2DE
  8
0
 62
     4
 10
990.87731719
 20
662.16581565
 30
0.0
 11
988.87731719
 21
660.16581565
 31
0.0
  0
LINE
  5
2DF
  8
0
 62
     4
 10
1001.62731719
 20
660.41581565
 30
0.0
 11
1003.12731719
 21
661.91581565
 31
0.0
  0
LINE
  5
2E0
  8
0
 62
     4
 10
989.87731719
 20
661.16581565
 30
0.0
 11
1002.37731719
 21
661.16581565
 31
0.0
  0
LINE
  5
2E1
  8
0
 62
     4
 10
989.87731719
 20
659.16581565
 30
0.0
 11
989.87731719
 21
663.16581565
 31
0.0
  0
LINE
  5
2E2
  8
0
 62
     4
 10
1002.37731719
 20
659.16581565
 30
0.0
 11
1002.37731719
 21
663.16581565
 31
0.0
  0
TEXT
  5
2E3
  8
TXT_DIM49
 10
1008.44460287
 20
649.4265504
 30
0.0
 40
2.5
  1
19
 50
90.00020741
  7
ARIAL
  0
LINE
  5
2E4
  8
0
 62
     4
 10
1010.94460287
 20
655.03145469
 30
0.0
 11
1008.94460287
 21
657.03145469
 31
0.0
  0
LINE
  5
2E5
  8
0
 62
     4
 10
1009.19460287
 20
647.28145469
 30
0.0
 11
1010.69460287
 21
645.78145469
 31
0.0
  0
LINE
  5
2E6
  8
0
 62
     4
 10
1009.94460287
 20
656.03145469
 30
0.0
 11
1009.94460287
 21
646.53145469
 31
0.0
  0
LINE
  5
2E7
  8
0
 62
     4
 10
1007.94460287
 20
656.03145469
 30
0.0
 11
1011.94460287
 21
656.03145469
 31
0.0
  0
LINE
  5
2E8
  8
0
 62
     4
 10
1007.94460287
 20
646.53145469
 30
0.0
 11
1011.94460287
 21
646.53145469
 31
0.0
  0
TEXT
  5
2E9
  8
TXT_DIM49
 10
1008.44460287
 20
637.4265504
 30
0.0
 40
2.5
  1
29
 50
90.00020741
  7
ARIAL
  0
LINE
  5
2EA
  8
0
 62
     4
 10
1010.94460287
 20
645.53145469
 30
0.0
 11
1008.94460287
 21
647.53145469
 31
0.0
  0
LINE
  5
2EB
  8
0
 62
     4
 10
1009.19460287
 20
632.78145469
 30
0.0
 11
1010.69460287
 21
631.28145469
 31
0.0
  0
LINE
  5
2EC
  8
0
 62
     4
 10
1009.94460287
 20
646.53145469
 30
0.0
 11
1009.94460287
 21
632.03145469
 31
0.0
  0
LINE
  5
2ED
  8
0
 62
     4
 10
1007.94460287
 20
646.53145469
 30
0.0
 11
1011.94460287
 21
646.53145469
 31
0.0
  0
LINE
  5
2EE
  8
0
 62
     4
 10
1007.94460287
 20
632.03145469
 30
0.0
 11
1011.94460287
 21
632.03145469
 31
0.0
  0
LINE
  5
2EF
  8
0
 62
     4
 10
964.87731719
 20
646.53145469
 30
0.0
 11
967.56065351
 21
651.29572988
 31
0.0
  0
TEXT
  5
2F0
  8
TXT_DIM49
 10
967.56065351
 20
650.04572988
 30
0.0
 40
2.5
  1
Ø10
  7
ARIAL
  0
LINE
  5
2F1
  8
0
 62
     4
 10
989.87731719
 20
646.53145469
 30
0.0
 11
992.69948002
 21
651.67302735
 31
0.0
  0
TEXT
  5
2F2
  8
TXT_DIM49
 10
992.69948002
 20
650.42302735
 30
0.0
 40
2.5
  1
Ø10
  7
ARIAL
  0
ENDSEC
  0
EOF
