  0
SECTION
  2
HEADER
  9
$ACADVER
  1
AC1006
  9
$DWGCODEPAGE
  3
ansi_1252
  9
$INSBASE
 10
0.0
 20
0.0
 30
0.0
  9
$EXTMIN
 10
-248.0115826
 20
-25.07650925
  9
$EXTMAX
 10
934.52879841
 20
544.44602456
  9
$LIMMIN
 10
-248.0115826
 20
-25.07650925
  9
$LIMMAX
 10
934.52879841
 20
544.44602456
  9
$ORTHOMODE
 70
     0
  9
$REGENMODE
 70
     1
  9
$FILLMODE
 70
     1
  9
$QTEXTMODE
 70
     0
  9
$MIRRTEXT
 70
     1
  9
$DRAGMODE
 70
     2
  9
$LTSCALE
 40
1.0
  9
$OSMODE
 70
    37
  9
$ATTMODE
 70
     1
  9
$TEXTSIZE
 40
1.0
  9
$TRACEWID
 40
0.05
  9
$TEXTSTYLE
  7
STANDARD
  9
$CLAYER
  8
0
  9
$CELTYPE
  6
BYBLOCK
  9
$CECOLOR
 62
   256
  9
$DIMSCALE
 40
1.0
  9
$DIMASZ
 40
0.18
  9
$DIMEXO
 40
0.0625
  9
$DIMDLI
 40
0.38
  9
$DIMRND
 40
0.0
  9
$DIMDLE
 40
0.0
  9
$DIMEXE
 40
0.18
  9
$DIMTP
 40
0.0
  9
$DIMTM
 40
0.0
  9
$DIMTXT
 40
0.18
  9
$DIMCEN
 40
0.09
  9
$DIMTSZ
 40
0.0
  9
$DIMTOL
 70
     0
  9
$DIMLIM
 70
     0
  9
$DIMTIH
 70
     1
  9
$DIMTOH
 70
     1
  9
$DIMSE1
 70
     0
  9
$DIMSE2
 70
     0
  9
$DIMTAD
 70
     0
  9
$DIMZIN
 70
     0
  9
$DIMBLK
  1

  9
$DIMASO
 70
     1
  9
$DIMSHO
 70
     1
  9
$DIMPOST
  1

  9
$DIMAPOST
  1

  9
$DIMALT
 70
     0
  9
$DIMALTD
 70
     2
  9
$DIMALTF
 40
25.4
  9
$DIMLFAC
 40
1.0
  9
$DIMTOFL
 70
     0
  9
$DIMTVP
 40
0.0
  9
$DIMTIX
 70
     0
  9
$DIMSOXD
 70
     0
  9
$DIMSAH
 70
     0
  9
$DIMBLK1
  1

  9
$DIMBLK2
  1

  9
$LUNITS
 70
     2
  9
$LUPREC
 70
     4
  9
$SKETCHINC
 40
0.1
  9
$FILLETRAD
 40
0.5
  9
$AUNITS
 70
     0
  9
$AUPREC
 70
     0
  9
$MENU
  1
.
  9
$ELEVATION
 40
0.0
  9
$THICKNESS
 40
0.0
  9
$LIMCHECK
 70
     0
  9
$CHAMFERA
 40
0.0
  9
$CHAMFERB
 40
0.0
  9
$SKPOLY
 70
     0
  9
$TDCREATE
 40
2447893.125
  9
$TDUPDATE
 40
2460791.499965718
  9
$TDINDWG
 40
0.0
  9
$TDUSRTIMER
 40
0.0
  9
$USRTIMER
 70
     1
  9
$ANGBASE
 50
0.0
  9
$ANGDIR
 70
     0
  9
$PDMODE
 70
     0
  9
$PDSIZE
 40
0.0
  9
$PLINEWID
 40
0.0
  9
$COORDS
 70
     1
  9
$SPLFRAME
 70
     0
  9
$SPLINETYPE
 70
     6
  9
$SPLINESEGS
 70
     8
  9
$ATTDIA
 70
     0
  9
$ATTREQ
 70
     1
  9
$HANDLING
 70
     1
  9
$HANDSEED
  5
F83
  9
$SURFTAB1
 70
     6
  9
$SURFTAB2
 70
     6
  9
$SURFTYPE
 70
     6
  9
$SURFU
 70
     6
  9
$SURFV
 70
     6
  9
$UCSNAME
  2

  9
$UCSORG
 10
0.0
 20
0.0
 30
0.0
  9
$UCSXDIR
 10
1.0
 20
0.0
 30
0.0
  9
$UCSYDIR
 10
0.0
 20
1.0
 30
0.0
  9
$USERI1
 70
     0
  9
$USERI2
 70
     0
  9
$USERI3
 70
     0
  9
$USERI4
 70
     0
  9
$USERI5
 70
     0
  9
$USERR1
 40
0.0
  9
$USERR2
 40
0.0
  9
$USERR3
 40
0.0
  9
$USERR4
 40
0.0
  9
$USERR5
 40
0.0
  9
$WORLDVIEW
 70
     1
  0
ENDSEC
  0
SECTION
  2
TABLES
  0
TABLE
  2
VPORT
 70
     1
  0
VPORT
  2
*ACTIVE
 70
     0
 10
0.0
 20
0.0
 11
1.0
 21
1.0
 12
343.25860791
 22
259.68475765
 13
0.0
 23
0.0
 14
1.0
 24
1.0
 15
0.0
 25
0.0
 16
0.0
 26
0.0
 36
1.0
 17
0.0
 27
0.0
 37
0.0
 40
569.522533809
 41
2.076371541
 42
50.0
 43
0.0
 44
0.0
 50
0.0
 51
0.0
 71
     0
 72
   100
 73
     1
 74
     1
 75
     0
 76
     0
 77
     0
 78
     0
  0
ENDTAB
  0
TABLE
  2
LTYPE
 70
    19
  0
LTYPE
  2
CONTINUOUS
 70
     0
  3
Solid line
 72
    65
 73
     0
 40
0.0
  0
LTYPE
  2
DOT
 70
     0
  3
..............
 72
    65
 73
     2
 40
2.0
 49
0.5
 49
-1.5
  0
LTYPE
  2
HIDDEN
 70
     0
  3
-- -- -- -- --
 72
    65
 73
     2
 40
7.0
 49
4.0
 49
-3.0
  0
LTYPE
  2
DASHDOT
 70
     0
  3
--.--.--.--.--
 72
    65
 73
     4
 40
8.5
 49
4.0
 49
-2.0
 49
0.5
 49
-2.0
  0
LTYPE
  2
STRICHPUNKT2
 70
     0
  3
--.--.--.--.--
 72
    65
 73
     4
 40
18.5
 49
10.0
 49
-4.0
 49
0.5
 49
-4.0
  0
LTYPE
  2
STRICHPUNKT3
 70
     0
  3
--.--.--.--.--
 72
    65
 73
     4
 40
35.5
 49
25.0
 49
-5.0
 49
0.5
 49
-5.0
  0
LTYPE
  2
PHANTOM
 70
     0
  3
--..--..--..--
 72
    65
 73
     6
 40
23.0
 49
10.0
 49
-4.0
 49
0.5
 49
-4.0
 49
0.5
 49
-4.0
  0
LTYPE
  2
PHANTOM2
 70
     0
  3
--..--..--..--
 72
    65
 73
     6
 40
33.0
 49
20.0
 49
-4.0
 49
0.5
 49
-4.0
 49
0.5
 49
-4.0
  0
LTYPE
  2
PHANTOM3
 70
     0
  3
--..--..--..--
 72
    65
 73
     6
 40
50.0
 49
37.0
 49
-4.0
 49
0.5
 49
-4.0
 49
0.5
 49
-4.0
  0
LTYPE
  2
STR3PKT
 70
     0
  3
--...--...--...
 72
    65
 73
     8
 40
31.5
 49
20.0
 49
-2.5
 49
0.5
 49
-2.5
 49
0.5
 49
-2.5
 49
0.5
 49
-2.5
  0
LTYPE
  2
2STRPKT
 70
     0
  3
--.--.--.--.--
 72
    65
 73
     6
 40
28.0
 49
10.0
 49
-2.5
 49
10.0
 49
-2.5
 49
0.5
 49
-2.5
  0
LTYPE
  2
GESTRICHELT2
 70
     0
  3
-- -- -- -- --
 72
    65
 73
     2
 40
25.0
 49
10.0
 49
-15.0
  0
LTYPE
  2
2STR2PKT
 70
     0
  3
--..--..--..--
 72
    65
 73
     8
 40
31.0
 49
10.0
 49
-2.5
 49
10.0
 49
-2.5
 49
0.5
 49
-2.5
 49
0.5
 49
-2.5
  0
LTYPE
  2
STR3PKT2
 70
     0
  3
--...--...--...
 72
    65
 73
     8
 40
21.0
 49
10.0
 49
-2.5
 49
0.5
 49
-2.5
 49
0.5
 49
-2.5
 49
0.5
 49
-2.0
  0
LTYPE
  2
2STR3PKT
 70
     0
  3
--...--...--...
 72
    65
 73
    10
 40
34.0
 49
10.0
 49
-2.5
 49
10.0
 49
-2.5
 49
0.5
 49
-2.5
 49
0.5
 49
-2.5
 49
0.5
 49
-2.5
  0
LTYPE
  2
STRKSTR
 70
     0
  3
-- - -- - -- -
 72
    65
 73
     4
 40
30.0
 49
20.0
 49
-2.5
 49
5.0
 49
-2.5
  0
LTYPE
  2
STRKSTR2
 70
     0
  3
-- - -- - -- -
 72
    65
 73
     6
 40
37.5
 49
20.0
 49
-2.5
 49
5.0
 49
-2.5
 49
5.0
 49
-2.5
  0
LTYPE
  2
STRKSTR3
 70
     0
  3
-- - -- - -- -
 72
    65
 73
     8
 40
45.0
 49
20.0
 49
-2.5
 49
5.0
 49
-2.5
 49
5.0
 49
-2.5
 49
5.0
 49
-2.5
  0
LTYPE
  2
PUNKT2
 70
     0
  3
..............
 72
    65
 73
     2
 40
3.5
 49
0.5
 49
-3.0
  0
ENDTAB
  0
TABLE
  2
LAYER
 70
    15
  0
LAYER
  2
0
 70
     0
 62
     7
  6
CONTINUOUS
  0
LAYER
  2
LE_GREEN
 70
     0
 62
     3
  6
CONTINUOUS
  0
LAYER
  2
LE_RED
 70
     0
 62
     1
  6
CONTINUOUS
  0
LAYER
  2
LE_ALL
 70
     0
 62
     7
  6
CONTINUOUS
  0
LAYER
  2
LE_HIDDEN1
 70
     0
 62
     3
  6
HIDDEN
  0
LAYER
  2
LE_HIDDEN
 70
     0
 62
     7
  6
CONTINUOUS
  0
LAYER
  2
LE_MIDDLE
 70
     0
 62
     7
  6
CONTINUOUS
  0
LAYER
  2
TXT_YELLOW
 70
     0
 62
     2
  6
CONTINUOUS
  0
LAYER
  2
TXT_DIM49
 70
     0
 62
     2
  6
CONTINUOUS
  0
LAYER
  2
TXT_ALL
 70
     0
 62
     7
  6
CONTINUOUS
  0
LAYER
  2
DIM49
 70
     0
 62
     4
  6
CONTINUOUS
  0
LAYER
  2
HATCH
 70
     0
 62
     3
  6
CONTINUOUS
  0
LAYER
  2
APPLE
 70
     0
 62
     7
  6
CONTINUOUS
  0
LAYER
  2
10
 70
     0
 62
     7
  6
CONTINUOUS
  0
LAYER
  2
49
 70
     0
 62
     7
  6
CONTINUOUS
  0
ENDTAB
  0
TABLE
  2
STYLE
 70
     5
  0
STYLE
  2
MONOTXT
 70
     0
 40
0.0
 41
1.0
 50
0.0
 71
     0
 42
1.0
  3
monotxt.shx
  4

  0
STYLE
  2
STANDARD
 70
     0
 40
0.0
 41
1.0
 50
0.0
 71
     0
 42
1.0
  3
txt
  4

  0
STYLE
  2
ARIAL
 70
     0
 40
0.0
 41
1.0
 50
0.0
 71
     0
 42
1.0
  3
arial.ttf
  4

  0
STYLE
  2
ARIAL_NARROW
 70
     0
 40
0.0
 41
1.0
 50
0.0
 71
     0
 42
1.0
  3
ArialN.ttf
  4

  0
STYLE
  2
ISOCPEUR
 70
     0
 40
0.0
 41
1.0
 50
0.0
 71
     0
 42
1.0
  3
ISOCPEUR.ttf
  4

  0
ENDTAB
  0
TABLE
  2
VIEW
 70
     0
  0
ENDTAB
  0
TABLE
  2
UCS
 70
     0
  0
ENDTAB
  0
ENDSEC
  0
SECTION
  2
BLOCKS
  0
ENDSEC
  0
SECTION
  2
ENTITIES
  0
POLYLINE
  5
16C
  8
0
 66
     1
 10
0.0
 20
0.0
 30
0.0
 70
     1
  0
VERTEX
  5
16D
  8
0
 10
-34.78703711
 20
96.32430091
 30
0.0
  0
VERTEX
  5
16E
  8
0
 10
385.21296289
 20
96.32430091
 30
0.0
  0
VERTEX
  5
16F
  8
0
 10
385.21296289
 20
393.32430091
 30
0.0
  0
VERTEX
  5
170
  8
0
 10
-34.78703711
 20
393.32430091
 30
0.0
  0
SEQEND
  5
171
  8
0
  0
POLYLINE
  5
172
  8
0
 66
     1
 10
0.0
 20
0.0
 30
0.0
 70
     1
  0
VERTEX
  5
173
  8
0
 10
-29.78703711
 20
101.32430091
 30
0.0
  0
VERTEX
  5
174
  8
0
 10
380.21296289
 20
101.32430091
 30
0.0
  0
VERTEX
  5
175
  8
0
 10
380.21296289
 20
388.32430091
 30
0.0
  0
VERTEX
  5
176
  8
0
 10
-29.78703711
 20
388.32430091
 30
0.0
  0
SEQEND
  5
177
  8
0
  0
LINE
  5
178
  8
0
 10
195.21296289
 20
101.32430091
 30
0.0
 11
195.21296289
 21
96.32430091
 31
0.0
  0
LINE
  5
179
  8
0
 10
195.21296289
 20
388.32430091
 30
0.0
 11
195.21296289
 21
393.32430091
 31
0.0
  0
LINE
  5
17A
  8
0
 10
-14.78703711
 20
101.32430091
 30
0.0
 11
-14.78703711
 21
96.32430091
 31
0.0
  0
LINE
  5
17B
  8
0
 10
-14.78703711
 20
388.32430091
 30
0.0
 11
-14.78703711
 21
393.32430091
 31
0.0
  0
TEXT
  5
17C
  8
TXT_ALL
 62
     4
 10
384.21296289
 20
97.32430091
 30
0.0
 40
2.5
  1

 50
90.00020741
  0
POLYLINE
  5
17D
  8
0
 66
     1
 10
0.0
 20
0.0
 30
0.0
  0
VERTEX
  5
17E
  8
0
 10
380.21296289
 20
378.32430091
 30
0.0
  0
VERTEX
  5
17F
  8
0
 10
311.21966289
 20
378.32430091
 30
0.0
  0
VERTEX
  5
180
  8
0
 10
311.21966289
 20
388.32430091
 30
0.0
  0
SEQEND
  5
181
  8
0
  0
LINE
  5
182
  8
0
 10
313.12296289
 20
120.82430091
 30
0.0
 11
173.23296289
 21
120.82430091
 31
0.0
  0
LINE
  5
183
  8
0
 10
173.23296289
 20
111.07430091
 30
0.0
 11
313.12296289
 21
111.07430091
 31
0.0
  0
POLYLINE
  5
184
  8
0
 66
     1
 10
0.0
 20
0.0
 30
0.0
  0
VERTEX
  5
185
  8
0
 10
173.23296289
 20
120.82430091
 30
0.0
  0
VERTEX
  5
186
  8
0
 10
173.23296289
 20
111.07430091
 30
0.0
  0
VERTEX
  5
187
  8
0
 10
173.23296289
 20
101.32430091
 30
0.0
  0
SEQEND
  5
188
  8
0
  0
POLYLINE
  5
189
  8
0
 66
     1
 10
0.0
 20
0.0
 30
0.0
  0
VERTEX
  5
18A
  8
0
 10
243.17796289
 20
120.82430091
 30
0.0
  0
VERTEX
  5
18B
  8
0
 10
243.17796289
 20
111.07430091
 30
0.0
  0
VERTEX
  5
18C
  8
0
 10
243.17796289
 20
101.32430091
 30
0.0
  0
SEQEND
  5
18D
  8
0
  0
TEXT
  5
18E
  8
TXT_ALL
 10
175.23296289
 20
114.64930096
 30
0.0
 40
2.5999999
  1
E-mail: verkoop@jonkers-bouwmetaal.nl
  7
ARIAL
  0
TEXT
  5
18F
  8
TXT_ALL
 10
175.23296289
 20
104.89930096
 30
0.0
 40
2.5999999
  1
Telefoon: 0527-685156
  7
ARIAL
  0
TEXT
  5
190
  8
TXT_ALL
 10
245.17796289
 20
104.89930096
 30
0.0
 40
2.5999999
  1
Website: www.jonkers-bouwmetaal.nl
  7
ARIAL
  0
TEXT
  5
191
  8
TXT_ALL
 10
245.17796289
 20
114.64930096
 30
0.0
 40
2.5999999
  1
Adres: Hoornse Hop 10, 8321 WX Urk
  7
ARIAL
  0
TEXT
  5
192
  8
TXT_ALL
 10
-26.34507686
 20
382.07430091
 30
0.0
 40
2.5
  1
Art. nr. 91012803
  7
ARIAL
  0
TEXT
  5
193
  8
TXT_ALL
 10
16.39295996
 20
382.07430091
 30
0.0
 40
2.5
  1
Omschrijving: Scharnier 260x120x2, type 3
  7
ARIAL
  0
LINE
  5
194
  8
0
 10
380.21296289
 20
378.32430091
 30
0.0
 11
-29.78703711
 21
378.32430091
 31
0.0
  0
LINE
  5
195
  8
0
 10
13.23296289
 20
378.32430091
 30
0.0
 11
13.23296289
 21
388.32430091
 31
0.0
  0
LINE
  5
196
  8
0
 10
173.23296289
 20
378.32430091
 30
0.0
 11
173.23296289
 21
388.32430091
 31
0.0
  0
TEXT
  5
197
  8
TXT_ALL
 10
244.22666289
 20
382.07430091
 30
0.0
 40
2.5
  1
Behandeling: N.V.T.
  7
ARIAL
  0
LINE
  5
198
  8
0
 10
313.12296289
 20
120.82430091
 30
0.0
 11
380.21296289
 21
120.82430091
 31
0.0
  0
LINE
  5
199
  8
0
 10
313.12296289
 20
101.32430091
 30
0.0
 11
313.12296289
 21
120.82430091
 31
0.0
  0
LINE
  5
19A
  8
0
 10
313.12296289
 20
101.32430091
 30
0.0
 11
313.12296289
 21
120.82430091
 31
0.0
  0
TEXT
  5
19B
  8
TXT_ALL
 10
107.57816098
 20
102.47883433
 30
0.0
 40
2.5
  1

  0
TEXT
  5
19C
  8
TXT_ALL
 10
228.71334395
 20
112.57430091
 30
0.0
 40
2.5
  1

  0
POLYLINE
  5
19D
  8
0
 66
     1
 10
0.0
 20
0.0
 30
0.0
  0
VERTEX
  5
19E
  8
0
 10
311.21966289
 20
378.32430091
 30
0.0
  0
VERTEX
  5
19F
  8
0
 10
242.22666289
 20
378.32430091
 30
0.0
  0
VERTEX
  5
1A0
  8
0
 10
242.22666289
 20
388.32430091
 30
0.0
  0
SEQEND
  5
1A1
  8
0
  0
TEXT
  5
1A2
  8
TXT_ALL
 10
313.21966289
 20
382.07430091
 30
0.0
 40
2.5
  1
Verpakkingshoeveelheid: 25 st.
  7
ARIAL
  0
TEXT
  5
1A3
  8
TXT_ALL
 10
175.23296289
 20
382.07430091
 30
0.0
 40
2.5
  1
Materiaal: Sendzimir Verzinkt
  7
ARIAL
  0
TEXT
  5
1A4
  8
TXT_ALL
 10
347.99461012
 20
98.07479106
 30
0.0
 40
1.5
  1
Onderdeel van
  7
ARIAL
  0
LINE
  5
1A5
  8
0
 10
134.10083552
 20
356.09294606
 30
0.0
 11
123.70083552
 21
356.09294606
 31
0.0
  0
LINE
  5
1A6
  8
0
 10
123.70083552
 20
355.79294606
 30
0.0
 11
123.70083552
 21
356.09294606
 31
0.0
  0
LINE
  5
1A7
  8
0
 10
134.10083552
 20
355.79294606
 30
0.0
 11
123.70083552
 21
355.79294606
 31
0.0
  0
LINE
  5
1A8
  8
0
 10
134.10083552
 20
355.79294606
 30
0.0
 11
134.10083552
 21
356.09294606
 31
0.0
  0
ARC
  5
1A9
  8
0
 10
128.90083552
 20
345.4262794
 30
0.0
 40
11.86666667
 50
64.010766416
 51
90.0
  0
ARC
  5
1AA
  8
0
 10
128.90083552
 20
345.4262794
 30
0.0
 40
11.86666667
 50
90.0
 51
115.989233584
  0
LINE
  5
1AB
  8
0
 10
126.20083552
 20
355.54294606
 30
0.0
 11
126.20083552
 21
355.79294606
 31
0.0
  0
LINE
  5
1AC
  8
0
 10
126.20083552
 20
264.79294606
 30
0.0
 11
126.20083552
 21
265.79294606
 31
0.0
  0
LINE
  5
1AD
  8
0
 10
126.20083552
 20
295.04294606
 30
0.0
 11
126.20083552
 21
296.04294606
 31
0.0
  0
LINE
  5
1AE
  8
0
 10
126.20083552
 20
325.29294606
 30
0.0
 11
126.20083552
 21
326.29294606
 31
0.0
  0
LINE
  5
1AF
  8
0
 10
131.60083552
 20
355.54294606
 30
0.0
 11
131.60083552
 21
355.79294606
 31
0.0
  0
LINE
  5
1B0
  8
0
 10
131.60083552
 20
264.79294606
 30
0.0
 11
131.60083552
 21
265.79294606
 31
0.0
  0
LINE
  5
1B1
  8
0
 10
131.60083552
 20
295.04294606
 30
0.0
 11
131.60083552
 21
296.04294606
 31
0.0
  0
LINE
  5
1B2
  8
0
 10
131.60083552
 20
325.29294606
 30
0.0
 11
131.60083552
 21
326.29294606
 31
0.0
  0
POLYLINE
  5
1B3
  8
0
 66
     1
 10
0.0
 20
0.0
 30
0.0
 70
     1
  0
VERTEX
  5
1B4
  8
0
 10
82.90083552
 20
276.54294606
 30
0.0
  0
VERTEX
  5
1B5
  8
0
 10
104.90083552
 20
276.54294606
 30
0.0
 42
-1.0
  0
VERTEX
  5
1B6
  8
0
 10
104.90083552
 20
264.54294606
 30
0.0
  0
VERTEX
  5
1B7
  8
0
 10
82.90083552
 20
264.54294606
 30
0.0
 42
-1.0
  0
SEQEND
  5
1B8
  8
0
  0
LINE
  5
1B9
  8
0
 10
82.90083552
 20
274.54294606
 30
0.0
 11
82.90083552
 21
276.54294606
 31
0.0
  0
POLYLINE
  5
1BA
  8
0
 66
     1
 10
0.0
 20
0.0
 30
0.0
  0
VERTEX
  5
1BB
  8
0
 10
82.90083552
 20
274.54294606
 30
0.0
  0
VERTEX
  5
1BC
  8
0
 10
104.90083552
 20
274.54294606
 30
0.0
  0
VERTEX
  5
1BD
  8
0
 10
104.90083552
 20
276.54294606
 30
0.0
  0
SEQEND
  5
1BE
  8
0
  0
ARC
  5
1BF
  8
0
 10
104.90083552
 20
270.54294606
 30
0.0
 40
4.0
 50
-90.0
 51
90.0
  0
POLYLINE
  5
1C0
  8
0
 66
     1
 10
0.0
 20
0.0
 30
0.0
  0
VERTEX
  5
1C1
  8
0
 10
104.90083552
 20
264.54294606
 30
0.0
  0
VERTEX
  5
1C2
  8
0
 10
104.90083552
 20
266.54294606
 30
0.0
  0
VERTEX
  5
1C3
  8
0
 10
82.90083552
 20
266.54294606
 30
0.0
 42
-1.0
  0
VERTEX
  5
1C4
  8
0
 10
82.90083552
 20
274.54294606
 30
0.0
  0
SEQEND
  5
1C5
  8
0
  0
LINE
  5
1C6
  8
0
 10
82.90083552
 20
266.54294606
 30
0.0
 11
82.90083552
 21
264.54294606
 31
0.0
  0
POLYLINE
  5
1C7
  8
0
 66
     1
 10
0.0
 20
0.0
 30
0.0
 70
     1
  0
VERTEX
  5
1C8
  8
0
 10
82.90083552
 20
326.54294606
 30
0.0
  0
VERTEX
  5
1C9
  8
0
 10
104.90083552
 20
326.54294606
 30
0.0
 42
-1.0
  0
VERTEX
  5
1CA
  8
0
 10
104.90083552
 20
314.54294606
 30
0.0
  0
VERTEX
  5
1CB
  8
0
 10
82.90083552
 20
314.54294606
 30
0.0
 42
-1.0
  0
SEQEND
  5
1CC
  8
0
  0
LINE
  5
1CD
  8
0
 10
82.90083552
 20
324.54294606
 30
0.0
 11
82.90083552
 21
326.54294606
 31
0.0
  0
POLYLINE
  5
1CE
  8
0
 66
     1
 10
0.0
 20
0.0
 30
0.0
  0
VERTEX
  5
1CF
  8
0
 10
82.90083552
 20
324.54294606
 30
0.0
  0
VERTEX
  5
1D0
  8
0
 10
104.90083552
 20
324.54294606
 30
0.0
  0
VERTEX
  5
1D1
  8
0
 10
104.90083552
 20
326.54294606
 30
0.0
  0
SEQEND
  5
1D2
  8
0
  0
ARC
  5
1D3
  8
0
 10
104.90083552
 20
320.54294606
 30
0.0
 40
4.0
 50
-90.0
 51
90.0
  0
POLYLINE
  5
1D4
  8
0
 66
     1
 10
0.0
 20
0.0
 30
0.0
  0
VERTEX
  5
1D5
  8
0
 10
104.90083552
 20
314.54294606
 30
0.0
  0
VERTEX
  5
1D6
  8
0
 10
104.90083552
 20
316.54294606
 30
0.0
  0
VERTEX
  5
1D7
  8
0
 10
82.90083552
 20
316.54294606
 30
0.0
 42
-1.0
  0
VERTEX
  5
1D8
  8
0
 10
82.90083552
 20
324.54294606
 30
0.0
  0
SEQEND
  5
1D9
  8
0
  0
LINE
  5
1DA
  8
0
 10
82.90083552
 20
316.54294606
 30
0.0
 11
82.90083552
 21
314.54294606
 31
0.0
  0
CIRCLE
  5
1DB
  8
0
 10
93.90083552
 20
257.54294606
 30
0.0
 40
2.75
  0
CIRCLE
  5
1DC
  8
0
 10
93.90083552
 20
295.54294606
 30
0.0
 40
2.75
  0
CIRCLE
  5
1DD
  8
0
 10
93.90083552
 20
333.54294606
 30
0.0
 40
2.75
  0
CIRCLE
  5
1DE
  8
0
 10
56.40083552
 20
267.54294606
 30
0.0
 40
2.75
  0
CIRCLE
  5
1DF
  8
0
 10
56.40083552
 20
323.54294606
 30
0.0
 40
2.75
  0
CIRCLE
  5
1E0
  8
0
 10
18.90083552
 20
277.54294606
 30
0.0
 40
2.75
  0
CIRCLE
  5
1E1
  8
0
 10
18.90083552
 20
313.54294606
 30
0.0
 40
2.75
  0
LINE
  5
1E2
  8
0
 10
124.99771175
 20
326.29294606
 30
0.0
 11
124.99771175
 21
355.54294606
 31
0.0
  0
LINE
  5
1E3
  8
0
 10
122.65583744
 20
355.54294606
 30
0.0
 11
124.99771175
 21
355.54294606
 31
0.0
  0
LINE
  5
1E4
  8
0
 10
122.65583744
 20
326.29294606
 30
0.0
 11
122.65583744
 21
355.54294606
 31
0.0
  0
LINE
  5
1E5
  8
0
 10
124.99771175
 20
326.29294606
 30
0.0
 11
122.65583744
 21
326.29294606
 31
0.0
  0
LINE
  5
1E6
  8
0
 10
124.99771175
 20
326.29294606
 30
0.0
 11
133.90083552
 21
326.29294606
 31
0.0
  0
LINE
  5
1E7
  8
0
 10
133.48341121
 20
355.54294606
 30
0.0
 11
124.99771175
 21
355.54294606
 31
0.0
  0
POLYLINE
  5
1E8
  8
0
 66
     1
 10
0.0
 20
0.0
 30
0.0
  0
VERTEX
  5
1E9
  8
0
 10
122.65583744
 20
326.29294606
 30
0.0
  0
VERTEX
  5
1EA
  8
0
 10
122.65583744
 20
295.04294606
 30
0.0
  0
VERTEX
  5
1EB
  8
0
 10
122.65583744
 20
265.79294606
 30
0.0
  0
VERTEX
  5
1EC
  8
0
 10
122.65583744
 20
235.54294606
 30
0.0
  0
SEQEND
  5
1ED
  8
0
  0
LINE
  5
1EE
  8
0
 10
120.90083552
 20
235.54294606
 30
0.0
 11
122.65583744
 21
235.54294606
 31
0.0
  0
LINE
  5
1EF
  8
0
 10
-1.09916448
 20
265.54294606
 30
0.0
 11
120.90083552
 21
235.54294606
 31
0.0
  0
POLYLINE
  5
1F0
  8
0
 66
     1
 10
0.0
 20
0.0
 30
0.0
  0
VERTEX
  5
1F1
  8
0
 10
-1.09916448
 20
265.54294606
 30
0.0
  0
VERTEX
  5
1F2
  8
0
 10
-1.09916448
 20
325.54294606
 30
0.0
  0
VERTEX
  5
1F3
  8
0
 10
120.90083552
 20
355.54294606
 30
0.0
  0
VERTEX
  5
1F4
  8
0
 10
122.65583744
 20
355.54294606
 30
0.0
  0
SEQEND
  5
1F5
  8
0
  0
LINE
  5
1F6
  8
0
 10
124.99771175
 20
265.79294606
 30
0.0
 11
122.65583744
 21
265.79294606
 31
0.0
  0
LINE
  5
1F7
  8
0
 10
124.99771175
 20
295.04294606
 30
0.0
 11
124.99771175
 21
265.79294606
 31
0.0
  0
LINE
  5
1F8
  8
0
 10
122.65583744
 20
295.04294606
 30
0.0
 11
124.99771175
 21
295.04294606
 31
0.0
  0
LINE
  5
1F9
  8
0
 10
133.90083552
 20
295.04294606
 30
0.0
 11
124.99771175
 21
295.04294606
 31
0.0
  0
LINE
  5
1FA
  8
0
 10
133.90083552
 20
295.04294606
 30
0.0
 11
133.90083552
 21
265.79294606
 31
0.0
  0
LINE
  5
1FB
  8
0
 10
124.99771175
 20
265.79294606
 30
0.0
 11
133.90083552
 21
265.79294606
 31
0.0
  0
LINE
  5
1FC
  8
0
  6
STRICHPUNKT2
 62
     1
 10
18.90083552
 20
313.54294606
 30
0.0
 11
18.90083552
 21
309.41794606
 31
0.0
  0
LINE
  5
1FD
  8
0
  6
STRICHPUNKT2
 62
     1
 10
18.90083552
 20
313.54294606
 30
0.0
 11
18.90083552
 21
317.66794606
 31
0.0
  0
LINE
  5
1FE
  8
0
  6
STRICHPUNKT2
 62
     1
 10
18.90083552
 20
313.54294606
 30
0.0
 11
23.02583552
 21
313.54294606
 31
0.0
  0
LINE
  5
1FF
  8
0
  6
STRICHPUNKT2
 62
     1
 10
18.90083552
 20
313.54294606
 30
0.0
 11
14.77583552
 21
313.54294606
 31
0.0
  0
LINE
  5
200
  8
0
  6
STRICHPUNKT2
 62
     1
 10
18.90083552
 20
277.54294606
 30
0.0
 11
18.90083552
 21
273.41794606
 31
0.0
  0
LINE
  5
201
  8
0
  6
STRICHPUNKT2
 62
     1
 10
18.90083552
 20
277.54294606
 30
0.0
 11
18.90083552
 21
281.66794606
 31
0.0
  0
LINE
  5
202
  8
0
  6
STRICHPUNKT2
 62
     1
 10
18.90083552
 20
277.54294606
 30
0.0
 11
23.02583552
 21
277.54294606
 31
0.0
  0
LINE
  5
203
  8
0
  6
STRICHPUNKT2
 62
     1
 10
18.90083552
 20
277.54294606
 30
0.0
 11
14.77583552
 21
277.54294606
 31
0.0
  0
LINE
  5
204
  8
0
  6
STRICHPUNKT2
 62
     1
 10
56.40083552
 20
323.54294606
 30
0.0
 11
56.40083552
 21
319.41794606
 31
0.0
  0
LINE
  5
205
  8
0
  6
STRICHPUNKT2
 62
     1
 10
56.40083552
 20
323.54294606
 30
0.0
 11
56.40083552
 21
327.66794606
 31
0.0
  0
LINE
  5
206
  8
0
  6
STRICHPUNKT2
 62
     1
 10
56.40083552
 20
323.54294606
 30
0.0
 11
60.52583552
 21
323.54294606
 31
0.0
  0
LINE
  5
207
  8
0
  6
STRICHPUNKT2
 62
     1
 10
56.40083552
 20
323.54294606
 30
0.0
 11
52.27583552
 21
323.54294606
 31
0.0
  0
LINE
  5
208
  8
0
  6
STRICHPUNKT2
 62
     1
 10
56.40083552
 20
267.54294606
 30
0.0
 11
56.40083552
 21
263.41794606
 31
0.0
  0
LINE
  5
209
  8
0
  6
STRICHPUNKT2
 62
     1
 10
56.40083552
 20
267.54294606
 30
0.0
 11
56.40083552
 21
271.66794606
 31
0.0
  0
LINE
  5
20A
  8
0
  6
STRICHPUNKT2
 62
     1
 10
56.40083552
 20
267.54294606
 30
0.0
 11
60.52583552
 21
267.54294606
 31
0.0
  0
LINE
  5
20B
  8
0
  6
STRICHPUNKT2
 62
     1
 10
56.40083552
 20
267.54294606
 30
0.0
 11
52.27583552
 21
267.54294606
 31
0.0
  0
LINE
  5
20C
  8
0
  6
STRICHPUNKT2
 62
     1
 10
93.90083552
 20
333.54294606
 30
0.0
 11
93.90083552
 21
329.41794606
 31
0.0
  0
LINE
  5
20D
  8
0
  6
STRICHPUNKT2
 62
     1
 10
93.90083552
 20
333.54294606
 30
0.0
 11
93.90083552
 21
337.66794606
 31
0.0
  0
LINE
  5
20E
  8
0
  6
STRICHPUNKT2
 62
     1
 10
93.90083552
 20
333.54294606
 30
0.0
 11
98.02583552
 21
333.54294606
 31
0.0
  0
LINE
  5
20F
  8
0
  6
STRICHPUNKT2
 62
     1
 10
93.90083552
 20
333.54294606
 30
0.0
 11
89.77583552
 21
333.54294606
 31
0.0
  0
LINE
  5
210
  8
0
  6
STRICHPUNKT2
 62
     1
 10
93.90083552
 20
295.54294606
 30
0.0
 11
93.90083552
 21
291.41794606
 31
0.0
  0
LINE
  5
211
  8
0
  6
STRICHPUNKT2
 62
     1
 10
93.90083552
 20
295.54294606
 30
0.0
 11
93.90083552
 21
299.66794606
 31
0.0
  0
LINE
  5
212
  8
0
  6
STRICHPUNKT2
 62
     1
 10
93.90083552
 20
295.54294606
 30
0.0
 11
98.02583552
 21
295.54294606
 31
0.0
  0
LINE
  5
213
  8
0
  6
STRICHPUNKT2
 62
     1
 10
93.90083552
 20
295.54294606
 30
0.0
 11
89.77583552
 21
295.54294606
 31
0.0
  0
LINE
  5
214
  8
0
  6
STRICHPUNKT2
 62
     1
 10
93.90083552
 20
257.54294606
 30
0.0
 11
93.90083552
 21
253.41794606
 31
0.0
  0
LINE
  5
215
  8
0
  6
STRICHPUNKT2
 62
     1
 10
93.90083552
 20
257.54294606
 30
0.0
 11
93.90083552
 21
261.66794606
 31
0.0
  0
LINE
  5
216
  8
0
  6
STRICHPUNKT2
 62
     1
 10
93.90083552
 20
257.54294606
 30
0.0
 11
98.02583552
 21
257.54294606
 31
0.0
  0
LINE
  5
217
  8
0
  6
STRICHPUNKT2
 62
     1
 10
93.90083552
 20
257.54294606
 30
0.0
 11
89.77583552
 21
257.54294606
 31
0.0
  0
LINE
  5
218
  8
0
  6
STRICHPUNKT2
 62
     1
 10
76.90083552
 20
270.54294606
 30
0.0
 11
110.90083552
 21
270.54294606
 31
0.0
  0
LINE
  5
219
  8
0
  6
STRICHPUNKT2
 62
     1
 10
82.90083552
 20
266.54294606
 30
0.0
 11
82.90083552
 21
274.54294606
 31
0.0
  0
LINE
  5
21A
  8
0
  6
STRICHPUNKT2
 62
     1
 10
104.90083552
 20
266.54294606
 30
0.0
 11
104.90083552
 21
274.54294606
 31
0.0
  0
LINE
  5
21B
  8
0
  6
STRICHPUNKT2
 62
     1
 10
76.90083552
 20
320.54294606
 30
0.0
 11
110.90083552
 21
320.54294606
 31
0.0
  0
LINE
  5
21C
  8
0
  6
STRICHPUNKT2
 62
     1
 10
82.90083552
 20
316.54294606
 30
0.0
 11
82.90083552
 21
324.54294606
 31
0.0
  0
LINE
  5
21D
  8
0
  6
STRICHPUNKT2
 62
     1
 10
104.90083552
 20
316.54294606
 30
0.0
 11
104.90083552
 21
324.54294606
 31
0.0
  0
CIRCLE
  5
21E
  8
0
 10
163.90083552
 20
257.54294606
 30
0.0
 40
2.75
  0
CIRCLE
  5
21F
  8
0
 10
163.90083552
 20
295.54294606
 30
0.0
 40
2.75
  0
CIRCLE
  5
220
  8
0
 10
163.90083552
 20
333.54294606
 30
0.0
 40
2.75
  0
CIRCLE
  5
221
  8
0
 10
201.40083552
 20
267.54294606
 30
0.0
 40
2.75
  0
CIRCLE
  5
222
  8
0
 10
201.40083552
 20
323.54294606
 30
0.0
 40
2.75
  0
CIRCLE
  5
223
  8
0
 10
238.90083552
 20
277.54294606
 30
0.0
 40
2.75
  0
CIRCLE
  5
224
  8
0
 10
238.90083552
 20
313.54294606
 30
0.0
 40
2.75
  0
POLYLINE
  5
225
  8
0
 66
     1
 10
0.0
 20
0.0
 30
0.0
 70
     1
  0
VERTEX
  5
226
  8
0
 10
174.90083552
 20
302.54294606
 30
0.0
 42
1.0
  0
VERTEX
  5
227
  8
0
 10
174.90083552
 20
314.54294606
 30
0.0
  0
VERTEX
  5
228
  8
0
 10
152.90083552
 20
314.54294606
 30
0.0
 42
1.0
  0
VERTEX
  5
229
  8
0
 10
152.90083552
 20
302.54294606
 30
0.0
  0
SEQEND
  5
22A
  8
0
  0
LINE
  5
22B
  8
0
 10
174.90083552
 20
304.54294606
 30
0.0
 11
174.90083552
 21
302.54294606
 31
0.0
  0
POLYLINE
  5
22C
  8
0
 66
     1
 10
0.0
 20
0.0
 30
0.0
  0
VERTEX
  5
22D
  8
0
 10
174.90083552
 20
304.54294606
 30
0.0
 42
1.0
  0
VERTEX
  5
22E
  8
0
 10
174.90083552
 20
312.54294606
 30
0.0
  0
VERTEX
  5
22F
  8
0
 10
174.90083552
 20
314.54294606
 30
0.0
  0
SEQEND
  5
230
  8
0
  0
POLYLINE
  5
231
  8
0
 66
     1
 10
0.0
 20
0.0
 30
0.0
  0
VERTEX
  5
232
  8
0
 10
174.90083552
 20
312.54294606
 30
0.0
  0
VERTEX
  5
233
  8
0
 10
152.90083552
 20
312.54294606
 30
0.0
  0
VERTEX
  5
234
  8
0
 10
152.90083552
 20
314.54294606
 30
0.0
  0
SEQEND
  5
235
  8
0
  0
POLYLINE
  5
236
  8
0
 66
     1
 10
0.0
 20
0.0
 30
0.0
  0
VERTEX
  5
237
  8
0
 10
152.90083552
 20
312.54294606
 30
0.0
 42
1.0
  0
VERTEX
  5
238
  8
0
 10
152.90083552
 20
304.54294606
 30
0.0
  0
VERTEX
  5
239
  8
0
 10
174.90083552
 20
304.54294606
 30
0.0
  0
SEQEND
  5
23A
  8
0
  0
LINE
  5
23B
  8
0
 10
152.90083552
 20
302.54294606
 30
0.0
 11
152.90083552
 21
304.54294606
 31
0.0
  0
POLYLINE
  5
23C
  8
0
 66
     1
 10
0.0
 20
0.0
 30
0.0
 70
     1
  0
VERTEX
  5
23D
  8
0
 10
174.90083552
 20
276.54294606
 30
0.0
 42
1.0
  0
VERTEX
  5
23E
  8
0
 10
174.90083552
 20
288.54294606
 30
0.0
  0
VERTEX
  5
23F
  8
0
 10
152.90083552
 20
288.54294606
 30
0.0
 42
1.0
  0
VERTEX
  5
240
  8
0
 10
152.90083552
 20
276.54294606
 30
0.0
  0
SEQEND
  5
241
  8
0
  0
LINE
  5
242
  8
0
 10
174.90083552
 20
278.54294606
 30
0.0
 11
174.90083552
 21
276.54294606
 31
0.0
  0
POLYLINE
  5
243
  8
0
 66
     1
 10
0.0
 20
0.0
 30
0.0
  0
VERTEX
  5
244
  8
0
 10
174.90083552
 20
278.54294606
 30
0.0
 42
1.0
  0
VERTEX
  5
245
  8
0
 10
174.90083552
 20
286.54294606
 30
0.0
  0
VERTEX
  5
246
  8
0
 10
174.90083552
 20
288.54294606
 30
0.0
  0
SEQEND
  5
247
  8
0
  0
POLYLINE
  5
248
  8
0
 66
     1
 10
0.0
 20
0.0
 30
0.0
  0
VERTEX
  5
249
  8
0
 10
174.90083552
 20
286.54294606
 30
0.0
  0
VERTEX
  5
24A
  8
0
 10
152.90083552
 20
286.54294606
 30
0.0
  0
VERTEX
  5
24B
  8
0
 10
152.90083552
 20
288.54294606
 30
0.0
  0
SEQEND
  5
24C
  8
0
  0
POLYLINE
  5
24D
  8
0
 66
     1
 10
0.0
 20
0.0
 30
0.0
  0
VERTEX
  5
24E
  8
0
 10
152.90083552
 20
286.54294606
 30
0.0
 42
1.0
  0
VERTEX
  5
24F
  8
0
 10
152.90083552
 20
278.54294606
 30
0.0
  0
VERTEX
  5
250
  8
0
 10
174.90083552
 20
278.54294606
 30
0.0
  0
SEQEND
  5
251
  8
0
  0
LINE
  5
252
  8
0
 10
152.90083552
 20
276.54294606
 30
0.0
 11
152.90083552
 21
278.54294606
 31
0.0
  0
LINE
  5
253
  8
0
 10
135.1458336
 20
264.79294606
 30
0.0
 11
135.1458336
 21
235.54294606
 31
0.0
  0
LINE
  5
254
  8
0
 10
136.90083552
 20
235.54294606
 30
0.0
 11
135.1458336
 21
235.54294606
 31
0.0
  0
LINE
  5
255
  8
0
 10
258.90083552
 20
265.54294606
 30
0.0
 11
136.90083552
 21
235.54294606
 31
0.0
  0
POLYLINE
  5
256
  8
0
 66
     1
 10
0.0
 20
0.0
 30
0.0
  0
VERTEX
  5
257
  8
0
 10
258.90083552
 20
265.54294606
 30
0.0
  0
VERTEX
  5
258
  8
0
 10
258.90083552
 20
325.54294606
 30
0.0
  0
VERTEX
  5
259
  8
0
 10
136.90083552
 20
355.54294606
 30
0.0
  0
VERTEX
  5
25A
  8
0
 10
135.1458336
 20
355.54294606
 30
0.0
  0
SEQEND
  5
25B
  8
0
  0
LINE
  5
25C
  8
0
 10
135.1458336
 20
325.29294606
 30
0.0
 11
135.1458336
 21
355.54294606
 31
0.0
  0
LINE
  5
25D
  8
0
 10
135.1458336
 20
296.04294606
 30
0.0
 11
135.1458336
 21
325.29294606
 31
0.0
  0
LINE
  5
25E
  8
0
 10
135.1458336
 20
264.79294606
 30
0.0
 11
135.1458336
 21
296.04294606
 31
0.0
  0
LINE
  5
25F
  8
0
 10
132.80395929
 20
264.79294606
 30
0.0
 11
135.1458336
 21
264.79294606
 31
0.0
  0
LINE
  5
260
  8
0
 10
132.80395929
 20
264.79294606
 30
0.0
 11
132.80395929
 21
235.54294606
 31
0.0
  0
LINE
  5
261
  8
0
 10
135.1458336
 20
235.54294606
 30
0.0
 11
132.80395929
 21
235.54294606
 31
0.0
  0
LINE
  5
262
  8
0
 10
124.31825982
 20
235.54294606
 30
0.0
 11
132.80395929
 21
235.54294606
 31
0.0
  0
LINE
  5
263
  8
0
 10
132.80395929
 20
264.79294606
 30
0.0
 11
123.90083552
 21
264.79294606
 31
0.0
  0
POLYLINE
  5
264
  8
0
 66
     1
 10
0.0
 20
0.0
 30
0.0
  0
VERTEX
  5
265
  8
0
 10
135.1458336
 20
296.04294606
 30
0.0
  0
VERTEX
  5
266
  8
0
 10
132.80395929
 20
296.04294606
 30
0.0
  0
VERTEX
  5
267
  8
0
 10
132.80395929
 20
325.29294606
 30
0.0
  0
VERTEX
  5
268
  8
0
 10
135.1458336
 20
325.29294606
 30
0.0
  0
SEQEND
  5
269
  8
0
  0
POLYLINE
  5
26A
  8
0
 66
     1
 10
0.0
 20
0.0
 30
0.0
  0
VERTEX
  5
26B
  8
0
 10
132.80395929
 20
325.29294606
 30
0.0
  0
VERTEX
  5
26C
  8
0
 10
123.90083552
 20
325.29294606
 30
0.0
  0
VERTEX
  5
26D
  8
0
 10
123.90083552
 20
296.04294606
 30
0.0
  0
VERTEX
  5
26E
  8
0
 10
132.80395929
 20
296.04294606
 30
0.0
  0
SEQEND
  5
26F
  8
0
  0
LINE
  5
270
  8
0
  6
STRICHPUNKT2
 62
     1
 10
238.90083552
 20
313.54294606
 30
0.0
 11
238.90083552
 21
309.41794606
 31
0.0
  0
LINE
  5
271
  8
0
  6
STRICHPUNKT2
 62
     1
 10
238.90083552
 20
313.54294606
 30
0.0
 11
238.90083552
 21
317.66794606
 31
0.0
  0
LINE
  5
272
  8
0
  6
STRICHPUNKT2
 62
     1
 10
238.90083552
 20
313.54294606
 30
0.0
 11
234.77583552
 21
313.54294606
 31
0.0
  0
LINE
  5
273
  8
0
  6
STRICHPUNKT2
 62
     1
 10
238.90083552
 20
313.54294606
 30
0.0
 11
243.02583552
 21
313.54294606
 31
0.0
  0
LINE
  5
274
  8
0
  6
STRICHPUNKT2
 62
     1
 10
238.90083552
 20
277.54294606
 30
0.0
 11
238.90083552
 21
273.41794606
 31
0.0
  0
LINE
  5
275
  8
0
  6
STRICHPUNKT2
 62
     1
 10
238.90083552
 20
277.54294606
 30
0.0
 11
238.90083552
 21
281.66794606
 31
0.0
  0
LINE
  5
276
  8
0
  6
STRICHPUNKT2
 62
     1
 10
238.90083552
 20
277.54294606
 30
0.0
 11
234.77583552
 21
277.54294606
 31
0.0
  0
LINE
  5
277
  8
0
  6
STRICHPUNKT2
 62
     1
 10
238.90083552
 20
277.54294606
 30
0.0
 11
243.02583552
 21
277.54294606
 31
0.0
  0
LINE
  5
278
  8
0
  6
STRICHPUNKT2
 62
     1
 10
201.40083552
 20
323.54294606
 30
0.0
 11
201.40083552
 21
319.41794606
 31
0.0
  0
LINE
  5
279
  8
0
  6
STRICHPUNKT2
 62
     1
 10
201.40083552
 20
323.54294606
 30
0.0
 11
201.40083552
 21
327.66794606
 31
0.0
  0
LINE
  5
27A
  8
0
  6
STRICHPUNKT2
 62
     1
 10
201.40083552
 20
323.54294606
 30
0.0
 11
197.27583552
 21
323.54294606
 31
0.0
  0
LINE
  5
27B
  8
0
  6
STRICHPUNKT2
 62
     1
 10
201.40083552
 20
323.54294606
 30
0.0
 11
205.52583552
 21
323.54294606
 31
0.0
  0
LINE
  5
27C
  8
0
  6
STRICHPUNKT2
 62
     1
 10
201.40083552
 20
267.54294606
 30
0.0
 11
201.40083552
 21
263.41794606
 31
0.0
  0
LINE
  5
27D
  8
0
  6
STRICHPUNKT2
 62
     1
 10
201.40083552
 20
267.54294606
 30
0.0
 11
201.40083552
 21
271.66794606
 31
0.0
  0
LINE
  5
27E
  8
0
  6
STRICHPUNKT2
 62
     1
 10
201.40083552
 20
267.54294606
 30
0.0
 11
197.27583552
 21
267.54294606
 31
0.0
  0
LINE
  5
27F
  8
0
  6
STRICHPUNKT2
 62
     1
 10
201.40083552
 20
267.54294606
 30
0.0
 11
205.52583552
 21
267.54294606
 31
0.0
  0
LINE
  5
280
  8
0
  6
STRICHPUNKT2
 62
     1
 10
163.90083552
 20
333.54294606
 30
0.0
 11
163.90083552
 21
329.41794606
 31
0.0
  0
LINE
  5
281
  8
0
  6
STRICHPUNKT2
 62
     1
 10
163.90083552
 20
333.54294606
 30
0.0
 11
163.90083552
 21
337.66794606
 31
0.0
  0
LINE
  5
282
  8
0
  6
STRICHPUNKT2
 62
     1
 10
163.90083552
 20
333.54294606
 30
0.0
 11
159.77583552
 21
333.54294606
 31
0.0
  0
LINE
  5
283
  8
0
  6
STRICHPUNKT2
 62
     1
 10
163.90083552
 20
333.54294606
 30
0.0
 11
168.02583552
 21
333.54294606
 31
0.0
  0
LINE
  5
284
  8
0
  6
STRICHPUNKT2
 62
     1
 10
163.90083552
 20
295.54294606
 30
0.0
 11
163.90083552
 21
291.41794606
 31
0.0
  0
LINE
  5
285
  8
0
  6
STRICHPUNKT2
 62
     1
 10
163.90083552
 20
295.54294606
 30
0.0
 11
163.90083552
 21
299.66794606
 31
0.0
  0
LINE
  5
286
  8
0
  6
STRICHPUNKT2
 62
     1
 10
163.90083552
 20
295.54294606
 30
0.0
 11
159.77583552
 21
295.54294606
 31
0.0
  0
LINE
  5
287
  8
0
  6
STRICHPUNKT2
 62
     1
 10
163.90083552
 20
295.54294606
 30
0.0
 11
168.02583552
 21
295.54294606
 31
0.0
  0
LINE
  5
288
  8
0
  6
STRICHPUNKT2
 62
     1
 10
163.90083552
 20
257.54294606
 30
0.0
 11
163.90083552
 21
253.41794606
 31
0.0
  0
LINE
  5
289
  8
0
  6
STRICHPUNKT2
 62
     1
 10
163.90083552
 20
257.54294606
 30
0.0
 11
163.90083552
 21
261.66794606
 31
0.0
  0
LINE
  5
28A
  8
0
  6
STRICHPUNKT2
 62
     1
 10
163.90083552
 20
257.54294606
 30
0.0
 11
159.77583552
 21
257.54294606
 31
0.0
  0
LINE
  5
28B
  8
0
  6
STRICHPUNKT2
 62
     1
 10
163.90083552
 20
257.54294606
 30
0.0
 11
168.02583552
 21
257.54294606
 31
0.0
  0
POLYLINE
  5
28C
  8
0
 66
     1
 10
0.0
 20
0.0
 30
0.0
  0
VERTEX
  5
28D
  8
0
 10
152.90083552
 20
276.54294606
 30
0.0
  0
VERTEX
  5
28E
  8
0
 10
174.90083552
 20
276.54294606
 30
0.0
 42
1.0
  0
VERTEX
  5
28F
  8
0
 10
174.90083552
 20
288.54294606
 30
0.0
  0
VERTEX
  5
290
  8
0
 10
152.90083552
 20
288.54294606
 30
0.0
 42
1.0
  0
VERTEX
  5
291
  8
0
 10
152.90083552
 20
276.54294606
 30
0.0
  0
VERTEX
  5
292
  8
0
 10
152.90083552
 20
278.54294606
 30
0.0
  0
VERTEX
  5
293
  8
0
 10
174.90083552
 20
278.54294606
 30
0.0
  0
VERTEX
  5
294
  8
0
 10
174.90083552
 20
276.54294606
 30
0.0
  0
SEQEND
  5
295
  8
0
  0
POLYLINE
  5
296
  8
0
 66
     1
 10
0.0
 20
0.0
 30
0.0
  0
VERTEX
  5
297
  8
0
 10
174.90083552
 20
278.54294606
 30
0.0
 42
1.0
  0
VERTEX
  5
298
  8
0
 10
174.90083552
 20
286.54294606
 30
0.0
  0
VERTEX
  5
299
  8
0
 10
152.90083552
 20
286.54294606
 30
0.0
  0
VERTEX
  5
29A
  8
0
 10
152.90083552
 20
288.54294606
 30
0.0
  0
SEQEND
  5
29B
  8
0
  0
ARC
  5
29C
  8
0
 10
152.90083552
 20
282.54294606
 30
0.0
 40
4.0
 50
90.0
 51
-90.0
  0
LINE
  5
29D
  8
0
 10
174.90083552
 20
286.54294606
 30
0.0
 11
174.90083552
 21
288.54294606
 31
0.0
  0
POLYLINE
  5
29E
  8
0
 66
     1
 10
0.0
 20
0.0
 30
0.0
  0
VERTEX
  5
29F
  8
0
 10
152.90083552
 20
302.54294606
 30
0.0
  0
VERTEX
  5
2A0
  8
0
 10
174.90083552
 20
302.54294606
 30
0.0
 42
1.0
  0
VERTEX
  5
2A1
  8
0
 10
174.90083552
 20
314.54294606
 30
0.0
  0
VERTEX
  5
2A2
  8
0
 10
152.90083552
 20
314.54294606
 30
0.0
 42
1.0
  0
VERTEX
  5
2A3
  8
0
 10
152.90083552
 20
302.54294606
 30
0.0
  0
VERTEX
  5
2A4
  8
0
 10
152.90083552
 20
304.54294606
 30
0.0
  0
VERTEX
  5
2A5
  8
0
 10
174.90083552
 20
304.54294606
 30
0.0
  0
VERTEX
  5
2A6
  8
0
 10
174.90083552
 20
302.54294606
 30
0.0
  0
SEQEND
  5
2A7
  8
0
  0
POLYLINE
  5
2A8
  8
0
 66
     1
 10
0.0
 20
0.0
 30
0.0
  0
VERTEX
  5
2A9
  8
0
 10
174.90083552
 20
304.54294606
 30
0.0
 42
1.0
  0
VERTEX
  5
2AA
  8
0
 10
174.90083552
 20
312.54294606
 30
0.0
  0
VERTEX
  5
2AB
  8
0
 10
152.90083552
 20
312.54294606
 30
0.0
  0
VERTEX
  5
2AC
  8
0
 10
152.90083552
 20
314.54294606
 30
0.0
  0
SEQEND
  5
2AD
  8
0
  0
ARC
  5
2AE
  8
0
 10
152.90083552
 20
308.54294606
 30
0.0
 40
4.0
 50
90.0
 51
-90.0
  0
LINE
  5
2AF
  8
0
 10
174.90083552
 20
312.54294606
 30
0.0
 11
174.90083552
 21
314.54294606
 31
0.0
  0
LINE
  5
2B0
  8
0
 10
136.90083552
 20
355.54294606
 30
0.0
 11
133.48341121
 21
355.54294606
 31
0.0
  0
LINE
  5
2B1
  8
0
 10
133.40083552
 20
264.79294606
 30
0.0
 11
133.40083552
 21
265.79294606
 31
0.0
  0
LINE
  5
2B2
  8
0
 10
133.40083552
 20
295.04294606
 30
0.0
 11
133.40083552
 21
296.04294606
 31
0.0
  0
LINE
  5
2B3
  8
0
 10
133.40083552
 20
325.29294606
 30
0.0
 11
133.40083552
 21
326.29294606
 31
0.0
  0
LINE
  5
2B4
  8
0
 10
136.90083552
 20
235.54294606
 30
0.0
 11
135.14583351
 21
235.54294606
 31
0.0
  0
LINE
  5
2B5
  8
0
 10
258.90083552
 20
265.54294606
 30
0.0
 11
136.90083552
 21
235.54294606
 31
0.0
  0
POLYLINE
  5
2B6
  8
0
 66
     1
 10
0.0
 20
0.0
 30
0.0
  0
VERTEX
  5
2B7
  8
0
 10
258.90083552
 20
265.54294606
 30
0.0
  0
VERTEX
  5
2B8
  8
0
 10
258.90083552
 20
325.54294606
 30
0.0
  0
VERTEX
  5
2B9
  8
0
 10
136.90083552
 20
355.54294606
 30
0.0
  0
SEQEND
  5
2BA
  8
0
  0
LINE
  5
2BB
  8
0
  6
STRICHPUNKT2
 62
     1
 10
238.90083552
 20
313.54294606
 30
0.0
 11
238.90083552
 21
309.41794606
 31
0.0
  0
LINE
  5
2BC
  8
0
  6
STRICHPUNKT2
 62
     1
 10
238.90083552
 20
313.54294606
 30
0.0
 11
238.90083552
 21
317.66794606
 31
0.0
  0
LINE
  5
2BD
  8
0
  6
STRICHPUNKT2
 62
     1
 10
238.90083552
 20
313.54294606
 30
0.0
 11
234.77583552
 21
313.54294606
 31
0.0
  0
LINE
  5
2BE
  8
0
  6
STRICHPUNKT2
 62
     1
 10
238.90083552
 20
313.54294606
 30
0.0
 11
243.02583552
 21
313.54294606
 31
0.0
  0
LINE
  5
2BF
  8
0
  6
STRICHPUNKT2
 62
     1
 10
238.90083552
 20
277.54294606
 30
0.0
 11
238.90083552
 21
273.41794606
 31
0.0
  0
LINE
  5
2C0
  8
0
  6
STRICHPUNKT2
 62
     1
 10
238.90083552
 20
277.54294606
 30
0.0
 11
238.90083552
 21
281.66794606
 31
0.0
  0
LINE
  5
2C1
  8
0
  6
STRICHPUNKT2
 62
     1
 10
238.90083552
 20
277.54294606
 30
0.0
 11
234.77583552
 21
277.54294606
 31
0.0
  0
LINE
  5
2C2
  8
0
  6
STRICHPUNKT2
 62
     1
 10
238.90083552
 20
277.54294606
 30
0.0
 11
243.02583552
 21
277.54294606
 31
0.0
  0
LINE
  5
2C3
  8
0
  6
STRICHPUNKT2
 62
     1
 10
163.90083552
 20
333.54294606
 30
0.0
 11
163.90083552
 21
329.41794606
 31
0.0
  0
LINE
  5
2C4
  8
0
  6
STRICHPUNKT2
 62
     1
 10
163.90083552
 20
333.54294606
 30
0.0
 11
163.90083552
 21
337.66794606
 31
0.0
  0
LINE
  5
2C5
  8
0
  6
STRICHPUNKT2
 62
     1
 10
163.90083552
 20
333.54294606
 30
0.0
 11
159.77583552
 21
333.54294606
 31
0.0
  0
LINE
  5
2C6
  8
0
  6
STRICHPUNKT2
 62
     1
 10
163.90083552
 20
333.54294606
 30
0.0
 11
168.02583552
 21
333.54294606
 31
0.0
  0
LINE
  5
2C7
  8
0
  6
STRICHPUNKT2
 62
     1
 10
163.90083552
 20
295.54294606
 30
0.0
 11
163.90083552
 21
291.41794606
 31
0.0
  0
LINE
  5
2C8
  8
0
  6
STRICHPUNKT2
 62
     1
 10
163.90083552
 20
295.54294606
 30
0.0
 11
163.90083552
 21
299.66794606
 31
0.0
  0
LINE
  5
2C9
  8
0
  6
STRICHPUNKT2
 62
     1
 10
163.90083552
 20
295.54294606
 30
0.0
 11
159.77583552
 21
295.54294606
 31
0.0
  0
LINE
  5
2CA
  8
0
  6
STRICHPUNKT2
 62
     1
 10
163.90083552
 20
295.54294606
 30
0.0
 11
168.02583552
 21
295.54294606
 31
0.0
  0
LINE
  5
2CB
  8
0
  6
STRICHPUNKT2
 62
     1
 10
163.90083552
 20
257.54294606
 30
0.0
 11
163.90083552
 21
253.41794606
 31
0.0
  0
LINE
  5
2CC
  8
0
  6
STRICHPUNKT2
 62
     1
 10
163.90083552
 20
257.54294606
 30
0.0
 11
163.90083552
 21
261.66794606
 31
0.0
  0
LINE
  5
2CD
  8
0
  6
STRICHPUNKT2
 62
     1
 10
163.90083552
 20
257.54294606
 30
0.0
 11
159.77583552
 21
257.54294606
 31
0.0
  0
LINE
  5
2CE
  8
0
  6
STRICHPUNKT2
 62
     1
 10
163.90083552
 20
257.54294606
 30
0.0
 11
168.02583552
 21
257.54294606
 31
0.0
  0
LINE
  5
2CF
  8
0
  6
STRICHPUNKT2
 62
     1
 10
201.40083552
 20
323.54294606
 30
0.0
 11
201.40083552
 21
319.41794606
 31
0.0
  0
LINE
  5
2D0
  8
0
  6
STRICHPUNKT2
 62
     1
 10
201.40083552
 20
323.54294606
 30
0.0
 11
201.40083552
 21
327.66794606
 31
0.0
  0
LINE
  5
2D1
  8
0
  6
STRICHPUNKT2
 62
     1
 10
201.40083552
 20
323.54294606
 30
0.0
 11
197.27583552
 21
323.54294606
 31
0.0
  0
LINE
  5
2D2
  8
0
  6
STRICHPUNKT2
 62
     1
 10
201.40083552
 20
323.54294606
 30
0.0
 11
205.52583552
 21
323.54294606
 31
0.0
  0
LINE
  5
2D3
  8
0
  6
STRICHPUNKT2
 62
     1
 10
201.40083552
 20
267.54294606
 30
0.0
 11
201.40083552
 21
263.41794606
 31
0.0
  0
LINE
  5
2D4
  8
0
  6
STRICHPUNKT2
 62
     1
 10
201.40083552
 20
267.54294606
 30
0.0
 11
201.40083552
 21
271.66794606
 31
0.0
  0
LINE
  5
2D5
  8
0
  6
STRICHPUNKT2
 62
     1
 10
201.40083552
 20
267.54294606
 30
0.0
 11
197.27583552
 21
267.54294606
 31
0.0
  0
LINE
  5
2D6
  8
0
  6
STRICHPUNKT2
 62
     1
 10
201.40083552
 20
267.54294606
 30
0.0
 11
205.52583552
 21
267.54294606
 31
0.0
  0
POLYLINE
  5
2D7
  8
0
 66
     1
 10
0.0
 20
0.0
 30
0.0
 70
     1
  0
VERTEX
  5
2D8
  8
0
 10
104.90083552
 20
276.54294606
 30
0.0
 42
-1.0
  0
VERTEX
  5
2D9
  8
0
 10
104.90083552
 20
264.54294606
 30
0.0
  0
VERTEX
  5
2DA
  8
0
 10
82.90083552
 20
264.54294606
 30
0.0
 42
-1.0
  0
VERTEX
  5
2DB
  8
0
 10
82.90083552
 20
276.54294606
 30
0.0
  0
SEQEND
  5
2DC
  8
0
  0
LINE
  5
2DD
  8
0
 10
104.90083552
 20
274.54294606
 30
0.0
 11
104.90083552
 21
276.54294606
 31
0.0
  0
ARC
  5
2DE
  8
0
 10
104.90083552
 20
270.54294606
 30
0.0
 40
4.0
 50
-90.0
 51
90.0
  0
POLYLINE
  5
2DF
  8
0
 66
     1
 10
0.0
 20
0.0
 30
0.0
  0
VERTEX
  5
2E0
  8
0
 10
104.90083552
 20
264.54294606
 30
0.0
  0
VERTEX
  5
2E1
  8
0
 10
104.90083552
 20
266.54294606
 30
0.0
  0
VERTEX
  5
2E2
  8
0
 10
82.90083552
 20
266.54294606
 30
0.0
  0
VERTEX
  5
2E3
  8
0
 10
82.90083552
 20
264.54294606
 30
0.0
  0
SEQEND
  5
2E4
  8
0
  0
POLYLINE
  5
2E5
  8
0
 66
     1
 10
0.0
 20
0.0
 30
0.0
  0
VERTEX
  5
2E6
  8
0
 10
82.90083552
 20
266.54294606
 30
0.0
 42
-1.0
  0
VERTEX
  5
2E7
  8
0
 10
82.90083552
 20
274.54294606
 30
0.0
  0
VERTEX
  5
2E8
  8
0
 10
82.90083552
 20
276.54294606
 30
0.0
  0
SEQEND
  5
2E9
  8
0
  0
LINE
  5
2EA
  8
0
 10
82.90083552
 20
274.54294606
 30
0.0
 11
104.90083552
 21
274.54294606
 31
0.0
  0
POLYLINE
  5
2EB
  8
0
 66
     1
 10
0.0
 20
0.0
 30
0.0
 70
     1
  0
VERTEX
  5
2EC
  8
0
 10
104.90083552
 20
326.54294606
 30
0.0
 42
-1.0
  0
VERTEX
  5
2ED
  8
0
 10
104.90083552
 20
314.54294606
 30
0.0
  0
VERTEX
  5
2EE
  8
0
 10
82.90083552
 20
314.54294606
 30
0.0
 42
-1.0
  0
VERTEX
  5
2EF
  8
0
 10
82.90083552
 20
326.54294606
 30
0.0
  0
SEQEND
  5
2F0
  8
0
  0
LINE
  5
2F1
  8
0
 10
104.90083552
 20
324.54294606
 30
0.0
 11
104.90083552
 21
326.54294606
 31
0.0
  0
ARC
  5
2F2
  8
0
 10
104.90083552
 20
320.54294606
 30
0.0
 40
4.0
 50
-90.0
 51
90.0
  0
POLYLINE
  5
2F3
  8
0
 66
     1
 10
0.0
 20
0.0
 30
0.0
  0
VERTEX
  5
2F4
  8
0
 10
104.90083552
 20
314.54294606
 30
0.0
  0
VERTEX
  5
2F5
  8
0
 10
104.90083552
 20
316.54294606
 30
0.0
  0
VERTEX
  5
2F6
  8
0
 10
82.90083552
 20
316.54294606
 30
0.0
  0
VERTEX
  5
2F7
  8
0
 10
82.90083552
 20
314.54294606
 30
0.0
  0
SEQEND
  5
2F8
  8
0
  0
POLYLINE
  5
2F9
  8
0
 66
     1
 10
0.0
 20
0.0
 30
0.0
  0
VERTEX
  5
2FA
  8
0
 10
82.90083552
 20
316.54294606
 30
0.0
 42
-1.0
  0
VERTEX
  5
2FB
  8
0
 10
82.90083552
 20
324.54294606
 30
0.0
  0
VERTEX
  5
2FC
  8
0
 10
82.90083552
 20
326.54294606
 30
0.0
  0
SEQEND
  5
2FD
  8
0
  0
LINE
  5
2FE
  8
0
 10
82.90083552
 20
324.54294606
 30
0.0
 11
104.90083552
 21
324.54294606
 31
0.0
  0
POLYLINE
  5
2FF
  8
0
 66
     1
 10
0.0
 20
0.0
 30
0.0
  0
VERTEX
  5
300
  8
0
 10
-1.09916448
 20
325.54294606
 30
0.0
  0
VERTEX
  5
301
  8
0
 10
120.90083552
 20
355.54294606
 30
0.0
  0
VERTEX
  5
302
  8
0
 10
122.65583752
 20
355.54294606
 30
0.0
  0
SEQEND
  5
303
  8
0
  0
LINE
  5
304
  8
0
 10
124.40083552
 20
264.79294606
 30
0.0
 11
124.40083552
 21
265.79294606
 31
0.0
  0
LINE
  5
305
  8
0
 10
124.40083552
 20
295.04294606
 30
0.0
 11
124.40083552
 21
296.04294606
 31
0.0
  0
LINE
  5
306
  8
0
 10
124.40083552
 20
325.29294606
 30
0.0
 11
124.40083552
 21
326.29294606
 31
0.0
  0
LINE
  5
307
  8
0
 10
120.90083552
 20
235.54294606
 30
0.0
 11
124.31825982
 21
235.54294606
 31
0.0
  0
LINE
  5
308
  8
0
 10
-1.09916448
 20
265.54294606
 30
0.0
 11
120.90083552
 21
235.54294606
 31
0.0
  0
LINE
  5
309
  8
0
 10
-1.09916448
 20
265.54294606
 30
0.0
 11
-1.09916448
 21
325.54294606
 31
0.0
  0
LINE
  5
30A
  8
0
  6
STRICHPUNKT2
 62
     1
 10
18.90083552
 20
313.54294606
 30
0.0
 11
18.90083552
 21
309.41794606
 31
0.0
  0
LINE
  5
30B
  8
0
  6
STRICHPUNKT2
 62
     1
 10
18.90083552
 20
313.54294606
 30
0.0
 11
18.90083552
 21
317.66794606
 31
0.0
  0
LINE
  5
30C
  8
0
  6
STRICHPUNKT2
 62
     1
 10
18.90083552
 20
313.54294606
 30
0.0
 11
23.02583552
 21
313.54294606
 31
0.0
  0
LINE
  5
30D
  8
0
  6
STRICHPUNKT2
 62
     1
 10
18.90083552
 20
313.54294606
 30
0.0
 11
14.77583552
 21
313.54294606
 31
0.0
  0
LINE
  5
30E
  8
0
  6
STRICHPUNKT2
 62
     1
 10
18.90083552
 20
277.54294606
 30
0.0
 11
18.90083552
 21
273.41794606
 31
0.0
  0
LINE
  5
30F
  8
0
  6
STRICHPUNKT2
 62
     1
 10
18.90083552
 20
277.54294606
 30
0.0
 11
18.90083552
 21
281.66794606
 31
0.0
  0
LINE
  5
310
  8
0
  6
STRICHPUNKT2
 62
     1
 10
18.90083552
 20
277.54294606
 30
0.0
 11
23.02583552
 21
277.54294606
 31
0.0
  0
LINE
  5
311
  8
0
  6
STRICHPUNKT2
 62
     1
 10
18.90083552
 20
277.54294606
 30
0.0
 11
14.77583552
 21
277.54294606
 31
0.0
  0
LINE
  5
312
  8
0
  6
STRICHPUNKT2
 62
     1
 10
93.90083552
 20
333.54294606
 30
0.0
 11
93.90083552
 21
329.41794606
 31
0.0
  0
LINE
  5
313
  8
0
  6
STRICHPUNKT2
 62
     1
 10
93.90083552
 20
333.54294606
 30
0.0
 11
93.90083552
 21
337.66794606
 31
0.0
  0
LINE
  5
314
  8
0
  6
STRICHPUNKT2
 62
     1
 10
93.90083552
 20
333.54294606
 30
0.0
 11
98.02583552
 21
333.54294606
 31
0.0
  0
LINE
  5
315
  8
0
  6
STRICHPUNKT2
 62
     1
 10
93.90083552
 20
333.54294606
 30
0.0
 11
89.77583552
 21
333.54294606
 31
0.0
  0
LINE
  5
316
  8
0
  6
STRICHPUNKT2
 62
     1
 10
93.90083552
 20
295.54294606
 30
0.0
 11
93.90083552
 21
291.41794606
 31
0.0
  0
LINE
  5
317
  8
0
  6
STRICHPUNKT2
 62
     1
 10
93.90083552
 20
295.54294606
 30
0.0
 11
93.90083552
 21
299.66794606
 31
0.0
  0
LINE
  5
318
  8
0
  6
STRICHPUNKT2
 62
     1
 10
93.90083552
 20
295.54294606
 30
0.0
 11
98.02583552
 21
295.54294606
 31
0.0
  0
LINE
  5
319
  8
0
  6
STRICHPUNKT2
 62
     1
 10
93.90083552
 20
295.54294606
 30
0.0
 11
89.77583552
 21
295.54294606
 31
0.0
  0
LINE
  5
31A
  8
0
  6
STRICHPUNKT2
 62
     1
 10
93.90083552
 20
257.54294606
 30
0.0
 11
93.90083552
 21
253.41794606
 31
0.0
  0
LINE
  5
31B
  8
0
  6
STRICHPUNKT2
 62
     1
 10
93.90083552
 20
257.54294606
 30
0.0
 11
93.90083552
 21
261.66794606
 31
0.0
  0
LINE
  5
31C
  8
0
  6
STRICHPUNKT2
 62
     1
 10
93.90083552
 20
257.54294606
 30
0.0
 11
98.02583552
 21
257.54294606
 31
0.0
  0
LINE
  5
31D
  8
0
  6
STRICHPUNKT2
 62
     1
 10
93.90083552
 20
257.54294606
 30
0.0
 11
89.77583552
 21
257.54294606
 31
0.0
  0
LINE
  5
31E
  8
0
  6
STRICHPUNKT2
 62
     1
 10
76.90083552
 20
270.54294606
 30
0.0
 11
110.90083552
 21
270.54294606
 31
0.0
  0
LINE
  5
31F
  8
0
  6
STRICHPUNKT2
 62
     1
 10
82.90083552
 20
266.54294606
 30
0.0
 11
82.90083552
 21
274.54294606
 31
0.0
  0
LINE
  5
320
  8
0
  6
STRICHPUNKT2
 62
     1
 10
104.90083552
 20
266.54294606
 30
0.0
 11
104.90083552
 21
274.54294606
 31
0.0
  0
LINE
  5
321
  8
0
  6
STRICHPUNKT2
 62
     1
 10
76.90083552
 20
320.54294606
 30
0.0
 11
110.90083552
 21
320.54294606
 31
0.0
  0
LINE
  5
322
  8
0
  6
STRICHPUNKT2
 62
     1
 10
82.90083552
 20
316.54294606
 30
0.0
 11
82.90083552
 21
324.54294606
 31
0.0
  0
LINE
  5
323
  8
0
  6
STRICHPUNKT2
 62
     1
 10
104.90083552
 20
316.54294606
 30
0.0
 11
104.90083552
 21
324.54294606
 31
0.0
  0
LINE
  5
324
  8
0
  6
STRICHPUNKT2
 62
     1
 10
56.40083552
 20
323.54294606
 30
0.0
 11
56.40083552
 21
319.41794606
 31
0.0
  0
LINE
  5
325
  8
0
  6
STRICHPUNKT2
 62
     1
 10
56.40083552
 20
323.54294606
 30
0.0
 11
56.40083552
 21
327.66794606
 31
0.0
  0
LINE
  5
326
  8
0
  6
STRICHPUNKT2
 62
     1
 10
56.40083552
 20
323.54294606
 30
0.0
 11
60.52583552
 21
323.54294606
 31
0.0
  0
LINE
  5
327
  8
0
  6
STRICHPUNKT2
 62
     1
 10
56.40083552
 20
323.54294606
 30
0.0
 11
52.27583552
 21
323.54294606
 31
0.0
  0
LINE
  5
328
  8
0
  6
STRICHPUNKT2
 62
     1
 10
56.40083552
 20
267.54294606
 30
0.0
 11
56.40083552
 21
263.41794606
 31
0.0
  0
LINE
  5
329
  8
0
  6
STRICHPUNKT2
 62
     1
 10
56.40083552
 20
267.54294606
 30
0.0
 11
56.40083552
 21
271.66794606
 31
0.0
  0
LINE
  5
32A
  8
0
  6
STRICHPUNKT2
 62
     1
 10
56.40083552
 20
267.54294606
 30
0.0
 11
60.52583552
 21
267.54294606
 31
0.0
  0
LINE
  5
32B
  8
0
  6
STRICHPUNKT2
 62
     1
 10
56.40083552
 20
267.54294606
 30
0.0
 11
52.27583552
 21
267.54294606
 31
0.0
  0
CIRCLE
  5
32C
  8
0
 10
128.90083552
 20
199.53486611
 30
0.0
 40
2.7
  0
ARC
  5
32D
  8
0
 10
128.90083552
 20
199.53486611
 30
0.0
 40
5.2
 50
180.0
 51
0.0
  0
ARC
  5
32E
  8
0
 10
128.90083552
 20
199.53486611
 30
0.0
 40
5.2
 50
29.103393157
 51
150.896606707
  0
LINE
  5
32F
  8
0
 10
133.90083552
 20
199.53486611
 30
0.0
 11
133.87496658
 21
199.02690929
 31
0.0
  0
ARC
  5
330
  8
0
 10
128.90083552
 20
199.53486611
 30
0.0
 40
3.0
 50
-4.248352794
 51
24.081902404
  0
ARC
  5
331
  8
0
 10
122.6558375
 20
204.53486616
 30
0.0
 40
3.00000004
 50
-90.000001195
 51
-38.682188474
  0
LINE
  5
332
  8
0
 10
120.90083552
 20
201.53486611
 30
0.0
 11
122.65583744
 21
201.53486611
 31
0.0
  0
LINE
  5
333
  8
0
 10
122.65583744
 20
199.53486611
 30
0.0
 11
122.65583744
 21
201.53486611
 31
0.0
  0
POLYLINE
  5
334
  8
0
 66
     1
 10
0.0
 20
0.0
 30
0.0
  0
VERTEX
  5
335
  8
0
 10
122.65583744
 20
199.53486611
 30
0.0
  0
VERTEX
  5
336
  8
0
 10
120.90083552
 20
199.53486611
 30
0.0
  0
VERTEX
  5
337
  8
0
 10
120.90083552
 20
201.53486611
 30
0.0
  0
SEQEND
  5
338
  8
0
  0
LINE
  5
339
  8
0
 10
-1.09916448
 20
201.53486611
 30
0.0
 11
120.90083552
 21
201.53486611
 31
0.0
  0
LINE
  5
33A
  8
0
 10
-1.09916448
 20
199.53486611
 30
0.0
 11
-1.09916448
 21
201.53486611
 31
0.0
  0
LINE
  5
33B
  8
0
 10
120.90083552
 20
199.53486611
 30
0.0
 11
-1.09916448
 21
199.53486611
 31
0.0
  0
LINE
  5
33C
  8
0
  6
STRICHPUNKT2
 62
     1
 10
82.90083552
 20
198.03486611
 30
0.0
 11
82.90083552
 21
197.53486611
 31
0.0
  0
LINE
  5
33D
  8
0
  6
STRICHPUNKT2
 62
     1
 10
82.90083552
 20
203.53486611
 30
0.0
 11
82.90083552
 21
201.53486611
 31
0.0
  0
LINE
  5
33E
  8
0
  6
STRICHPUNKT2
 62
     1
 10
56.40083552
 20
199.53486611
 30
0.0
 11
56.40083552
 21
198.15986611
 31
0.0
  0
LINE
  5
33F
  8
0
  6
STRICHPUNKT2
 62
     1
 10
56.40083552
 20
202.90986611
 30
0.0
 11
56.40083552
 21
201.53486611
 31
0.0
  0
LINE
  5
340
  8
0
  6
STRICHPUNKT2
 62
     1
 10
104.90083552
 20
198.03486611
 30
0.0
 11
104.90083552
 21
197.53486611
 31
0.0
  0
LINE
  5
341
  8
0
  6
STRICHPUNKT2
 62
     1
 10
104.90083552
 20
203.53486611
 30
0.0
 11
104.90083552
 21
201.53486611
 31
0.0
  0
LINE
  5
342
  8
0
  6
STRICHPUNKT2
 62
     1
 10
18.90083552
 20
199.53486611
 30
0.0
 11
18.90083552
 21
198.15986611
 31
0.0
  0
LINE
  5
343
  8
0
  6
STRICHPUNKT2
 62
     1
 10
18.90083552
 20
202.90986611
 30
0.0
 11
18.90083552
 21
201.53486611
 31
0.0
  0
LINE
  5
344
  8
0
  6
STRICHPUNKT2
 62
     1
 10
93.90083552
 20
199.53486611
 30
0.0
 11
93.90083552
 21
198.15986611
 31
0.0
  0
LINE
  5
345
  8
0
  6
STRICHPUNKT2
 62
     1
 10
93.90083552
 20
202.90986611
 30
0.0
 11
93.90083552
 21
201.53486611
 31
0.0
  0
POLYLINE
  5
346
  8
0
 66
     1
 10
0.0
 20
0.0
 30
0.0
  0
VERTEX
  5
347
  8
0
 10
133.90083552
 20
199.53486611
 30
0.0
  0
VERTEX
  5
348
  8
0
 10
136.90083552
 20
199.53486611
 30
0.0
  0
VERTEX
  5
349
  8
0
 10
136.90083552
 20
201.53486611
 30
0.0
  0
VERTEX
  5
34A
  8
0
 10
135.1458336
 20
201.53486611
 30
0.0
 42
-0.227735083
  0
VERTEX
  5
34B
  8
0
 10
132.80395929
 20
202.65986609
 30
0.0
  0
SEQEND
  5
34C
  8
0
  0
ARC
  5
34D
  8
0
 10
128.90083552
 20
199.53486611
 30
0.0
 40
5.0
 50
38.68218708
 51
-5.830815745
  0
LINE
  5
34E
  8
0
 10
131.89259246
 20
199.31262665
 30
0.0
 11
133.87496658
 21
199.02690929
 31
0.0
  0
POLYLINE
  5
34F
  8
0
 66
     1
 10
0.0
 20
0.0
 30
0.0
  0
VERTEX
  5
350
  8
0
 10
131.89259246
 20
199.31262665
 30
0.0
 42
-2.293044155
  0
VERTEX
  5
351
  8
0
 10
128.90083552
 20
202.53486611
 30
0.0
 42
-0.295824813
  0
VERTEX
  5
352
  8
0
 10
131.63972484
 20
200.75899244
 30
0.0
 42
0.126755555
  0
VERTEX
  5
353
  8
0
 10
133.90083552
 20
199.53486611
 30
0.0
  0
SEQEND
  5
354
  8
0
  0
LINE
  5
355
  8
0
 10
258.90083552
 20
201.53486611
 30
0.0
 11
136.90083552
 21
201.53486611
 31
0.0
  0
LINE
  5
356
  8
0
 10
258.90083552
 20
199.53486611
 30
0.0
 11
258.90083552
 21
201.53486611
 31
0.0
  0
LINE
  5
357
  8
0
 10
136.90083552
 20
199.53486611
 30
0.0
 11
258.90083552
 21
199.53486611
 31
0.0
  0
LINE
  5
358
  8
0
  6
STRICHPUNKT2
 62
     1
 10
163.90083552
 20
199.53486611
 30
0.0
 11
163.90083552
 21
198.15986611
 31
0.0
  0
LINE
  5
359
  8
0
  6
STRICHPUNKT2
 62
     1
 10
163.90083552
 20
202.90986611
 30
0.0
 11
163.90083552
 21
201.53486611
 31
0.0
  0
LINE
  5
35A
  8
0
  6
STRICHPUNKT2
 62
     1
 10
201.40083552
 20
199.53486611
 30
0.0
 11
201.40083552
 21
198.15986611
 31
0.0
  0
LINE
  5
35B
  8
0
  6
STRICHPUNKT2
 62
     1
 10
201.40083552
 20
202.90986611
 30
0.0
 11
201.40083552
 21
201.53486611
 31
0.0
  0
LINE
  5
35C
  8
0
  6
STRICHPUNKT2
 62
     1
 10
238.90083552
 20
199.53486611
 30
0.0
 11
238.90083552
 21
198.15986611
 31
0.0
  0
LINE
  5
35D
  8
0
  6
STRICHPUNKT2
 62
     1
 10
238.90083552
 20
202.90986611
 30
0.0
 11
238.90083552
 21
201.53486611
 31
0.0
  0
LINE
  5
35E
  8
0
 10
150.83732719
 20
198.03486611
 30
0.0
 11
152.90083552
 21
198.03486611
 31
0.0
  0
LINE
  5
35F
  8
0
 10
152.90083552
 20
199.53486611
 30
0.0
 11
152.90083552
 21
198.03486611
 31
0.0
  0
LINE
  5
360
  8
0
 10
148.90083552
 20
199.53486611
 30
0.0
 11
152.90083552
 21
199.53486611
 31
0.0
  0
LINE
  5
361
  8
0
 10
148.90083552
 20
199.53486611
 30
0.0
 11
150.83732719
 21
198.03486611
 31
0.0
  0
POLYLINE
  5
362
  8
0
 66
     1
 10
0.0
 20
0.0
 30
0.0
  0
VERTEX
  5
363
  8
0
 10
152.90083552
 20
199.53486611
 30
0.0
  0
VERTEX
  5
364
  8
0
 10
174.90083552
 20
199.53486611
 30
0.0
  0
VERTEX
  5
365
  8
0
 10
174.90083552
 20
198.03486611
 30
0.0
  0
SEQEND
  5
366
  8
0
  0
POLYLINE
  5
367
  8
0
 66
     1
 10
0.0
 20
0.0
 30
0.0
  0
VERTEX
  5
368
  8
0
 10
152.90083552
 20
198.03486611
 30
0.0
  0
VERTEX
  5
369
  8
0
 10
174.90083552
 20
198.03486611
 30
0.0
  0
VERTEX
  5
36A
  8
0
 10
176.96434384
 20
198.03486611
 30
0.0
  0
SEQEND
  5
36B
  8
0
  0
LINE
  5
36C
  8
0
 10
178.90083552
 20
199.53486611
 30
0.0
 11
176.96434384
 21
198.03486611
 31
0.0
  0
LINE
  5
36D
  8
0
 10
174.90083552
 20
199.53486611
 30
0.0
 11
178.90083552
 21
199.53486611
 31
0.0
  0
LINE
  5
36E
  8
0
 10
82.90083552
 20
198.03486611
 30
0.0
 11
80.83732719
 21
198.03486611
 31
0.0
  0
LINE
  5
36F
  8
0
 10
78.90083552
 20
199.53486611
 30
0.0
 11
80.83732719
 21
198.03486611
 31
0.0
  0
LINE
  5
370
  8
0
 10
82.90083552
 20
199.53486611
 30
0.0
 11
78.90083552
 21
199.53486611
 31
0.0
  0
LINE
  5
371
  8
0
 10
82.90083552
 20
199.53486611
 30
0.0
 11
82.90083552
 21
198.03486611
 31
0.0
  0
LINE
  5
372
  8
0
 10
104.90083552
 20
198.03486611
 30
0.0
 11
82.90083552
 21
198.03486611
 31
0.0
  0
LINE
  5
373
  8
0
 10
104.90083552
 20
199.53486611
 30
0.0
 11
104.90083552
 21
198.03486611
 31
0.0
  0
LINE
  5
374
  8
0
 10
104.90083552
 20
199.53486611
 30
0.0
 11
82.90083552
 21
199.53486611
 31
0.0
  0
LINE
  5
375
  8
0
 10
108.90083552
 20
199.53486611
 30
0.0
 11
104.90083552
 21
199.53486611
 31
0.0
  0
POLYLINE
  5
376
  8
0
 66
     1
 10
0.0
 20
0.0
 30
0.0
  0
VERTEX
  5
377
  8
0
 10
108.90083552
 20
199.53486611
 30
0.0
  0
VERTEX
  5
378
  8
0
 10
106.96434384
 20
198.03486611
 30
0.0
  0
VERTEX
  5
379
  8
0
 10
104.90083552
 20
198.03486611
 30
0.0
  0
SEQEND
  5
37A
  8
0
  0
LINE
  5
37B
  8
0
 10
258.90083552
 20
201.53486611
 30
0.0
 11
136.90083552
 21
201.53486611
 31
0.0
  0
LINE
  5
37C
  8
0
 10
136.90083552
 20
199.53486611
 30
0.0
 11
136.90083552
 21
201.53486611
 31
0.0
  0
POLYLINE
  5
37D
  8
0
 66
     1
 10
0.0
 20
0.0
 30
0.0
  0
VERTEX
  5
37E
  8
0
 10
136.90083552
 20
199.53486611
 30
0.0
  0
VERTEX
  5
37F
  8
0
 10
258.90083552
 20
199.53486611
 30
0.0
  0
VERTEX
  5
380
  8
0
 10
258.90083552
 20
201.53486611
 30
0.0
  0
SEQEND
  5
381
  8
0
  0
LINE
  5
382
  8
0
 10
133.40083552
 20
199.53486611
 30
0.0
 11
136.90083552
 21
199.53486611
 31
0.0
  0
LINE
  5
383
  8
0
 10
133.40083552
 20
199.53486611
 30
0.0
 11
133.40083552
 21
201.53486611
 31
0.0
  0
LINE
  5
384
  8
0
 10
136.90083552
 20
201.53486611
 30
0.0
 11
133.40083552
 21
201.53486611
 31
0.0
  0
LINE
  5
385
  8
0
  6
STRICHPUNKT2
 62
     1
 10
163.90083552
 20
199.53486611
 30
0.0
 11
163.90083552
 21
198.15986611
 31
0.0
  0
LINE
  5
386
  8
0
  6
STRICHPUNKT2
 62
     1
 10
163.90083552
 20
202.90986611
 30
0.0
 11
163.90083552
 21
201.53486611
 31
0.0
  0
LINE
  5
387
  8
0
  6
STRICHPUNKT2
 62
     1
 10
201.40083552
 20
199.53486611
 30
0.0
 11
201.40083552
 21
198.15986611
 31
0.0
  0
LINE
  5
388
  8
0
  6
STRICHPUNKT2
 62
     1
 10
201.40083552
 20
202.90986611
 30
0.0
 11
201.40083552
 21
201.53486611
 31
0.0
  0
LINE
  5
389
  8
0
  6
STRICHPUNKT2
 62
     1
 10
238.90083552
 20
199.53486611
 30
0.0
 11
238.90083552
 21
198.15986611
 31
0.0
  0
LINE
  5
38A
  8
0
  6
STRICHPUNKT2
 62
     1
 10
238.90083552
 20
202.90986611
 30
0.0
 11
238.90083552
 21
201.53486611
 31
0.0
  0
POLYLINE
  5
38B
  8
0
 66
     1
 10
0.0
 20
0.0
 30
0.0
  0
VERTEX
  5
38C
  8
0
 10
-1.09916448
 20
199.53486611
 30
0.0
  0
VERTEX
  5
38D
  8
0
 10
-1.09916448
 20
201.53486611
 30
0.0
  0
VERTEX
  5
38E
  8
0
 10
120.90083552
 20
201.53486611
 30
0.0
  0
SEQEND
  5
38F
  8
0
  0
LINE
  5
390
  8
0
 10
120.90083552
 20
199.53486611
 30
0.0
 11
120.90083552
 21
201.53486611
 31
0.0
  0
LINE
  5
391
  8
0
 10
120.90083552
 20
199.53486611
 30
0.0
 11
-1.09916448
 21
199.53486611
 31
0.0
  0
LINE
  5
392
  8
0
 10
124.40083552
 20
199.53486611
 30
0.0
 11
120.90083552
 21
199.53486611
 31
0.0
  0
LINE
  5
393
  8
0
 10
124.40083552
 20
199.53486611
 30
0.0
 11
124.40083552
 21
201.53486611
 31
0.0
  0
LINE
  5
394
  8
0
 10
120.90083552
 20
201.53486611
 30
0.0
 11
124.40083552
 21
201.53486611
 31
0.0
  0
LINE
  5
395
  8
0
  6
STRICHPUNKT2
 62
     1
 10
93.90083552
 20
199.53486611
 30
0.0
 11
93.90083552
 21
198.15986611
 31
0.0
  0
LINE
  5
396
  8
0
  6
STRICHPUNKT2
 62
     1
 10
93.90083552
 20
202.90986611
 30
0.0
 11
93.90083552
 21
201.53486611
 31
0.0
  0
LINE
  5
397
  8
0
  6
STRICHPUNKT2
 62
     1
 10
56.40083552
 20
199.53486611
 30
0.0
 11
56.40083552
 21
198.15986611
 31
0.0
  0
LINE
  5
398
  8
0
  6
STRICHPUNKT2
 62
     1
 10
56.40083552
 20
202.90986611
 30
0.0
 11
56.40083552
 21
201.53486611
 31
0.0
  0
LINE
  5
399
  8
0
  6
STRICHPUNKT2
 62
     1
 10
82.90083552
 20
198.03486611
 30
0.0
 11
82.90083552
 21
197.53486611
 31
0.0
  0
LINE
  5
39A
  8
0
  6
STRICHPUNKT2
 62
     1
 10
82.90083552
 20
203.53486611
 30
0.0
 11
82.90083552
 21
201.53486611
 31
0.0
  0
LINE
  5
39B
  8
0
  6
STRICHPUNKT2
 62
     1
 10
18.90083552
 20
199.53486611
 30
0.0
 11
18.90083552
 21
198.15986611
 31
0.0
  0
LINE
  5
39C
  8
0
  6
STRICHPUNKT2
 62
     1
 10
18.90083552
 20
202.90986611
 30
0.0
 11
18.90083552
 21
201.53486611
 31
0.0
  0
LINE
  5
39D
  8
0
  6
STRICHPUNKT2
 62
     1
 10
104.90083552
 20
198.03486611
 30
0.0
 11
104.90083552
 21
197.53486611
 31
0.0
  0
LINE
  5
39E
  8
0
  6
STRICHPUNKT2
 62
     1
 10
104.90083552
 20
203.53486611
 30
0.0
 11
104.90083552
 21
201.53486611
 31
0.0
  0
LINE
  5
39F
  8
0
 10
311.91562591
 20
356.0929461
 30
0.0
 11
301.51562598
 21
356.09294606
 31
0.0
  0
LINE
  5
3A0
  8
0
 10
301.51562598
 20
355.79294606
 30
0.0
 11
301.51562598
 21
356.09294606
 31
0.0
  0
LINE
  5
3A1
  8
0
 10
311.91562598
 20
355.79294606
 30
0.0
 11
301.51562598
 21
355.79294606
 31
0.0
  0
LINE
  5
3A2
  8
0
 10
311.91562598
 20
355.79294606
 30
0.0
 11
311.91562591
 21
356.0929461
 31
0.0
  0
ARC
  5
3A3
  8
0
 10
306.71562598
 20
345.4262794
 30
0.0
 40
11.86666667
 50
64.01076678600002
 51
90.0
  0
ARC
  5
3A4
  8
0
 10
306.71562598
 20
345.4262794
 30
0.0
 40
11.86666667
 50
90.0
 51
115.989233584
  0
LINE
  5
3A5
  8
0
 10
304.01562598
 20
355.54294606
 30
0.0
 11
304.01562598
 21
355.79294606
 31
0.0
  0
LINE
  5
3A6
  8
0
 10
304.01562598
 20
264.79294606
 30
0.0
 11
304.01562598
 21
265.79294606
 31
0.0
  0
LINE
  5
3A7
  8
0
 10
304.01562598
 20
295.04294606
 30
0.0
 11
304.01562598
 21
296.04294606
 31
0.0
  0
LINE
  5
3A8
  8
0
 10
304.01562598
 20
325.29294606
 30
0.0
 11
304.01562598
 21
326.29294606
 31
0.0
  0
LINE
  5
3A9
  8
0
 10
306.93786544
 20
235.69294606
 30
0.0
 11
306.71562598
 21
235.69294606
 31
0.0
  0
LINE
  5
3AA
  8
0
 10
309.41562598
 20
355.54294606
 30
0.0
 11
309.41562598
 21
355.79294606
 31
0.0
  0
LINE
  5
3AB
  8
0
 10
309.41562598
 20
264.79294606
 30
0.0
 11
309.41562598
 21
265.79294606
 31
0.0
  0
LINE
  5
3AC
  8
0
 10
309.41562598
 20
295.04294606
 30
0.0
 11
309.41562598
 21
296.04294606
 31
0.0
  0
LINE
  5
3AD
  8
0
 10
309.41562598
 20
325.29294606
 30
0.0
 11
309.41562598
 21
326.29294606
 31
0.0
  0
LINE
  5
3AE
  8
0
 10
306.71562598
 20
326.29294606
 30
0.0
 11
311.71562598
 21
326.29294606
 31
0.0
  0
LINE
  5
3AF
  8
0
 10
301.71562598
 20
326.29294606
 30
0.0
 11
304.71562598
 21
326.29294606
 31
0.0
  0
LINE
  5
3B0
  8
0
 10
311.71562598
 20
355.54294606
 30
0.0
 11
311.71562598
 21
326.29294606
 31
0.0
  0
LINE
  5
3B1
  8
0
 10
304.71562598
 20
355.54294606
 30
0.0
 11
301.71562598
 21
355.54294606
 31
0.0
  0
LINE
  5
3B2
  8
0
 10
311.71562598
 20
355.54294606
 30
0.0
 11
306.71562598
 21
355.54294606
 31
0.0
  0
LINE
  5
3B3
  8
0
 10
301.71562598
 20
355.54294606
 30
0.0
 11
301.71562598
 21
326.29294606
 31
0.0
  0
LINE
  5
3B4
  8
0
 10
306.71562598
 20
265.79294606
 30
0.0
 11
311.71562598
 21
265.79294606
 31
0.0
  0
LINE
  5
3B5
  8
0
 10
301.71562598
 20
265.79294606
 30
0.0
 11
304.71562598
 21
265.79294606
 31
0.0
  0
LINE
  5
3B6
  8
0
 10
311.71562598
 20
295.04294606
 30
0.0
 11
311.71562598
 21
265.79294606
 31
0.0
  0
LINE
  5
3B7
  8
0
 10
304.71562598
 20
295.04294606
 30
0.0
 11
301.71562598
 21
295.04294606
 31
0.0
  0
LINE
  5
3B8
  8
0
 10
311.71562598
 20
295.04294606
 30
0.0
 11
306.71562598
 21
295.04294606
 31
0.0
  0
LINE
  5
3B9
  8
0
 10
301.71562598
 20
295.04294606
 30
0.0
 11
301.71562598
 21
265.79294606
 31
0.0
  0
POLYLINE
  5
3BA
  8
0
 66
     1
 10
0.0
 20
0.0
 30
0.0
  0
VERTEX
  5
3BB
  8
0
 10
303.59062601
 20
296.04294606
 30
0.0
  0
VERTEX
  5
3BC
  8
0
 10
303.59062601
 20
325.29294606
 30
0.0
  0
VERTEX
  5
3BD
  8
0
 10
304.71562598
 20
325.29294606
 30
0.0
  0
SEQEND
  5
3BE
  8
0
  0
LINE
  5
3BF
  8
0
 10
304.71562598
 20
296.04294606
 30
0.0
 11
303.59062601
 21
296.04294606
 31
0.0
  0
LINE
  5
3C0
  8
0
 10
301.71562598
 20
296.04294606
 30
0.0
 11
303.59062601
 21
296.04294606
 31
0.0
  0
LINE
  5
3C1
  8
0
 10
301.71562598
 20
325.29294606
 30
0.0
 11
301.71562598
 21
296.04294606
 31
0.0
  0
LINE
  5
3C2
  8
0
 10
303.59062601
 20
325.29294606
 30
0.0
 11
301.71562598
 21
325.29294606
 31
0.0
  0
LINE
  5
3C3
  8
0
 10
303.59062601
 20
264.79294606
 30
0.0
 11
303.59062601
 21
235.54294606
 31
0.0
  0
LINE
  5
3C4
  8
0
 10
304.71562598
 20
235.54294606
 30
0.0
 11
303.59062601
 21
235.54294606
 31
0.0
  0
LINE
  5
3C5
  8
0
 10
303.59062601
 20
264.79294606
 30
0.0
 11
304.71562598
 21
264.79294606
 31
0.0
  0
POLYLINE
  5
3C6
  8
0
 66
     1
 10
0.0
 20
0.0
 30
0.0
  0
VERTEX
  5
3C7
  8
0
 10
303.59062601
 20
264.79294606
 30
0.0
  0
VERTEX
  5
3C8
  8
0
 10
301.71562598
 20
264.79294606
 30
0.0
  0
VERTEX
  5
3C9
  8
0
 10
301.71562598
 20
235.54294606
 30
0.0
  0
VERTEX
  5
3CA
  8
0
 10
303.59062601
 20
235.54294606
 30
0.0
  0
SEQEND
  5
3CB
  8
0
  0
LINE
  5
3CC
  8
0
 10
306.93786544
 20
296.04294606
 30
0.0
 11
307.22358281
 21
296.04294606
 31
0.0
  0
LINE
  5
3CD
  8
0
 10
307.22358281
 20
305.19871551
 30
0.0
 11
307.22358281
 21
296.04294606
 31
0.0
  0
LINE
  5
3CE
  8
0
 10
307.22358281
 20
325.29294606
 30
0.0
 11
307.22358281
 21
311.88717662
 31
0.0
  0
LINE
  5
3CF
  8
0
 10
307.22358281
 20
325.29294606
 30
0.0
 11
306.93786544
 21
325.29294606
 31
0.0
  0
LINE
  5
3D0
  8
0
 10
306.93786544
 20
304.82985597
 30
0.0
 11
306.93786544
 21
296.04294606
 31
0.0
  0
LINE
  5
3D1
  8
0
 10
306.93786544
 20
325.29294606
 30
0.0
 11
306.93786544
 21
312.25603615
 31
0.0
  0
LINE
  5
3D2
  8
0
 10
311.71562598
 20
325.29294606
 30
0.0
 11
307.22358281
 21
325.29294606
 31
0.0
  0
LINE
  5
3D3
  8
0
 10
311.71562598
 20
325.29294606
 30
0.0
 11
311.71562598
 21
296.04294606
 31
0.0
  0
LINE
  5
3D4
  8
0
 10
307.22358281
 20
296.04294606
 30
0.0
 11
311.71562598
 21
296.04294606
 31
0.0
  0
LINE
  5
3D5
  8
0
 10
306.93786544
 20
235.54294606
 30
0.0
 11
307.22358281
 21
235.54294606
 31
0.0
  0
LINE
  5
3D6
  8
0
 10
307.22358281
 20
264.79294606
 30
0.0
 11
307.22358281
 21
235.54294606
 31
0.0
  0
POLYLINE
  5
3D7
  8
0
 66
     1
 10
0.0
 20
0.0
 30
0.0
  0
VERTEX
  5
3D8
  8
0
 10
307.22358281
 20
264.79294606
 30
0.0
  0
VERTEX
  5
3D9
  8
0
 10
306.93786544
 20
264.79294606
 30
0.0
  0
VERTEX
  5
3DA
  8
0
 10
306.93786544
 20
235.54294606
 30
0.0
  0
SEQEND
  5
3DB
  8
0
  0
LINE
  5
3DC
  8
0
 10
311.71562598
 20
264.79294606
 30
0.0
 11
307.22358281
 21
264.79294606
 31
0.0
  0
LINE
  5
3DD
  8
0
 10
311.71562598
 20
264.79294606
 30
0.0
 11
311.71562598
 21
235.54294606
 31
0.0
  0
LINE
  5
3DE
  8
0
 10
307.22358281
 20
235.54294606
 30
0.0
 11
311.71562598
 21
235.54294606
 31
0.0
  0
POLYLINE
  5
3DF
  8
0
 66
     1
 10
0.0
 20
0.0
 30
0.0
  0
VERTEX
  5
3E0
  8
0
 10
306.93786544
 20
235.54294606
 30
0.0
  0
VERTEX
  5
3E1
  8
0
 10
306.71562598
 20
235.54294606
 30
0.0
  0
VERTEX
  5
3E2
  8
0
 10
304.71562598
 20
235.54294606
 30
0.0
  0
SEQEND
  5
3E3
  8
0
  0
LINE
  5
3E4
  8
0
 10
304.71562598
 20
265.54294606
 30
0.0
 11
304.71562598
 21
235.54294606
 31
0.0
  0
LINE
  5
3E5
  8
0
 10
306.71562598
 20
265.54294606
 30
0.0
 11
304.71562598
 21
265.54294606
 31
0.0
  0
LINE
  5
3E6
  8
0
 10
306.71562598
 20
235.54294606
 30
0.0
 11
306.71562598
 21
265.54294606
 31
0.0
  0
LINE
  5
3E7
  8
0
 10
306.71562598
 20
325.54294606
 30
0.0
 11
306.71562598
 21
265.54294606
 31
0.0
  0
LINE
  5
3E8
  8
0
 10
306.71562598
 20
325.54294606
 30
0.0
 11
304.71562598
 21
325.54294606
 31
0.0
  0
POLYLINE
  5
3E9
  8
0
 66
     1
 10
0.0
 20
0.0
 30
0.0
  0
VERTEX
  5
3EA
  8
0
 10
304.71562598
 20
265.54294606
 30
0.0
  0
VERTEX
  5
3EB
  8
0
 10
304.71562598
 20
325.54294606
 30
0.0
  0
VERTEX
  5
3EC
  8
0
 10
304.71562598
 20
355.54294606
 30
0.0
  0
SEQEND
  5
3ED
  8
0
  0
LINE
  5
3EE
  8
0
 10
306.71562598
 20
355.54294606
 30
0.0
 11
304.71562598
 21
355.54294606
 31
0.0
  0
LINE
  5
3EF
  8
0
 10
306.71562598
 20
355.54294606
 30
0.0
 11
306.71562598
 21
325.54294606
 31
0.0
  0
LINE
  5
3F0
  8
0
  6
STRICHPUNKT2
 62
     1
 10
306.71562598
 20
313.54294606
 30
0.0
 11
308.09062598
 21
313.54294606
 31
0.0
  0
LINE
  5
3F1
  8
0
  6
STRICHPUNKT2
 62
     1
 10
303.34062598
 20
313.54294606
 30
0.0
 11
304.71562598
 21
313.54294606
 31
0.0
  0
LINE
  5
3F2
  8
0
  6
STRICHPUNKT2
 62
     1
 10
306.71562598
 20
267.54294606
 30
0.0
 11
308.09062598
 21
267.54294606
 31
0.0
  0
LINE
  5
3F3
  8
0
  6
STRICHPUNKT2
 62
     1
 10
303.34062598
 20
267.54294606
 30
0.0
 11
304.71562598
 21
267.54294606
 31
0.0
  0
LINE
  5
3F4
  8
0
  6
STRICHPUNKT2
 62
     1
 10
306.71562598
 20
333.54294606
 30
0.0
 11
308.09062598
 21
333.54294606
 31
0.0
  0
LINE
  5
3F5
  8
0
  6
STRICHPUNKT2
 62
     1
 10
303.34062598
 20
333.54294606
 30
0.0
 11
304.71562598
 21
333.54294606
 31
0.0
  0
LINE
  5
3F6
  8
0
  6
STRICHPUNKT2
 62
     1
 10
306.71562598
 20
257.54294606
 30
0.0
 11
308.09062598
 21
257.54294606
 31
0.0
  0
LINE
  5
3F7
  8
0
  6
STRICHPUNKT2
 62
     1
 10
303.34062598
 20
257.54294606
 30
0.0
 11
304.71562598
 21
257.54294606
 31
0.0
  0
LINE
  5
3F8
  8
0
  6
STRICHPUNKT2
 62
     1
 10
306.71562598
 20
295.54294606
 30
0.0
 11
308.09062598
 21
295.54294606
 31
0.0
  0
LINE
  5
3F9
  8
0
  6
STRICHPUNKT2
 62
     1
 10
303.34062598
 20
295.54294606
 30
0.0
 11
304.71562598
 21
295.54294606
 31
0.0
  0
LINE
  5
3FA
  8
0
  6
STRICHPUNKT2
 62
     1
 10
306.71562598
 20
323.54294606
 30
0.0
 11
308.09062598
 21
323.54294606
 31
0.0
  0
LINE
  5
3FB
  8
0
  6
STRICHPUNKT2
 62
     1
 10
303.34062598
 20
323.54294606
 30
0.0
 11
304.71562598
 21
323.54294606
 31
0.0
  0
LINE
  5
3FC
  8
0
  6
STRICHPUNKT2
 62
     1
 10
306.71562598
 20
277.54294606
 30
0.0
 11
308.09062598
 21
277.54294606
 31
0.0
  0
LINE
  5
3FD
  8
0
  6
STRICHPUNKT2
 62
     1
 10
303.34062598
 20
277.54294606
 30
0.0
 11
304.71562598
 21
277.54294606
 31
0.0
  0
LINE
  5
3FE
  8
0
 10
306.71562598
 20
312.54294606
 30
0.0
 11
308.21562598
 21
310.60645439
 31
0.0
  0
LINE
  5
3FF
  8
0
 10
308.21562598
 20
306.47943774
 30
0.0
 11
308.21562598
 21
310.60645439
 31
0.0
  0
LINE
  5
400
  8
0
 10
306.71562598
 20
304.54294606
 30
0.0
 11
308.21562598
 21
306.47943774
 31
0.0
  0
LINE
  5
401
  8
0
 10
306.71562598
 20
304.54294606
 30
0.0
 11
306.71562598
 21
312.54294606
 31
0.0
  0
LINE
  5
402
  8
0
 10
306.71562598
 20
286.54294606
 30
0.0
 11
308.21562598
 21
284.60645439
 31
0.0
  0
LINE
  5
403
  8
0
 10
308.21562598
 20
280.47943774
 30
0.0
 11
308.21562598
 21
284.60645439
 31
0.0
  0
LINE
  5
404
  8
0
 10
306.71562598
 20
278.54294606
 30
0.0
 11
308.21562598
 21
280.47943774
 31
0.0
  0
LINE
  5
405
  8
0
 10
306.71562598
 20
278.54294606
 30
0.0
 11
306.71562598
 21
286.54294606
 31
0.0
  0
LINE
  5
406
  8
0
 10
306.71562598
 20
355.54294606
 30
0.0
 11
304.71562598
 21
355.54294606
 31
0.0
  0
LINE
  5
407
  8
0
 10
304.71562598
 20
325.54294606
 30
0.0
 11
304.71562598
 21
355.54294606
 31
0.0
  0
LINE
  5
408
  8
0
 10
306.71562598
 20
325.54294606
 30
0.0
 11
304.71562598
 21
325.54294606
 31
0.0
  0
POLYLINE
  5
409
  8
0
 66
     1
 10
0.0
 20
0.0
 30
0.0
  0
VERTEX
  5
40A
  8
0
 10
306.71562598
 20
355.54294606
 30
0.0
  0
VERTEX
  5
40B
  8
0
 10
306.71562598
 20
325.54294606
 30
0.0
  0
VERTEX
  5
40C
  8
0
 10
306.71562598
 20
265.54294606
 30
0.0
  0
VERTEX
  5
40D
  8
0
 10
304.71562598
 20
265.54294606
 30
0.0
  0
VERTEX
  5
40E
  8
0
 10
304.71562598
 20
325.54294606
 30
0.0
  0
SEQEND
  5
40F
  8
0
  0
LINE
  5
410
  8
0
 10
304.71562598
 20
265.54294606
 30
0.0
 11
304.71562598
 21
235.54294606
 31
0.0
  0
LINE
  5
411
  8
0
 10
306.71562598
 20
235.54294606
 30
0.0
 11
304.71562598
 21
235.54294606
 31
0.0
  0
LINE
  5
412
  8
0
 10
306.71562598
 20
235.54294606
 30
0.0
 11
306.71562598
 21
265.54294606
 31
0.0
  0
LINE
  5
413
  8
0
  6
STRICHPUNKT2
 62
     1
 10
306.71562598
 20
313.54294606
 30
0.0
 11
308.09062598
 21
313.54294606
 31
0.0
  0
LINE
  5
414
  8
0
  6
STRICHPUNKT2
 62
     1
 10
303.34062598
 20
313.54294606
 30
0.0
 11
304.71562598
 21
313.54294606
 31
0.0
  0
LINE
  5
415
  8
0
  6
STRICHPUNKT2
 62
     1
 10
306.71562598
 20
267.54294606
 30
0.0
 11
308.09062598
 21
267.54294606
 31
0.0
  0
LINE
  5
416
  8
0
  6
STRICHPUNKT2
 62
     1
 10
303.34062598
 20
267.54294606
 30
0.0
 11
304.71562598
 21
267.54294606
 31
0.0
  0
LINE
  5
417
  8
0
  6
STRICHPUNKT2
 62
     1
 10
306.71562598
 20
323.54294606
 30
0.0
 11
308.09062598
 21
323.54294606
 31
0.0
  0
LINE
  5
418
  8
0
  6
STRICHPUNKT2
 62
     1
 10
303.34062598
 20
323.54294606
 30
0.0
 11
304.71562598
 21
323.54294606
 31
0.0
  0
LINE
  5
419
  8
0
  6
STRICHPUNKT2
 62
     1
 10
306.71562598
 20
295.54294606
 30
0.0
 11
308.09062598
 21
295.54294606
 31
0.0
  0
LINE
  5
41A
  8
0
  6
STRICHPUNKT2
 62
     1
 10
303.34062598
 20
295.54294606
 30
0.0
 11
304.71562598
 21
295.54294606
 31
0.0
  0
LINE
  5
41B
  8
0
  6
STRICHPUNKT2
 62
     1
 10
306.71562598
 20
333.54294606
 30
0.0
 11
308.09062598
 21
333.54294606
 31
0.0
  0
LINE
  5
41C
  8
0
  6
STRICHPUNKT2
 62
     1
 10
303.34062598
 20
333.54294606
 30
0.0
 11
304.71562598
 21
333.54294606
 31
0.0
  0
LINE
  5
41D
  8
0
  6
STRICHPUNKT2
 62
     1
 10
306.71562598
 20
257.54294606
 30
0.0
 11
308.09062598
 21
257.54294606
 31
0.0
  0
LINE
  5
41E
  8
0
  6
STRICHPUNKT2
 62
     1
 10
303.34062598
 20
257.54294606
 30
0.0
 11
304.71562598
 21
257.54294606
 31
0.0
  0
LINE
  5
41F
  8
0
  6
STRICHPUNKT2
 62
     1
 10
306.71562598
 20
277.54294606
 30
0.0
 11
308.09062598
 21
277.54294606
 31
0.0
  0
LINE
  5
420
  8
0
  6
STRICHPUNKT2
 62
     1
 10
303.34062598
 20
277.54294606
 30
0.0
 11
304.71562598
 21
277.54294606
 31
0.0
  0
POLYLINE
  5
421
  8
0
 66
     1
 10
0.0
 20
0.0
 30
0.0
  0
VERTEX
  5
6B7
  8
0
 10
57.55539456
 20
172.2954768729973
 30
0.0
  0
VERTEX
  5
6B8
  8
0
 10
57.60535282924454
 20
172.1325828988764
 30
0.0
  0
VERTEX
  5
6B9
  8
0
 10
57.75330777234536
 20
171.9759488487281
 30
0.0
  0
VERTEX
  5
6BA
  8
0
 10
57.99357356380025
 20
171.8315940812718
 30
0.0
  0
VERTEX
  5
6BB
  8
0
 10
58.31691692396516
 20
171.7050660692784
 30
0.0
  0
VERTEX
  5
6BC
  8
0
 10
58.7109119488137
 20
171.6012272133023
 30
0.0
  0
VERTEX
  5
6BD
  8
0
 10
59.16041763046139
 20
171.5240679823542
 30
0.0
  0
VERTEX
  5
6BE
  8
0
 10
59.64815971760887
 20
171.4765535624148
 30
0.0
  0
VERTEX
  5
6BF
  8
0
 10
60.15539455533327
 20
171.460509906
 30
0.0
  0
VERTEX
  5
6C0
  8
0
 10
60.662629393237
 20
171.47655356183
 30
0.0
  0
VERTEX
  5
6C1
  8
0
 10
61.15037148091561
 20
171.5240679812072
 30
0.0
  0
VERTEX
  5
6C2
  8
0
 10
61.59987716342581
 20
171.6012272116371
 30
0.0
  0
VERTEX
  5
6C3
  8
0
 10
61.99387218943508
 20
171.705066067159
 30
0.0
  0
VERTEX
  5
6C4
  8
0
 10
62.31721555101436
 20
171.8315940787795
 30
0.0
  0
VERTEX
  5
6C5
  8
0
 10
62.55748134408287
 20
171.9759488459589
 30
0.0
  0
VERTEX
  5
6C6
  8
0
 10
62.70543628893459
 20
172.1325828959367
 30
0.0
  0
VERTEX
  5
6C7
  8
0
 10
62.75539456
 20
172.29547687
 30
0.0
  0
SEQEND
  5
EF8
  8
0
  0
LINE
  5
422
  8
0
 10
57.55539456
 20
172.15342217
 30
0.0
 11
57.55539456
 21
172.29547687
 31
0.0
  0
POLYLINE
  5
423
  8
0
 66
     1
 10
0.0
 20
0.0
 30
0.0
  0
VERTEX
  5
6C8
  8
0
 10
57.55539456
 20
172.1534221729974
 30
0.0
  0
VERTEX
  5
6C9
  8
0
 10
57.60535282924454
 20
171.9905281988764
 30
0.0
  0
VERTEX
  5
6CA
  8
0
 10
57.75330777234536
 20
171.8338941487281
 30
0.0
  0
VERTEX
  5
6CB
  8
0
 10
57.99357356380025
 20
171.6895393812718
 30
0.0
  0
VERTEX
  5
6CC
  8
0
 10
58.31691692396516
 20
171.5630113692785
 30
0.0
  0
VERTEX
  5
6CD
  8
0
 10
58.7109119488137
 20
171.4591725133023
 30
0.0
  0
VERTEX
  5
6CE
  8
0
 10
59.16041763046139
 20
171.3820132823542
 30
0.0
  0
VERTEX
  5
6CF
  8
0
 10
59.64815971760887
 20
171.3344988624148
 30
0.0
  0
VERTEX
  5
6D0
  8
0
 10
60.15539455533327
 20
171.318455206
 30
0.0
  0
VERTEX
  5
6D1
  8
0
 10
60.662629393237
 20
171.33449886183
 30
0.0
  0
VERTEX
  5
6D2
  8
0
 10
61.15037148091561
 20
171.3820132812072
 30
0.0
  0
VERTEX
  5
6D3
  8
0
 10
61.59987716342581
 20
171.4591725116371
 30
0.0
  0
VERTEX
  5
6D4
  8
0
 10
61.99387218943508
 20
171.563011367159
 30
0.0
  0
VERTEX
  5
6D5
  8
0
 10
62.31721555101436
 20
171.6895393787796
 30
0.0
  0
VERTEX
  5
6D6
  8
0
 10
62.55748134408287
 20
171.8338941459589
 30
0.0
  0
VERTEX
  5
6D7
  8
0
 10
62.70543628893459
 20
171.9905281959367
 30
0.0
  0
VERTEX
  5
6D8
  8
0
 10
62.75539456
 20
172.15342217
 30
0.0
  0
SEQEND
  5
EF9
  8
0
  0
LINE
  5
424
  8
0
 10
62.75539456
 20
172.15342217
 30
0.0
 11
62.75539456
 21
172.29547687
 31
0.0
  0
POLYLINE
  5
425
  8
0
 66
     1
 10
0.0
 20
0.0
 30
0.0
  0
VERTEX
  5
6D9
  8
0
 10
62.75539456
 20
172.29547687
 30
0.0
  0
VERTEX
  5
6DA
  8
0
 10
62.7074633655392
 20
172.4550632773314
 30
0.0
  0
VERTEX
  5
6DB
  8
0
 10
62.56543701246637
 20
172.6087657099528
 30
0.0
  0
VERTEX
  5
6DC
  8
0
 10
62.33455203366434
 20
172.7509171361817
 30
0.0
  0
VERTEX
  5
6DD
  8
0
 10
62.02332119283855
 20
172.8762764116693
 30
0.0
  0
SEQEND
  5
EFA
  8
0
  0
ARC
  5
426
  8
0
 10
60.15539456
 20
167.24464303
 30
0.0
 40
5.93333333
 50
71.650106826
 51
90.0
  0
ARC
  5
427
  8
0
 10
60.15539456
 20
167.24464303
 30
0.0
 40
5.93333333
 50
90.0
 51
108.349893174
  0
POLYLINE
  5
428
  8
0
 66
     1
 10
0.0
 20
0.0
 30
0.0
  0
VERTEX
  5
6DE
  8
0
 10
58.28746791556827
 20
172.8762764078241
 30
0.0
  0
VERTEX
  5
6DF
  8
0
 10
57.97623708079022
 20
172.7509171334453
 30
0.0
  0
VERTEX
  5
6E0
  8
0
 10
57.7453521061579
 20
172.6087657088613
 30
0.0
  0
VERTEX
  5
6E1
  8
0
 10
57.60332575500235
 20
172.4550632782246
 30
0.0
  0
VERTEX
  5
6E2
  8
0
 10
57.55539456
 20
172.2954768729973
 30
0.0
  0
SEQEND
  5
EFB
  8
0
  0
LINE
  5
429
  8
0
 10
58.80539456
 20
128.8535227
 30
0.0
 11
58.80539456
 21
128.86127848
 31
0.0
  0
LINE
  5
42A
  8
0
 10
58.80539456
 20
143.1773718
 30
0.0
 11
58.80539456
 21
143.18512758
 31
0.0
  0
LINE
  5
42B
  8
0
 10
58.80539456
 20
157.50122089
 30
0.0
 11
58.80539456
 21
157.50897667
 31
0.0
  0
LINE
  5
42C
  8
0
 10
61.50539456
 20
128.75695126
 30
0.0
 11
61.50539456
 21
128.86127848
 31
0.0
  0
LINE
  5
42D
  8
0
 10
61.50539456
 20
143.1773718
 30
0.0
 11
61.50539456
 21
143.18391829
 31
0.0
  0
LINE
  5
42E
  8
0
 10
61.50539456
 20
157.40464945
 30
0.0
 11
61.50539456
 21
157.50897667
 31
0.0
  0
POLYLINE
  5
42F
  8
0
 66
     1
 10
0.0
 20
0.0
 30
0.0
  0
VERTEX
  5
430
  8
0
 10
38.25499031
 20
136.90655431
 30
0.0
  0
VERTEX
  5
431
  8
0
 10
48.56203086
 20
135.67256493
 30
0.0
  0
SEQEND
  5
432
  8
0
  0
POLYLINE
  5
433
  8
0
 66
     1
 10
0.0
 20
0.0
 30
0.0
  0
VERTEX
  5
6E3
  8
0
 10
48.56203085992433
 20
129.9903768565378
 30
0.0
  0
VERTEX
  5
6E4
  8
0
 10
49.11043191265862
 20
129.9793114850682
 30
0.0
  0
VERTEX
  5
6E5
  8
0
 10
49.63775822043808
 20
130.0778530002704
 30
0.0
  0
VERTEX
  5
6E6
  8
0
 10
50.12374492893659
 20
130.2822145069692
 30
0.0
  0
VERTEX
  5
6E7
  8
0
 10
50.5497158414485
 20
130.5845425070517
 30
0.0
  0
VERTEX
  5
6E8
  8
0
 10
50.8993011346559
 20
130.9732187049956
 30
0.0
  0
VERTEX
  5
6E9
  8
0
 10
51.15906644175995
 20
131.433306492452
 30
0.0
  0
VERTEX
  5
6EA
  8
0
 10
51.31902912766394
 20
131.947124953729
 30
0.0
  0
VERTEX
  5
6EB
  8
0
 10
51.3730419160427
 20
132.4949283334674
 30
0.0
  0
VERTEX
  5
6EC
  8
0
 10
51.31902912572482
 20
133.0556648549475
 30
0.0
  0
VERTEX
  5
6ED
  8
0
 10
51.15906643795622
 20
133.6077857280646
 30
0.0
  0
VERTEX
  5
6EE
  8
0
 10
50.89930112913375
 20
134.1300732572492
 30
0.0
  0
VERTEX
  5
6EF
  8
0
 10
50.54971583442013
 20
134.6024562256113
 30
0.0
  0
VERTEX
  5
6F0
  8
0
 10
50.1237449206721
 20
135.0067812205509
 30
0.0
  0
VERTEX
  5
6F1
  8
0
 10
49.63775821125507
 20
135.3275102592251
 30
0.0
  0
VERTEX
  5
6F2
  8
0
 10
49.11043190290999
 20
135.5523179045164
 30
0.0
  0
VERTEX
  5
6F3
  8
0
 10
48.56203084998472
 20
135.6725649246703
 30
0.0
  0
SEQEND
  5
EFC
  8
0
  0
POLYLINE
  5
434
  8
0
 66
     1
 10
0.0
 20
0.0
 30
0.0
  0
VERTEX
  5
435
  8
0
 10
48.56203086
 20
129.99037686
 30
0.0
  0
VERTEX
  5
436
  8
0
 10
38.25499031
 20
131.22436624
 30
0.0
  0
SEQEND
  5
437
  8
0
  0
POLYLINE
  5
438
  8
0
 66
     1
 10
0.0
 20
0.0
 30
0.0
  0
VERTEX
  5
6F4
  8
0
 10
38.25499029998471
 20
136.9065543046703
 30
0.0
  0
VERTEX
  5
6F5
  8
0
 10
37.70658924868145
 20
136.9176196742276
 30
0.0
  0
VERTEX
  5
6F6
  8
0
 10
37.1792629425698
 20
136.8190781576395
 30
0.0
  0
VERTEX
  5
6F7
  8
0
 10
36.69327623581946
 20
136.6147166501172
 30
0.0
  0
VERTEX
  5
6F8
  8
0
 10
36.26730532498382
 20
136.3123886497696
 30
0.0
  0
VERTEX
  5
6F9
  8
0
 10
35.91772003324176
 20
135.9237124520761
 30
0.0
  0
VERTEX
  5
6FA
  8
0
 10
35.65795472727464
 20
135.4636246653079
 30
0.0
  0
VERTEX
  5
6FB
  8
0
 10
35.49799204208998
 20
134.9498062050501
 30
0.0
  0
VERTEX
  5
6FC
  8
0
 10
35.44397925395729
 20
134.4020028265326
 30
0.0
  0
VERTEX
  5
6FD
  8
0
 10
35.4979920440291
 20
133.8412663063323
 30
0.0
  0
VERTEX
  5
6FE
  8
0
 10
35.65795473107837
 20
133.2891454344067
 30
0.0
  0
VERTEX
  5
6FF
  8
0
 10
35.91772003876392
 20
132.7668579061825
 30
0.0
  0
VERTEX
  5
700
  8
0
 10
36.26730533201219
 20
132.2944749384217
 30
0.0
  0
VERTEX
  5
701
  8
0
 10
36.69327624408395
 20
131.8901499436183
 30
0.0
  0
VERTEX
  5
702
  8
0
 10
37.17926295175281
 20
131.5694209045392
 30
0.0
  0
VERTEX
  5
703
  8
0
 10
37.70658925843009
 20
131.3446132582613
 30
0.0
  0
VERTEX
  5
704
  8
0
 10
38.25499030992433
 20
131.2243662365378
 30
0.0
  0
SEQEND
  5
EFD
  8
0
  0
LINE
  5
439
  8
0
 10
38.60430979
 20
136.2604334
 30
0.0
 11
38.25499031
 21
136.90655431
 31
0.0
  0
POLYLINE
  5
43A
  8
0
 66
     1
 10
0.0
 20
0.0
 30
0.0
  0
VERTEX
  5
43B
  8
0
 10
38.60430979
 20
136.2604334
 30
0.0
  0
VERTEX
  5
43C
  8
0
 10
48.91135033
 20
135.02644401
 30
0.0
  0
VERTEX
  5
43D
  8
0
 10
48.56203086
 20
135.67256493
 30
0.0
  0
SEQEND
  5
43E
  8
0
  0
POLYLINE
  5
43F
  8
0
 66
     1
 10
0.0
 20
0.0
 30
0.0
  0
VERTEX
  5
705
  8
0
 10
48.91135032549752
 20
131.2383186306938
 30
0.0
  0
VERTEX
  5
706
  8
0
 10
49.27695102736703
 20
131.2309417155201
 30
0.0
  0
VERTEX
  5
707
  8
0
 10
49.62850189943592
 20
131.2966360581734
 30
0.0
  0
VERTEX
  5
708
  8
0
 10
49.95249303881187
 20
131.4328770619015
 30
0.0
  0
VERTEX
  5
709
  8
0
 10
50.23647364767658
 20
131.6344290613243
 30
0.0
  0
VERTEX
  5
70A
  8
0
 10
50.4695305104647
 20
131.8935465261177
 30
0.0
  0
VERTEX
  5
70B
  8
0
 10
50.64270738261867
 20
132.200271717402
 30
0.0
  0
VERTEX
  5
70C
  8
0
 10
50.74934917404515
 20
132.5428173580626
 30
0.0
  0
VERTEX
  5
70D
  8
0
 10
50.7853577004957
 20
132.9080196112008
 30
0.0
  0
VERTEX
  5
70E
  8
0
 10
50.7493491744895
 20
133.2818439590043
 30
0.0
  0
VERTEX
  5
70F
  8
0
 10
50.64270738349028
 20
133.6499245413974
 30
0.0
  0
VERTEX
  5
710
  8
0
 10
50.46953051173009
 20
133.9981162279884
 30
0.0
  0
VERTEX
  5
711
  8
0
 10
50.23647364928712
 20
134.3130382074994
 30
0.0
  0
VERTEX
  5
712
  8
0
 10
49.95249304070566
 20
134.5825882048405
 30
0.0
  0
VERTEX
  5
713
  8
0
 10
49.6285019015402
 20
134.7964075647556
 30
0.0
  0
VERTEX
  5
714
  8
0
 10
49.2769510296009
 20
134.9462793291357
 30
0.0
  0
VERTEX
  5
715
  8
0
 10
48.91135032777517
 20
135.0264440101116
 30
0.0
  0
SEQEND
  5
EFE
  8
0
  0
POLYLINE
  5
440
  8
0
 66
     1
 10
0.0
 20
0.0
 30
0.0
  0
VERTEX
  5
441
  8
0
 10
48.56203086
 20
129.99037686
 30
0.0
  0
VERTEX
  5
442
  8
0
 10
48.91135033
 20
131.23831863
 30
0.0
  0
VERTEX
  5
443
  8
0
 10
38.60430979
 20
132.47230802
 30
0.0
  0
SEQEND
  5
444
  8
0
  0
POLYLINE
  5
445
  8
0
 66
     1
 10
0.0
 20
0.0
 30
0.0
  0
VERTEX
  5
716
  8
0
 10
38.60430978777517
 20
136.2604334001117
 30
0.0
  0
VERTEX
  5
717
  8
0
 10
38.23870908685969
 20
136.2678103140105
 30
0.0
  0
VERTEX
  5
718
  8
0
 10
37.88715821590266
 20
136.2021159704333
 30
0.0
  0
VERTEX
  5
719
  8
0
 10
37.56316707769216
 20
136.0658749661561
 30
0.0
  0
VERTEX
  5
71A
  8
0
 10
37.27918646994495
 20
135.8643229665566
 30
0.0
  0
VERTEX
  5
71B
  8
0
 10
37.04612960813375
 20
135.60520550193
 30
0.0
  0
VERTEX
  5
71C
  8
0
 10
36.87295273673772
 20
135.2984803111046
 30
0.0
  0
VERTEX
  5
71D
  8
0
 10
36.7663109457908
 20
134.9559346711235
 30
0.0
  0
VERTEX
  5
71E
  8
0
 10
36.7303024195043
 20
134.5907324187992
 30
0.0
  0
VERTEX
  5
71F
  8
0
 10
36.76631094534645
 20
134.216908071849
 30
0.0
  0
VERTEX
  5
720
  8
0
 10
36.87295273586611
 20
133.8488274902502
 30
0.0
  0
VERTEX
  5
721
  8
0
 10
37.04612960686836
 20
133.5006358042994
 30
0.0
  0
VERTEX
  5
722
  8
0
 10
37.27918646833442
 20
133.1857138251892
 30
0.0
  0
VERTEX
  5
723
  8
0
 10
37.56316707579838
 20
132.916163827939
 30
0.0
  0
VERTEX
  5
724
  8
0
 10
37.88715821379839
 20
132.702344467754
 30
0.0
  0
VERTEX
  5
725
  8
0
 10
38.23870908462582
 20
132.5524727027162
 30
0.0
  0
VERTEX
  5
726
  8
0
 10
38.60430978549753
 20
132.4723080206938
 30
0.0
  0
SEQEND
  5
EFF
  8
0
  0
LINE
  5
446
  8
0
 10
38.60430979
 20
132.47230802
 30
0.0
 11
38.25499031
 21
131.22436624
 31
0.0
  0
POLYLINE
  5
447
  8
0
 66
     1
 10
0.0
 20
0.0
 30
0.0
  0
VERTEX
  5
448
  8
0
 10
38.25499031
 20
160.58233794
 30
0.0
  0
VERTEX
  5
449
  8
0
 10
48.56203086
 20
159.34834855
 30
0.0
  0
SEQEND
  5
44A
  8
0
  0
POLYLINE
  5
44B
  8
0
 66
     1
 10
0.0
 20
0.0
 30
0.0
  0
VERTEX
  5
727
  8
0
 10
48.56203085992433
 20
153.6661604865378
 30
0.0
  0
VERTEX
  5
728
  8
0
 10
49.11043191265862
 20
153.6550951150682
 30
0.0
  0
VERTEX
  5
729
  8
0
 10
49.63775822043808
 20
153.7536366302704
 30
0.0
  0
VERTEX
  5
72A
  8
0
 10
50.12374492893659
 20
153.9579981369693
 30
0.0
  0
VERTEX
  5
72B
  8
0
 10
50.5497158414485
 20
154.2603261370517
 30
0.0
  0
VERTEX
  5
72C
  8
0
 10
50.8993011346559
 20
154.6490023349956
 30
0.0
  0
VERTEX
  5
72D
  8
0
 10
51.15906644175995
 20
155.109090122452
 30
0.0
  0
VERTEX
  5
72E
  8
0
 10
51.31902912766394
 20
155.622908583729
 30
0.0
  0
VERTEX
  5
72F
  8
0
 10
51.3730419160427
 20
156.1707119634674
 30
0.0
  0
VERTEX
  5
730
  8
0
 10
51.31902912572482
 20
156.7314484849475
 30
0.0
  0
VERTEX
  5
731
  8
0
 10
51.15906643795622
 20
157.2835693580646
 30
0.0
  0
VERTEX
  5
732
  8
0
 10
50.89930112913375
 20
157.8058568872492
 30
0.0
  0
VERTEX
  5
733
  8
0
 10
50.54971583442013
 20
158.2782398556113
 30
0.0
  0
VERTEX
  5
734
  8
0
 10
50.1237449206721
 20
158.6825648505509
 30
0.0
  0
VERTEX
  5
735
  8
0
 10
49.63775821125507
 20
159.0032938892251
 30
0.0
  0
VERTEX
  5
736
  8
0
 10
49.11043190290999
 20
159.2281015345164
 30
0.0
  0
VERTEX
  5
737
  8
0
 10
48.56203084998472
 20
159.3483485546703
 30
0.0
  0
SEQEND
  5
F00
  8
0
  0
POLYLINE
  5
44C
  8
0
 66
     1
 10
0.0
 20
0.0
 30
0.0
  0
VERTEX
  5
44D
  8
0
 10
48.56203086
 20
153.66616048
 30
0.0
  0
VERTEX
  5
44E
  8
0
 10
38.25499031
 20
154.90014987
 30
0.0
  0
SEQEND
  5
44F
  8
0
  0
POLYLINE
  5
450
  8
0
 66
     1
 10
0.0
 20
0.0
 30
0.0
  0
VERTEX
  5
738
  8
0
 10
38.25499029998471
 20
160.5823379346703
 30
0.0
  0
VERTEX
  5
739
  8
0
 10
37.70658924868145
 20
160.5934033042276
 30
0.0
  0
VERTEX
  5
73A
  8
0
 10
37.1792629425698
 20
160.4948617876395
 30
0.0
  0
VERTEX
  5
73B
  8
0
 10
36.69327623581946
 20
160.2905002801172
 30
0.0
  0
VERTEX
  5
73C
  8
0
 10
36.26730532498382
 20
159.9881722797696
 30
0.0
  0
VERTEX
  5
73D
  8
0
 10
35.91772003324176
 20
159.5994960820761
 30
0.0
  0
VERTEX
  5
73E
  8
0
 10
35.65795472727464
 20
159.1394082953079
 30
0.0
  0
VERTEX
  5
73F
  8
0
 10
35.49799204208998
 20
158.6255898350501
 30
0.0
  0
VERTEX
  5
740
  8
0
 10
35.44397925395729
 20
158.0777864565326
 30
0.0
  0
VERTEX
  5
741
  8
0
 10
35.4979920440291
 20
157.5170499363323
 30
0.0
  0
VERTEX
  5
742
  8
0
 10
35.65795473107837
 20
156.9649290644067
 30
0.0
  0
VERTEX
  5
743
  8
0
 10
35.91772003876392
 20
156.4426415361825
 30
0.0
  0
VERTEX
  5
744
  8
0
 10
36.26730533201219
 20
155.9702585684217
 30
0.0
  0
VERTEX
  5
745
  8
0
 10
36.69327624408395
 20
155.5659335736183
 30
0.0
  0
VERTEX
  5
746
  8
0
 10
37.17926295175281
 20
155.2452045345393
 30
0.0
  0
VERTEX
  5
747
  8
0
 10
37.70658925843009
 20
155.0203968882614
 30
0.0
  0
VERTEX
  5
748
  8
0
 10
38.25499030992433
 20
154.9001498665378
 30
0.0
  0
SEQEND
  5
F01
  8
0
  0
LINE
  5
451
  8
0
 10
38.60430979
 20
159.93621702
 30
0.0
 11
38.25499031
 21
160.58233794
 31
0.0
  0
POLYLINE
  5
452
  8
0
 66
     1
 10
0.0
 20
0.0
 30
0.0
  0
VERTEX
  5
453
  8
0
 10
38.60430979
 20
159.93621702
 30
0.0
  0
VERTEX
  5
454
  8
0
 10
48.91135033
 20
158.70222764
 30
0.0
  0
VERTEX
  5
455
  8
0
 10
48.56203086
 20
159.34834855
 30
0.0
  0
SEQEND
  5
456
  8
0
  0
POLYLINE
  5
457
  8
0
 66
     1
 10
0.0
 20
0.0
 30
0.0
  0
VERTEX
  5
749
  8
0
 10
48.91135032549752
 20
154.9141022606937
 30
0.0
  0
VERTEX
  5
74A
  8
0
 10
49.27695102736703
 20
154.90672534552
 30
0.0
  0
VERTEX
  5
74B
  8
0
 10
49.62850189943592
 20
154.9724196881733
 30
0.0
  0
VERTEX
  5
74C
  8
0
 10
49.95249303881187
 20
155.1086606919015
 30
0.0
  0
VERTEX
  5
74D
  8
0
 10
50.23647364767658
 20
155.3102126913242
 30
0.0
  0
VERTEX
  5
74E
  8
0
 10
50.4695305104647
 20
155.5693301561177
 30
0.0
  0
VERTEX
  5
74F
  8
0
 10
50.64270738261867
 20
155.876055347402
 30
0.0
  0
VERTEX
  5
750
  8
0
 10
50.74934917404515
 20
156.2186009880626
 30
0.0
  0
VERTEX
  5
751
  8
0
 10
50.7853577004957
 20
156.5838032412008
 30
0.0
  0
VERTEX
  5
752
  8
0
 10
50.7493491744895
 20
156.9576275890043
 30
0.0
  0
VERTEX
  5
753
  8
0
 10
50.64270738349028
 20
157.3257081713974
 30
0.0
  0
VERTEX
  5
754
  8
0
 10
50.46953051173009
 20
157.6738998579884
 30
0.0
  0
VERTEX
  5
755
  8
0
 10
50.23647364928712
 20
157.9888218374994
 30
0.0
  0
VERTEX
  5
756
  8
0
 10
49.95249304070566
 20
158.2583718348405
 30
0.0
  0
VERTEX
  5
757
  8
0
 10
49.6285019015402
 20
158.4721911947556
 30
0.0
  0
VERTEX
  5
758
  8
0
 10
49.2769510296009
 20
158.6220629591357
 30
0.0
  0
VERTEX
  5
759
  8
0
 10
48.91135032777517
 20
158.7022276401116
 30
0.0
  0
SEQEND
  5
F02
  8
0
  0
POLYLINE
  5
458
  8
0
 66
     1
 10
0.0
 20
0.0
 30
0.0
  0
VERTEX
  5
459
  8
0
 10
48.56203086
 20
153.66616048
 30
0.0
  0
VERTEX
  5
45A
  8
0
 10
48.91135033
 20
154.91410226
 30
0.0
  0
VERTEX
  5
45B
  8
0
 10
38.60430979
 20
156.14809164
 30
0.0
  0
SEQEND
  5
45C
  8
0
  0
POLYLINE
  5
45D
  8
0
 66
     1
 10
0.0
 20
0.0
 30
0.0
  0
VERTEX
  5
75A
  8
0
 10
38.60430978777517
 20
159.9362170201116
 30
0.0
  0
VERTEX
  5
75B
  8
0
 10
38.23870908685969
 20
159.9435939340105
 30
0.0
  0
VERTEX
  5
75C
  8
0
 10
37.88715821590266
 20
159.8778995904332
 30
0.0
  0
VERTEX
  5
75D
  8
0
 10
37.56316707769216
 20
159.7416585861561
 30
0.0
  0
VERTEX
  5
75E
  8
0
 10
37.27918646994495
 20
159.5401065865566
 30
0.0
  0
VERTEX
  5
75F
  8
0
 10
37.04612960813375
 20
159.28098912193
 30
0.0
  0
VERTEX
  5
760
  8
0
 10
36.87295273673772
 20
158.9742639311046
 30
0.0
  0
VERTEX
  5
761
  8
0
 10
36.7663109457908
 20
158.6317182911235
 30
0.0
  0
VERTEX
  5
762
  8
0
 10
36.7303024195043
 20
158.2665160387992
 30
0.0
  0
VERTEX
  5
763
  8
0
 10
36.76631094534645
 20
157.8926916918489
 30
0.0
  0
VERTEX
  5
764
  8
0
 10
36.87295273586611
 20
157.5246111102501
 30
0.0
  0
VERTEX
  5
765
  8
0
 10
37.04612960686836
 20
157.1764194242994
 30
0.0
  0
VERTEX
  5
766
  8
0
 10
37.27918646833442
 20
156.8614974451892
 30
0.0
  0
VERTEX
  5
767
  8
0
 10
37.56316707579838
 20
156.591947447939
 30
0.0
  0
VERTEX
  5
768
  8
0
 10
37.88715821379839
 20
156.378128087754
 30
0.0
  0
VERTEX
  5
769
  8
0
 10
38.23870908462582
 20
156.2282563227162
 30
0.0
  0
VERTEX
  5
76A
  8
0
 10
38.60430978549753
 20
156.1480916406937
 30
0.0
  0
SEQEND
  5
F03
  8
0
  0
LINE
  5
45E
  8
0
 10
38.60430979
 20
156.14809164
 30
0.0
 11
38.25499031
 21
154.90014987
 31
0.0
  0
POLYLINE
  5
45F
  8
0
 66
     1
 10
0.0
 20
0.0
 30
0.0
  0
VERTEX
  5
76B
  8
0
 10
44.30591407260731
 20
126.250988352246
 30
0.0
  0
VERTEX
  5
76C
  8
0
 10
44.46902010637125
 20
126.4263621301278
 30
0.0
  0
VERTEX
  5
76D
  8
0
 10
44.59137135432741
 20
126.635031162842
 30
0.0
  0
VERTEX
  5
76E
  8
0
 10
44.66826592665134
 20
126.868976416517
 30
0.0
  0
VERTEX
  5
76F
  8
0
 10
44.69674880806362
 20
127.1192075062885
 30
0.0
  0
VERTEX
  5
770
  8
0
 10
44.6757254174094
 20
127.3761081917471
 30
0.0
  0
VERTEX
  5
771
  8
0
 10
44.60600367179821
 20
127.6298059236622
 30
0.0
  0
VERTEX
  5
772
  8
0
 10
44.49026293880254
 20
127.8705512405114
 30
0.0
  0
VERTEX
  5
773
  8
0
 10
44.33295106986522
 20
128.0890924348173
 30
0.0
  0
VERTEX
  5
774
  8
0
 10
44.14011347186337
 20
128.2770310910762
 30
0.0
  0
VERTEX
  5
775
  8
0
 10
43.9191607855135
 20
128.4271448321546
 30
0.0
  0
VERTEX
  5
776
  8
0
 10
43.6785840986058
 20
128.5336648711912
 30
0.0
  0
VERTEX
  5
777
  8
0
 10
43.42762863826357
 20
128.5924977028395
 30
0.0
  0
VERTEX
  5
778
  8
0
 10
43.17593848205108
 20
128.6013824143823
 30
0.0
  0
VERTEX
  5
779
  8
0
 10
42.93318594148277
 20
128.5599775713391
 30
0.0
  0
VERTEX
  5
77A
  8
0
 10
42.70869986051755
 20
128.4698743386014
 30
0.0
  0
VERTEX
  5
77B
  8
0
 10
42.51110711331854
 20
128.3345353328586
 30
0.0
  0
SEQEND
  5
F04
  8
0
  0
POLYLINE
  5
460
  8
0
 66
     1
 10
0.0
 20
0.0
 30
0.0
  0
VERTEX
  5
77C
  8
0
 10
42.51110711331854
 20
128.3345353328586
 30
0.0
  0
VERTEX
  5
77D
  8
0
 10
42.34800107786122
 20
128.1591615555664
 30
0.0
  0
VERTEX
  5
77E
  8
0
 10
42.22564982830765
 20
127.9504925230116
 30
0.0
  0
VERTEX
  5
77F
  8
0
 10
42.14875525457349
 20
127.7165472691108
 30
0.0
  0
VERTEX
  5
780
  8
0
 10
42.12027237201113
 20
127.4663161787937
 30
0.0
  0
VERTEX
  5
781
  8
0
 10
42.14129576182655
 20
127.209415492552
 30
0.0
  0
VERTEX
  5
782
  8
0
 10
42.21101750693734
 20
126.9557177597088
 30
0.0
  0
VERTEX
  5
783
  8
0
 10
42.32675823977319
 20
126.7149724418842
 30
0.0
  0
VERTEX
  5
784
  8
0
 10
42.48407010886926
 20
126.4964312466518
 30
0.0
  0
VERTEX
  5
785
  8
0
 10
42.67690770730392
 20
126.3084925896041
 30
0.0
  0
VERTEX
  5
786
  8
0
 10
42.897860394297
 20
126.1583788479508
 30
0.0
  0
VERTEX
  5
787
  8
0
 10
43.13843708197972
 20
126.0518588086118
 30
0.0
  0
VERTEX
  5
788
  8
0
 10
43.38939254314035
 20
125.9930259769714
 30
0.0
  0
VERTEX
  5
789
  8
0
 10
43.64108270012193
 20
125.9841412657606
 30
0.0
  0
VERTEX
  5
78A
  8
0
 10
43.88383524131911
 20
126.0255461094495
 30
0.0
  0
VERTEX
  5
78B
  8
0
 10
44.10832132268963
 20
126.1156493431117
 30
0.0
  0
VERTEX
  5
78C
  8
0
 10
44.30591407
 20
126.25098835
 30
0.0
  0
SEQEND
  5
F05
  8
0
  0
POLYLINE
  5
461
  8
0
 66
     1
 10
0.0
 20
0.0
 30
0.0
  0
VERTEX
  5
78D
  8
0
 10
42.70192954800263
 20
128.4662276544289
 30
0.0
  0
VERTEX
  5
78E
  8
0
 10
42.57773136814337
 20
128.2574912811998
 30
0.0
  0
VERTEX
  5
78F
  8
0
 10
42.499297173665
 20
128.0230121427819
 30
0.0
  0
VERTEX
  5
790
  8
0
 10
42.46966862655245
 20
127.771883292101
 30
0.0
  0
VERTEX
  5
791
  8
0
 10
42.48999471578965
 20
127.5138434545116
 30
0.0
  0
VERTEX
  5
792
  8
0
 10
42.55948719980231
 20
127.258899362024
 30
0.0
  0
VERTEX
  5
793
  8
0
 10
42.67545117430457
 20
127.016937694288
 30
0.0
  0
VERTEX
  5
794
  8
0
 10
42.83338958013479
 20
126.7973416751827
 30
0.0
  0
VERTEX
  5
795
  8
0
 10
43.02717759828811
 20
126.6086271933175
 30
0.0
  0
VERTEX
  5
796
  8
0
 10
43.24930016914202
 20
126.4581125576176
 30
0.0
  0
VERTEX
  5
797
  8
0
 10
43.49114342492808
 20
126.3516346948039
 30
0.0
  0
VERTEX
  5
798
  8
0
 10
43.74332873375847
 20
126.2933227945712
 30
0.0
  0
VERTEX
  5
799
  8
0
 10
43.99607640104813
 20
126.285438180458
 30
0.0
  0
VERTEX
  5
79A
  8
0
 10
44.23958492406618
 20
126.3282866161836
 30
0.0
  0
VERTEX
  5
79B
  8
0
 10
44.46441109220287
 20
126.4202064481933
 30
0.0
  0
SEQEND
  5
F06
  8
0
  0
POLYLINE
  5
462
  8
0
 66
     1
 10
0.0
 20
0.0
 30
0.0
  0
VERTEX
  5
79C
  8
0
 10
44.30591407
 20
144.24458391
 30
0.0
  0
VERTEX
  5
79D
  8
0
 10
44.46902010443679
 20
144.4199576875253
 30
0.0
  0
VERTEX
  5
79E
  8
0
 10
44.5913713530672
 20
144.6286267200425
 30
0.0
  0
VERTEX
  5
79F
  8
0
 10
44.66826592603245
 20
144.8625719736734
 30
0.0
  0
VERTEX
  5
7A0
  8
0
 10
44.69674880802318
 20
145.1128030635392
 30
0.0
  0
VERTEX
  5
7A1
  8
0
 10
44.67572541786036
 20
145.3697037492097
 30
0.0
  0
VERTEX
  5
7A2
  8
0
 10
44.60600367263608
 20
145.6234014814285
 30
0.0
  0
VERTEX
  5
7A3
  8
0
 10
44.49026293991278
 20
145.864146798644
 30
0.0
  0
VERTEX
  5
7A4
  8
0
 10
44.33295107113074
 20
146.0826879933482
 30
0.0
  0
VERTEX
  5
7A5
  8
0
 10
44.14011347317196
 20
146.2706266500071
 30
0.0
  0
VERTEX
  5
7A6
  8
0
 10
43.91916078676455
 20
146.420740391459
 30
0.0
  0
VERTEX
  5
7A7
  8
0
 10
43.67858409971611
 20
146.5272604308177
 30
0.0
  0
VERTEX
  5
7A8
  8
0
 10
43.42762863917191
 20
146.5860932627172
 30
0.0
  0
VERTEX
  5
7A9
  8
0
 10
43.17593848272121
 20
146.5949779744264
 30
0.0
  0
VERTEX
  5
7AA
  8
0
 10
42.93318594190495
 20
146.5535731314579
 30
0.0
  0
VERTEX
  5
7AB
  8
0
 10
42.70869986070823
 20
146.4634698987032
 30
0.0
  0
VERTEX
  5
7AC
  8
0
 10
42.51110711331854
 20
146.3281308928587
 30
0.0
  0
SEQEND
  5
F07
  8
0
  0
POLYLINE
  5
463
  8
0
 66
     1
 10
0.0
 20
0.0
 30
0.0
  0
VERTEX
  5
7AD
  8
0
 10
42.51110711331854
 20
146.3281308928587
 30
0.0
  0
VERTEX
  5
7AE
  8
0
 10
42.34800107773226
 20
146.1527571153929
 30
0.0
  0
VERTEX
  5
7AF
  8
0
 10
42.22564982812761
 20
145.9440880826117
 30
0.0
  0
VERTEX
  5
7B0
  8
0
 10
42.14875525443067
 20
145.7101428284546
 30
0.0
  0
VERTEX
  5
7B1
  8
0
 10
42.12027237199766
 20
145.4599117378773
 30
0.0
  0
VERTEX
  5
7B2
  8
0
 10
42.14129576203153
 20
145.2030110513986
 30
0.0
  0
VERTEX
  5
7B3
  8
0
 10
42.21101750744007
 20
144.9493133183686
 30
0.0
  0
VERTEX
  5
7B4
  8
0
 10
42.32675824063671
 20
144.7085680004318
 30
0.0
  0
VERTEX
  5
7B5
  8
0
 10
42.48407011013478
 20
144.4900268051827
 30
0.0
  0
VERTEX
  5
7B6
  8
0
 10
42.6769077089864
 20
144.3020881482296
 30
0.0
  0
VERTEX
  5
7B7
  8
0
 10
42.89786039638209
 20
144.1519744067914
 30
0.0
  0
VERTEX
  5
7B8
  8
0
 10
43.13843708442244
 20
144.0454543677901
 30
0.0
  0
VERTEX
  5
7B9
  8
0
 10
43.38939254586537
 20
143.9866215366042
 30
0.0
  0
VERTEX
  5
7BA
  8
0
 10
43.64108270302587
 20
143.9777368259516
 30
0.0
  0
VERTEX
  5
7BB
  8
0
 10
43.88383524427437
 20
144.0191416702813
 30
0.0
  0
VERTEX
  5
7BC
  8
0
 10
44.10832132554993
 20
144.1092449046394
 30
0.0
  0
VERTEX
  5
7BD
  8
0
 10
44.30591407260731
 20
144.244583912246
 30
0.0
  0
SEQEND
  5
F08
  8
0
  0
POLYLINE
  5
464
  8
0
 66
     1
 10
0.0
 20
0.0
 30
0.0
  0
VERTEX
  5
7BE
  8
0
 10
42.70192954800263
 20
146.4598232144289
 30
0.0
  0
VERTEX
  5
7BF
  8
0
 10
42.57773136814337
 20
146.2510868411998
 30
0.0
  0
VERTEX
  5
7C0
  8
0
 10
42.499297173665
 20
146.016607702782
 30
0.0
  0
VERTEX
  5
7C1
  8
0
 10
42.46966862655245
 20
145.765478852101
 30
0.0
  0
VERTEX
  5
7C2
  8
0
 10
42.48999471578965
 20
145.5074390145116
 30
0.0
  0
VERTEX
  5
7C3
  8
0
 10
42.55948719980231
 20
145.252494922024
 30
0.0
  0
VERTEX
  5
7C4
  8
0
 10
42.67545117430457
 20
145.010533254288
 30
0.0
  0
VERTEX
  5
7C5
  8
0
 10
42.83338958013479
 20
144.7909372351827
 30
0.0
  0
VERTEX
  5
7C6
  8
0
 10
43.02717759828811
 20
144.6022227533175
 30
0.0
  0
VERTEX
  5
7C7
  8
0
 10
43.24930016914202
 20
144.4517081176176
 30
0.0
  0
VERTEX
  5
7C8
  8
0
 10
43.49114342492808
 20
144.3452302548039
 30
0.0
  0
VERTEX
  5
7C9
  8
0
 10
43.74332873375847
 20
144.2869183545712
 30
0.0
  0
VERTEX
  5
7CA
  8
0
 10
43.99607640104813
 20
144.279033740458
 30
0.0
  0
VERTEX
  5
7CB
  8
0
 10
44.23958492406618
 20
144.3218821761836
 30
0.0
  0
VERTEX
  5
7CC
  8
0
 10
44.46441109220287
 20
144.4138020081933
 30
0.0
  0
SEQEND
  5
F09
  8
0
  0
POLYLINE
  5
465
  8
0
 66
     1
 10
0.0
 20
0.0
 30
0.0
  0
VERTEX
  5
7CD
  8
0
 10
44.30591407
 20
162.23817946
 30
0.0
  0
VERTEX
  5
7CE
  8
0
 10
44.46902010443679
 20
162.4135532375252
 30
0.0
  0
VERTEX
  5
7CF
  8
0
 10
44.5913713530672
 20
162.6222222700425
 30
0.0
  0
VERTEX
  5
7D0
  8
0
 10
44.66826592603245
 20
162.8561675236733
 30
0.0
  0
VERTEX
  5
7D1
  8
0
 10
44.69674880802318
 20
163.1063986135392
 30
0.0
  0
VERTEX
  5
7D2
  8
0
 10
44.67572541786036
 20
163.3632992992096
 30
0.0
  0
VERTEX
  5
7D3
  8
0
 10
44.60600367263608
 20
163.6169970314284
 30
0.0
  0
VERTEX
  5
7D4
  8
0
 10
44.49026293991278
 20
163.857742348644
 30
0.0
  0
VERTEX
  5
7D5
  8
0
 10
44.33295107113074
 20
164.0762835433482
 30
0.0
  0
VERTEX
  5
7D6
  8
0
 10
44.14011347317196
 20
164.2642222000071
 30
0.0
  0
VERTEX
  5
7D7
  8
0
 10
43.91916078676455
 20
164.414335941459
 30
0.0
  0
VERTEX
  5
7D8
  8
0
 10
43.67858409971611
 20
164.5208559808177
 30
0.0
  0
VERTEX
  5
7D9
  8
0
 10
43.42762863917191
 20
164.5796888127171
 30
0.0
  0
VERTEX
  5
7DA
  8
0
 10
43.17593848272121
 20
164.5885735244264
 30
0.0
  0
VERTEX
  5
7DB
  8
0
 10
42.93318594190495
 20
164.5471686814579
 30
0.0
  0
VERTEX
  5
7DC
  8
0
 10
42.70869986070823
 20
164.4570654487032
 30
0.0
  0
VERTEX
  5
7DD
  8
0
 10
42.51110711331854
 20
164.3217264428586
 30
0.0
  0
SEQEND
  5
F0A
  8
0
  0
POLYLINE
  5
466
  8
0
 66
     1
 10
0.0
 20
0.0
 30
0.0
  0
VERTEX
  5
7DE
  8
0
 10
42.51110711331854
 20
164.3217264428586
 30
0.0
  0
VERTEX
  5
7DF
  8
0
 10
42.34800107773226
 20
164.1463526653929
 30
0.0
  0
VERTEX
  5
7E0
  8
0
 10
42.22564982812761
 20
163.9376836326117
 30
0.0
  0
VERTEX
  5
7E1
  8
0
 10
42.14875525443067
 20
163.7037383784545
 30
0.0
  0
VERTEX
  5
7E2
  8
0
 10
42.12027237199766
 20
163.4535072878772
 30
0.0
  0
VERTEX
  5
7E3
  8
0
 10
42.14129576203153
 20
163.1966066013986
 30
0.0
  0
VERTEX
  5
7E4
  8
0
 10
42.21101750744007
 20
162.9429088683685
 30
0.0
  0
VERTEX
  5
7E5
  8
0
 10
42.32675824063671
 20
162.7021635504317
 30
0.0
  0
VERTEX
  5
7E6
  8
0
 10
42.48407011013478
 20
162.4836223551827
 30
0.0
  0
VERTEX
  5
7E7
  8
0
 10
42.6769077089864
 20
162.2956836982296
 30
0.0
  0
VERTEX
  5
7E8
  8
0
 10
42.89786039638209
 20
162.1455699567913
 30
0.0
  0
VERTEX
  5
7E9
  8
0
 10
43.13843708442244
 20
162.0390499177901
 30
0.0
  0
VERTEX
  5
7EA
  8
0
 10
43.38939254586537
 20
161.9802170866042
 30
0.0
  0
VERTEX
  5
7EB
  8
0
 10
43.64108270302587
 20
161.9713323759516
 30
0.0
  0
VERTEX
  5
7EC
  8
0
 10
43.88383524427437
 20
162.0127372202813
 30
0.0
  0
VERTEX
  5
7ED
  8
0
 10
44.10832132554993
 20
162.1028404546394
 30
0.0
  0
VERTEX
  5
7EE
  8
0
 10
44.30591407260731
 20
162.238179462246
 30
0.0
  0
SEQEND
  5
F0B
  8
0
  0
POLYLINE
  5
467
  8
0
 66
     1
 10
0.0
 20
0.0
 30
0.0
  0
VERTEX
  5
7EF
  8
0
 10
42.70192954800263
 20
164.4534187644289
 30
0.0
  0
VERTEX
  5
7F0
  8
0
 10
42.57773136814337
 20
164.2446823911998
 30
0.0
  0
VERTEX
  5
7F1
  8
0
 10
42.499297173665
 20
164.010203252782
 30
0.0
  0
VERTEX
  5
7F2
  8
0
 10
42.46966862655245
 20
163.759074402101
 30
0.0
  0
VERTEX
  5
7F3
  8
0
 10
42.48999471578965
 20
163.5010345645116
 30
0.0
  0
VERTEX
  5
7F4
  8
0
 10
42.55948719980231
 20
163.246090472024
 30
0.0
  0
VERTEX
  5
7F5
  8
0
 10
42.67545117430457
 20
163.004128804288
 30
0.0
  0
VERTEX
  5
7F6
  8
0
 10
42.83338958013479
 20
162.7845327851827
 30
0.0
  0
VERTEX
  5
7F7
  8
0
 10
43.02717759828811
 20
162.5958183033175
 30
0.0
  0
VERTEX
  5
7F8
  8
0
 10
43.24930016914202
 20
162.4453036676176
 30
0.0
  0
VERTEX
  5
7F9
  8
0
 10
43.49114342492808
 20
162.3388258048039
 30
0.0
  0
VERTEX
  5
7FA
  8
0
 10
43.74332873375847
 20
162.2805139045712
 30
0.0
  0
VERTEX
  5
7FB
  8
0
 10
43.99607640104813
 20
162.272629290458
 30
0.0
  0
VERTEX
  5
7FC
  8
0
 10
44.23958492406618
 20
162.3154777261836
 30
0.0
  0
VERTEX
  5
7FD
  8
0
 10
44.46441109220287
 20
162.4073975581933
 30
0.0
  0
SEQEND
  5
F0C
  8
0
  0
POLYLINE
  5
468
  8
0
 66
     1
 10
0.0
 20
0.0
 30
0.0
  0
VERTEX
  5
7FE
  8
0
 10
26.73709496
 20
133.08953607
 30
0.0
  0
VERTEX
  5
7FF
  8
0
 10
26.90020099443679
 20
133.2649098475252
 30
0.0
  0
VERTEX
  5
800
  8
0
 10
27.0225522430672
 20
133.4735788800425
 30
0.0
  0
VERTEX
  5
801
  8
0
 10
27.09944681603244
 20
133.7075241336734
 30
0.0
  0
VERTEX
  5
802
  8
0
 10
27.12792969802318
 20
133.9577552235392
 30
0.0
  0
VERTEX
  5
803
  8
0
 10
27.10690630786037
 20
134.2146559092097
 30
0.0
  0
VERTEX
  5
804
  8
0
 10
27.03718456263608
 20
134.4683536414285
 30
0.0
  0
VERTEX
  5
805
  8
0
 10
26.92144382991278
 20
134.709098958644
 30
0.0
  0
VERTEX
  5
806
  8
0
 10
26.76413196113074
 20
134.9276401533482
 30
0.0
  0
VERTEX
  5
807
  8
0
 10
26.57129436317196
 20
135.1155788100071
 30
0.0
  0
VERTEX
  5
808
  8
0
 10
26.35034167676455
 20
135.265692551459
 30
0.0
  0
VERTEX
  5
809
  8
0
 10
26.10976498971612
 20
135.3722125908177
 30
0.0
  0
VERTEX
  5
80A
  8
0
 10
25.8588095291719
 20
135.4310454227171
 30
0.0
  0
VERTEX
  5
80B
  8
0
 10
25.60711937272121
 20
135.4399301344264
 30
0.0
  0
VERTEX
  5
80C
  8
0
 10
25.36436683190495
 20
135.3985252914579
 30
0.0
  0
VERTEX
  5
80D
  8
0
 10
25.13988075070823
 20
135.3084220587032
 30
0.0
  0
VERTEX
  5
80E
  8
0
 10
24.94228800331855
 20
135.1730830528587
 30
0.0
  0
SEQEND
  5
F0D
  8
0
  0
POLYLINE
  5
469
  8
0
 66
     1
 10
0.0
 20
0.0
 30
0.0
  0
VERTEX
  5
80F
  8
0
 10
24.94228800331855
 20
135.1730830528587
 30
0.0
  0
VERTEX
  5
810
  8
0
 10
24.77918196786122
 20
134.9977092755664
 30
0.0
  0
VERTEX
  5
811
  8
0
 10
24.65683071830765
 20
134.7890402430116
 30
0.0
  0
VERTEX
  5
812
  8
0
 10
24.57993614457349
 20
134.5550949891108
 30
0.0
  0
VERTEX
  5
813
  8
0
 10
24.55145326201114
 20
134.3048638987937
 30
0.0
  0
VERTEX
  5
814
  8
0
 10
24.57247665182655
 20
134.047963212552
 30
0.0
  0
VERTEX
  5
815
  8
0
 10
24.64219839693734
 20
133.7942654797088
 30
0.0
  0
VERTEX
  5
816
  8
0
 10
24.7579391297732
 20
133.5535201618843
 30
0.0
  0
VERTEX
  5
817
  8
0
 10
24.91525099886926
 20
133.3349789666518
 30
0.0
  0
VERTEX
  5
818
  8
0
 10
25.10808859730392
 20
133.1470403096041
 30
0.0
  0
VERTEX
  5
819
  8
0
 10
25.329041284297
 20
132.9969265679508
 30
0.0
  0
VERTEX
  5
81A
  8
0
 10
25.56961797197973
 20
132.8904065286118
 30
0.0
  0
VERTEX
  5
81B
  8
0
 10
25.82057343314035
 20
132.8315736969714
 30
0.0
  0
VERTEX
  5
81C
  8
0
 10
26.07226359012193
 20
132.8226889857606
 30
0.0
  0
VERTEX
  5
81D
  8
0
 10
26.31501613131912
 20
132.8640938294495
 30
0.0
  0
VERTEX
  5
81E
  8
0
 10
26.53950221268963
 20
132.9541970631117
 30
0.0
  0
VERTEX
  5
81F
  8
0
 10
26.73709496
 20
133.08953607
 30
0.0
  0
SEQEND
  5
F0E
  8
0
  0
POLYLINE
  5
46A
  8
0
 66
     1
 10
0.0
 20
0.0
 30
0.0
  0
VERTEX
  5
820
  8
0
 10
25.13311043800263
 20
135.3047753744289
 30
0.0
  0
VERTEX
  5
821
  8
0
 10
25.00891225814337
 20
135.0960390011998
 30
0.0
  0
VERTEX
  5
822
  8
0
 10
24.930478063665
 20
134.8615598627819
 30
0.0
  0
VERTEX
  5
823
  8
0
 10
24.90084951655244
 20
134.610431012101
 30
0.0
  0
VERTEX
  5
824
  8
0
 10
24.92117560578965
 20
134.3523911745116
 30
0.0
  0
VERTEX
  5
825
  8
0
 10
24.99066808980232
 20
134.097447082024
 30
0.0
  0
VERTEX
  5
826
  8
0
 10
25.10663206430457
 20
133.855485414288
 30
0.0
  0
VERTEX
  5
827
  8
0
 10
25.26457047013479
 20
133.6358893951827
 30
0.0
  0
VERTEX
  5
828
  8
0
 10
25.45835848828811
 20
133.4471749133175
 30
0.0
  0
VERTEX
  5
829
  8
0
 10
25.68048105914201
 20
133.2966602776176
 30
0.0
  0
VERTEX
  5
82A
  8
0
 10
25.92232431492808
 20
133.1901824148039
 30
0.0
  0
VERTEX
  5
82B
  8
0
 10
26.17450962375847
 20
133.1318705145712
 30
0.0
  0
VERTEX
  5
82C
  8
0
 10
26.42725729104812
 20
133.123985900458
 30
0.0
  0
VERTEX
  5
82D
  8
0
 10
26.67076581406618
 20
133.1668343361836
 30
0.0
  0
VERTEX
  5
82E
  8
0
 10
26.89559198220287
 20
133.2587541681933
 30
0.0
  0
SEQEND
  5
F0F
  8
0
  0
POLYLINE
  5
46B
  8
0
 66
     1
 10
0.0
 20
0.0
 30
0.0
  0
VERTEX
  5
82F
  8
0
 10
26.73709496
 20
159.60641373
 30
0.0
  0
VERTEX
  5
830
  8
0
 10
26.90020099443679
 20
159.7817875075253
 30
0.0
  0
VERTEX
  5
831
  8
0
 10
27.0225522430672
 20
159.9904565400425
 30
0.0
  0
VERTEX
  5
832
  8
0
 10
27.09944681603244
 20
160.2244017936734
 30
0.0
  0
VERTEX
  5
833
  8
0
 10
27.12792969802318
 20
160.4746328835392
 30
0.0
  0
VERTEX
  5
834
  8
0
 10
27.10690630786037
 20
160.7315335692097
 30
0.0
  0
VERTEX
  5
835
  8
0
 10
27.03718456263608
 20
160.9852313014285
 30
0.0
  0
VERTEX
  5
836
  8
0
 10
26.92144382991278
 20
161.225976618644
 30
0.0
  0
VERTEX
  5
837
  8
0
 10
26.76413196113074
 20
161.4445178133482
 30
0.0
  0
VERTEX
  5
838
  8
0
 10
26.57129436317196
 20
161.6324564700071
 30
0.0
  0
VERTEX
  5
839
  8
0
 10
26.35034167676455
 20
161.782570211459
 30
0.0
  0
VERTEX
  5
83A
  8
0
 10
26.10976498971612
 20
161.8890902508177
 30
0.0
  0
VERTEX
  5
83B
  8
0
 10
25.8588095291719
 20
161.9479230827172
 30
0.0
  0
VERTEX
  5
83C
  8
0
 10
25.60711937272121
 20
161.9568077944264
 30
0.0
  0
VERTEX
  5
83D
  8
0
 10
25.36436683190495
 20
161.9154029514579
 30
0.0
  0
VERTEX
  5
83E
  8
0
 10
25.13988075070823
 20
161.8252997187032
 30
0.0
  0
VERTEX
  5
83F
  8
0
 10
24.94228800331855
 20
161.6899607128587
 30
0.0
  0
SEQEND
  5
F10
  8
0
  0
POLYLINE
  5
46C
  8
0
 66
     1
 10
0.0
 20
0.0
 30
0.0
  0
VERTEX
  5
840
  8
0
 10
24.94228800331855
 20
161.6899607128587
 30
0.0
  0
VERTEX
  5
841
  8
0
 10
24.77918196773226
 20
161.5145869353929
 30
0.0
  0
VERTEX
  5
842
  8
0
 10
24.65683071812762
 20
161.3059179026117
 30
0.0
  0
VERTEX
  5
843
  8
0
 10
24.57993614443067
 20
161.0719726484546
 30
0.0
  0
VERTEX
  5
844
  8
0
 10
24.55145326199765
 20
160.8217415578773
 30
0.0
  0
VERTEX
  5
845
  8
0
 10
24.57247665203153
 20
160.5648408713986
 30
0.0
  0
VERTEX
  5
846
  8
0
 10
24.64219839744007
 20
160.3111431383685
 30
0.0
  0
VERTEX
  5
847
  8
0
 10
24.75793913063671
 20
160.0703978204318
 30
0.0
  0
VERTEX
  5
848
  8
0
 10
24.91525100013479
 20
159.8518566251827
 30
0.0
  0
VERTEX
  5
849
  8
0
 10
25.1080885989864
 20
159.6639179682296
 30
0.0
  0
VERTEX
  5
84A
  8
0
 10
25.3290412863821
 20
159.5138042267914
 30
0.0
  0
VERTEX
  5
84B
  8
0
 10
25.56961797442244
 20
159.4072841877901
 30
0.0
  0
VERTEX
  5
84C
  8
0
 10
25.82057343586537
 20
159.3484513566042
 30
0.0
  0
VERTEX
  5
84D
  8
0
 10
26.07226359302587
 20
159.3395666459516
 30
0.0
  0
VERTEX
  5
84E
  8
0
 10
26.31501613427437
 20
159.3809714902813
 30
0.0
  0
VERTEX
  5
84F
  8
0
 10
26.53950221554993
 20
159.4710747246394
 30
0.0
  0
VERTEX
  5
850
  8
0
 10
26.7370949626073
 20
159.606413732246
 30
0.0
  0
SEQEND
  5
F11
  8
0
  0
POLYLINE
  5
46D
  8
0
 66
     1
 10
0.0
 20
0.0
 30
0.0
  0
VERTEX
  5
851
  8
0
 10
25.13311043800263
 20
161.8216530344289
 30
0.0
  0
VERTEX
  5
852
  8
0
 10
25.00891225814337
 20
161.6129166611998
 30
0.0
  0
VERTEX
  5
853
  8
0
 10
24.930478063665
 20
161.378437522782
 30
0.0
  0
VERTEX
  5
854
  8
0
 10
24.90084951655244
 20
161.127308672101
 30
0.0
  0
VERTEX
  5
855
  8
0
 10
24.92117560578965
 20
160.8692688345116
 30
0.0
  0
VERTEX
  5
856
  8
0
 10
24.99066808980232
 20
160.614324742024
 30
0.0
  0
VERTEX
  5
857
  8
0
 10
25.10663206430457
 20
160.372363074288
 30
0.0
  0
VERTEX
  5
858
  8
0
 10
25.26457047013479
 20
160.1527670551827
 30
0.0
  0
VERTEX
  5
859
  8
0
 10
25.45835848828811
 20
159.9640525733175
 30
0.0
  0
VERTEX
  5
85A
  8
0
 10
25.68048105914201
 20
159.8135379376176
 30
0.0
  0
VERTEX
  5
85B
  8
0
 10
25.92232431492808
 20
159.7070600748039
 30
0.0
  0
VERTEX
  5
85C
  8
0
 10
26.17450962375847
 20
159.6487481745712
 30
0.0
  0
VERTEX
  5
85D
  8
0
 10
26.42725729104812
 20
159.640863560458
 30
0.0
  0
VERTEX
  5
85E
  8
0
 10
26.67076581406618
 20
159.6837119961836
 30
0.0
  0
VERTEX
  5
85F
  8
0
 10
26.89559198220287
 20
159.7756318281933
 30
0.0
  0
SEQEND
  5
F12
  8
0
  0
POLYLINE
  5
46E
  8
0
 66
     1
 10
0.0
 20
0.0
 30
0.0
  0
VERTEX
  5
860
  8
0
 10
9.168275849999999
 20
139.92808379
 30
0.0
  0
VERTEX
  5
861
  8
0
 10
9.331381884436789
 20
140.1034575675253
 30
0.0
  0
VERTEX
  5
862
  8
0
 10
9.4537331330672
 20
140.3121266000425
 30
0.0
  0
VERTEX
  5
863
  8
0
 10
9.530627706032446
 20
140.5460718536734
 30
0.0
  0
VERTEX
  5
864
  8
0
 10
9.559110588023179
 20
140.7963029435392
 30
0.0
  0
VERTEX
  5
865
  8
0
 10
9.538087197860369
 20
141.0532036292097
 30
0.0
  0
VERTEX
  5
866
  8
0
 10
9.468365452636084
 20
141.3069013614285
 30
0.0
  0
VERTEX
  5
867
  8
0
 10
9.35262471991278
 20
141.547646678644
 30
0.0
  0
VERTEX
  5
868
  8
0
 10
9.195312851130737
 20
141.7661878733482
 30
0.0
  0
VERTEX
  5
869
  8
0
 10
9.00247525317196
 20
141.9541265300071
 30
0.0
  0
VERTEX
  5
86A
  8
0
 10
8.781522566764554
 20
142.104240271459
 30
0.0
  0
VERTEX
  5
86B
  8
0
 10
8.540945879716118
 20
142.2107603108177
 30
0.0
  0
VERTEX
  5
86C
  8
0
 10
8.289990419171904
 20
142.2695931427172
 30
0.0
  0
VERTEX
  5
86D
  8
0
 10
8.038300262721213
 20
142.2784778544264
 30
0.0
  0
VERTEX
  5
86E
  8
0
 10
7.795547721904946
 20
142.2370730114579
 30
0.0
  0
VERTEX
  5
86F
  8
0
 10
7.571061640708226
 20
142.1469697787032
 30
0.0
  0
VERTEX
  5
870
  8
0
 10
7.373468893318549
 20
142.0116307728587
 30
0.0
  0
SEQEND
  5
F13
  8
0
  0
POLYLINE
  5
46F
  8
0
 66
     1
 10
0.0
 20
0.0
 30
0.0
  0
VERTEX
  5
871
  8
0
 10
7.373468893318549
 20
142.0116307728587
 30
0.0
  0
VERTEX
  5
872
  8
0
 10
7.210362857861225
 20
141.8362569955664
 30
0.0
  0
VERTEX
  5
873
  8
0
 10
7.088011608307645
 20
141.6275879630116
 30
0.0
  0
VERTEX
  5
874
  8
0
 10
7.011117034573495
 20
141.3936427091108
 30
0.0
  0
VERTEX
  5
875
  8
0
 10
6.982634152011135
 20
141.1434116187937
 30
0.0
  0
VERTEX
  5
876
  8
0
 10
7.003657541826547
 20
140.886510932552
 30
0.0
  0
VERTEX
  5
877
  8
0
 10
7.073379286937335
 20
140.6328131997088
 30
0.0
  0
VERTEX
  5
878
  8
0
 10
7.189120019773195
 20
140.3920678818843
 30
0.0
  0
VERTEX
  5
879
  8
0
 10
7.346431888869261
 20
140.1735266866518
 30
0.0
  0
VERTEX
  5
87A
  8
0
 10
7.539269487303915
 20
139.9855880296041
 30
0.0
  0
VERTEX
  5
87B
  8
0
 10
7.760222174297001
 20
139.8354742879508
 30
0.0
  0
VERTEX
  5
87C
  8
0
 10
8.000798861979728
 20
139.7289542486118
 30
0.0
  0
VERTEX
  5
87D
  8
0
 10
8.251754323140348
 20
139.6701214169714
 30
0.0
  0
VERTEX
  5
87E
  8
0
 10
8.503444480121935
 20
139.6612367057606
 30
0.0
  0
VERTEX
  5
87F
  8
0
 10
8.746197021319116
 20
139.7026415494495
 30
0.0
  0
VERTEX
  5
880
  8
0
 10
8.97068310268963
 20
139.7927447831117
 30
0.0
  0
VERTEX
  5
881
  8
0
 10
9.168275849999999
 20
139.92808379
 30
0.0
  0
SEQEND
  5
F14
  8
0
  0
POLYLINE
  5
470
  8
0
 66
     1
 10
0.0
 20
0.0
 30
0.0
  0
VERTEX
  5
882
  8
0
 10
7.564291328002634
 20
142.1433230944289
 30
0.0
  0
VERTEX
  5
883
  8
0
 10
7.440093148143367
 20
141.9345867211998
 30
0.0
  0
VERTEX
  5
884
  8
0
 10
7.361658953664998
 20
141.700107582782
 30
0.0
  0
VERTEX
  5
885
  8
0
 10
7.332030406552442
 20
141.448978732101
 30
0.0
  0
VERTEX
  5
886
  8
0
 10
7.352356495789649
 20
141.1909388945116
 30
0.0
  0
VERTEX
  5
887
  8
0
 10
7.421848979802316
 20
140.935994802024
 30
0.0
  0
VERTEX
  5
888
  8
0
 10
7.537812954304568
 20
140.694033134288
 30
0.0
  0
VERTEX
  5
889
  8
0
 10
7.695751360134786
 20
140.4744371151827
 30
0.0
  0
VERTEX
  5
88A
  8
0
 10
7.889539378288106
 20
140.2857226333175
 30
0.0
  0
VERTEX
  5
88B
  8
0
 10
8.111661949142007
 20
140.1352079976176
 30
0.0
  0
VERTEX
  5
88C
  8
0
 10
8.353505204928082
 20
140.0287301348039
 30
0.0
  0
VERTEX
  5
88D
  8
0
 10
8.605690513758475
 20
139.9704182345712
 30
0.0
  0
VERTEX
  5
88E
  8
0
 10
8.858438181048124
 20
139.962533620458
 30
0.0
  0
VERTEX
  5
88F
  8
0
 10
9.10194670406618
 20
140.0053820561836
 30
0.0
  0
VERTEX
  5
890
  8
0
 10
9.326772872202874
 20
140.0973018881933
 30
0.0
  0
SEQEND
  5
F15
  8
0
  0
POLYLINE
  5
471
  8
0
 66
     1
 10
0.0
 20
0.0
 30
0.0
  0
VERTEX
  5
891
  8
0
 10
9.168275849999999
 20
156.974648
 30
0.0
  0
VERTEX
  5
892
  8
0
 10
9.331381884436789
 20
157.1500217775252
 30
0.0
  0
VERTEX
  5
893
  8
0
 10
9.4537331330672
 20
157.3586908100425
 30
0.0
  0
VERTEX
  5
894
  8
0
 10
9.530627706032446
 20
157.5926360636734
 30
0.0
  0
VERTEX
  5
895
  8
0
 10
9.559110588023179
 20
157.8428671535392
 30
0.0
  0
VERTEX
  5
896
  8
0
 10
9.538087197860369
 20
158.0997678392096
 30
0.0
  0
VERTEX
  5
897
  8
0
 10
9.468365452636084
 20
158.3534655714284
 30
0.0
  0
VERTEX
  5
898
  8
0
 10
9.35262471991278
 20
158.594210888644
 30
0.0
  0
VERTEX
  5
899
  8
0
 10
9.195312851130737
 20
158.8127520833482
 30
0.0
  0
VERTEX
  5
89A
  8
0
 10
9.00247525317196
 20
159.0006907400071
 30
0.0
  0
VERTEX
  5
89B
  8
0
 10
8.781522566764554
 20
159.150804481459
 30
0.0
  0
VERTEX
  5
89C
  8
0
 10
8.540945879716118
 20
159.2573245208177
 30
0.0
  0
VERTEX
  5
89D
  8
0
 10
8.289990419171904
 20
159.3161573527171
 30
0.0
  0
VERTEX
  5
89E
  8
0
 10
8.038300262721213
 20
159.3250420644264
 30
0.0
  0
VERTEX
  5
89F
  8
0
 10
7.795547721904946
 20
159.2836372214579
 30
0.0
  0
VERTEX
  5
8A0
  8
0
 10
7.571061640708226
 20
159.1935339887032
 30
0.0
  0
VERTEX
  5
8A1
  8
0
 10
7.373468893318549
 20
159.0581949828587
 30
0.0
  0
SEQEND
  5
F16
  8
0
  0
POLYLINE
  5
472
  8
0
 66
     1
 10
0.0
 20
0.0
 30
0.0
  0
VERTEX
  5
8A2
  8
0
 10
7.373468893318549
 20
159.0581949828587
 30
0.0
  0
VERTEX
  5
8A3
  8
0
 10
7.21036285773226
 20
158.8828212053929
 30
0.0
  0
VERTEX
  5
8A4
  8
0
 10
7.088011608127614
 20
158.6741521726117
 30
0.0
  0
VERTEX
  5
8A5
  8
0
 10
7.011117034430673
 20
158.4402069184545
 30
0.0
  0
VERTEX
  5
8A6
  8
0
 10
6.982634151997655
 20
158.1899758278772
 30
0.0
  0
VERTEX
  5
8A7
  8
0
 10
7.003657542031531
 20
157.9330751413986
 30
0.0
  0
VERTEX
  5
8A8
  8
0
 10
7.073379287440065
 20
157.6793774083685
 30
0.0
  0
VERTEX
  5
8A9
  8
0
 10
7.189120020636714
 20
157.4386320904318
 30
0.0
  0
VERTEX
  5
8AA
  8
0
 10
7.346431890134785
 20
157.2200908951827
 30
0.0
  0
VERTEX
  5
8AB
  8
0
 10
7.539269488986395
 20
157.0321522382296
 30
0.0
  0
VERTEX
  5
8AC
  8
0
 10
7.7602221763821
 20
156.8820384967914
 30
0.0
  0
VERTEX
  5
8AD
  8
0
 10
8.000798864422437
 20
156.7755184577901
 30
0.0
  0
VERTEX
  5
8AE
  8
0
 10
8.251754325865374
 20
156.7166856266042
 30
0.0
  0
VERTEX
  5
8AF
  8
0
 10
8.503444483025866
 20
156.7078009159516
 30
0.0
  0
VERTEX
  5
8B0
  8
0
 10
8.746197024274366
 20
156.7492057602813
 30
0.0
  0
VERTEX
  5
8B1
  8
0
 10
8.970683105549933
 20
156.8393089946394
 30
0.0
  0
VERTEX
  5
8B2
  8
0
 10
9.168275852607303
 20
156.974648002246
 30
0.0
  0
SEQEND
  5
F17
  8
0
  0
POLYLINE
  5
473
  8
0
 66
     1
 10
0.0
 20
0.0
 30
0.0
  0
VERTEX
  5
8B3
  8
0
 10
7.564291328002634
 20
159.1898873044289
 30
0.0
  0
VERTEX
  5
8B4
  8
0
 10
7.440093148143367
 20
158.9811509311998
 30
0.0
  0
VERTEX
  5
8B5
  8
0
 10
7.361658953664998
 20
158.7466717927819
 30
0.0
  0
VERTEX
  5
8B6
  8
0
 10
7.332030406552442
 20
158.495542942101
 30
0.0
  0
VERTEX
  5
8B7
  8
0
 10
7.352356495789649
 20
158.2375031045116
 30
0.0
  0
VERTEX
  5
8B8
  8
0
 10
7.421848979802316
 20
157.982559012024
 30
0.0
  0
VERTEX
  5
8B9
  8
0
 10
7.537812954304568
 20
157.740597344288
 30
0.0
  0
VERTEX
  5
8BA
  8
0
 10
7.695751360134786
 20
157.5210013251827
 30
0.0
  0
VERTEX
  5
8BB
  8
0
 10
7.889539378288106
 20
157.3322868433175
 30
0.0
  0
VERTEX
  5
8BC
  8
0
 10
8.111661949142007
 20
157.1817722076176
 30
0.0
  0
VERTEX
  5
8BD
  8
0
 10
8.353505204928082
 20
157.0752943448039
 30
0.0
  0
VERTEX
  5
8BE
  8
0
 10
8.605690513758475
 20
157.0169824445712
 30
0.0
  0
VERTEX
  5
8BF
  8
0
 10
8.858438181048124
 20
157.009097830458
 30
0.0
  0
VERTEX
  5
8C0
  8
0
 10
9.10194670406618
 20
157.0519462661836
 30
0.0
  0
VERTEX
  5
8C1
  8
0
 10
9.326772872202874
 20
157.1438660981933
 30
0.0
  0
SEQEND
  5
F18
  8
0
  0
LINE
  5
474
  8
0
 10
62.65539456
 20
171.92408152
 30
0.0
 11
62.65539456
 21
171.73573585
 31
0.0
  0
LINE
  5
475
  8
0
 10
62.49790377093812
 20
171.7545911141048
 30
0.0
 11
62.60334964425325
 21
171.8720768867633
 31
0.0
  0
POLYLINE
  5
476
  8
0
 66
     1
 10
0.0
 20
0.0
 30
0.0
  0
VERTEX
  5
477
  8
0
 10
57.56011312
 20
172.34575802
 30
0.0
  0
VERTEX
  5
478
  8
0
 10
56.40737981
 20
172.48376666
 30
0.0
  0
VERTEX
  5
479
  8
0
 10
56.05806034
 20
172.18285623
 30
0.0
  0
VERTEX
  5
47A
  8
0
 10
56.88028197
 20
172.08441742
 30
0.0
  0
SEQEND
  5
47B
  8
0
  0
LINE
  5
47C
  8
0
 10
-1.09916448
 20
164.82041809
 30
0.0
 11
56.05806034
 21
172.18285623
 31
0.0
  0
LINE
  5
47D
  8
0
 10
-0.74984501
 20
165.12132853
 30
0.0
 11
-1.09916448
 21
164.82041809
 31
0.0
  0
LINE
  5
47E
  8
0
 10
56.40737981
 20
172.48376666
 30
0.0
 11
-0.74984501
 21
165.12132853
 31
0.0
  0
LINE
  5
47F
  8
0
 10
-1.09916448
 20
136.40947774
 30
0.0
 11
-1.09916448
 21
164.82041809
 31
0.0
  0
POLYLINE
  5
480
  8
0
 66
     1
 10
0.0
 20
0.0
 30
0.0
  0
VERTEX
  5
481
  8
0
 10
-1.09916448
 20
136.40947774
 30
0.0
  0
VERTEX
  5
482
  8
0
 10
56.05806034
 20
115.36097553
 30
0.0
  0
VERTEX
  5
483
  8
0
 10
56.88028197
 20
115.26253672
 30
0.0
  0
SEQEND
  5
484
  8
0
  0
LINE
  5
485
  8
0
 10
56.88028197
 20
129.58638582
 30
0.0
 11
56.88028197
 21
115.26253672
 31
0.0
  0
LINE
  5
486
  8
0
 10
56.88028197
 20
143.43671924
 30
0.0
 11
56.88028197
 21
129.58638582
 31
0.0
  0
LINE
  5
487
  8
0
 10
56.88028197
 20
158.234084
 30
0.0
 11
56.88028197
 21
143.43671924
 31
0.0
  0
POLYLINE
  5
488
  8
0
 66
     1
 10
0.0
 20
0.0
 30
0.0
  0
VERTEX
  5
8C2
  8
0
 10
58.78914963428407
 20
143.1885032409076
 30
0.0
  0
VERTEX
  5
8C3
  8
0
 10
58.93686230785272
 20
143.1064283919142
 30
0.0
  0
VERTEX
  5
8C4
  8
0
 10
59.13176540198529
 20
143.0352326769669
 30
0.0
  0
VERTEX
  5
8C5
  8
0
 10
59.36631085304611
 20
142.9776733113339
 30
0.0
  0
VERTEX
  5
8C6
  8
0
 10
59.63141535736603
 20
142.9359794117799
 30
0.0
  0
SEQEND
  5
F19
  8
0
  0
POLYLINE
  5
489
  8
0
 66
     1
 10
0.0
 20
0.0
 30
0.0
  0
VERTEX
  5
8C7
  8
0
 10
59.63141535736603
 20
142.9359794117799
 30
0.0
  0
VERTEX
  5
8C8
  8
0
 10
59.90195789064897
 20
142.912558779819
 30
0.0
  0
VERTEX
  5
8C9
  8
0
 10
60.1813438949189
 20
142.9057054374478
 30
0.0
  0
VERTEX
  5
8CA
  8
0
 10
60.45982441778759
 20
142.915658526597
 30
0.0
  0
VERTEX
  5
8CB
  8
0
 10
60.72768210292009
 20
142.9420707421379
 30
0.0
  0
VERTEX
  5
8CC
  8
0
 10
60.97557026945454
 20
142.984020450818
 30
0.0
  0
VERTEX
  5
8CD
  8
0
 10
61.19483905699634
 20
143.0400438509207
 30
0.0
  0
VERTEX
  5
8CE
  8
0
 10
61.37783725561619
 20
143.108186050462
 30
0.0
  0
VERTEX
  5
8CF
  8
0
 10
61.51817928873471
 20
143.1860692815909
 30
0.0
  0
SEQEND
  5
F1A
  8
0
  0
POLYLINE
  5
48A
  8
0
 66
     1
 10
0.0
 20
0.0
 30
0.0
  0
VERTEX
  5
8D0
  8
0
 10
57.78096221445981
 20
143.1361003888781
 30
0.0
  0
VERTEX
  5
8D1
  8
0
 10
57.98536261496628
 20
142.9886950137892
 30
0.0
  0
VERTEX
  5
8D2
  8
0
 10
58.27742017959562
 20
142.8573928728523
 30
0.0
  0
VERTEX
  5
8D3
  8
0
 10
58.64533741479728
 20
142.7474978388257
 30
0.0
  0
VERTEX
  5
8D4
  8
0
 10
59.07425252024453
 20
142.6634490569746
 30
0.0
  0
VERTEX
  5
8D5
  8
0
 10
59.54683972251777
 20
142.6086416284087
 30
0.0
  0
VERTEX
  5
8D6
  8
0
 10
60.04400913953168
 20
142.5852894669702
 30
0.0
  0
VERTEX
  5
8D7
  8
0
 10
60.54567790509446
 20
142.594335869486
 30
0.0
  0
VERTEX
  5
8D8
  8
0
 10
61.03158140447595
 20
142.635415411847
 30
0.0
  0
VERTEX
  5
8D9
  8
0
 10
61.48209185160108
 20
142.7068687101003
 30
0.0
  0
VERTEX
  5
8DA
  8
0
 10
61.8790111419244
 20
142.805809450288
 30
0.0
  0
VERTEX
  5
8DB
  8
0
 10
62.20630595415999
 20
142.9282409794018
 30
0.0
  0
VERTEX
  5
8DC
  8
0
 10
62.45075540686492
 20
143.069217747831
 30
0.0
  0
VERTEX
  5
8DD
  8
0
 10
62.60248510816925
 20
143.2230450819297
 30
0.0
  0
SEQEND
  5
F1B
  8
0
  0
POLYLINE
  5
48B
  8
0
 66
     1
 10
0.0
 20
0.0
 30
0.0
  0
VERTEX
  5
48C
  8
0
 10
57.78096221
 20
143.13610039
 30
0.0
  0
VERTEX
  5
48D
  8
0
 10
57.78096221
 20
129.28576697
 30
0.0
  0
SEQEND
  5
48E
  8
0
  0
POLYLINE
  5
48F
  8
0
 66
     1
 10
0.0
 20
0.0
 30
0.0
  0
VERTEX
  5
8DE
  8
0
 10
57.78096220524629
 20
129.2857669754759
 30
0.0
  0
VERTEX
  5
8DF
  8
0
 10
57.67452779577172
 20
129.3648735280806
 30
0.0
  0
VERTEX
  5
8E0
  8
0
 10
57.52590636093995
 20
129.4366241059276
 30
0.0
  0
VERTEX
  5
8E1
  8
0
 10
57.33985421792931
 20
129.4987224823225
 30
0.0
  0
VERTEX
  5
8E2
  8
0
 10
57.1223255751948
 20
129.5491813290264
 30
0.0
  0
VERTEX
  5
8E3
  8
0
 10
56.88028198051983
 20
129.5863858165251
 30
0.0
  0
SEQEND
  5
F1C
  8
0
  0
POLYLINE
  5
490
  8
0
 66
     1
 10
0.0
 20
0.0
 30
0.0
  0
VERTEX
  5
8E4
  8
0
 10
57.78096221445981
 20
129.2857669688781
 30
0.0
  0
VERTEX
  5
8E5
  8
0
 10
57.98578637878875
 20
129.138123790337
 30
0.0
  0
VERTEX
  5
8E6
  8
0
 10
58.27854695621385
 20
129.0066479396254
 30
0.0
  0
VERTEX
  5
8E7
  8
0
 10
58.64737806454603
 20
128.8966682658969
 30
0.0
  0
VERTEX
  5
8E8
  8
0
 10
59.07733060606989
 20
128.8126423565191
 30
0.0
  0
VERTEX
  5
8E9
  8
0
 10
59.55097816958798
 20
128.7579758665507
 30
0.0
  0
VERTEX
  5
8EA
  8
0
 10
60.04912334048497
 20
128.734884484099
 30
0.0
  0
VERTEX
  5
8EB
  8
0
 10
60.55157579135096
 20
128.7443041262405
 30
0.0
  0
VERTEX
  5
8EC
  8
0
 10
61.03797061636416
 20
128.7858530053557
 30
0.0
  0
VERTEX
  5
8ED
  8
0
 10
61.48859374151316
 20
128.8578471033675
 30
0.0
  0
VERTEX
  5
8EE
  8
0
 10
61.88518095594783
 20
128.9573684266963
 30
0.0
  0
VERTEX
  5
8EF
  8
0
 10
62.21165817891057
 20
129.0803832754896
 30
0.0
  0
VERTEX
  5
8F0
  8
0
 10
62.45479295848052
 20
129.2219057335558
 30
0.0
  0
VERTEX
  5
8F1
  8
0
 10
62.60473079622822
 20
129.3761997525877
 30
0.0
  0
VERTEX
  5
8F2
  8
0
 10
62.65539456
 20
129.53701164
 30
0.0
  0
SEQEND
  5
F1D
  8
0
  0
LINE
  5
491
  8
0
 10
62.65539456
 20
143.21807489
 30
0.0
 11
62.65539456
 21
129.53701164
 31
0.0
  0
POLYLINE
  5
492
  8
0
 66
     1
 10
0.0
 20
0.0
 30
0.0
  0
VERTEX
  5
8F3
  8
0
 10
57.78096220524629
 20
143.1361003954759
 30
0.0
  0
VERTEX
  5
8F4
  8
0
 10
57.67452779577172
 20
143.2152069480806
 30
0.0
  0
VERTEX
  5
8F5
  8
0
 10
57.52590636093995
 20
143.2869575259276
 30
0.0
  0
VERTEX
  5
8F6
  8
0
 10
57.33985421792931
 20
143.3490559023225
 30
0.0
  0
VERTEX
  5
8F7
  8
0
 10
57.1223255751948
 20
143.3995147490264
 30
0.0
  0
VERTEX
  5
8F8
  8
0
 10
56.88028198051983
 20
143.4367192365251
 30
0.0
  0
SEQEND
  5
F1E
  8
0
  0
LINE
  5
493
  8
0
 10
58.7925672
 20
143.18778831
 30
0.0
 11
58.7925672
 21
143.18609905
 31
0.0
  0
POLYLINE
  5
494
  8
0
 66
     1
 10
0.0
 20
0.0
 30
0.0
  0
VERTEX
  5
8F9
  8
0
 10
77.10104306
 20
122.32465849
 30
0.0
  0
VERTEX
  5
8FA
  8
0
 10
77.26414909443679
 20
122.5000322675253
 30
0.0
  0
VERTEX
  5
8FB
  8
0
 10
77.38650034306721
 20
122.7087013000425
 30
0.0
  0
VERTEX
  5
8FC
  8
0
 10
77.46339491603246
 20
122.9426465536733
 30
0.0
  0
VERTEX
  5
8FD
  8
0
 10
77.49187779802318
 20
123.1928776435392
 30
0.0
  0
VERTEX
  5
8FE
  8
0
 10
77.47085440786037
 20
123.4497783292097
 30
0.0
  0
VERTEX
  5
8FF
  8
0
 10
77.40113266263609
 20
123.7034760614285
 30
0.0
  0
VERTEX
  5
900
  8
0
 10
77.28539192991278
 20
123.944221378644
 30
0.0
  0
VERTEX
  5
901
  8
0
 10
77.12808006113073
 20
124.1627625733482
 30
0.0
  0
VERTEX
  5
902
  8
0
 10
76.93524246317196
 20
124.3507012300071
 30
0.0
  0
VERTEX
  5
903
  8
0
 10
76.71428977676456
 20
124.500814971459
 30
0.0
  0
VERTEX
  5
904
  8
0
 10
76.47371308971611
 20
124.6073350108177
 30
0.0
  0
VERTEX
  5
905
  8
0
 10
76.22275762917191
 20
124.6661678427171
 30
0.0
  0
VERTEX
  5
906
  8
0
 10
75.97106747272122
 20
124.6750525544264
 30
0.0
  0
VERTEX
  5
907
  8
0
 10
75.72831493190495
 20
124.6336477114579
 30
0.0
  0
VERTEX
  5
908
  8
0
 10
75.50382885070823
 20
124.5435444787032
 30
0.0
  0
VERTEX
  5
909
  8
0
 10
75.30623610331855
 20
124.4082054728587
 30
0.0
  0
SEQEND
  5
F1F
  8
0
  0
POLYLINE
  5
495
  8
0
 66
     1
 10
0.0
 20
0.0
 30
0.0
  0
VERTEX
  5
90A
  8
0
 10
75.30623610331855
 20
124.4082054728587
 30
0.0
  0
VERTEX
  5
90B
  8
0
 10
75.14313006786122
 20
124.2328316955664
 30
0.0
  0
VERTEX
  5
90C
  8
0
 10
75.02077881830765
 20
124.0241626630116
 30
0.0
  0
VERTEX
  5
90D
  8
0
 10
74.9438842445735
 20
123.7902174091108
 30
0.0
  0
VERTEX
  5
90E
  8
0
 10
74.91540136201114
 20
123.5399863187937
 30
0.0
  0
VERTEX
  5
90F
  8
0
 10
74.93642475182655
 20
123.283085632552
 30
0.0
  0
VERTEX
  5
910
  8
0
 10
75.00614649693733
 20
123.0293878997088
 30
0.0
  0
VERTEX
  5
911
  8
0
 10
75.1218872297732
 20
122.7886425818842
 30
0.0
  0
VERTEX
  5
912
  8
0
 10
75.27919909886927
 20
122.5701013866518
 30
0.0
  0
VERTEX
  5
913
  8
0
 10
75.47203669730392
 20
122.3821627296041
 30
0.0
  0
VERTEX
  5
914
  8
0
 10
75.69298938429701
 20
122.2320489879508
 30
0.0
  0
VERTEX
  5
915
  8
0
 10
75.93356607197974
 20
122.1255289486118
 30
0.0
  0
VERTEX
  5
916
  8
0
 10
76.18452153314036
 20
122.0666961169714
 30
0.0
  0
VERTEX
  5
917
  8
0
 10
76.43621169012194
 20
122.0578114057606
 30
0.0
  0
VERTEX
  5
918
  8
0
 10
76.67896423131913
 20
122.0992162494495
 30
0.0
  0
VERTEX
  5
919
  8
0
 10
76.90345031268963
 20
122.1893194831117
 30
0.0
  0
VERTEX
  5
91A
  8
0
 10
77.10104306
 20
122.32465849
 30
0.0
  0
SEQEND
  5
F20
  8
0
  0
POLYLINE
  5
496
  8
0
 66
     1
 10
0.0
 20
0.0
 30
0.0
  0
VERTEX
  5
91B
  8
0
 10
75.49705853800263
 20
124.5398977944289
 30
0.0
  0
VERTEX
  5
91C
  8
0
 10
75.37286035814336
 20
124.3311614211998
 30
0.0
  0
VERTEX
  5
91D
  8
0
 10
75.294426163665
 20
124.0966822827819
 30
0.0
  0
VERTEX
  5
91E
  8
0
 10
75.26479761655244
 20
123.845553432101
 30
0.0
  0
VERTEX
  5
91F
  8
0
 10
75.28512370578964
 20
123.5875135945116
 30
0.0
  0
VERTEX
  5
920
  8
0
 10
75.35461618980231
 20
123.332569502024
 30
0.0
  0
VERTEX
  5
921
  8
0
 10
75.47058016430456
 20
123.090607834288
 30
0.0
  0
VERTEX
  5
922
  8
0
 10
75.62851857013479
 20
122.8710118151827
 30
0.0
  0
VERTEX
  5
923
  8
0
 10
75.8223065882881
 20
122.6822973333175
 30
0.0
  0
VERTEX
  5
924
  8
0
 10
76.04442915914201
 20
122.5317826976176
 30
0.0
  0
VERTEX
  5
925
  8
0
 10
76.28627241492808
 20
122.4253048348039
 30
0.0
  0
VERTEX
  5
926
  8
0
 10
76.53845772375847
 20
122.3669929345712
 30
0.0
  0
VERTEX
  5
927
  8
0
 10
76.79120539104812
 20
122.359108320458
 30
0.0
  0
VERTEX
  5
928
  8
0
 10
77.03471391406617
 20
122.4019567561836
 30
0.0
  0
VERTEX
  5
929
  8
0
 10
77.25954008220288
 20
122.4938765881933
 30
0.0
  0
SEQEND
  5
F21
  8
0
  0
POLYLINE
  5
497
  8
0
 66
     1
 10
0.0
 20
0.0
 30
0.0
  0
VERTEX
  5
92A
  8
0
 10
77.10104306
 20
140.31825405
 30
0.0
  0
VERTEX
  5
92B
  8
0
 10
77.26414909443679
 20
140.4936278275252
 30
0.0
  0
VERTEX
  5
92C
  8
0
 10
77.38650034306721
 20
140.7022968600425
 30
0.0
  0
VERTEX
  5
92D
  8
0
 10
77.46339491603246
 20
140.9362421136734
 30
0.0
  0
VERTEX
  5
92E
  8
0
 10
77.49187779802318
 20
141.1864732035392
 30
0.0
  0
VERTEX
  5
92F
  8
0
 10
77.47085440786037
 20
141.4433738892097
 30
0.0
  0
VERTEX
  5
930
  8
0
 10
77.40113266263609
 20
141.6970716214284
 30
0.0
  0
VERTEX
  5
931
  8
0
 10
77.28539192991278
 20
141.937816938644
 30
0.0
  0
VERTEX
  5
932
  8
0
 10
77.12808006113073
 20
142.1563581333482
 30
0.0
  0
VERTEX
  5
933
  8
0
 10
76.93524246317196
 20
142.3442967900071
 30
0.0
  0
VERTEX
  5
934
  8
0
 10
76.71428977676456
 20
142.494410531459
 30
0.0
  0
VERTEX
  5
935
  8
0
 10
76.47371308971611
 20
142.6009305708177
 30
0.0
  0
VERTEX
  5
936
  8
0
 10
76.22275762917191
 20
142.6597634027171
 30
0.0
  0
VERTEX
  5
937
  8
0
 10
75.97106747272122
 20
142.6686481144264
 30
0.0
  0
VERTEX
  5
938
  8
0
 10
75.72831493190495
 20
142.6272432714579
 30
0.0
  0
VERTEX
  5
939
  8
0
 10
75.50382885070823
 20
142.5371400387032
 30
0.0
  0
VERTEX
  5
93A
  8
0
 10
75.30623610331855
 20
142.4018010328587
 30
0.0
  0
SEQEND
  5
F22
  8
0
  0
POLYLINE
  5
498
  8
0
 66
     1
 10
0.0
 20
0.0
 30
0.0
  0
VERTEX
  5
93B
  8
0
 10
75.30623610331855
 20
142.4018010328587
 30
0.0
  0
VERTEX
  5
93C
  8
0
 10
75.14313006786122
 20
142.2264272555664
 30
0.0
  0
VERTEX
  5
93D
  8
0
 10
75.02077881830765
 20
142.0177582230116
 30
0.0
  0
VERTEX
  5
93E
  8
0
 10
74.9438842445735
 20
141.7838129691108
 30
0.0
  0
VERTEX
  5
93F
  8
0
 10
74.91540136201114
 20
141.5335818787937
 30
0.0
  0
VERTEX
  5
940
  8
0
 10
74.93642475182655
 20
141.276681192552
 30
0.0
  0
VERTEX
  5
941
  8
0
 10
75.00614649693733
 20
141.0229834597088
 30
0.0
  0
VERTEX
  5
942
  8
0
 10
75.1218872297732
 20
140.7822381418842
 30
0.0
  0
VERTEX
  5
943
  8
0
 10
75.27919909886927
 20
140.5636969466518
 30
0.0
  0
VERTEX
  5
944
  8
0
 10
75.47203669730392
 20
140.3757582896041
 30
0.0
  0
VERTEX
  5
945
  8
0
 10
75.69298938429701
 20
140.2256445479508
 30
0.0
  0
VERTEX
  5
946
  8
0
 10
75.93356607197974
 20
140.1191245086118
 30
0.0
  0
VERTEX
  5
947
  8
0
 10
76.18452153314036
 20
140.0602916769714
 30
0.0
  0
VERTEX
  5
948
  8
0
 10
76.43621169012194
 20
140.0514069657606
 30
0.0
  0
VERTEX
  5
949
  8
0
 10
76.67896423131913
 20
140.0928118094495
 30
0.0
  0
VERTEX
  5
94A
  8
0
 10
76.90345031268963
 20
140.1829150431117
 30
0.0
  0
VERTEX
  5
94B
  8
0
 10
77.10104306
 20
140.31825405
 30
0.0
  0
SEQEND
  5
F23
  8
0
  0
POLYLINE
  5
499
  8
0
 66
     1
 10
0.0
 20
0.0
 30
0.0
  0
VERTEX
  5
94C
  8
0
 10
75.49705853800263
 20
142.5334933544289
 30
0.0
  0
VERTEX
  5
94D
  8
0
 10
75.37286035814336
 20
142.3247569811998
 30
0.0
  0
VERTEX
  5
94E
  8
0
 10
75.294426163665
 20
142.0902778427819
 30
0.0
  0
VERTEX
  5
94F
  8
0
 10
75.26479761655244
 20
141.839148992101
 30
0.0
  0
VERTEX
  5
950
  8
0
 10
75.28512370578964
 20
141.5811091545116
 30
0.0
  0
VERTEX
  5
951
  8
0
 10
75.35461618980231
 20
141.326165062024
 30
0.0
  0
VERTEX
  5
952
  8
0
 10
75.47058016430456
 20
141.084203394288
 30
0.0
  0
VERTEX
  5
953
  8
0
 10
75.62851857013479
 20
140.8646073751827
 30
0.0
  0
VERTEX
  5
954
  8
0
 10
75.8223065882881
 20
140.6758928933175
 30
0.0
  0
VERTEX
  5
955
  8
0
 10
76.04442915914201
 20
140.5253782576176
 30
0.0
  0
VERTEX
  5
956
  8
0
 10
76.28627241492808
 20
140.4189003948039
 30
0.0
  0
VERTEX
  5
957
  8
0
 10
76.53845772375847
 20
140.3605884945712
 30
0.0
  0
VERTEX
  5
958
  8
0
 10
76.79120539104812
 20
140.352703880458
 30
0.0
  0
VERTEX
  5
959
  8
0
 10
77.03471391406617
 20
140.3955523161836
 30
0.0
  0
VERTEX
  5
95A
  8
0
 10
77.25954008220288
 20
140.4874721481933
 30
0.0
  0
SEQEND
  5
F24
  8
0
  0
POLYLINE
  5
49A
  8
0
 66
     1
 10
0.0
 20
0.0
 30
0.0
  0
VERTEX
  5
95B
  8
0
 10
77.1010430626073
 20
158.311849602246
 30
0.0
  0
VERTEX
  5
95C
  8
0
 10
77.26414909637124
 20
158.4872233801278
 30
0.0
  0
VERTEX
  5
95D
  8
0
 10
77.38650034432742
 20
158.695892412842
 30
0.0
  0
VERTEX
  5
95E
  8
0
 10
77.46339491665134
 20
158.929837666517
 30
0.0
  0
VERTEX
  5
95F
  8
0
 10
77.49187779806363
 20
159.1800687562885
 30
0.0
  0
VERTEX
  5
960
  8
0
 10
77.4708544074094
 20
159.4369694417471
 30
0.0
  0
VERTEX
  5
961
  8
0
 10
77.4011326617982
 20
159.6906671736623
 30
0.0
  0
VERTEX
  5
962
  8
0
 10
77.28539192880255
 20
159.9314124905115
 30
0.0
  0
VERTEX
  5
963
  8
0
 10
77.12808005986521
 20
160.1499536848173
 30
0.0
  0
VERTEX
  5
964
  8
0
 10
76.93524246186337
 20
160.3378923410762
 30
0.0
  0
VERTEX
  5
965
  8
0
 10
76.7142897755135
 20
160.4880060821546
 30
0.0
  0
VERTEX
  5
966
  8
0
 10
76.4737130886058
 20
160.5945261211912
 30
0.0
  0
VERTEX
  5
967
  8
0
 10
76.22275762826358
 20
160.6533589528395
 30
0.0
  0
VERTEX
  5
968
  8
0
 10
75.97106747205109
 20
160.6622436643823
 30
0.0
  0
VERTEX
  5
969
  8
0
 10
75.72831493148277
 20
160.6208388213391
 30
0.0
  0
VERTEX
  5
96A
  8
0
 10
75.50382885051755
 20
160.5307355886014
 30
0.0
  0
VERTEX
  5
96B
  8
0
 10
75.30623610331855
 20
160.3953965828587
 30
0.0
  0
SEQEND
  5
F25
  8
0
  0
POLYLINE
  5
49B
  8
0
 66
     1
 10
0.0
 20
0.0
 30
0.0
  0
VERTEX
  5
96C
  8
0
 10
75.30623610331855
 20
160.3953965828587
 30
0.0
  0
VERTEX
  5
96D
  8
0
 10
75.14313006786122
 20
160.2200228055664
 30
0.0
  0
VERTEX
  5
96E
  8
0
 10
75.02077881830765
 20
160.0113537730116
 30
0.0
  0
VERTEX
  5
96F
  8
0
 10
74.9438842445735
 20
159.7774085191108
 30
0.0
  0
VERTEX
  5
970
  8
0
 10
74.91540136201114
 20
159.5271774287937
 30
0.0
  0
VERTEX
  5
971
  8
0
 10
74.93642475182655
 20
159.270276742552
 30
0.0
  0
VERTEX
  5
972
  8
0
 10
75.00614649693733
 20
159.0165790097088
 30
0.0
  0
VERTEX
  5
973
  8
0
 10
75.1218872297732
 20
158.7758336918843
 30
0.0
  0
VERTEX
  5
974
  8
0
 10
75.27919909886927
 20
158.5572924966518
 30
0.0
  0
VERTEX
  5
975
  8
0
 10
75.47203669730392
 20
158.3693538396041
 30
0.0
  0
VERTEX
  5
976
  8
0
 10
75.69298938429701
 20
158.2192400979508
 30
0.0
  0
VERTEX
  5
977
  8
0
 10
75.93356607197974
 20
158.1127200586118
 30
0.0
  0
VERTEX
  5
978
  8
0
 10
76.18452153314036
 20
158.0538872269714
 30
0.0
  0
VERTEX
  5
979
  8
0
 10
76.43621169012194
 20
158.0450025157606
 30
0.0
  0
VERTEX
  5
97A
  8
0
 10
76.67896423131913
 20
158.0864073594495
 30
0.0
  0
VERTEX
  5
97B
  8
0
 10
76.90345031268963
 20
158.1765105931117
 30
0.0
  0
VERTEX
  5
97C
  8
0
 10
77.10104306
 20
158.3118496
 30
0.0
  0
SEQEND
  5
F26
  8
0
  0
POLYLINE
  5
49C
  8
0
 66
     1
 10
0.0
 20
0.0
 30
0.0
  0
VERTEX
  5
97D
  8
0
 10
75.49705853800263
 20
160.5270889044289
 30
0.0
  0
VERTEX
  5
97E
  8
0
 10
75.37286035814336
 20
160.3183525311998
 30
0.0
  0
VERTEX
  5
97F
  8
0
 10
75.294426163665
 20
160.083873392782
 30
0.0
  0
VERTEX
  5
980
  8
0
 10
75.26479761655244
 20
159.832744542101
 30
0.0
  0
VERTEX
  5
981
  8
0
 10
75.28512370578964
 20
159.5747047045116
 30
0.0
  0
VERTEX
  5
982
  8
0
 10
75.35461618980231
 20
159.319760612024
 30
0.0
  0
VERTEX
  5
983
  8
0
 10
75.47058016430456
 20
159.077798944288
 30
0.0
  0
VERTEX
  5
984
  8
0
 10
75.62851857013479
 20
158.8582029251827
 30
0.0
  0
VERTEX
  5
985
  8
0
 10
75.8223065882881
 20
158.6694884433175
 30
0.0
  0
VERTEX
  5
986
  8
0
 10
76.04442915914201
 20
158.5189738076176
 30
0.0
  0
VERTEX
  5
987
  8
0
 10
76.28627241492808
 20
158.4124959448039
 30
0.0
  0
VERTEX
  5
988
  8
0
 10
76.53845772375847
 20
158.3541840445712
 30
0.0
  0
VERTEX
  5
989
  8
0
 10
76.79120539104812
 20
158.346299430458
 30
0.0
  0
VERTEX
  5
98A
  8
0
 10
77.03471391406617
 20
158.3891478661836
 30
0.0
  0
VERTEX
  5
98B
  8
0
 10
77.25954008220288
 20
158.4810676981933
 30
0.0
  0
SEQEND
  5
F27
  8
0
  0
POLYLINE
  5
49D
  8
0
 66
     1
 10
0.0
 20
0.0
 30
0.0
  0
VERTEX
  5
98C
  8
0
 10
94.66986216999999
 20
124.95642422
 30
0.0
  0
VERTEX
  5
98D
  8
0
 10
94.83296820443678
 20
125.1317979975253
 30
0.0
  0
VERTEX
  5
98E
  8
0
 10
94.9553194530672
 20
125.3404670300425
 30
0.0
  0
VERTEX
  5
98F
  8
0
 10
95.03221402603245
 20
125.5744122836733
 30
0.0
  0
VERTEX
  5
990
  8
0
 10
95.06069690802317
 20
125.8246433735392
 30
0.0
  0
VERTEX
  5
991
  8
0
 10
95.03967351786036
 20
126.0815440592097
 30
0.0
  0
VERTEX
  5
992
  8
0
 10
94.96995177263608
 20
126.3352417914285
 30
0.0
  0
VERTEX
  5
993
  8
0
 10
94.85421103991277
 20
126.575987108644
 30
0.0
  0
VERTEX
  5
994
  8
0
 10
94.69689917113072
 20
126.7945283033482
 30
0.0
  0
VERTEX
  5
995
  8
0
 10
94.50406157317195
 20
126.9824669600071
 30
0.0
  0
VERTEX
  5
996
  8
0
 10
94.28310888676455
 20
127.132580701459
 30
0.0
  0
VERTEX
  5
997
  8
0
 10
94.0425321997161
 20
127.2391007408177
 30
0.0
  0
VERTEX
  5
998
  8
0
 10
93.7915767391719
 20
127.2979335727171
 30
0.0
  0
VERTEX
  5
999
  8
0
 10
93.53988658272121
 20
127.3068182844264
 30
0.0
  0
VERTEX
  5
99A
  8
0
 10
93.29713404190494
 20
127.2654134414579
 30
0.0
  0
VERTEX
  5
99B
  8
0
 10
93.07264796070822
 20
127.1753102087032
 30
0.0
  0
VERTEX
  5
99C
  8
0
 10
92.87505521331855
 20
127.0399712028587
 30
0.0
  0
SEQEND
  5
F28
  8
0
  0
POLYLINE
  5
49E
  8
0
 66
     1
 10
0.0
 20
0.0
 30
0.0
  0
VERTEX
  5
99D
  8
0
 10
92.87505521331855
 20
127.0399712028587
 30
0.0
  0
VERTEX
  5
99E
  8
0
 10
92.71194917786121
 20
126.8645974255664
 30
0.0
  0
VERTEX
  5
99F
  8
0
 10
92.58959792830764
 20
126.6559283930116
 30
0.0
  0
VERTEX
  5
9A0
  8
0
 10
92.51270335457349
 20
126.4219831391108
 30
0.0
  0
VERTEX
  5
9A1
  8
0
 10
92.48422047201113
 20
126.1717520487937
 30
0.0
  0
VERTEX
  5
9A2
  8
0
 10
92.50524386182654
 20
125.914851362552
 30
0.0
  0
VERTEX
  5
9A3
  8
0
 10
92.57496560693733
 20
125.6611536297088
 30
0.0
  0
VERTEX
  5
9A4
  8
0
 10
92.69070633977319
 20
125.4204083118842
 30
0.0
  0
VERTEX
  5
9A5
  8
0
 10
92.84801820886926
 20
125.2018671166518
 30
0.0
  0
VERTEX
  5
9A6
  8
0
 10
93.04085580730391
 20
125.0139284596041
 30
0.0
  0
VERTEX
  5
9A7
  8
0
 10
93.261808494297
 20
124.8638147179508
 30
0.0
  0
VERTEX
  5
9A8
  8
0
 10
93.50238518197973
 20
124.7572946786118
 30
0.0
  0
VERTEX
  5
9A9
  8
0
 10
93.75334064314035
 20
124.6984618469714
 30
0.0
  0
VERTEX
  5
9AA
  8
0
 10
94.00503080012193
 20
124.6895771357606
 30
0.0
  0
VERTEX
  5
9AB
  8
0
 10
94.24778334131912
 20
124.7309819794495
 30
0.0
  0
VERTEX
  5
9AC
  8
0
 10
94.47226942268962
 20
124.8210852131117
 30
0.0
  0
VERTEX
  5
9AD
  8
0
 10
94.66986216999999
 20
124.95642422
 30
0.0
  0
SEQEND
  5
F29
  8
0
  0
POLYLINE
  5
49F
  8
0
 66
     1
 10
0.0
 20
0.0
 30
0.0
  0
VERTEX
  5
9AE
  8
0
 10
93.06587764800264
 20
127.1716635244289
 30
0.0
  0
VERTEX
  5
9AF
  8
0
 10
92.94167946814336
 20
126.9629271511998
 30
0.0
  0
VERTEX
  5
9B0
  8
0
 10
92.863245273665
 20
126.7284480127819
 30
0.0
  0
VERTEX
  5
9B1
  8
0
 10
92.83361672655245
 20
126.477319162101
 30
0.0
  0
VERTEX
  5
9B2
  8
0
 10
92.85394281578965
 20
126.2192793245116
 30
0.0
  0
VERTEX
  5
9B3
  8
0
 10
92.92343529980232
 20
125.964335232024
 30
0.0
  0
VERTEX
  5
9B4
  8
0
 10
93.03939927430457
 20
125.722373564288
 30
0.0
  0
VERTEX
  5
9B5
  8
0
 10
93.1973376801348
 20
125.5027775451827
 30
0.0
  0
VERTEX
  5
9B6
  8
0
 10
93.3911256982881
 20
125.3140630633175
 30
0.0
  0
VERTEX
  5
9B7
  8
0
 10
93.61324826914202
 20
125.1635484276176
 30
0.0
  0
VERTEX
  5
9B8
  8
0
 10
93.85509152492808
 20
125.0570705648039
 30
0.0
  0
VERTEX
  5
9B9
  8
0
 10
94.10727683375848
 20
124.9987586645712
 30
0.0
  0
VERTEX
  5
9BA
  8
0
 10
94.36002450104813
 20
124.990874050458
 30
0.0
  0
VERTEX
  5
9BB
  8
0
 10
94.60353302406618
 20
125.0337224861836
 30
0.0
  0
VERTEX
  5
9BC
  8
0
 10
94.82835919220288
 20
125.1256423181933
 30
0.0
  0
SEQEND
  5
F2A
  8
0
  0
POLYLINE
  5
4A0
  8
0
 66
     1
 10
0.0
 20
0.0
 30
0.0
  0
VERTEX
  5
9BD
  8
0
 10
94.66986216999999
 20
151.47330188
 30
0.0
  0
VERTEX
  5
9BE
  8
0
 10
94.83296820443678
 20
151.6486756575252
 30
0.0
  0
VERTEX
  5
9BF
  8
0
 10
94.9553194530672
 20
151.8573446900425
 30
0.0
  0
VERTEX
  5
9C0
  8
0
 10
95.03221402603245
 20
152.0912899436734
 30
0.0
  0
VERTEX
  5
9C1
  8
0
 10
95.06069690802317
 20
152.3415210335392
 30
0.0
  0
VERTEX
  5
9C2
  8
0
 10
95.03967351786036
 20
152.5984217192097
 30
0.0
  0
VERTEX
  5
9C3
  8
0
 10
94.96995177263608
 20
152.8521194514285
 30
0.0
  0
VERTEX
  5
9C4
  8
0
 10
94.85421103991277
 20
153.092864768644
 30
0.0
  0
VERTEX
  5
9C5
  8
0
 10
94.69689917113072
 20
153.3114059633482
 30
0.0
  0
VERTEX
  5
9C6
  8
0
 10
94.50406157317195
 20
153.4993446200071
 30
0.0
  0
VERTEX
  5
9C7
  8
0
 10
94.28310888676455
 20
153.649458361459
 30
0.0
  0
VERTEX
  5
9C8
  8
0
 10
94.0425321997161
 20
153.7559784008177
 30
0.0
  0
VERTEX
  5
9C9
  8
0
 10
93.7915767391719
 20
153.8148112327171
 30
0.0
  0
VERTEX
  5
9CA
  8
0
 10
93.53988658272121
 20
153.8236959444264
 30
0.0
  0
VERTEX
  5
9CB
  8
0
 10
93.29713404190494
 20
153.7822911014579
 30
0.0
  0
VERTEX
  5
9CC
  8
0
 10
93.07264796070822
 20
153.6921878687032
 30
0.0
  0
VERTEX
  5
9CD
  8
0
 10
92.87505521331855
 20
153.5568488628587
 30
0.0
  0
SEQEND
  5
F2B
  8
0
  0
POLYLINE
  5
4A1
  8
0
 66
     1
 10
0.0
 20
0.0
 30
0.0
  0
VERTEX
  5
9CE
  8
0
 10
92.87505521331855
 20
153.5568488628587
 30
0.0
  0
VERTEX
  5
9CF
  8
0
 10
92.71194917786121
 20
153.3814750855664
 30
0.0
  0
VERTEX
  5
9D0
  8
0
 10
92.58959792830764
 20
153.1728060530116
 30
0.0
  0
VERTEX
  5
9D1
  8
0
 10
92.51270335457349
 20
152.9388607991108
 30
0.0
  0
VERTEX
  5
9D2
  8
0
 10
92.48422047201113
 20
152.6886297087937
 30
0.0
  0
VERTEX
  5
9D3
  8
0
 10
92.50524386182654
 20
152.431729022552
 30
0.0
  0
VERTEX
  5
9D4
  8
0
 10
92.57496560693733
 20
152.1780312897088
 30
0.0
  0
VERTEX
  5
9D5
  8
0
 10
92.69070633977319
 20
151.9372859718843
 30
0.0
  0
VERTEX
  5
9D6
  8
0
 10
92.84801820886926
 20
151.7187447766518
 30
0.0
  0
VERTEX
  5
9D7
  8
0
 10
93.04085580730391
 20
151.5308061196041
 30
0.0
  0
VERTEX
  5
9D8
  8
0
 10
93.261808494297
 20
151.3806923779508
 30
0.0
  0
VERTEX
  5
9D9
  8
0
 10
93.50238518197973
 20
151.2741723386118
 30
0.0
  0
VERTEX
  5
9DA
  8
0
 10
93.75334064314035
 20
151.2153395069714
 30
0.0
  0
VERTEX
  5
9DB
  8
0
 10
94.00503080012193
 20
151.2064547957606
 30
0.0
  0
VERTEX
  5
9DC
  8
0
 10
94.24778334131912
 20
151.2478596394495
 30
0.0
  0
VERTEX
  5
9DD
  8
0
 10
94.47226942268962
 20
151.3379628731117
 30
0.0
  0
VERTEX
  5
9DE
  8
0
 10
94.66986216999999
 20
151.47330188
 30
0.0
  0
SEQEND
  5
F2C
  8
0
  0
POLYLINE
  5
4A2
  8
0
 66
     1
 10
0.0
 20
0.0
 30
0.0
  0
VERTEX
  5
9DF
  8
0
 10
93.06587764800264
 20
153.6885411844289
 30
0.0
  0
VERTEX
  5
9E0
  8
0
 10
92.94167946814336
 20
153.4798048111998
 30
0.0
  0
VERTEX
  5
9E1
  8
0
 10
92.863245273665
 20
153.2453256727819
 30
0.0
  0
VERTEX
  5
9E2
  8
0
 10
92.83361672655245
 20
152.994196822101
 30
0.0
  0
VERTEX
  5
9E3
  8
0
 10
92.85394281578965
 20
152.7361569845116
 30
0.0
  0
VERTEX
  5
9E4
  8
0
 10
92.92343529980232
 20
152.481212892024
 30
0.0
  0
VERTEX
  5
9E5
  8
0
 10
93.03939927430457
 20
152.239251224288
 30
0.0
  0
VERTEX
  5
9E6
  8
0
 10
93.1973376801348
 20
152.0196552051827
 30
0.0
  0
VERTEX
  5
9E7
  8
0
 10
93.3911256982881
 20
151.8309407233175
 30
0.0
  0
VERTEX
  5
9E8
  8
0
 10
93.61324826914202
 20
151.6804260876176
 30
0.0
  0
VERTEX
  5
9E9
  8
0
 10
93.85509152492808
 20
151.5739482248039
 30
0.0
  0
VERTEX
  5
9EA
  8
0
 10
94.10727683375848
 20
151.5156363245712
 30
0.0
  0
VERTEX
  5
9EB
  8
0
 10
94.36002450104813
 20
151.507751710458
 30
0.0
  0
VERTEX
  5
9EC
  8
0
 10
94.60353302406618
 20
151.5506001461836
 30
0.0
  0
VERTEX
  5
9ED
  8
0
 10
94.82835919220288
 20
151.6425199781933
 30
0.0
  0
SEQEND
  5
F2D
  8
0
  0
POLYLINE
  5
4A3
  8
0
 66
     1
 10
0.0
 20
0.0
 30
0.0
  0
VERTEX
  5
9EE
  8
0
 10
112.23868128
 20
127.58818995
 30
0.0
  0
VERTEX
  5
9EF
  8
0
 10
112.4017873144368
 20
127.7635637275253
 30
0.0
  0
VERTEX
  5
9F0
  8
0
 10
112.5241385630672
 20
127.9722327600425
 30
0.0
  0
VERTEX
  5
9F1
  8
0
 10
112.6010331360325
 20
128.2061780136734
 30
0.0
  0
VERTEX
  5
9F2
  8
0
 10
112.6295160180232
 20
128.4564091035392
 30
0.0
  0
VERTEX
  5
9F3
  8
0
 10
112.6084926278604
 20
128.7133097892097
 30
0.0
  0
VERTEX
  5
9F4
  8
0
 10
112.5387708826361
 20
128.9670075214285
 30
0.0
  0
VERTEX
  5
9F5
  8
0
 10
112.4230301499128
 20
129.207752838644
 30
0.0
  0
VERTEX
  5
9F6
  8
0
 10
112.2657182811307
 20
129.4262940333482
 30
0.0
  0
VERTEX
  5
9F7
  8
0
 10
112.072880683172
 20
129.6142326900071
 30
0.0
  0
VERTEX
  5
9F8
  8
0
 10
111.8519279967646
 20
129.764346431459
 30
0.0
  0
VERTEX
  5
9F9
  8
0
 10
111.6113513097161
 20
129.8708664708177
 30
0.0
  0
VERTEX
  5
9FA
  8
0
 10
111.3603958491719
 20
129.9296993027172
 30
0.0
  0
VERTEX
  5
9FB
  8
0
 10
111.1087056927212
 20
129.9385840144264
 30
0.0
  0
VERTEX
  5
9FC
  8
0
 10
110.8659531519049
 20
129.8971791714579
 30
0.0
  0
VERTEX
  5
9FD
  8
0
 10
110.6414670707082
 20
129.8070759387032
 30
0.0
  0
VERTEX
  5
9FE
  8
0
 10
110.4438743233186
 20
129.6717369328587
 30
0.0
  0
SEQEND
  5
F2E
  8
0
  0
POLYLINE
  5
4A4
  8
0
 66
     1
 10
0.0
 20
0.0
 30
0.0
  0
VERTEX
  5
9FF
  8
0
 10
110.4438743233186
 20
129.6717369328587
 30
0.0
  0
VERTEX
  5
A00
  8
0
 10
110.2807682878612
 20
129.4963631555664
 30
0.0
  0
VERTEX
  5
A01
  8
0
 10
110.1584170383076
 20
129.2876941230116
 30
0.0
  0
VERTEX
  5
A02
  8
0
 10
110.0815224645735
 20
129.0537488691108
 30
0.0
  0
VERTEX
  5
A03
  8
0
 10
110.0530395820111
 20
128.8035177787937
 30
0.0
  0
VERTEX
  5
A04
  8
0
 10
110.0740629718265
 20
128.546617092552
 30
0.0
  0
VERTEX
  5
A05
  8
0
 10
110.1437847169373
 20
128.2929193597088
 30
0.0
  0
VERTEX
  5
A06
  8
0
 10
110.2595254497732
 20
128.0521740418843
 30
0.0
  0
VERTEX
  5
A07
  8
0
 10
110.4168373188693
 20
127.8336328466518
 30
0.0
  0
VERTEX
  5
A08
  8
0
 10
110.6096749173039
 20
127.6456941896041
 30
0.0
  0
VERTEX
  5
A09
  8
0
 10
110.830627604297
 20
127.4955804479508
 30
0.0
  0
VERTEX
  5
A0A
  8
0
 10
111.0712042919797
 20
127.3890604086118
 30
0.0
  0
VERTEX
  5
A0B
  8
0
 10
111.3221597531404
 20
127.3302275769714
 30
0.0
  0
VERTEX
  5
A0C
  8
0
 10
111.5738499101219
 20
127.3213428657606
 30
0.0
  0
VERTEX
  5
A0D
  8
0
 10
111.8166024513191
 20
127.3627477094495
 30
0.0
  0
VERTEX
  5
A0E
  8
0
 10
112.0410885326896
 20
127.4528509431117
 30
0.0
  0
VERTEX
  5
A0F
  8
0
 10
112.23868128
 20
127.58818995
 30
0.0
  0
SEQEND
  5
F2F
  8
0
  0
POLYLINE
  5
4A5
  8
0
 66
     1
 10
0.0
 20
0.0
 30
0.0
  0
VERTEX
  5
A10
  8
0
 10
110.6346967580026
 20
129.8034292544289
 30
0.0
  0
VERTEX
  5
A11
  8
0
 10
110.5104985781434
 20
129.5946928811998
 30
0.0
  0
VERTEX
  5
A12
  8
0
 10
110.432064383665
 20
129.360213742782
 30
0.0
  0
VERTEX
  5
A13
  8
0
 10
110.4024358365524
 20
129.109084892101
 30
0.0
  0
VERTEX
  5
A14
  8
0
 10
110.4227619257896
 20
128.8510450545116
 30
0.0
  0
VERTEX
  5
A15
  8
0
 10
110.4922544098023
 20
128.596100962024
 30
0.0
  0
VERTEX
  5
A16
  8
0
 10
110.6082183843046
 20
128.354139294288
 30
0.0
  0
VERTEX
  5
A17
  8
0
 10
110.7661567901348
 20
128.1345432751827
 30
0.0
  0
VERTEX
  5
A18
  8
0
 10
110.9599448082881
 20
127.9458287933175
 30
0.0
  0
VERTEX
  5
A19
  8
0
 10
111.182067379142
 20
127.7953141576176
 30
0.0
  0
VERTEX
  5
A1A
  8
0
 10
111.4239106349281
 20
127.6888362948039
 30
0.0
  0
VERTEX
  5
A1B
  8
0
 10
111.6760959437585
 20
127.6305243945712
 30
0.0
  0
VERTEX
  5
A1C
  8
0
 10
111.9288436110481
 20
127.622639780458
 30
0.0
  0
VERTEX
  5
A1D
  8
0
 10
112.1723521340662
 20
127.6654882161836
 30
0.0
  0
VERTEX
  5
A1E
  8
0
 10
112.3971783022029
 20
127.7574080481933
 30
0.0
  0
SEQEND
  5
F30
  8
0
  0
POLYLINE
  5
4A6
  8
0
 66
     1
 10
0.0
 20
0.0
 30
0.0
  0
VERTEX
  5
A1F
  8
0
 10
112.23868128
 20
144.63475416
 30
0.0
  0
VERTEX
  5
A20
  8
0
 10
112.4017873144368
 20
144.8101279375252
 30
0.0
  0
VERTEX
  5
A21
  8
0
 10
112.5241385630672
 20
145.0187969700425
 30
0.0
  0
VERTEX
  5
A22
  8
0
 10
112.6010331360325
 20
145.2527422236734
 30
0.0
  0
VERTEX
  5
A23
  8
0
 10
112.6295160180232
 20
145.5029733135392
 30
0.0
  0
VERTEX
  5
A24
  8
0
 10
112.6084926278604
 20
145.7598739992096
 30
0.0
  0
VERTEX
  5
A25
  8
0
 10
112.5387708826361
 20
146.0135717314284
 30
0.0
  0
VERTEX
  5
A26
  8
0
 10
112.4230301499128
 20
146.254317048644
 30
0.0
  0
VERTEX
  5
A27
  8
0
 10
112.2657182811307
 20
146.4728582433482
 30
0.0
  0
VERTEX
  5
A28
  8
0
 10
112.072880683172
 20
146.6607969000071
 30
0.0
  0
VERTEX
  5
A29
  8
0
 10
111.8519279967646
 20
146.810910641459
 30
0.0
  0
VERTEX
  5
A2A
  8
0
 10
111.6113513097161
 20
146.9174306808177
 30
0.0
  0
VERTEX
  5
A2B
  8
0
 10
111.3603958491719
 20
146.9762635127171
 30
0.0
  0
VERTEX
  5
A2C
  8
0
 10
111.1087056927212
 20
146.9851482244264
 30
0.0
  0
VERTEX
  5
A2D
  8
0
 10
110.8659531519049
 20
146.9437433814579
 30
0.0
  0
VERTEX
  5
A2E
  8
0
 10
110.6414670707082
 20
146.8536401487032
 30
0.0
  0
VERTEX
  5
A2F
  8
0
 10
110.4438743233186
 20
146.7183011428586
 30
0.0
  0
SEQEND
  5
F31
  8
0
  0
POLYLINE
  5
4A7
  8
0
 66
     1
 10
0.0
 20
0.0
 30
0.0
  0
VERTEX
  5
A30
  8
0
 10
110.4438743233186
 20
146.7183011428586
 30
0.0
  0
VERTEX
  5
A31
  8
0
 10
110.2807682877323
 20
146.5429273653929
 30
0.0
  0
VERTEX
  5
A32
  8
0
 10
110.1584170381276
 20
146.3342583326117
 30
0.0
  0
VERTEX
  5
A33
  8
0
 10
110.0815224644307
 20
146.1003130784545
 30
0.0
  0
VERTEX
  5
A34
  8
0
 10
110.0530395819977
 20
145.8500819878772
 30
0.0
  0
VERTEX
  5
A35
  8
0
 10
110.0740629720315
 20
145.5931813013986
 30
0.0
  0
VERTEX
  5
A36
  8
0
 10
110.1437847174401
 20
145.3394835683685
 30
0.0
  0
VERTEX
  5
A37
  8
0
 10
110.2595254506367
 20
145.0987382504318
 30
0.0
  0
VERTEX
  5
A38
  8
0
 10
110.4168373201348
 20
144.8801970551827
 30
0.0
  0
VERTEX
  5
A39
  8
0
 10
110.6096749189864
 20
144.6922583982296
 30
0.0
  0
VERTEX
  5
A3A
  8
0
 10
110.8306276063821
 20
144.5421446567914
 30
0.0
  0
VERTEX
  5
A3B
  8
0
 10
111.0712042944224
 20
144.4356246177901
 30
0.0
  0
VERTEX
  5
A3C
  8
0
 10
111.3221597558654
 20
144.3767917866042
 30
0.0
  0
VERTEX
  5
A3D
  8
0
 10
111.5738499130259
 20
144.3679070759516
 30
0.0
  0
VERTEX
  5
A3E
  8
0
 10
111.8166024542744
 20
144.4093119202813
 30
0.0
  0
VERTEX
  5
A3F
  8
0
 10
112.0410885355499
 20
144.4994151546394
 30
0.0
  0
VERTEX
  5
A40
  8
0
 10
112.2386812826073
 20
144.634754162246
 30
0.0
  0
SEQEND
  5
F32
  8
0
  0
POLYLINE
  5
4A8
  8
0
 66
     1
 10
0.0
 20
0.0
 30
0.0
  0
VERTEX
  5
A41
  8
0
 10
110.6346967580026
 20
146.8499934644289
 30
0.0
  0
VERTEX
  5
A42
  8
0
 10
110.5104985781434
 20
146.6412570911998
 30
0.0
  0
VERTEX
  5
A43
  8
0
 10
110.432064383665
 20
146.406777952782
 30
0.0
  0
VERTEX
  5
A44
  8
0
 10
110.4024358365524
 20
146.155649102101
 30
0.0
  0
VERTEX
  5
A45
  8
0
 10
110.4227619257896
 20
145.8976092645116
 30
0.0
  0
VERTEX
  5
A46
  8
0
 10
110.4922544098023
 20
145.642665172024
 30
0.0
  0
VERTEX
  5
A47
  8
0
 10
110.6082183843046
 20
145.400703504288
 30
0.0
  0
VERTEX
  5
A48
  8
0
 10
110.7661567901348
 20
145.1811074851827
 30
0.0
  0
VERTEX
  5
A49
  8
0
 10
110.9599448082881
 20
144.9923930033175
 30
0.0
  0
VERTEX
  5
A4A
  8
0
 10
111.182067379142
 20
144.8418783676176
 30
0.0
  0
VERTEX
  5
A4B
  8
0
 10
111.4239106349281
 20
144.7354005048039
 30
0.0
  0
VERTEX
  5
A4C
  8
0
 10
111.6760959437585
 20
144.6770886045712
 30
0.0
  0
VERTEX
  5
A4D
  8
0
 10
111.9288436110481
 20
144.669203990458
 30
0.0
  0
VERTEX
  5
A4E
  8
0
 10
112.1723521340662
 20
144.7120524261836
 30
0.0
  0
VERTEX
  5
A4F
  8
0
 10
112.3971783022029
 20
144.8039722581933
 30
0.0
  0
SEQEND
  5
F33
  8
0
  0
POLYLINE
  5
4A9
  8
0
 66
     1
 10
0.0
 20
0.0
 30
0.0
  0
VERTEX
  5
A50
  8
0
 10
81.35715984992434
 20
144.0576425565378
 30
0.0
  0
VERTEX
  5
A51
  8
0
 10
81.90556090265864
 20
144.0465771850682
 30
0.0
  0
VERTEX
  5
A52
  8
0
 10
82.43288721043808
 20
144.1451187002704
 30
0.0
  0
VERTEX
  5
A53
  8
0
 10
82.9188739189366
 20
144.3494802069692
 30
0.0
  0
VERTEX
  5
A54
  8
0
 10
83.3448448314485
 20
144.6518082070517
 30
0.0
  0
VERTEX
  5
A55
  8
0
 10
83.69443012465591
 20
145.0404844049956
 30
0.0
  0
VERTEX
  5
A56
  8
0
 10
83.95419543175996
 20
145.500572192452
 30
0.0
  0
VERTEX
  5
A57
  8
0
 10
84.11415811766395
 20
146.014390653729
 30
0.0
  0
VERTEX
  5
A58
  8
0
 10
84.16817090604269
 20
146.5621940334674
 30
0.0
  0
VERTEX
  5
A59
  8
0
 10
84.11415811572482
 20
147.1229305549475
 30
0.0
  0
VERTEX
  5
A5A
  8
0
 10
83.95419542795622
 20
147.6750514280646
 30
0.0
  0
VERTEX
  5
A5B
  8
0
 10
83.69443011913374
 20
148.1973389572492
 30
0.0
  0
VERTEX
  5
A5C
  8
0
 10
83.34484482442012
 20
148.6697219256113
 30
0.0
  0
VERTEX
  5
A5D
  8
0
 10
82.9188739106721
 20
149.0740469205509
 30
0.0
  0
VERTEX
  5
A5E
  8
0
 10
82.43288720125507
 20
149.3947759592251
 30
0.0
  0
VERTEX
  5
A5F
  8
0
 10
81.90556089290999
 20
149.6195836045164
 30
0.0
  0
VERTEX
  5
A60
  8
0
 10
81.35715983998472
 20
149.7398306246703
 30
0.0
  0
SEQEND
  5
F34
  8
0
  0
POLYLINE
  5
4AA
  8
0
 66
     1
 10
0.0
 20
0.0
 30
0.0
  0
VERTEX
  5
4AB
  8
0
 10
81.35715985
 20
149.73983062
 30
0.0
  0
VERTEX
  5
4AC
  8
0
 10
71.05011931
 20
150.97382001
 30
0.0
  0
SEQEND
  5
4AD
  8
0
  0
POLYLINE
  5
4AE
  8
0
 66
     1
 10
0.0
 20
0.0
 30
0.0
  0
VERTEX
  5
A61
  8
0
 10
71.05011929998471
 20
150.9738200046703
 30
0.0
  0
VERTEX
  5
A62
  8
0
 10
70.50171824868146
 20
150.9848853742276
 30
0.0
  0
VERTEX
  5
A63
  8
0
 10
69.9743919425698
 20
150.8863438576395
 30
0.0
  0
VERTEX
  5
A64
  8
0
 10
69.48840523581946
 20
150.6819823501172
 30
0.0
  0
VERTEX
  5
A65
  8
0
 10
69.06243432498383
 20
150.3796543497696
 30
0.0
  0
VERTEX
  5
A66
  8
0
 10
68.71284903324177
 20
149.9909781520761
 30
0.0
  0
VERTEX
  5
A67
  8
0
 10
68.45308372727465
 20
149.5308903653079
 30
0.0
  0
VERTEX
  5
A68
  8
0
 10
68.29312104208998
 20
149.0170719050501
 30
0.0
  0
VERTEX
  5
A69
  8
0
 10
68.23910825395731
 20
148.4692685265326
 30
0.0
  0
VERTEX
  5
A6A
  8
0
 10
68.29312104402909
 20
147.9085320063323
 30
0.0
  0
VERTEX
  5
A6B
  8
0
 10
68.45308373107838
 20
147.3564111344067
 30
0.0
  0
VERTEX
  5
A6C
  8
0
 10
68.7128490387639
 20
146.8341236061825
 30
0.0
  0
VERTEX
  5
A6D
  8
0
 10
69.0624343320122
 20
146.3617406384217
 30
0.0
  0
VERTEX
  5
A6E
  8
0
 10
69.48840524408395
 20
145.9574156436183
 30
0.0
  0
VERTEX
  5
A6F
  8
0
 10
69.97439195175282
 20
145.6366866045392
 30
0.0
  0
VERTEX
  5
A70
  8
0
 10
70.5017182584301
 20
145.4118789582614
 30
0.0
  0
VERTEX
  5
A71
  8
0
 10
71.05011930992434
 20
145.2916319365378
 30
0.0
  0
SEQEND
  5
F35
  8
0
  0
LINE
  5
4AF
  8
0
 10
71.05011931
 20
145.29163194
 30
0.0
 11
81.35715985
 21
144.05764255
 31
0.0
  0
LINE
  5
4B0
  8
0
 10
81.70647933
 20
145.30558433
 30
0.0
 11
81.35715985
 21
144.05764255
 31
0.0
  0
POLYLINE
  5
4B1
  8
0
 66
     1
 10
0.0
 20
0.0
 30
0.0
  0
VERTEX
  5
A72
  8
0
 10
81.70647932549753
 20
145.3055843306937
 30
0.0
  0
VERTEX
  5
A73
  8
0
 10
82.07208002736702
 20
145.29820741552
 30
0.0
  0
VERTEX
  5
A74
  8
0
 10
82.42363089943592
 20
145.3639017581733
 30
0.0
  0
VERTEX
  5
A75
  8
0
 10
82.74762203881187
 20
145.5001427619015
 30
0.0
  0
VERTEX
  5
A76
  8
0
 10
83.03160264767658
 20
145.7016947613242
 30
0.0
  0
VERTEX
  5
A77
  8
0
 10
83.2646595104647
 20
145.9608122261177
 30
0.0
  0
VERTEX
  5
A78
  8
0
 10
83.43783638261866
 20
146.267537417402
 30
0.0
  0
VERTEX
  5
A79
  8
0
 10
83.54447817404514
 20
146.6100830580626
 30
0.0
  0
VERTEX
  5
A7A
  8
0
 10
83.5804867004957
 20
146.9752853112008
 30
0.0
  0
VERTEX
  5
A7B
  8
0
 10
83.54447817448948
 20
147.3491096590043
 30
0.0
  0
VERTEX
  5
A7C
  8
0
 10
83.43783638349028
 20
147.7171902413974
 30
0.0
  0
VERTEX
  5
A7D
  8
0
 10
83.26465951173009
 20
148.0653819279884
 30
0.0
  0
VERTEX
  5
A7E
  8
0
 10
83.03160264928712
 20
148.3803039074994
 30
0.0
  0
VERTEX
  5
A7F
  8
0
 10
82.74762204070565
 20
148.6498539048405
 30
0.0
  0
VERTEX
  5
A80
  8
0
 10
82.42363090154019
 20
148.8636732647556
 30
0.0
  0
VERTEX
  5
A81
  8
0
 10
82.0720800296009
 20
149.0135450291357
 30
0.0
  0
VERTEX
  5
A82
  8
0
 10
81.70647932777516
 20
149.0937097101116
 30
0.0
  0
SEQEND
  5
F36
  8
0
  0
LINE
  5
4B2
  8
0
 10
81.70647933
 20
149.09370971
 30
0.0
 11
81.35715985
 21
149.73983062
 31
0.0
  0
POLYLINE
  5
4B3
  8
0
 66
     1
 10
0.0
 20
0.0
 30
0.0
  0
VERTEX
  5
4B4
  8
0
 10
81.70647933
 20
149.09370971
 30
0.0
  0
VERTEX
  5
4B5
  8
0
 10
71.39943878
 20
150.32769909
 30
0.0
  0
VERTEX
  5
4B6
  8
0
 10
71.05011931
 20
150.97382001
 30
0.0
  0
SEQEND
  5
4B7
  8
0
  0
POLYLINE
  5
4B8
  8
0
 66
     1
 10
0.0
 20
0.0
 30
0.0
  0
VERTEX
  5
A83
  8
0
 10
71.39943877777516
 20
150.3276990901117
 30
0.0
  0
VERTEX
  5
A84
  8
0
 10
71.0338380768597
 20
150.3350760040105
 30
0.0
  0
VERTEX
  5
A85
  8
0
 10
70.68228720590265
 20
150.2693816604333
 30
0.0
  0
VERTEX
  5
A86
  8
0
 10
70.35829606769215
 20
150.1331406561561
 30
0.0
  0
VERTEX
  5
A87
  8
0
 10
70.07431545994496
 20
149.9315886565566
 30
0.0
  0
VERTEX
  5
A88
  8
0
 10
69.84125859813373
 20
149.67247119193
 30
0.0
  0
VERTEX
  5
A89
  8
0
 10
69.66808172673773
 20
149.3657460011046
 30
0.0
  0
VERTEX
  5
A8A
  8
0
 10
69.56143993579079
 20
149.0232003611235
 30
0.0
  0
VERTEX
  5
A8B
  8
0
 10
69.5254314095043
 20
148.6579981087992
 30
0.0
  0
VERTEX
  5
A8C
  8
0
 10
69.56143993534644
 20
148.284173761849
 30
0.0
  0
VERTEX
  5
A8D
  8
0
 10
69.6680817258661
 20
147.9160931802502
 30
0.0
  0
VERTEX
  5
A8E
  8
0
 10
69.84125859686834
 20
147.5679014942994
 30
0.0
  0
VERTEX
  5
A8F
  8
0
 10
70.07431545833442
 20
147.2529795151892
 30
0.0
  0
VERTEX
  5
A90
  8
0
 10
70.35829606579837
 20
146.983429517939
 30
0.0
  0
VERTEX
  5
A91
  8
0
 10
70.6822872037984
 20
146.769610157754
 30
0.0
  0
VERTEX
  5
A92
  8
0
 10
71.03383807462582
 20
146.6197383927162
 30
0.0
  0
VERTEX
  5
A93
  8
0
 10
71.39943877549753
 20
146.5395737106938
 30
0.0
  0
SEQEND
  5
F37
  8
0
  0
LINE
  5
4B9
  8
0
 10
71.39943878
 20
146.53957371
 30
0.0
 11
81.70647933
 21
145.30558433
 31
0.0
  0
LINE
  5
4BA
  8
0
 10
71.05011931
 20
145.29163194
 30
0.0
 11
71.39943878
 21
146.53957371
 31
0.0
  0
POLYLINE
  5
4BB
  8
0
 66
     1
 10
0.0
 20
0.0
 30
0.0
  0
VERTEX
  5
A94
  8
0
 10
81.35715984992434
 20
131.7462350665378
 30
0.0
  0
VERTEX
  5
A95
  8
0
 10
81.90556090265864
 20
131.7351696950682
 30
0.0
  0
VERTEX
  5
A96
  8
0
 10
82.43288721043808
 20
131.8337112102704
 30
0.0
  0
VERTEX
  5
A97
  8
0
 10
82.9188739189366
 20
132.0380727169693
 30
0.0
  0
VERTEX
  5
A98
  8
0
 10
83.3448448314485
 20
132.3404007170517
 30
0.0
  0
VERTEX
  5
A99
  8
0
 10
83.69443012465591
 20
132.7290769149956
 30
0.0
  0
VERTEX
  5
A9A
  8
0
 10
83.95419543175996
 20
133.189164702452
 30
0.0
  0
VERTEX
  5
A9B
  8
0
 10
84.11415811766395
 20
133.702983163729
 30
0.0
  0
VERTEX
  5
A9C
  8
0
 10
84.16817090604269
 20
134.2507865434674
 30
0.0
  0
VERTEX
  5
A9D
  8
0
 10
84.11415811572482
 20
134.8115230649476
 30
0.0
  0
VERTEX
  5
A9E
  8
0
 10
83.95419542795622
 20
135.3636439380646
 30
0.0
  0
VERTEX
  5
A9F
  8
0
 10
83.69443011913374
 20
135.8859314672492
 30
0.0
  0
VERTEX
  5
AA0
  8
0
 10
83.34484482442012
 20
136.3583144356113
 30
0.0
  0
VERTEX
  5
AA1
  8
0
 10
82.9188739106721
 20
136.7626394305509
 30
0.0
  0
VERTEX
  5
AA2
  8
0
 10
82.43288720125507
 20
137.0833684692251
 30
0.0
  0
VERTEX
  5
AA3
  8
0
 10
81.90556089290999
 20
137.3081761145164
 30
0.0
  0
VERTEX
  5
AA4
  8
0
 10
81.35715983998472
 20
137.4284231346703
 30
0.0
  0
SEQEND
  5
F38
  8
0
  0
POLYLINE
  5
4BC
  8
0
 66
     1
 10
0.0
 20
0.0
 30
0.0
  0
VERTEX
  5
4BD
  8
0
 10
81.35715985
 20
137.42842314
 30
0.0
  0
VERTEX
  5
4BE
  8
0
 10
71.05011931
 20
138.66241252
 30
0.0
  0
SEQEND
  5
4BF
  8
0
  0
POLYLINE
  5
4C0
  8
0
 66
     1
 10
0.0
 20
0.0
 30
0.0
  0
VERTEX
  5
AA5
  8
0
 10
71.05011929998471
 20
138.6624125246703
 30
0.0
  0
VERTEX
  5
AA6
  8
0
 10
70.50171824868146
 20
138.6734778942276
 30
0.0
  0
VERTEX
  5
AA7
  8
0
 10
69.9743919425698
 20
138.5749363776395
 30
0.0
  0
VERTEX
  5
AA8
  8
0
 10
69.48840523581946
 20
138.3705748701172
 30
0.0
  0
VERTEX
  5
AA9
  8
0
 10
69.06243432498383
 20
138.0682468697696
 30
0.0
  0
VERTEX
  5
AAA
  8
0
 10
68.71284903324177
 20
137.6795706720761
 30
0.0
  0
VERTEX
  5
AAB
  8
0
 10
68.45308372727465
 20
137.2194828853079
 30
0.0
  0
VERTEX
  5
AAC
  8
0
 10
68.29312104208998
 20
136.7056644250501
 30
0.0
  0
VERTEX
  5
AAD
  8
0
 10
68.23910825395731
 20
136.1578610465326
 30
0.0
  0
VERTEX
  5
AAE
  8
0
 10
68.29312104402909
 20
135.5971245263323
 30
0.0
  0
VERTEX
  5
AAF
  8
0
 10
68.45308373107838
 20
135.0450036544067
 30
0.0
  0
VERTEX
  5
AB0
  8
0
 10
68.7128490387639
 20
134.5227161261826
 30
0.0
  0
VERTEX
  5
AB1
  8
0
 10
69.0624343320122
 20
134.0503331584217
 30
0.0
  0
VERTEX
  5
AB2
  8
0
 10
69.48840524408395
 20
133.6460081636183
 30
0.0
  0
VERTEX
  5
AB3
  8
0
 10
69.97439195175282
 20
133.3252791245393
 30
0.0
  0
VERTEX
  5
AB4
  8
0
 10
70.5017182584301
 20
133.1004714782614
 30
0.0
  0
VERTEX
  5
AB5
  8
0
 10
71.05011930992434
 20
132.9802244565378
 30
0.0
  0
SEQEND
  5
F39
  8
0
  0
LINE
  5
4C1
  8
0
 10
71.05011931
 20
132.98022445
 30
0.0
 11
81.35715985
 21
131.74623507
 31
0.0
  0
LINE
  5
4C2
  8
0
 10
81.70647933
 20
132.99417684
 30
0.0
 11
81.35715985
 21
131.74623507
 31
0.0
  0
POLYLINE
  5
4C3
  8
0
 66
     1
 10
0.0
 20
0.0
 30
0.0
  0
VERTEX
  5
AB6
  8
0
 10
81.70647932549753
 20
132.9941768406937
 30
0.0
  0
VERTEX
  5
AB7
  8
0
 10
82.07208002736702
 20
132.98679992552
 30
0.0
  0
VERTEX
  5
AB8
  8
0
 10
82.42363089943592
 20
133.0524942681733
 30
0.0
  0
VERTEX
  5
AB9
  8
0
 10
82.74762203881187
 20
133.1887352719015
 30
0.0
  0
VERTEX
  5
ABA
  8
0
 10
83.03160264767658
 20
133.3902872713242
 30
0.0
  0
VERTEX
  5
ABB
  8
0
 10
83.2646595104647
 20
133.6494047361177
 30
0.0
  0
VERTEX
  5
ABC
  8
0
 10
83.43783638261866
 20
133.956129927402
 30
0.0
  0
VERTEX
  5
ABD
  8
0
 10
83.54447817404514
 20
134.2986755680626
 30
0.0
  0
VERTEX
  5
ABE
  8
0
 10
83.5804867004957
 20
134.6638778212008
 30
0.0
  0
VERTEX
  5
ABF
  8
0
 10
83.54447817448948
 20
135.0377021690043
 30
0.0
  0
VERTEX
  5
AC0
  8
0
 10
83.43783638349028
 20
135.4057827513974
 30
0.0
  0
VERTEX
  5
AC1
  8
0
 10
83.26465951173009
 20
135.7539744379884
 30
0.0
  0
VERTEX
  5
AC2
  8
0
 10
83.03160264928712
 20
136.0688964174994
 30
0.0
  0
VERTEX
  5
AC3
  8
0
 10
82.74762204070565
 20
136.3384464148405
 30
0.0
  0
VERTEX
  5
AC4
  8
0
 10
82.42363090154019
 20
136.5522657747556
 30
0.0
  0
VERTEX
  5
AC5
  8
0
 10
82.0720800296009
 20
136.7021375391357
 30
0.0
  0
VERTEX
  5
AC6
  8
0
 10
81.70647932777516
 20
136.7823022201116
 30
0.0
  0
SEQEND
  5
F3A
  8
0
  0
LINE
  5
4C4
  8
0
 10
81.70647933
 20
136.78230222
 30
0.0
 11
81.35715985
 21
137.42842314
 31
0.0
  0
POLYLINE
  5
4C5
  8
0
 66
     1
 10
0.0
 20
0.0
 30
0.0
  0
VERTEX
  5
4C6
  8
0
 10
81.70647933
 20
136.78230222
 30
0.0
  0
VERTEX
  5
4C7
  8
0
 10
71.39943878
 20
138.01629161
 30
0.0
  0
VERTEX
  5
4C8
  8
0
 10
71.05011931
 20
138.66241252
 30
0.0
  0
SEQEND
  5
4C9
  8
0
  0
POLYLINE
  5
4CA
  8
0
 66
     1
 10
0.0
 20
0.0
 30
0.0
  0
VERTEX
  5
AC7
  8
0
 10
71.39943877777516
 20
138.0162916101116
 30
0.0
  0
VERTEX
  5
AC8
  8
0
 10
71.0338380768597
 20
138.0236685240105
 30
0.0
  0
VERTEX
  5
AC9
  8
0
 10
70.68228720590265
 20
137.9579741804332
 30
0.0
  0
VERTEX
  5
ACA
  8
0
 10
70.35829606769215
 20
137.8217331761561
 30
0.0
  0
VERTEX
  5
ACB
  8
0
 10
70.07431545994496
 20
137.6201811765566
 30
0.0
  0
VERTEX
  5
ACC
  8
0
 10
69.84125859813373
 20
137.36106371193
 30
0.0
  0
VERTEX
  5
ACD
  8
0
 10
69.66808172673773
 20
137.0543385211046
 30
0.0
  0
VERTEX
  5
ACE
  8
0
 10
69.56143993579079
 20
136.7117928811235
 30
0.0
  0
VERTEX
  5
ACF
  8
0
 10
69.5254314095043
 20
136.3465906287992
 30
0.0
  0
VERTEX
  5
AD0
  8
0
 10
69.56143993534644
 20
135.9727662818489
 30
0.0
  0
VERTEX
  5
AD1
  8
0
 10
69.6680817258661
 20
135.6046857002501
 30
0.0
  0
VERTEX
  5
AD2
  8
0
 10
69.84125859686834
 20
135.2564940142994
 30
0.0
  0
VERTEX
  5
AD3
  8
0
 10
70.07431545833442
 20
134.9415720351892
 30
0.0
  0
VERTEX
  5
AD4
  8
0
 10
70.35829606579837
 20
134.672022037939
 30
0.0
  0
VERTEX
  5
AD5
  8
0
 10
70.6822872037984
 20
134.458202677754
 30
0.0
  0
VERTEX
  5
AD6
  8
0
 10
71.03383807462582
 20
134.3083309127162
 30
0.0
  0
VERTEX
  5
AD7
  8
0
 10
71.39943877549753
 20
134.2281662306937
 30
0.0
  0
SEQEND
  5
F3B
  8
0
  0
LINE
  5
4CB
  8
0
 10
71.39943878
 20
134.22816623
 30
0.0
 11
81.70647933
 21
132.99417684
 31
0.0
  0
LINE
  5
4CC
  8
0
 10
71.05011931
 20
132.98022445
 30
0.0
 11
71.39943878
 21
134.22816623
 31
0.0
  0
POLYLINE
  5
4CD
  8
0
 66
     1
 10
0.0
 20
0.0
 30
0.0
  0
VERTEX
  5
AD8
  8
0
 10
59.63141535736603
 20
128.6121303217799
 30
0.0
  0
VERTEX
  5
AD9
  8
0
 10
59.90887291506662
 20
128.5883343543409
 30
0.0
  0
VERTEX
  5
ADA
  8
0
 10
60.1953666670804
 20
128.5819553268645
 30
0.0
  0
VERTEX
  5
ADB
  8
0
 10
60.48039525068357
 20
128.5932270611385
 30
0.0
  0
VERTEX
  5
ADC
  8
0
 10
60.75351100856417
 20
128.6217363943303
 30
0.0
  0
VERTEX
  5
ADD
  8
0
 10
61.00470294530283
 20
128.6664383233753
 30
0.0
  0
VERTEX
  5
ADE
  8
0
 10
61.22476367811219
 20
128.7256943093243
 30
0.0
  0
SEQEND
  5
F3C
  8
0
  0
POLYLINE
  5
4CE
  8
0
 66
     1
 10
0.0
 20
0.0
 30
0.0
  0
VERTEX
  5
ADF
  8
0
 10
58.78914963428407
 20
128.8646541509075
 30
0.0
  0
VERTEX
  5
AE0
  8
0
 10
58.93686230785272
 20
128.7825793019142
 30
0.0
  0
VERTEX
  5
AE1
  8
0
 10
59.13176540198529
 20
128.7113835869669
 30
0.0
  0
VERTEX
  5
AE2
  8
0
 10
59.36631085304611
 20
128.6538242213338
 30
0.0
  0
VERTEX
  5
AE3
  8
0
 10
59.63141535736603
 20
128.6121303217799
 30
0.0
  0
SEQEND
  5
F3D
  8
0
  0
LINE
  5
4CF
  8
0
 10
61.91433338
 20
128.90692853
 30
0.0
 11
61.74910753
 21
128.91844354
 31
0.0
  0
POLYLINE
  5
4D0
  8
0
 66
     1
 10
0.0
 20
0.0
 30
0.0
  0
VERTEX
  5
AE4
  8
0
 10
57.65539456
 20
129.0634959728821
 30
0.0
  0
VERTEX
  5
AE5
  8
0
 10
57.70122985864454
 20
128.9104643422544
 30
0.0
  0
VERTEX
  5
AE6
  8
0
 10
57.83705505825522
 20
128.7630441121239
 30
0.0
  0
VERTEX
  5
AE7
  8
0
 10
58.05788968777607
 20
128.6266409229119
 30
0.0
  0
VERTEX
  5
AE8
  8
0
 10
58.35563612994876
 20
128.5062564395358
 30
0.0
  0
VERTEX
  5
AE9
  8
0
 10
58.71937654668797
 20
128.4063049491586
 30
0.0
  0
VERTEX
  5
AEA
  8
0
 10
59.13577321699164
 20
128.3304514970461
 30
0.0
  0
VERTEX
  5
AEB
  8
0
 10
59.58955760769958
 20
128.281477495807
 30
0.0
  0
VERTEX
  5
AEC
  8
0
 10
60.0640902437361
 20
128.2611787358861
 30
0.0
  0
VERTEX
  5
AED
  8
0
 10
60.54197084838037
 20
128.2702995370898
 30
0.0
  0
VERTEX
  5
AEE
  8
0
 10
61.00567638079416
 20
128.308505455688
 30
0.0
  0
VERTEX
  5
AEF
  8
0
 10
61.43820357509384
 20
128.3743955478773
 30
0.0
  0
SEQEND
  5
F3E
  8
0
  0
POLYLINE
  5
4D1
  8
0
 66
     1
 10
0.0
 20
0.0
 30
0.0
  0
VERTEX
  5
AF0
  8
0
 10
62.73186820031552
 20
128.4123009290842
 30
0.0
  0
VERTEX
  5
AF1
  8
0
 10
62.47305575094361
 20
128.4350604100308
 30
0.0
  0
VERTEX
  5
AF2
  8
0
 10
62.20575719392415
 20
128.4426465103255
 30
0.0
  0
VERTEX
  5
AF3
  8
0
 10
61.93852685928952
 20
128.4348164527294
 30
0.0
  0
VERTEX
  5
AF4
  8
0
 10
61.67991689375767
 20
128.4118208218234
 30
0.0
  0
VERTEX
  5
AF5
  8
0
 10
61.43820356720261
 20
128.3743955445734
 30
0.0
  0
SEQEND
  5
F3F
  8
0
  0
LINE
  5
4D2
  8
0
 10
61.91433337281319
 20
128.7829142209269
 30
0.0
 11
61.22476366432554
 21
128.7256943063324
 31
0.0
  0
POLYLINE
  5
4D3
  8
0
 66
     1
 10
0.0
 20
0.0
 30
0.0
  0
VERTEX
  5
4D4
  8
0
 10
62.73186819
 20
128.41230093
 30
0.0
  0
VERTEX
  5
4D5
  8
0
 10
62.73186819
 20
114.56196751
 30
0.0
  0
SEQEND
  5
4D6
  8
0
  0
POLYLINE
  5
4D7
  8
0
 66
     1
 10
0.0
 20
0.0
 30
0.0
  0
VERTEX
  5
AF6
  8
0
 10
62.73186820031552
 20
114.5619675090842
 30
0.0
  0
VERTEX
  5
AF7
  8
0
 10
62.47305575094361
 20
114.5847269900308
 30
0.0
  0
VERTEX
  5
AF8
  8
0
 10
62.20575719392415
 20
114.5923130903254
 30
0.0
  0
VERTEX
  5
AF9
  8
0
 10
61.93852685928952
 20
114.5844830327294
 30
0.0
  0
VERTEX
  5
AFA
  8
0
 10
61.67991689375767
 20
114.5614874018234
 30
0.0
  0
VERTEX
  5
AFB
  8
0
 10
61.43820356720261
 20
114.5240621245734
 30
0.0
  0
SEQEND
  5
F40
  8
0
  0
POLYLINE
  5
4D8
  8
0
 66
     1
 10
0.0
 20
0.0
 30
0.0
  0
VERTEX
  5
AFC
  8
0
 10
57.6591299311871
 20
115.1692907408957
 30
0.0
  0
VERTEX
  5
AFD
  8
0
 10
57.73952669292248
 20
115.0066354747021
 30
0.0
  0
VERTEX
  5
AFE
  8
0
 10
57.92158213302523
 20
114.8526707788034
 30
0.0
  0
VERTEX
  5
AFF
  8
0
 10
58.19763543705983
 20
114.7138754212289
 30
0.0
  0
VERTEX
  5
B00
  8
0
 10
58.55607040099891
 20
114.5960898507907
 30
0.0
  0
VERTEX
  5
B01
  8
0
 10
58.98180423608103
 20
114.5042704335155
 30
0.0
  0
VERTEX
  5
B02
  8
0
 10
59.45692224605955
 20
114.4422808908989
 30
0.0
  0
VERTEX
  5
B03
  8
0
 10
59.96143166989766
 20
114.4127297161708
 30
0.0
  0
VERTEX
  5
B04
  8
0
 10
60.474102968534
 20
114.416860410024
 30
0.0
  0
VERTEX
  5
B05
  8
0
 10
60.97336315473423
 20
114.454499154642
 30
0.0
  0
VERTEX
  5
B06
  8
0
 10
61.43820357509384
 20
114.5240621278773
 30
0.0
  0
SEQEND
  5
F41
  8
0
  0
LINE
  5
4D9
  8
0
 10
57.65539456
 20
129.06349597
 30
0.0
 11
57.65539456
 21
115.21316255
 31
0.0
  0
LINE
  5
4DA
  8
0
 10
61.43820357
 20
128.37439555
 30
0.0
 11
61.43820357
 21
114.52406212
 31
0.0
  0
LINE
  5
4DB
  8
0
 10
63.55408983
 20
114.4635287
 30
0.0
 11
62.73186819
 21
114.56196751
 31
0.0
  0
LINE
  5
4DC
  8
0
 10
120.71131465
 20
121.82596684
 30
0.0
 11
63.55408983
 21
114.4635287
 31
0.0
  0
POLYLINE
  5
4DD
  8
0
 66
     1
 10
0.0
 20
0.0
 30
0.0
  0
VERTEX
  5
4DE
  8
0
 10
120.71131465
 20
121.82596684
 30
0.0
  0
VERTEX
  5
4DF
  8
0
 10
120.71131465
 20
150.23690719
 30
0.0
  0
VERTEX
  5
4E0
  8
0
 10
63.55408983
 20
171.28540941
 30
0.0
  0
VERTEX
  5
4E1
  8
0
 10
62.73186819
 20
171.38384821
 30
0.0
  0
SEQEND
  5
4E2
  8
0
  0
LINE
  5
4E3
  8
0
 10
62.73186819
 20
157.05999912
 30
0.0
 11
62.73186819
 21
171.38384821
 31
0.0
  0
LINE
  5
4E4
  8
0
 10
62.73186819
 20
143.2096657
 30
0.0
 11
62.73186819
 21
157.05999912
 31
0.0
  0
POLYLINE
  5
4E5
  8
0
 66
     1
 10
0.0
 20
0.0
 30
0.0
  0
VERTEX
  5
4E6
  8
0
 10
62.73186819
 20
128.41230093
 30
0.0
  0
VERTEX
  5
4E7
  8
0
 10
62.73186819
 20
143.2096657
 30
0.0
  0
SEQEND
  5
4E8
  8
0
  0
POLYLINE
  5
4E9
  8
0
 66
     1
 10
0.0
 20
0.0
 30
0.0
  0
VERTEX
  5
B07
  8
0
 10
62.73186819674005
 20
143.2096656997942
 30
0.0
  0
VERTEX
  5
B08
  8
0
 10
62.47305574738868
 20
143.2324251800243
 30
0.0
  0
VERTEX
  5
B09
  8
0
 10
62.20575719088151
 20
143.2400112799583
 30
0.0
  0
VERTEX
  5
B0A
  8
0
 10
61.93852685685351
 20
143.23218122238
 30
0.0
  0
VERTEX
  5
B0B
  8
0
 10
61.6799168916223
 20
143.2091855918584
 30
0.0
  0
VERTEX
  5
B0C
  8
0
 10
61.43820356468363
 20
143.1717603153144
 30
0.0
  0
SEQEND
  5
F42
  8
0
  0
POLYLINE
  5
4EA
  8
0
 66
     1
 10
0.0
 20
0.0
 30
0.0
  0
VERTEX
  5
4EB
  8
0
 10
61.43820357
 20
143.17176031
 30
0.0
  0
VERTEX
  5
4EC
  8
0
 10
61.43820357
 20
157.02209373
 30
0.0
  0
SEQEND
  5
4ED
  8
0
  0
POLYLINE
  5
4EE
  8
0
 66
     1
 10
0.0
 20
0.0
 30
0.0
  0
VERTEX
  5
B0D
  8
0
 10
62.73186819674005
 20
157.0599991197942
 30
0.0
  0
VERTEX
  5
B0E
  8
0
 10
62.47305574738868
 20
157.0827586000243
 30
0.0
  0
VERTEX
  5
B0F
  8
0
 10
62.20575719088151
 20
157.0903446999583
 30
0.0
  0
VERTEX
  5
B10
  8
0
 10
61.93852685685351
 20
157.08251464238
 30
0.0
  0
VERTEX
  5
B11
  8
0
 10
61.6799168916223
 20
157.0595190118584
 30
0.0
  0
VERTEX
  5
B12
  8
0
 10
61.43820356468363
 20
157.0220937353144
 30
0.0
  0
SEQEND
  5
F43
  8
0
  0
LINE
  5
4EF
  8
0
 10
61.91433337281319
 20
157.4306124109269
 30
0.0
 11
61.22476366432554
 21
157.3733924963325
 31
0.0
  0
POLYLINE
  5
4F0
  8
0
 66
     1
 10
0.0
 20
0.0
 30
0.0
  0
VERTEX
  5
B13
  8
0
 10
59.63141535736603
 20
157.2598285117799
 30
0.0
  0
VERTEX
  5
B14
  8
0
 10
59.90887291506662
 20
157.2360325443409
 30
0.0
  0
VERTEX
  5
B15
  8
0
 10
60.1953666670804
 20
157.2296535168645
 30
0.0
  0
VERTEX
  5
B16
  8
0
 10
60.48039525068357
 20
157.2409252511385
 30
0.0
  0
VERTEX
  5
B17
  8
0
 10
60.75351100856417
 20
157.2694345843303
 30
0.0
  0
VERTEX
  5
B18
  8
0
 10
61.00470294530283
 20
157.3141365133753
 30
0.0
  0
VERTEX
  5
B19
  8
0
 10
61.22476367811219
 20
157.3733924993243
 30
0.0
  0
SEQEND
  5
F44
  8
0
  0
POLYLINE
  5
4F1
  8
0
 66
     1
 10
0.0
 20
0.0
 30
0.0
  0
VERTEX
  5
B1A
  8
0
 10
58.78914963428407
 20
157.5123523409075
 30
0.0
  0
VERTEX
  5
B1B
  8
0
 10
58.93686230785272
 20
157.4302774919142
 30
0.0
  0
VERTEX
  5
B1C
  8
0
 10
59.13176540198529
 20
157.3590817769669
 30
0.0
  0
VERTEX
  5
B1D
  8
0
 10
59.36631085304611
 20
157.3015224113338
 30
0.0
  0
VERTEX
  5
B1E
  8
0
 10
59.63141535736603
 20
157.2598285117799
 30
0.0
  0
SEQEND
  5
F45
  8
0
  0
LINE
  5
4F2
  8
0
 10
61.91433338
 20
157.55462672
 30
0.0
 11
61.74910753
 21
157.56614173
 31
0.0
  0
POLYLINE
  5
4F3
  8
0
 66
     1
 10
0.0
 20
0.0
 30
0.0
  0
VERTEX
  5
B1F
  8
0
 10
57.76598789188087
 20
157.9473444570174
 30
0.0
  0
VERTEX
  5
B20
  8
0
 10
57.68319749426085
 20
157.8305972119677
 30
0.0
  0
VERTEX
  5
B21
  8
0
 10
57.65539456
 20
157.7111941628821
 30
0.0
  0
SEQEND
  5
F46
  8
0
  0
POLYLINE
  5
4F4
  8
0
 66
     1
 10
0.0
 20
0.0
 30
0.0
  0
VERTEX
  5
B22
  8
0
 10
57.65539456
 20
157.7111941628821
 30
0.0
  0
VERTEX
  5
B23
  8
0
 10
57.70122985864454
 20
157.5581625322544
 30
0.0
  0
VERTEX
  5
B24
  8
0
 10
57.83705505825522
 20
157.4107423021239
 30
0.0
  0
VERTEX
  5
B25
  8
0
 10
58.05788968777607
 20
157.2743391129119
 30
0.0
  0
VERTEX
  5
B26
  8
0
 10
58.35563612994876
 20
157.1539546295358
 30
0.0
  0
VERTEX
  5
B27
  8
0
 10
58.71937654668797
 20
157.0540031391586
 30
0.0
  0
VERTEX
  5
B28
  8
0
 10
59.13577321699164
 20
156.9781496870461
 30
0.0
  0
VERTEX
  5
B29
  8
0
 10
59.58955760769958
 20
156.929175685807
 30
0.0
  0
VERTEX
  5
B2A
  8
0
 10
60.0640902437361
 20
156.9088769258861
 30
0.0
  0
VERTEX
  5
B2B
  8
0
 10
60.54197084838037
 20
156.9179977270898
 30
0.0
  0
VERTEX
  5
B2C
  8
0
 10
61.00567638079416
 20
156.956203645688
 30
0.0
  0
VERTEX
  5
B2D
  8
0
 10
61.43820357509384
 20
157.0220937378773
 30
0.0
  0
SEQEND
  5
F47
  8
0
  0
POLYLINE
  5
4F5
  8
0
 66
     1
 10
0.0
 20
0.0
 30
0.0
  0
VERTEX
  5
4F6
  8
0
 10
57.65539456
 20
157.71119416
 30
0.0
  0
VERTEX
  5
4F7
  8
0
 10
57.65539456
 20
143.86086073
 30
0.0
  0
SEQEND
  5
4F8
  8
0
  0
POLYLINE
  5
4F9
  8
0
 66
     1
 10
0.0
 20
0.0
 30
0.0
  0
VERTEX
  5
B2E
  8
0
 10
57.65539456
 20
143.8608607328821
 30
0.0
  0
VERTEX
  5
B2F
  8
0
 10
57.70122985864454
 20
143.7078291022544
 30
0.0
  0
VERTEX
  5
B30
  8
0
 10
57.83705505825522
 20
143.5604088721239
 30
0.0
  0
VERTEX
  5
B31
  8
0
 10
58.05788968777607
 20
143.4240056829119
 30
0.0
  0
VERTEX
  5
B32
  8
0
 10
58.35563612994876
 20
143.3036211995358
 30
0.0
  0
VERTEX
  5
B33
  8
0
 10
58.71937654668797
 20
143.2036697091586
 30
0.0
  0
VERTEX
  5
B34
  8
0
 10
59.13577321699164
 20
143.1278162570462
 30
0.0
  0
VERTEX
  5
B35
  8
0
 10
59.58955760769958
 20
143.078842255807
 30
0.0
  0
VERTEX
  5
B36
  8
0
 10
60.0640902437361
 20
143.0585434958861
 30
0.0
  0
VERTEX
  5
B37
  8
0
 10
60.54197084838037
 20
143.0676642970899
 30
0.0
  0
VERTEX
  5
B38
  8
0
 10
61.00567638079416
 20
143.1058702156881
 30
0.0
  0
VERTEX
  5
B39
  8
0
 10
61.43820357509384
 20
143.1717603078773
 30
0.0
  0
SEQEND
  5
F48
  8
0
  0
LINE
  5
4FA
  8
0
 10
61.59585448
 20
157.52852211
 30
0.0
 11
61.59585448
 21
157.41231565
 31
0.0
  0
LINE
  5
4FB
  8
0
 10
63.08118767
 20
171.68475864
 30
0.0
 11
62.73186819
 21
171.38384821
 31
0.0
  0
POLYLINE
  5
4FC
  8
0
 66
     1
 10
0.0
 20
0.0
 30
0.0
  0
VERTEX
  5
4FD
  8
0
 10
63.08118767
 20
171.68475864
 30
0.0
  0
VERTEX
  5
4FE
  8
0
 10
63.9034093
 20
171.58631984
 30
0.0
  0
VERTEX
  5
4FF
  8
0
 10
121.06063412
 20
150.53781762
 30
0.0
  0
VERTEX
  5
500
  8
0
 10
121.06063412
 20
122.12687727
 30
0.0
  0
VERTEX
  5
501
  8
0
 10
120.71131465
 20
121.82596684
 30
0.0
  0
SEQEND
  5
502
  8
0
  0
LINE
  5
503
  8
0
 10
121.06063412
 20
150.53781762
 30
0.0
 11
120.71131465
 21
150.23690719
 31
0.0
  0
LINE
  5
504
  8
0
 10
63.9034093
 20
171.58631984
 30
0.0
 11
63.55408983
 21
171.28540941
 31
0.0
  0
LINE
  5
505
  8
0
 10
61.59585448
 20
128.88082393
 30
0.0
 11
61.59585448
 21
128.76461746
 31
0.0
  0
POLYLINE
  5
506
  8
0
 66
     1
 10
0.0
 20
0.0
 30
0.0
  0
VERTEX
  5
507
  8
0
 10
71.05011931
 20
132.98022445
 30
0.0
  0
VERTEX
  5
508
  8
0
 10
81.35715985
 20
131.74623507
 30
0.0
  0
SEQEND
  5
509
  8
0
  0
POLYLINE
  5
50A
  8
0
 66
     1
 10
0.0
 20
0.0
 30
0.0
  0
VERTEX
  5
B3A
  8
0
 10
81.35715984992434
 20
131.7462350665378
 30
0.0
  0
VERTEX
  5
B3B
  8
0
 10
81.90556090265864
 20
131.7351696950682
 30
0.0
  0
VERTEX
  5
B3C
  8
0
 10
82.43288721043808
 20
131.8337112102704
 30
0.0
  0
VERTEX
  5
B3D
  8
0
 10
82.9188739189366
 20
132.0380727169693
 30
0.0
  0
VERTEX
  5
B3E
  8
0
 10
83.3448448314485
 20
132.3404007170517
 30
0.0
  0
VERTEX
  5
B3F
  8
0
 10
83.69443012465591
 20
132.7290769149956
 30
0.0
  0
VERTEX
  5
B40
  8
0
 10
83.95419543175996
 20
133.189164702452
 30
0.0
  0
VERTEX
  5
B41
  8
0
 10
84.11415811766395
 20
133.702983163729
 30
0.0
  0
VERTEX
  5
B42
  8
0
 10
84.16817090604269
 20
134.2507865434674
 30
0.0
  0
VERTEX
  5
B43
  8
0
 10
84.11415811572482
 20
134.8115230649476
 30
0.0
  0
VERTEX
  5
B44
  8
0
 10
83.95419542795622
 20
135.3636439380646
 30
0.0
  0
VERTEX
  5
B45
  8
0
 10
83.69443011913374
 20
135.8859314672492
 30
0.0
  0
VERTEX
  5
B46
  8
0
 10
83.34484482442012
 20
136.3583144356113
 30
0.0
  0
VERTEX
  5
B47
  8
0
 10
82.9188739106721
 20
136.7626394305509
 30
0.0
  0
VERTEX
  5
B48
  8
0
 10
82.43288720125507
 20
137.0833684692251
 30
0.0
  0
VERTEX
  5
B49
  8
0
 10
81.90556089290999
 20
137.3081761145164
 30
0.0
  0
VERTEX
  5
B4A
  8
0
 10
81.35715983998472
 20
137.4284231346703
 30
0.0
  0
SEQEND
  5
F49
  8
0
  0
POLYLINE
  5
50B
  8
0
 66
     1
 10
0.0
 20
0.0
 30
0.0
  0
VERTEX
  5
50C
  8
0
 10
81.35715985
 20
137.42842314
 30
0.0
  0
VERTEX
  5
50D
  8
0
 10
71.05011931
 20
138.66241252
 30
0.0
  0
SEQEND
  5
50E
  8
0
  0
POLYLINE
  5
50F
  8
0
 66
     1
 10
0.0
 20
0.0
 30
0.0
  0
VERTEX
  5
B4B
  8
0
 10
71.05011929998471
 20
138.6624125246703
 30
0.0
  0
VERTEX
  5
B4C
  8
0
 10
70.50171824868146
 20
138.6734778942276
 30
0.0
  0
VERTEX
  5
B4D
  8
0
 10
69.9743919425698
 20
138.5749363776395
 30
0.0
  0
VERTEX
  5
B4E
  8
0
 10
69.48840523581946
 20
138.3705748701172
 30
0.0
  0
VERTEX
  5
B4F
  8
0
 10
69.06243432498383
 20
138.0682468697696
 30
0.0
  0
VERTEX
  5
B50
  8
0
 10
68.71284903324177
 20
137.6795706720761
 30
0.0
  0
VERTEX
  5
B51
  8
0
 10
68.45308372727465
 20
137.2194828853079
 30
0.0
  0
VERTEX
  5
B52
  8
0
 10
68.29312104208998
 20
136.7056644250501
 30
0.0
  0
VERTEX
  5
B53
  8
0
 10
68.23910825395731
 20
136.1578610465326
 30
0.0
  0
VERTEX
  5
B54
  8
0
 10
68.29312104402909
 20
135.5971245263323
 30
0.0
  0
VERTEX
  5
B55
  8
0
 10
68.45308373107838
 20
135.0450036544067
 30
0.0
  0
VERTEX
  5
B56
  8
0
 10
68.7128490387639
 20
134.5227161261826
 30
0.0
  0
VERTEX
  5
B57
  8
0
 10
69.0624343320122
 20
134.0503331584217
 30
0.0
  0
VERTEX
  5
B58
  8
0
 10
69.48840524408395
 20
133.6460081636183
 30
0.0
  0
VERTEX
  5
B59
  8
0
 10
69.97439195175282
 20
133.3252791245393
 30
0.0
  0
VERTEX
  5
B5A
  8
0
 10
70.5017182584301
 20
133.1004714782614
 30
0.0
  0
VERTEX
  5
B5B
  8
0
 10
71.05011930992434
 20
132.9802244565378
 30
0.0
  0
SEQEND
  5
F4A
  8
0
  0
POLYLINE
  5
510
  8
0
 66
     1
 10
0.0
 20
0.0
 30
0.0
  0
VERTEX
  5
511
  8
0
 10
71.05011931
 20
132.98022445
 30
0.0
  0
VERTEX
  5
512
  8
0
 10
71.39943878
 20
134.22816623
 30
0.0
  0
VERTEX
  5
513
  8
0
 10
81.70647933
 20
132.99417684
 30
0.0
  0
VERTEX
  5
514
  8
0
 10
81.35715985
 20
131.74623507
 30
0.0
  0
SEQEND
  5
515
  8
0
  0
POLYLINE
  5
516
  8
0
 66
     1
 10
0.0
 20
0.0
 30
0.0
  0
VERTEX
  5
B5C
  8
0
 10
81.70647932549753
 20
132.9941768406937
 30
0.0
  0
VERTEX
  5
B5D
  8
0
 10
82.07208002736702
 20
132.98679992552
 30
0.0
  0
VERTEX
  5
B5E
  8
0
 10
82.42363089943592
 20
133.0524942681733
 30
0.0
  0
VERTEX
  5
B5F
  8
0
 10
82.74762203881187
 20
133.1887352719015
 30
0.0
  0
VERTEX
  5
B60
  8
0
 10
83.03160264767658
 20
133.3902872713242
 30
0.0
  0
VERTEX
  5
B61
  8
0
 10
83.2646595104647
 20
133.6494047361177
 30
0.0
  0
VERTEX
  5
B62
  8
0
 10
83.43783638261866
 20
133.956129927402
 30
0.0
  0
VERTEX
  5
B63
  8
0
 10
83.54447817404514
 20
134.2986755680626
 30
0.0
  0
VERTEX
  5
B64
  8
0
 10
83.5804867004957
 20
134.6638778212008
 30
0.0
  0
VERTEX
  5
B65
  8
0
 10
83.54447817448948
 20
135.0377021690043
 30
0.0
  0
VERTEX
  5
B66
  8
0
 10
83.43783638349028
 20
135.4057827513974
 30
0.0
  0
VERTEX
  5
B67
  8
0
 10
83.26465951173009
 20
135.7539744379884
 30
0.0
  0
VERTEX
  5
B68
  8
0
 10
83.03160264928712
 20
136.0688964174994
 30
0.0
  0
VERTEX
  5
B69
  8
0
 10
82.74762204070565
 20
136.3384464148405
 30
0.0
  0
VERTEX
  5
B6A
  8
0
 10
82.42363090154019
 20
136.5522657747556
 30
0.0
  0
VERTEX
  5
B6B
  8
0
 10
82.0720800296009
 20
136.7021375391357
 30
0.0
  0
VERTEX
  5
B6C
  8
0
 10
81.70647932777516
 20
136.7823022201116
 30
0.0
  0
SEQEND
  5
F4B
  8
0
  0
POLYLINE
  5
517
  8
0
 66
     1
 10
0.0
 20
0.0
 30
0.0
  0
VERTEX
  5
518
  8
0
 10
81.70647933
 20
136.78230222
 30
0.0
  0
VERTEX
  5
519
  8
0
 10
71.39943878
 20
138.01629161
 30
0.0
  0
VERTEX
  5
51A
  8
0
 10
71.05011931
 20
138.66241252
 30
0.0
  0
SEQEND
  5
51B
  8
0
  0
POLYLINE
  5
51C
  8
0
 66
     1
 10
0.0
 20
0.0
 30
0.0
  0
VERTEX
  5
B6D
  8
0
 10
71.39943877777516
 20
138.0162916101116
 30
0.0
  0
VERTEX
  5
B6E
  8
0
 10
71.0338380768597
 20
138.0236685240105
 30
0.0
  0
VERTEX
  5
B6F
  8
0
 10
70.68228720590265
 20
137.9579741804332
 30
0.0
  0
VERTEX
  5
B70
  8
0
 10
70.35829606769215
 20
137.8217331761561
 30
0.0
  0
VERTEX
  5
B71
  8
0
 10
70.07431545994496
 20
137.6201811765566
 30
0.0
  0
VERTEX
  5
B72
  8
0
 10
69.84125859813373
 20
137.36106371193
 30
0.0
  0
VERTEX
  5
B73
  8
0
 10
69.66808172673773
 20
137.0543385211046
 30
0.0
  0
VERTEX
  5
B74
  8
0
 10
69.56143993579079
 20
136.7117928811235
 30
0.0
  0
VERTEX
  5
B75
  8
0
 10
69.5254314095043
 20
136.3465906287992
 30
0.0
  0
VERTEX
  5
B76
  8
0
 10
69.56143993534644
 20
135.9727662818489
 30
0.0
  0
VERTEX
  5
B77
  8
0
 10
69.6680817258661
 20
135.6046857002501
 30
0.0
  0
VERTEX
  5
B78
  8
0
 10
69.84125859686834
 20
135.2564940142994
 30
0.0
  0
VERTEX
  5
B79
  8
0
 10
70.07431545833442
 20
134.9415720351892
 30
0.0
  0
VERTEX
  5
B7A
  8
0
 10
70.35829606579837
 20
134.672022037939
 30
0.0
  0
VERTEX
  5
B7B
  8
0
 10
70.6822872037984
 20
134.458202677754
 30
0.0
  0
VERTEX
  5
B7C
  8
0
 10
71.03383807462582
 20
134.3083309127162
 30
0.0
  0
VERTEX
  5
B7D
  8
0
 10
71.39943877549753
 20
134.2281662306937
 30
0.0
  0
SEQEND
  5
F4C
  8
0
  0
LINE
  5
51D
  8
0
 10
81.70647933
 20
136.78230222
 30
0.0
 11
81.35715985
 21
137.42842314
 31
0.0
  0
POLYLINE
  5
51E
  8
0
 66
     1
 10
0.0
 20
0.0
 30
0.0
  0
VERTEX
  5
51F
  8
0
 10
71.05011931
 20
145.29163194
 30
0.0
  0
VERTEX
  5
520
  8
0
 10
81.35715985
 20
144.05764255
 30
0.0
  0
SEQEND
  5
521
  8
0
  0
POLYLINE
  5
522
  8
0
 66
     1
 10
0.0
 20
0.0
 30
0.0
  0
VERTEX
  5
B7E
  8
0
 10
81.35715984992434
 20
144.0576425565378
 30
0.0
  0
VERTEX
  5
B7F
  8
0
 10
81.90556090265864
 20
144.0465771850682
 30
0.0
  0
VERTEX
  5
B80
  8
0
 10
82.43288721043808
 20
144.1451187002704
 30
0.0
  0
VERTEX
  5
B81
  8
0
 10
82.9188739189366
 20
144.3494802069692
 30
0.0
  0
VERTEX
  5
B82
  8
0
 10
83.3448448314485
 20
144.6518082070517
 30
0.0
  0
VERTEX
  5
B83
  8
0
 10
83.69443012465591
 20
145.0404844049956
 30
0.0
  0
VERTEX
  5
B84
  8
0
 10
83.95419543175996
 20
145.500572192452
 30
0.0
  0
VERTEX
  5
B85
  8
0
 10
84.11415811766395
 20
146.014390653729
 30
0.0
  0
VERTEX
  5
B86
  8
0
 10
84.16817090604269
 20
146.5621940334674
 30
0.0
  0
VERTEX
  5
B87
  8
0
 10
84.11415811572482
 20
147.1229305549475
 30
0.0
  0
VERTEX
  5
B88
  8
0
 10
83.95419542795622
 20
147.6750514280646
 30
0.0
  0
VERTEX
  5
B89
  8
0
 10
83.69443011913374
 20
148.1973389572492
 30
0.0
  0
VERTEX
  5
B8A
  8
0
 10
83.34484482442012
 20
148.6697219256113
 30
0.0
  0
VERTEX
  5
B8B
  8
0
 10
82.9188739106721
 20
149.0740469205509
 30
0.0
  0
VERTEX
  5
B8C
  8
0
 10
82.43288720125507
 20
149.3947759592251
 30
0.0
  0
VERTEX
  5
B8D
  8
0
 10
81.90556089290999
 20
149.6195836045164
 30
0.0
  0
VERTEX
  5
B8E
  8
0
 10
81.35715983998472
 20
149.7398306246703
 30
0.0
  0
SEQEND
  5
F4D
  8
0
  0
POLYLINE
  5
523
  8
0
 66
     1
 10
0.0
 20
0.0
 30
0.0
  0
VERTEX
  5
524
  8
0
 10
81.35715985
 20
149.73983062
 30
0.0
  0
VERTEX
  5
525
  8
0
 10
71.05011931
 20
150.97382001
 30
0.0
  0
SEQEND
  5
526
  8
0
  0
POLYLINE
  5
527
  8
0
 66
     1
 10
0.0
 20
0.0
 30
0.0
  0
VERTEX
  5
B8F
  8
0
 10
71.05011929998471
 20
150.9738200046703
 30
0.0
  0
VERTEX
  5
B90
  8
0
 10
70.50171824868146
 20
150.9848853742276
 30
0.0
  0
VERTEX
  5
B91
  8
0
 10
69.9743919425698
 20
150.8863438576395
 30
0.0
  0
VERTEX
  5
B92
  8
0
 10
69.48840523581946
 20
150.6819823501172
 30
0.0
  0
VERTEX
  5
B93
  8
0
 10
69.06243432498383
 20
150.3796543497696
 30
0.0
  0
VERTEX
  5
B94
  8
0
 10
68.71284903324177
 20
149.9909781520761
 30
0.0
  0
VERTEX
  5
B95
  8
0
 10
68.45308372727465
 20
149.5308903653079
 30
0.0
  0
VERTEX
  5
B96
  8
0
 10
68.29312104208998
 20
149.0170719050501
 30
0.0
  0
VERTEX
  5
B97
  8
0
 10
68.23910825395731
 20
148.4692685265326
 30
0.0
  0
VERTEX
  5
B98
  8
0
 10
68.29312104402909
 20
147.9085320063323
 30
0.0
  0
VERTEX
  5
B99
  8
0
 10
68.45308373107838
 20
147.3564111344067
 30
0.0
  0
VERTEX
  5
B9A
  8
0
 10
68.7128490387639
 20
146.8341236061825
 30
0.0
  0
VERTEX
  5
B9B
  8
0
 10
69.0624343320122
 20
146.3617406384217
 30
0.0
  0
VERTEX
  5
B9C
  8
0
 10
69.48840524408395
 20
145.9574156436183
 30
0.0
  0
VERTEX
  5
B9D
  8
0
 10
69.97439195175282
 20
145.6366866045392
 30
0.0
  0
VERTEX
  5
B9E
  8
0
 10
70.5017182584301
 20
145.4118789582614
 30
0.0
  0
VERTEX
  5
B9F
  8
0
 10
71.05011930992434
 20
145.2916319365378
 30
0.0
  0
SEQEND
  5
F4E
  8
0
  0
POLYLINE
  5
528
  8
0
 66
     1
 10
0.0
 20
0.0
 30
0.0
  0
VERTEX
  5
529
  8
0
 10
71.05011931
 20
145.29163194
 30
0.0
  0
VERTEX
  5
52A
  8
0
 10
71.39943878
 20
146.53957371
 30
0.0
  0
VERTEX
  5
52B
  8
0
 10
81.70647933
 20
145.30558433
 30
0.0
  0
VERTEX
  5
52C
  8
0
 10
81.35715985
 20
144.05764255
 30
0.0
  0
SEQEND
  5
52D
  8
0
  0
POLYLINE
  5
52E
  8
0
 66
     1
 10
0.0
 20
0.0
 30
0.0
  0
VERTEX
  5
BA0
  8
0
 10
81.70647932549753
 20
145.3055843306937
 30
0.0
  0
VERTEX
  5
BA1
  8
0
 10
82.07208002736702
 20
145.29820741552
 30
0.0
  0
VERTEX
  5
BA2
  8
0
 10
82.42363089943592
 20
145.3639017581733
 30
0.0
  0
VERTEX
  5
BA3
  8
0
 10
82.74762203881187
 20
145.5001427619015
 30
0.0
  0
VERTEX
  5
BA4
  8
0
 10
83.03160264767658
 20
145.7016947613242
 30
0.0
  0
VERTEX
  5
BA5
  8
0
 10
83.2646595104647
 20
145.9608122261177
 30
0.0
  0
VERTEX
  5
BA6
  8
0
 10
83.43783638261866
 20
146.267537417402
 30
0.0
  0
VERTEX
  5
BA7
  8
0
 10
83.54447817404514
 20
146.6100830580626
 30
0.0
  0
VERTEX
  5
BA8
  8
0
 10
83.5804867004957
 20
146.9752853112008
 30
0.0
  0
VERTEX
  5
BA9
  8
0
 10
83.54447817448948
 20
147.3491096590043
 30
0.0
  0
VERTEX
  5
BAA
  8
0
 10
83.43783638349028
 20
147.7171902413974
 30
0.0
  0
VERTEX
  5
BAB
  8
0
 10
83.26465951173009
 20
148.0653819279884
 30
0.0
  0
VERTEX
  5
BAC
  8
0
 10
83.03160264928712
 20
148.3803039074994
 30
0.0
  0
VERTEX
  5
BAD
  8
0
 10
82.74762204070565
 20
148.6498539048405
 30
0.0
  0
VERTEX
  5
BAE
  8
0
 10
82.42363090154019
 20
148.8636732647556
 30
0.0
  0
VERTEX
  5
BAF
  8
0
 10
82.0720800296009
 20
149.0135450291357
 30
0.0
  0
VERTEX
  5
BB0
  8
0
 10
81.70647932777516
 20
149.0937097101116
 30
0.0
  0
SEQEND
  5
F4F
  8
0
  0
POLYLINE
  5
52F
  8
0
 66
     1
 10
0.0
 20
0.0
 30
0.0
  0
VERTEX
  5
530
  8
0
 10
81.70647933
 20
149.09370971
 30
0.0
  0
VERTEX
  5
531
  8
0
 10
71.39943878
 20
150.32769909
 30
0.0
  0
VERTEX
  5
532
  8
0
 10
71.05011931
 20
150.97382001
 30
0.0
  0
SEQEND
  5
533
  8
0
  0
POLYLINE
  5
534
  8
0
 66
     1
 10
0.0
 20
0.0
 30
0.0
  0
VERTEX
  5
BB1
  8
0
 10
71.39943877777516
 20
150.3276990901117
 30
0.0
  0
VERTEX
  5
BB2
  8
0
 10
71.0338380768597
 20
150.3350760040105
 30
0.0
  0
VERTEX
  5
BB3
  8
0
 10
70.68228720590265
 20
150.2693816604333
 30
0.0
  0
VERTEX
  5
BB4
  8
0
 10
70.35829606769215
 20
150.1331406561561
 30
0.0
  0
VERTEX
  5
BB5
  8
0
 10
70.07431545994496
 20
149.9315886565566
 30
0.0
  0
VERTEX
  5
BB6
  8
0
 10
69.84125859813373
 20
149.67247119193
 30
0.0
  0
VERTEX
  5
BB7
  8
0
 10
69.66808172673773
 20
149.3657460011046
 30
0.0
  0
VERTEX
  5
BB8
  8
0
 10
69.56143993579079
 20
149.0232003611235
 30
0.0
  0
VERTEX
  5
BB9
  8
0
 10
69.5254314095043
 20
148.6579981087992
 30
0.0
  0
VERTEX
  5
BBA
  8
0
 10
69.56143993534644
 20
148.284173761849
 30
0.0
  0
VERTEX
  5
BBB
  8
0
 10
69.6680817258661
 20
147.9160931802502
 30
0.0
  0
VERTEX
  5
BBC
  8
0
 10
69.84125859686834
 20
147.5679014942994
 30
0.0
  0
VERTEX
  5
BBD
  8
0
 10
70.07431545833442
 20
147.2529795151892
 30
0.0
  0
VERTEX
  5
BBE
  8
0
 10
70.35829606579837
 20
146.983429517939
 30
0.0
  0
VERTEX
  5
BBF
  8
0
 10
70.6822872037984
 20
146.769610157754
 30
0.0
  0
VERTEX
  5
BC0
  8
0
 10
71.03383807462582
 20
146.6197383927162
 30
0.0
  0
VERTEX
  5
BC1
  8
0
 10
71.39943877549753
 20
146.5395737106938
 30
0.0
  0
SEQEND
  5
F50
  8
0
  0
LINE
  5
535
  8
0
 10
81.70647933
 20
149.09370971
 30
0.0
 11
81.35715985
 21
149.73983062
 31
0.0
  0
POLYLINE
  5
536
  8
0
 66
     1
 10
0.0
 20
0.0
 30
0.0
  0
VERTEX
  5
BC2
  8
0
 10
92.87505521331855
 20
127.0399712028587
 30
0.0
  0
VERTEX
  5
BC3
  8
0
 10
92.71194917773225
 20
126.8645974253929
 30
0.0
  0
VERTEX
  5
BC4
  8
0
 10
92.58959792812762
 20
126.6559283926117
 30
0.0
  0
VERTEX
  5
BC5
  8
0
 10
92.51270335443067
 20
126.4219831384546
 30
0.0
  0
VERTEX
  5
BC6
  8
0
 10
92.48422047199765
 20
126.1717520478772
 30
0.0
  0
VERTEX
  5
BC7
  8
0
 10
92.50524386203153
 20
125.9148513613986
 30
0.0
  0
VERTEX
  5
BC8
  8
0
 10
92.57496560744006
 20
125.6611536283685
 30
0.0
  0
VERTEX
  5
BC9
  8
0
 10
92.69070634063671
 20
125.4204083104318
 30
0.0
  0
VERTEX
  5
BCA
  8
0
 10
92.84801821013478
 20
125.2018671151827
 30
0.0
  0
VERTEX
  5
BCB
  8
0
 10
93.0408558089864
 20
125.0139284582296
 30
0.0
  0
VERTEX
  5
BCC
  8
0
 10
93.2618084963821
 20
124.8638147167913
 30
0.0
  0
VERTEX
  5
BCD
  8
0
 10
93.50238518442244
 20
124.7572946777901
 30
0.0
  0
VERTEX
  5
BCE
  8
0
 10
93.75334064586536
 20
124.6984618466042
 30
0.0
  0
VERTEX
  5
BCF
  8
0
 10
94.00503080302587
 20
124.6895771359516
 30
0.0
  0
VERTEX
  5
BD0
  8
0
 10
94.24778334427435
 20
124.7309819802813
 30
0.0
  0
VERTEX
  5
BD1
  8
0
 10
94.47226942554994
 20
124.8210852146394
 30
0.0
  0
VERTEX
  5
BD2
  8
0
 10
94.6698621726073
 20
124.956424222246
 30
0.0
  0
SEQEND
  5
F51
  8
0
  0
POLYLINE
  5
537
  8
0
 66
     1
 10
0.0
 20
0.0
 30
0.0
  0
VERTEX
  5
BD3
  8
0
 10
94.66986216999999
 20
124.95642422
 30
0.0
  0
VERTEX
  5
BD4
  8
0
 10
94.83296820443678
 20
125.1317979975253
 30
0.0
  0
VERTEX
  5
BD5
  8
0
 10
94.9553194530672
 20
125.3404670300425
 30
0.0
  0
VERTEX
  5
BD6
  8
0
 10
95.03221402603245
 20
125.5744122836733
 30
0.0
  0
VERTEX
  5
BD7
  8
0
 10
95.06069690802317
 20
125.8246433735392
 30
0.0
  0
VERTEX
  5
BD8
  8
0
 10
95.03967351786036
 20
126.0815440592097
 30
0.0
  0
VERTEX
  5
BD9
  8
0
 10
94.96995177263608
 20
126.3352417914285
 30
0.0
  0
VERTEX
  5
BDA
  8
0
 10
94.85421103991277
 20
126.575987108644
 30
0.0
  0
VERTEX
  5
BDB
  8
0
 10
94.69689917113072
 20
126.7945283033482
 30
0.0
  0
VERTEX
  5
BDC
  8
0
 10
94.50406157317195
 20
126.9824669600071
 30
0.0
  0
VERTEX
  5
BDD
  8
0
 10
94.28310888676455
 20
127.132580701459
 30
0.0
  0
VERTEX
  5
BDE
  8
0
 10
94.0425321997161
 20
127.2391007408177
 30
0.0
  0
VERTEX
  5
BDF
  8
0
 10
93.7915767391719
 20
127.2979335727171
 30
0.0
  0
VERTEX
  5
BE0
  8
0
 10
93.53988658272121
 20
127.3068182844264
 30
0.0
  0
VERTEX
  5
BE1
  8
0
 10
93.29713404190494
 20
127.2654134414579
 30
0.0
  0
VERTEX
  5
BE2
  8
0
 10
93.07264796070822
 20
127.1753102087032
 30
0.0
  0
VERTEX
  5
BE3
  8
0
 10
92.87505521331855
 20
127.0399712028587
 30
0.0
  0
SEQEND
  5
F52
  8
0
  0
POLYLINE
  5
538
  8
0
 66
     1
 10
0.0
 20
0.0
 30
0.0
  0
VERTEX
  5
BE4
  8
0
 10
93.06587764800264
 20
127.1716635244289
 30
0.0
  0
VERTEX
  5
BE5
  8
0
 10
92.94167946814336
 20
126.9629271511998
 30
0.0
  0
VERTEX
  5
BE6
  8
0
 10
92.863245273665
 20
126.7284480127819
 30
0.0
  0
VERTEX
  5
BE7
  8
0
 10
92.83361672655245
 20
126.477319162101
 30
0.0
  0
VERTEX
  5
BE8
  8
0
 10
92.85394281578965
 20
126.2192793245116
 30
0.0
  0
VERTEX
  5
BE9
  8
0
 10
92.92343529980232
 20
125.964335232024
 30
0.0
  0
VERTEX
  5
BEA
  8
0
 10
93.03939927430457
 20
125.722373564288
 30
0.0
  0
VERTEX
  5
BEB
  8
0
 10
93.1973376801348
 20
125.5027775451827
 30
0.0
  0
VERTEX
  5
BEC
  8
0
 10
93.3911256982881
 20
125.3140630633175
 30
0.0
  0
VERTEX
  5
BED
  8
0
 10
93.61324826914202
 20
125.1635484276176
 30
0.0
  0
VERTEX
  5
BEE
  8
0
 10
93.85509152492808
 20
125.0570705648039
 30
0.0
  0
VERTEX
  5
BEF
  8
0
 10
94.10727683375848
 20
124.9987586645712
 30
0.0
  0
VERTEX
  5
BF0
  8
0
 10
94.36002450104813
 20
124.990874050458
 30
0.0
  0
VERTEX
  5
BF1
  8
0
 10
94.60353302406618
 20
125.0337224861836
 30
0.0
  0
VERTEX
  5
BF2
  8
0
 10
94.82835919220288
 20
125.1256423181933
 30
0.0
  0
SEQEND
  5
F53
  8
0
  0
POLYLINE
  5
539
  8
0
 66
     1
 10
0.0
 20
0.0
 30
0.0
  0
VERTEX
  5
BF3
  8
0
 10
112.23868128
 20
144.63475416
 30
0.0
  0
VERTEX
  5
BF4
  8
0
 10
112.4017873144368
 20
144.8101279375252
 30
0.0
  0
VERTEX
  5
BF5
  8
0
 10
112.5241385630672
 20
145.0187969700425
 30
0.0
  0
VERTEX
  5
BF6
  8
0
 10
112.6010331360325
 20
145.2527422236734
 30
0.0
  0
VERTEX
  5
BF7
  8
0
 10
112.6295160180232
 20
145.5029733135392
 30
0.0
  0
VERTEX
  5
BF8
  8
0
 10
112.6084926278604
 20
145.7598739992096
 30
0.0
  0
VERTEX
  5
BF9
  8
0
 10
112.5387708826361
 20
146.0135717314284
 30
0.0
  0
VERTEX
  5
BFA
  8
0
 10
112.4230301499128
 20
146.254317048644
 30
0.0
  0
VERTEX
  5
BFB
  8
0
 10
112.2657182811307
 20
146.4728582433482
 30
0.0
  0
VERTEX
  5
BFC
  8
0
 10
112.072880683172
 20
146.6607969000071
 30
0.0
  0
VERTEX
  5
BFD
  8
0
 10
111.8519279967646
 20
146.810910641459
 30
0.0
  0
VERTEX
  5
BFE
  8
0
 10
111.6113513097161
 20
146.9174306808177
 30
0.0
  0
VERTEX
  5
BFF
  8
0
 10
111.3603958491719
 20
146.9762635127171
 30
0.0
  0
VERTEX
  5
C00
  8
0
 10
111.1087056927212
 20
146.9851482244264
 30
0.0
  0
VERTEX
  5
C01
  8
0
 10
110.8659531519049
 20
146.9437433814579
 30
0.0
  0
VERTEX
  5
C02
  8
0
 10
110.6414670707082
 20
146.8536401487032
 30
0.0
  0
VERTEX
  5
C03
  8
0
 10
110.4438743233186
 20
146.7183011428586
 30
0.0
  0
SEQEND
  5
F54
  8
0
  0
POLYLINE
  5
53A
  8
0
 66
     1
 10
0.0
 20
0.0
 30
0.0
  0
VERTEX
  5
C04
  8
0
 10
110.4438743233186
 20
146.7183011428586
 30
0.0
  0
VERTEX
  5
C05
  8
0
 10
110.2807682878612
 20
146.5429273655664
 30
0.0
  0
VERTEX
  5
C06
  8
0
 10
110.1584170383076
 20
146.3342583330116
 30
0.0
  0
VERTEX
  5
C07
  8
0
 10
110.0815224645735
 20
146.1003130791108
 30
0.0
  0
VERTEX
  5
C08
  8
0
 10
110.0530395820111
 20
145.8500819887937
 30
0.0
  0
VERTEX
  5
C09
  8
0
 10
110.0740629718265
 20
145.593181302552
 30
0.0
  0
VERTEX
  5
C0A
  8
0
 10
110.1437847169373
 20
145.3394835697088
 30
0.0
  0
VERTEX
  5
C0B
  8
0
 10
110.2595254497732
 20
145.0987382518842
 30
0.0
  0
VERTEX
  5
C0C
  8
0
 10
110.4168373188693
 20
144.8801970566518
 30
0.0
  0
VERTEX
  5
C0D
  8
0
 10
110.6096749173039
 20
144.6922583996041
 30
0.0
  0
VERTEX
  5
C0E
  8
0
 10
110.830627604297
 20
144.5421446579508
 30
0.0
  0
VERTEX
  5
C0F
  8
0
 10
111.0712042919797
 20
144.4356246186118
 30
0.0
  0
VERTEX
  5
C10
  8
0
 10
111.3221597531404
 20
144.3767917869714
 30
0.0
  0
VERTEX
  5
C11
  8
0
 10
111.5738499101219
 20
144.3679070757606
 30
0.0
  0
VERTEX
  5
C12
  8
0
 10
111.8166024513191
 20
144.4093119194495
 30
0.0
  0
VERTEX
  5
C13
  8
0
 10
112.0410885326896
 20
144.4994151531117
 30
0.0
  0
VERTEX
  5
C14
  8
0
 10
112.23868128
 20
144.63475416
 30
0.0
  0
SEQEND
  5
F55
  8
0
  0
POLYLINE
  5
53B
  8
0
 66
     1
 10
0.0
 20
0.0
 30
0.0
  0
VERTEX
  5
C15
  8
0
 10
110.6346967580026
 20
146.8499934644289
 30
0.0
  0
VERTEX
  5
C16
  8
0
 10
110.5104985781434
 20
146.6412570911998
 30
0.0
  0
VERTEX
  5
C17
  8
0
 10
110.432064383665
 20
146.406777952782
 30
0.0
  0
VERTEX
  5
C18
  8
0
 10
110.4024358365524
 20
146.155649102101
 30
0.0
  0
VERTEX
  5
C19
  8
0
 10
110.4227619257896
 20
145.8976092645116
 30
0.0
  0
VERTEX
  5
C1A
  8
0
 10
110.4922544098023
 20
145.642665172024
 30
0.0
  0
VERTEX
  5
C1B
  8
0
 10
110.6082183843046
 20
145.400703504288
 30
0.0
  0
VERTEX
  5
C1C
  8
0
 10
110.7661567901348
 20
145.1811074851827
 30
0.0
  0
VERTEX
  5
C1D
  8
0
 10
110.9599448082881
 20
144.9923930033175
 30
0.0
  0
VERTEX
  5
C1E
  8
0
 10
111.182067379142
 20
144.8418783676176
 30
0.0
  0
VERTEX
  5
C1F
  8
0
 10
111.4239106349281
 20
144.7354005048039
 30
0.0
  0
VERTEX
  5
C20
  8
0
 10
111.6760959437585
 20
144.6770886045712
 30
0.0
  0
VERTEX
  5
C21
  8
0
 10
111.9288436110481
 20
144.669203990458
 30
0.0
  0
VERTEX
  5
C22
  8
0
 10
112.1723521340662
 20
144.7120524261836
 30
0.0
  0
VERTEX
  5
C23
  8
0
 10
112.3971783022029
 20
144.8039722581933
 30
0.0
  0
SEQEND
  5
F56
  8
0
  0
POLYLINE
  5
53C
  8
0
 66
     1
 10
0.0
 20
0.0
 30
0.0
  0
VERTEX
  5
C24
  8
0
 10
112.23868128
 20
127.58818995
 30
0.0
  0
VERTEX
  5
C25
  8
0
 10
112.4017873144368
 20
127.7635637275253
 30
0.0
  0
VERTEX
  5
C26
  8
0
 10
112.5241385630672
 20
127.9722327600425
 30
0.0
  0
VERTEX
  5
C27
  8
0
 10
112.6010331360325
 20
128.2061780136734
 30
0.0
  0
VERTEX
  5
C28
  8
0
 10
112.6295160180232
 20
128.4564091035392
 30
0.0
  0
VERTEX
  5
C29
  8
0
 10
112.6084926278604
 20
128.7133097892097
 30
0.0
  0
VERTEX
  5
C2A
  8
0
 10
112.5387708826361
 20
128.9670075214285
 30
0.0
  0
VERTEX
  5
C2B
  8
0
 10
112.4230301499128
 20
129.207752838644
 30
0.0
  0
VERTEX
  5
C2C
  8
0
 10
112.2657182811307
 20
129.4262940333482
 30
0.0
  0
VERTEX
  5
C2D
  8
0
 10
112.072880683172
 20
129.6142326900071
 30
0.0
  0
VERTEX
  5
C2E
  8
0
 10
111.8519279967646
 20
129.764346431459
 30
0.0
  0
VERTEX
  5
C2F
  8
0
 10
111.6113513097161
 20
129.8708664708177
 30
0.0
  0
VERTEX
  5
C30
  8
0
 10
111.3603958491719
 20
129.9296993027172
 30
0.0
  0
VERTEX
  5
C31
  8
0
 10
111.1087056927212
 20
129.9385840144264
 30
0.0
  0
VERTEX
  5
C32
  8
0
 10
110.8659531519049
 20
129.8971791714579
 30
0.0
  0
VERTEX
  5
C33
  8
0
 10
110.6414670707082
 20
129.8070759387032
 30
0.0
  0
VERTEX
  5
C34
  8
0
 10
110.4438743233186
 20
129.6717369328587
 30
0.0
  0
SEQEND
  5
F57
  8
0
  0
POLYLINE
  5
53D
  8
0
 66
     1
 10
0.0
 20
0.0
 30
0.0
  0
VERTEX
  5
C35
  8
0
 10
110.4438743233186
 20
129.6717369328587
 30
0.0
  0
VERTEX
  5
C36
  8
0
 10
110.2807682878612
 20
129.4963631555664
 30
0.0
  0
VERTEX
  5
C37
  8
0
 10
110.1584170383076
 20
129.2876941230116
 30
0.0
  0
VERTEX
  5
C38
  8
0
 10
110.0815224645735
 20
129.0537488691108
 30
0.0
  0
VERTEX
  5
C39
  8
0
 10
110.0530395820111
 20
128.8035177787937
 30
0.0
  0
VERTEX
  5
C3A
  8
0
 10
110.0740629718265
 20
128.546617092552
 30
0.0
  0
VERTEX
  5
C3B
  8
0
 10
110.1437847169373
 20
128.2929193597088
 30
0.0
  0
VERTEX
  5
C3C
  8
0
 10
110.2595254497732
 20
128.0521740418843
 30
0.0
  0
VERTEX
  5
C3D
  8
0
 10
110.4168373188693
 20
127.8336328466518
 30
0.0
  0
VERTEX
  5
C3E
  8
0
 10
110.6096749173039
 20
127.6456941896041
 30
0.0
  0
VERTEX
  5
C3F
  8
0
 10
110.830627604297
 20
127.4955804479508
 30
0.0
  0
VERTEX
  5
C40
  8
0
 10
111.0712042919797
 20
127.3890604086118
 30
0.0
  0
VERTEX
  5
C41
  8
0
 10
111.3221597531404
 20
127.3302275769714
 30
0.0
  0
VERTEX
  5
C42
  8
0
 10
111.5738499101219
 20
127.3213428657606
 30
0.0
  0
VERTEX
  5
C43
  8
0
 10
111.8166024513191
 20
127.3627477094495
 30
0.0
  0
VERTEX
  5
C44
  8
0
 10
112.0410885326896
 20
127.4528509431117
 30
0.0
  0
VERTEX
  5
C45
  8
0
 10
112.23868128
 20
127.58818995
 30
0.0
  0
SEQEND
  5
F58
  8
0
  0
POLYLINE
  5
53E
  8
0
 66
     1
 10
0.0
 20
0.0
 30
0.0
  0
VERTEX
  5
C46
  8
0
 10
110.6346967580026
 20
129.8034292544289
 30
0.0
  0
VERTEX
  5
C47
  8
0
 10
110.5104985781434
 20
129.5946928811998
 30
0.0
  0
VERTEX
  5
C48
  8
0
 10
110.432064383665
 20
129.360213742782
 30
0.0
  0
VERTEX
  5
C49
  8
0
 10
110.4024358365524
 20
129.109084892101
 30
0.0
  0
VERTEX
  5
C4A
  8
0
 10
110.4227619257896
 20
128.8510450545116
 30
0.0
  0
VERTEX
  5
C4B
  8
0
 10
110.4922544098023
 20
128.596100962024
 30
0.0
  0
VERTEX
  5
C4C
  8
0
 10
110.6082183843046
 20
128.354139294288
 30
0.0
  0
VERTEX
  5
C4D
  8
0
 10
110.7661567901348
 20
128.1345432751827
 30
0.0
  0
VERTEX
  5
C4E
  8
0
 10
110.9599448082881
 20
127.9458287933175
 30
0.0
  0
VERTEX
  5
C4F
  8
0
 10
111.182067379142
 20
127.7953141576176
 30
0.0
  0
VERTEX
  5
C50
  8
0
 10
111.4239106349281
 20
127.6888362948039
 30
0.0
  0
VERTEX
  5
C51
  8
0
 10
111.6760959437585
 20
127.6305243945712
 30
0.0
  0
VERTEX
  5
C52
  8
0
 10
111.9288436110481
 20
127.622639780458
 30
0.0
  0
VERTEX
  5
C53
  8
0
 10
112.1723521340662
 20
127.6654882161836
 30
0.0
  0
VERTEX
  5
C54
  8
0
 10
112.3971783022029
 20
127.7574080481933
 30
0.0
  0
SEQEND
  5
F59
  8
0
  0
POLYLINE
  5
53F
  8
0
 66
     1
 10
0.0
 20
0.0
 30
0.0
  0
VERTEX
  5
C55
  8
0
 10
77.1010430626073
 20
158.311849602246
 30
0.0
  0
VERTEX
  5
C56
  8
0
 10
77.26414909637124
 20
158.4872233801278
 30
0.0
  0
VERTEX
  5
C57
  8
0
 10
77.38650034432742
 20
158.695892412842
 30
0.0
  0
VERTEX
  5
C58
  8
0
 10
77.46339491665134
 20
158.929837666517
 30
0.0
  0
VERTEX
  5
C59
  8
0
 10
77.49187779806363
 20
159.1800687562885
 30
0.0
  0
VERTEX
  5
C5A
  8
0
 10
77.4708544074094
 20
159.4369694417471
 30
0.0
  0
VERTEX
  5
C5B
  8
0
 10
77.4011326617982
 20
159.6906671736623
 30
0.0
  0
VERTEX
  5
C5C
  8
0
 10
77.28539192880255
 20
159.9314124905115
 30
0.0
  0
VERTEX
  5
C5D
  8
0
 10
77.12808005986521
 20
160.1499536848173
 30
0.0
  0
VERTEX
  5
C5E
  8
0
 10
76.93524246186337
 20
160.3378923410762
 30
0.0
  0
VERTEX
  5
C5F
  8
0
 10
76.7142897755135
 20
160.4880060821546
 30
0.0
  0
VERTEX
  5
C60
  8
0
 10
76.4737130886058
 20
160.5945261211912
 30
0.0
  0
VERTEX
  5
C61
  8
0
 10
76.22275762826358
 20
160.6533589528395
 30
0.0
  0
VERTEX
  5
C62
  8
0
 10
75.97106747205109
 20
160.6622436643823
 30
0.0
  0
VERTEX
  5
C63
  8
0
 10
75.72831493148277
 20
160.6208388213391
 30
0.0
  0
VERTEX
  5
C64
  8
0
 10
75.50382885051755
 20
160.5307355886014
 30
0.0
  0
VERTEX
  5
C65
  8
0
 10
75.30623610331855
 20
160.3953965828587
 30
0.0
  0
SEQEND
  5
F5A
  8
0
  0
POLYLINE
  5
540
  8
0
 66
     1
 10
0.0
 20
0.0
 30
0.0
  0
VERTEX
  5
C66
  8
0
 10
75.30623610331855
 20
160.3953965828587
 30
0.0
  0
VERTEX
  5
C67
  8
0
 10
75.14313006786122
 20
160.2200228055664
 30
0.0
  0
VERTEX
  5
C68
  8
0
 10
75.02077881830765
 20
160.0113537730116
 30
0.0
  0
VERTEX
  5
C69
  8
0
 10
74.9438842445735
 20
159.7774085191108
 30
0.0
  0
VERTEX
  5
C6A
  8
0
 10
74.91540136201114
 20
159.5271774287937
 30
0.0
  0
VERTEX
  5
C6B
  8
0
 10
74.93642475182655
 20
159.270276742552
 30
0.0
  0
VERTEX
  5
C6C
  8
0
 10
75.00614649693733
 20
159.0165790097088
 30
0.0
  0
VERTEX
  5
C6D
  8
0
 10
75.1218872297732
 20
158.7758336918843
 30
0.0
  0
VERTEX
  5
C6E
  8
0
 10
75.27919909886927
 20
158.5572924966518
 30
0.0
  0
VERTEX
  5
C6F
  8
0
 10
75.47203669730392
 20
158.3693538396041
 30
0.0
  0
VERTEX
  5
C70
  8
0
 10
75.69298938429701
 20
158.2192400979508
 30
0.0
  0
VERTEX
  5
C71
  8
0
 10
75.93356607197974
 20
158.1127200586118
 30
0.0
  0
VERTEX
  5
C72
  8
0
 10
76.18452153314036
 20
158.0538872269714
 30
0.0
  0
VERTEX
  5
C73
  8
0
 10
76.43621169012194
 20
158.0450025157606
 30
0.0
  0
VERTEX
  5
C74
  8
0
 10
76.67896423131913
 20
158.0864073594495
 30
0.0
  0
VERTEX
  5
C75
  8
0
 10
76.90345031268963
 20
158.1765105931117
 30
0.0
  0
VERTEX
  5
C76
  8
0
 10
77.10104306
 20
158.3118496
 30
0.0
  0
SEQEND
  5
F5B
  8
0
  0
POLYLINE
  5
541
  8
0
 66
     1
 10
0.0
 20
0.0
 30
0.0
  0
VERTEX
  5
C77
  8
0
 10
75.49705853800263
 20
160.5270889044289
 30
0.0
  0
VERTEX
  5
C78
  8
0
 10
75.37286035814336
 20
160.3183525311998
 30
0.0
  0
VERTEX
  5
C79
  8
0
 10
75.294426163665
 20
160.083873392782
 30
0.0
  0
VERTEX
  5
C7A
  8
0
 10
75.26479761655244
 20
159.832744542101
 30
0.0
  0
VERTEX
  5
C7B
  8
0
 10
75.28512370578964
 20
159.5747047045116
 30
0.0
  0
VERTEX
  5
C7C
  8
0
 10
75.35461618980231
 20
159.319760612024
 30
0.0
  0
VERTEX
  5
C7D
  8
0
 10
75.47058016430456
 20
159.077798944288
 30
0.0
  0
VERTEX
  5
C7E
  8
0
 10
75.62851857013479
 20
158.8582029251827
 30
0.0
  0
VERTEX
  5
C7F
  8
0
 10
75.8223065882881
 20
158.6694884433175
 30
0.0
  0
VERTEX
  5
C80
  8
0
 10
76.04442915914201
 20
158.5189738076176
 30
0.0
  0
VERTEX
  5
C81
  8
0
 10
76.28627241492808
 20
158.4124959448039
 30
0.0
  0
VERTEX
  5
C82
  8
0
 10
76.53845772375847
 20
158.3541840445712
 30
0.0
  0
VERTEX
  5
C83
  8
0
 10
76.79120539104812
 20
158.346299430458
 30
0.0
  0
VERTEX
  5
C84
  8
0
 10
77.03471391406617
 20
158.3891478661836
 30
0.0
  0
VERTEX
  5
C85
  8
0
 10
77.25954008220288
 20
158.4810676981933
 30
0.0
  0
SEQEND
  5
F5C
  8
0
  0
POLYLINE
  5
542
  8
0
 66
     1
 10
0.0
 20
0.0
 30
0.0
  0
VERTEX
  5
C86
  8
0
 10
77.10104306
 20
140.31825405
 30
0.0
  0
VERTEX
  5
C87
  8
0
 10
77.26414909443679
 20
140.4936278275252
 30
0.0
  0
VERTEX
  5
C88
  8
0
 10
77.38650034306721
 20
140.7022968600425
 30
0.0
  0
VERTEX
  5
C89
  8
0
 10
77.46339491603246
 20
140.9362421136734
 30
0.0
  0
VERTEX
  5
C8A
  8
0
 10
77.49187779802318
 20
141.1864732035392
 30
0.0
  0
VERTEX
  5
C8B
  8
0
 10
77.47085440786037
 20
141.4433738892097
 30
0.0
  0
VERTEX
  5
C8C
  8
0
 10
77.40113266263609
 20
141.6970716214284
 30
0.0
  0
VERTEX
  5
C8D
  8
0
 10
77.28539192991278
 20
141.937816938644
 30
0.0
  0
VERTEX
  5
C8E
  8
0
 10
77.12808006113073
 20
142.1563581333482
 30
0.0
  0
VERTEX
  5
C8F
  8
0
 10
76.93524246317196
 20
142.3442967900071
 30
0.0
  0
VERTEX
  5
C90
  8
0
 10
76.71428977676456
 20
142.494410531459
 30
0.0
  0
VERTEX
  5
C91
  8
0
 10
76.47371308971611
 20
142.6009305708177
 30
0.0
  0
VERTEX
  5
C92
  8
0
 10
76.22275762917191
 20
142.6597634027171
 30
0.0
  0
VERTEX
  5
C93
  8
0
 10
75.97106747272122
 20
142.6686481144264
 30
0.0
  0
VERTEX
  5
C94
  8
0
 10
75.72831493190495
 20
142.6272432714579
 30
0.0
  0
VERTEX
  5
C95
  8
0
 10
75.50382885070823
 20
142.5371400387032
 30
0.0
  0
VERTEX
  5
C96
  8
0
 10
75.30623610331855
 20
142.4018010328587
 30
0.0
  0
SEQEND
  5
F5D
  8
0
  0
POLYLINE
  5
543
  8
0
 66
     1
 10
0.0
 20
0.0
 30
0.0
  0
VERTEX
  5
C97
  8
0
 10
75.30623610331855
 20
142.4018010328587
 30
0.0
  0
VERTEX
  5
C98
  8
0
 10
75.14313006786122
 20
142.2264272555664
 30
0.0
  0
VERTEX
  5
C99
  8
0
 10
75.02077881830765
 20
142.0177582230116
 30
0.0
  0
VERTEX
  5
C9A
  8
0
 10
74.9438842445735
 20
141.7838129691108
 30
0.0
  0
VERTEX
  5
C9B
  8
0
 10
74.91540136201114
 20
141.5335818787937
 30
0.0
  0
VERTEX
  5
C9C
  8
0
 10
74.93642475182655
 20
141.276681192552
 30
0.0
  0
VERTEX
  5
C9D
  8
0
 10
75.00614649693733
 20
141.0229834597088
 30
0.0
  0
VERTEX
  5
C9E
  8
0
 10
75.1218872297732
 20
140.7822381418842
 30
0.0
  0
VERTEX
  5
C9F
  8
0
 10
75.27919909886927
 20
140.5636969466518
 30
0.0
  0
VERTEX
  5
CA0
  8
0
 10
75.47203669730392
 20
140.3757582896041
 30
0.0
  0
VERTEX
  5
CA1
  8
0
 10
75.69298938429701
 20
140.2256445479508
 30
0.0
  0
VERTEX
  5
CA2
  8
0
 10
75.93356607197974
 20
140.1191245086118
 30
0.0
  0
VERTEX
  5
CA3
  8
0
 10
76.18452153314036
 20
140.0602916769714
 30
0.0
  0
VERTEX
  5
CA4
  8
0
 10
76.43621169012194
 20
140.0514069657606
 30
0.0
  0
VERTEX
  5
CA5
  8
0
 10
76.67896423131913
 20
140.0928118094495
 30
0.0
  0
VERTEX
  5
CA6
  8
0
 10
76.90345031268963
 20
140.1829150431117
 30
0.0
  0
VERTEX
  5
CA7
  8
0
 10
77.10104306
 20
140.31825405
 30
0.0
  0
SEQEND
  5
F5E
  8
0
  0
POLYLINE
  5
544
  8
0
 66
     1
 10
0.0
 20
0.0
 30
0.0
  0
VERTEX
  5
CA8
  8
0
 10
75.49705853800263
 20
142.5334933544289
 30
0.0
  0
VERTEX
  5
CA9
  8
0
 10
75.37286035814336
 20
142.3247569811998
 30
0.0
  0
VERTEX
  5
CAA
  8
0
 10
75.294426163665
 20
142.0902778427819
 30
0.0
  0
VERTEX
  5
CAB
  8
0
 10
75.26479761655244
 20
141.839148992101
 30
0.0
  0
VERTEX
  5
CAC
  8
0
 10
75.28512370578964
 20
141.5811091545116
 30
0.0
  0
VERTEX
  5
CAD
  8
0
 10
75.35461618980231
 20
141.326165062024
 30
0.0
  0
VERTEX
  5
CAE
  8
0
 10
75.47058016430456
 20
141.084203394288
 30
0.0
  0
VERTEX
  5
CAF
  8
0
 10
75.62851857013479
 20
140.8646073751827
 30
0.0
  0
VERTEX
  5
CB0
  8
0
 10
75.8223065882881
 20
140.6758928933175
 30
0.0
  0
VERTEX
  5
CB1
  8
0
 10
76.04442915914201
 20
140.5253782576176
 30
0.0
  0
VERTEX
  5
CB2
  8
0
 10
76.28627241492808
 20
140.4189003948039
 30
0.0
  0
VERTEX
  5
CB3
  8
0
 10
76.53845772375847
 20
140.3605884945712
 30
0.0
  0
VERTEX
  5
CB4
  8
0
 10
76.79120539104812
 20
140.352703880458
 30
0.0
  0
VERTEX
  5
CB5
  8
0
 10
77.03471391406617
 20
140.3955523161836
 30
0.0
  0
VERTEX
  5
CB6
  8
0
 10
77.25954008220288
 20
140.4874721481933
 30
0.0
  0
SEQEND
  5
F5F
  8
0
  0
POLYLINE
  5
545
  8
0
 66
     1
 10
0.0
 20
0.0
 30
0.0
  0
VERTEX
  5
CB7
  8
0
 10
77.10104306
 20
122.32465849
 30
0.0
  0
VERTEX
  5
CB8
  8
0
 10
77.26414909443679
 20
122.5000322675253
 30
0.0
  0
VERTEX
  5
CB9
  8
0
 10
77.38650034306721
 20
122.7087013000425
 30
0.0
  0
VERTEX
  5
CBA
  8
0
 10
77.46339491603246
 20
122.9426465536733
 30
0.0
  0
VERTEX
  5
CBB
  8
0
 10
77.49187779802318
 20
123.1928776435392
 30
0.0
  0
VERTEX
  5
CBC
  8
0
 10
77.47085440786037
 20
123.4497783292097
 30
0.0
  0
VERTEX
  5
CBD
  8
0
 10
77.40113266263609
 20
123.7034760614285
 30
0.0
  0
VERTEX
  5
CBE
  8
0
 10
77.28539192991278
 20
123.944221378644
 30
0.0
  0
VERTEX
  5
CBF
  8
0
 10
77.12808006113073
 20
124.1627625733482
 30
0.0
  0
VERTEX
  5
CC0
  8
0
 10
76.93524246317196
 20
124.3507012300071
 30
0.0
  0
VERTEX
  5
CC1
  8
0
 10
76.71428977676456
 20
124.500814971459
 30
0.0
  0
VERTEX
  5
CC2
  8
0
 10
76.47371308971611
 20
124.6073350108177
 30
0.0
  0
VERTEX
  5
CC3
  8
0
 10
76.22275762917191
 20
124.6661678427171
 30
0.0
  0
VERTEX
  5
CC4
  8
0
 10
75.97106747272122
 20
124.6750525544264
 30
0.0
  0
VERTEX
  5
CC5
  8
0
 10
75.72831493190495
 20
124.6336477114579
 30
0.0
  0
VERTEX
  5
CC6
  8
0
 10
75.50382885070823
 20
124.5435444787032
 30
0.0
  0
VERTEX
  5
CC7
  8
0
 10
75.30623610331855
 20
124.4082054728587
 30
0.0
  0
SEQEND
  5
F60
  8
0
  0
POLYLINE
  5
546
  8
0
 66
     1
 10
0.0
 20
0.0
 30
0.0
  0
VERTEX
  5
CC8
  8
0
 10
75.30623610331855
 20
124.4082054728587
 30
0.0
  0
VERTEX
  5
CC9
  8
0
 10
75.14313006773226
 20
124.2328316953929
 30
0.0
  0
VERTEX
  5
CCA
  8
0
 10
75.02077881812762
 20
124.0241626626117
 30
0.0
  0
VERTEX
  5
CCB
  8
0
 10
74.94388424443068
 20
123.7902174084546
 30
0.0
  0
VERTEX
  5
CCC
  8
0
 10
74.91540136199765
 20
123.5399863178773
 30
0.0
  0
VERTEX
  5
CCD
  8
0
 10
74.93642475203154
 20
123.2830856313986
 30
0.0
  0
VERTEX
  5
CCE
  8
0
 10
75.00614649744007
 20
123.0293878983685
 30
0.0
  0
VERTEX
  5
CCF
  8
0
 10
75.12188723063672
 20
122.7886425804318
 30
0.0
  0
VERTEX
  5
CD0
  8
0
 10
75.27919910013479
 20
122.5701013851827
 30
0.0
  0
VERTEX
  5
CD1
  8
0
 10
75.4720366989864
 20
122.3821627282296
 30
0.0
  0
VERTEX
  5
CD2
  8
0
 10
75.69298938638211
 20
122.2320489867913
 30
0.0
  0
VERTEX
  5
CD3
  8
0
 10
75.93356607442244
 20
122.1255289477901
 30
0.0
  0
VERTEX
  5
CD4
  8
0
 10
76.18452153586537
 20
122.0666961166042
 30
0.0
  0
VERTEX
  5
CD5
  8
0
 10
76.43621169302588
 20
122.0578114059516
 30
0.0
  0
VERTEX
  5
CD6
  8
0
 10
76.67896423427436
 20
122.0992162502813
 30
0.0
  0
VERTEX
  5
CD7
  8
0
 10
76.90345031554995
 20
122.1893194846394
 30
0.0
  0
VERTEX
  5
CD8
  8
0
 10
77.1010430626073
 20
122.324658492246
 30
0.0
  0
SEQEND
  5
F61
  8
0
  0
POLYLINE
  5
547
  8
0
 66
     1
 10
0.0
 20
0.0
 30
0.0
  0
VERTEX
  5
CD9
  8
0
 10
75.49705853800263
 20
124.5398977944289
 30
0.0
  0
VERTEX
  5
CDA
  8
0
 10
75.37286035814336
 20
124.3311614211998
 30
0.0
  0
VERTEX
  5
CDB
  8
0
 10
75.294426163665
 20
124.0966822827819
 30
0.0
  0
VERTEX
  5
CDC
  8
0
 10
75.26479761655244
 20
123.845553432101
 30
0.0
  0
VERTEX
  5
CDD
  8
0
 10
75.28512370578964
 20
123.5875135945116
 30
0.0
  0
VERTEX
  5
CDE
  8
0
 10
75.35461618980231
 20
123.332569502024
 30
0.0
  0
VERTEX
  5
CDF
  8
0
 10
75.47058016430456
 20
123.090607834288
 30
0.0
  0
VERTEX
  5
CE0
  8
0
 10
75.62851857013479
 20
122.8710118151827
 30
0.0
  0
VERTEX
  5
CE1
  8
0
 10
75.8223065882881
 20
122.6822973333175
 30
0.0
  0
VERTEX
  5
CE2
  8
0
 10
76.04442915914201
 20
122.5317826976176
 30
0.0
  0
VERTEX
  5
CE3
  8
0
 10
76.28627241492808
 20
122.4253048348039
 30
0.0
  0
VERTEX
  5
CE4
  8
0
 10
76.53845772375847
 20
122.3669929345712
 30
0.0
  0
VERTEX
  5
CE5
  8
0
 10
76.79120539104812
 20
122.359108320458
 30
0.0
  0
VERTEX
  5
CE6
  8
0
 10
77.03471391406617
 20
122.4019567561836
 30
0.0
  0
VERTEX
  5
CE7
  8
0
 10
77.25954008220288
 20
122.4938765881933
 30
0.0
  0
SEQEND
  5
F62
  8
0
  0
POLYLINE
  5
548
  8
0
 66
     1
 10
0.0
 20
0.0
 30
0.0
  0
VERTEX
  5
CE8
  8
0
 10
92.87505521331855
 20
153.5568488628587
 30
0.0
  0
VERTEX
  5
CE9
  8
0
 10
92.71194917773225
 20
153.3814750853929
 30
0.0
  0
VERTEX
  5
CEA
  8
0
 10
92.58959792812762
 20
153.1728060526117
 30
0.0
  0
VERTEX
  5
CEB
  8
0
 10
92.51270335443067
 20
152.9388607984546
 30
0.0
  0
VERTEX
  5
CEC
  8
0
 10
92.48422047199765
 20
152.6886297078773
 30
0.0
  0
VERTEX
  5
CED
  8
0
 10
92.50524386203153
 20
152.4317290213986
 30
0.0
  0
VERTEX
  5
CEE
  8
0
 10
92.57496560744006
 20
152.1780312883685
 30
0.0
  0
VERTEX
  5
CEF
  8
0
 10
92.69070634063671
 20
151.9372859704318
 30
0.0
  0
VERTEX
  5
CF0
  8
0
 10
92.84801821013478
 20
151.7187447751827
 30
0.0
  0
VERTEX
  5
CF1
  8
0
 10
93.0408558089864
 20
151.5308061182296
 30
0.0
  0
VERTEX
  5
CF2
  8
0
 10
93.2618084963821
 20
151.3806923767914
 30
0.0
  0
VERTEX
  5
CF3
  8
0
 10
93.50238518442244
 20
151.2741723377901
 30
0.0
  0
VERTEX
  5
CF4
  8
0
 10
93.75334064586536
 20
151.2153395066042
 30
0.0
  0
VERTEX
  5
CF5
  8
0
 10
94.00503080302587
 20
151.2064547959516
 30
0.0
  0
VERTEX
  5
CF6
  8
0
 10
94.24778334427435
 20
151.2478596402813
 30
0.0
  0
VERTEX
  5
CF7
  8
0
 10
94.47226942554994
 20
151.3379628746394
 30
0.0
  0
VERTEX
  5
CF8
  8
0
 10
94.6698621726073
 20
151.473301882246
 30
0.0
  0
SEQEND
  5
F63
  8
0
  0
POLYLINE
  5
549
  8
0
 66
     1
 10
0.0
 20
0.0
 30
0.0
  0
VERTEX
  5
CF9
  8
0
 10
94.66986216999999
 20
151.47330188
 30
0.0
  0
VERTEX
  5
CFA
  8
0
 10
94.83296820443678
 20
151.6486756575252
 30
0.0
  0
VERTEX
  5
CFB
  8
0
 10
94.9553194530672
 20
151.8573446900425
 30
0.0
  0
VERTEX
  5
CFC
  8
0
 10
95.03221402603245
 20
152.0912899436734
 30
0.0
  0
VERTEX
  5
CFD
  8
0
 10
95.06069690802317
 20
152.3415210335392
 30
0.0
  0
VERTEX
  5
CFE
  8
0
 10
95.03967351786036
 20
152.5984217192097
 30
0.0
  0
VERTEX
  5
CFF
  8
0
 10
94.96995177263608
 20
152.8521194514285
 30
0.0
  0
VERTEX
  5
D00
  8
0
 10
94.85421103991277
 20
153.092864768644
 30
0.0
  0
VERTEX
  5
D01
  8
0
 10
94.69689917113072
 20
153.3114059633482
 30
0.0
  0
VERTEX
  5
D02
  8
0
 10
94.50406157317195
 20
153.4993446200071
 30
0.0
  0
VERTEX
  5
D03
  8
0
 10
94.28310888676455
 20
153.649458361459
 30
0.0
  0
VERTEX
  5
D04
  8
0
 10
94.0425321997161
 20
153.7559784008177
 30
0.0
  0
VERTEX
  5
D05
  8
0
 10
93.7915767391719
 20
153.8148112327171
 30
0.0
  0
VERTEX
  5
D06
  8
0
 10
93.53988658272121
 20
153.8236959444264
 30
0.0
  0
VERTEX
  5
D07
  8
0
 10
93.29713404190494
 20
153.7822911014579
 30
0.0
  0
VERTEX
  5
D08
  8
0
 10
93.07264796070822
 20
153.6921878687032
 30
0.0
  0
VERTEX
  5
D09
  8
0
 10
92.87505521331855
 20
153.5568488628587
 30
0.0
  0
SEQEND
  5
F64
  8
0
  0
POLYLINE
  5
54A
  8
0
 66
     1
 10
0.0
 20
0.0
 30
0.0
  0
VERTEX
  5
D0A
  8
0
 10
93.06587764800264
 20
153.6885411844289
 30
0.0
  0
VERTEX
  5
D0B
  8
0
 10
92.94167946814336
 20
153.4798048111998
 30
0.0
  0
VERTEX
  5
D0C
  8
0
 10
92.863245273665
 20
153.2453256727819
 30
0.0
  0
VERTEX
  5
D0D
  8
0
 10
92.83361672655245
 20
152.994196822101
 30
0.0
  0
VERTEX
  5
D0E
  8
0
 10
92.85394281578965
 20
152.7361569845116
 30
0.0
  0
VERTEX
  5
D0F
  8
0
 10
92.92343529980232
 20
152.481212892024
 30
0.0
  0
VERTEX
  5
D10
  8
0
 10
93.03939927430457
 20
152.239251224288
 30
0.0
  0
VERTEX
  5
D11
  8
0
 10
93.1973376801348
 20
152.0196552051827
 30
0.0
  0
VERTEX
  5
D12
  8
0
 10
93.3911256982881
 20
151.8309407233175
 30
0.0
  0
VERTEX
  5
D13
  8
0
 10
93.61324826914202
 20
151.6804260876176
 30
0.0
  0
VERTEX
  5
D14
  8
0
 10
93.85509152492808
 20
151.5739482248039
 30
0.0
  0
VERTEX
  5
D15
  8
0
 10
94.10727683375848
 20
151.5156363245712
 30
0.0
  0
VERTEX
  5
D16
  8
0
 10
94.36002450104813
 20
151.507751710458
 30
0.0
  0
VERTEX
  5
D17
  8
0
 10
94.60353302406618
 20
151.5506001461836
 30
0.0
  0
VERTEX
  5
D18
  8
0
 10
94.82835919220288
 20
151.6425199781933
 30
0.0
  0
SEQEND
  5
F65
  8
0
  0
LINE
  5
54B
  8
0
 10
63.55408983
 20
171.28540941
 30
0.0
 11
61.91433338
 21
171.4817259
 31
0.0
  0
LINE
  5
54C
  8
0
 10
61.91433338
 20
128.51017862
 30
0.0
 11
61.91433338
 21
128.96648796
 31
0.0
  0
LINE
  5
54D
  8
0
 10
61.91433338
 20
142.83402771
 30
0.0
 11
61.91433338
 21
143.23069694
 31
0.0
  0
LINE
  5
54E
  8
0
 10
61.91433338
 20
157.1578768
 30
0.0
 11
61.91433338
 21
157.61418615
 31
0.0
  0
LINE
  5
54F
  8
0
 10
63.55408983
 20
114.4635287
 30
0.0
 11
62.73186815
 21
114.56196751
 31
0.0
  0
LINE
  5
550
  8
0
 10
120.71131465
 20
121.82596684
 30
0.0
 11
63.55408983
 21
114.4635287
 31
0.0
  0
POLYLINE
  5
551
  8
0
 66
     1
 10
0.0
 20
0.0
 30
0.0
  0
VERTEX
  5
552
  8
0
 10
120.71131465
 20
121.82596684
 30
0.0
  0
VERTEX
  5
553
  8
0
 10
120.71131465
 20
150.23690719
 30
0.0
  0
VERTEX
  5
554
  8
0
 10
63.55408983
 20
171.28540941
 30
0.0
  0
SEQEND
  5
555
  8
0
  0
LINE
  5
556
  8
0
 10
63.9034093
 20
171.58631984
 30
0.0
 11
63.55408983
 21
171.28540941
 31
0.0
  0
LINE
  5
557
  8
0
 10
62.44935725
 20
171.76040325
 30
0.0
 11
63.9034093
 21
171.58631984
 31
0.0
  0
LINE
  5
558
  8
0
 10
62.01769261
 20
171.57076151
 30
0.0
 11
61.91433338
 21
171.4817259
 31
0.0
  0
POLYLINE
  5
559
  8
0
 66
     1
 10
0.0
 20
0.0
 30
0.0
  0
VERTEX
  5
55A
  8
0
 10
63.9034093
 20
171.58631984
 30
0.0
  0
VERTEX
  5
55B
  8
0
 10
121.06063412
 20
150.53781762
 30
0.0
  0
VERTEX
  5
55C
  8
0
 10
120.71131465
 20
150.23690719
 30
0.0
  0
SEQEND
  5
55D
  8
0
  0
POLYLINE
  5
55E
  8
0
 66
     1
 10
0.0
 20
0.0
 30
0.0
  0
VERTEX
  5
55F
  8
0
 10
121.06063412
 20
150.53781762
 30
0.0
  0
VERTEX
  5
560
  8
0
 10
121.06063412
 20
122.12687727
 30
0.0
  0
VERTEX
  5
561
  8
0
 10
120.71131465
 20
121.82596684
 30
0.0
  0
SEQEND
  5
562
  8
0
  0
POLYLINE
  5
563
  8
0
 66
     1
 10
0.0
 20
0.0
 30
0.0
  0
VERTEX
  5
D19
  8
0
 10
48.56203085992433
 20
129.9903768565378
 30
0.0
  0
VERTEX
  5
D1A
  8
0
 10
49.11043191265862
 20
129.9793114850682
 30
0.0
  0
VERTEX
  5
D1B
  8
0
 10
49.63775822043808
 20
130.0778530002704
 30
0.0
  0
VERTEX
  5
D1C
  8
0
 10
50.12374492893659
 20
130.2822145069692
 30
0.0
  0
VERTEX
  5
D1D
  8
0
 10
50.5497158414485
 20
130.5845425070517
 30
0.0
  0
VERTEX
  5
D1E
  8
0
 10
50.8993011346559
 20
130.9732187049956
 30
0.0
  0
VERTEX
  5
D1F
  8
0
 10
51.15906644175995
 20
131.433306492452
 30
0.0
  0
VERTEX
  5
D20
  8
0
 10
51.31902912766394
 20
131.947124953729
 30
0.0
  0
VERTEX
  5
D21
  8
0
 10
51.3730419160427
 20
132.4949283334674
 30
0.0
  0
VERTEX
  5
D22
  8
0
 10
51.31902912572482
 20
133.0556648549475
 30
0.0
  0
VERTEX
  5
D23
  8
0
 10
51.15906643795622
 20
133.6077857280646
 30
0.0
  0
VERTEX
  5
D24
  8
0
 10
50.89930112913375
 20
134.1300732572492
 30
0.0
  0
VERTEX
  5
D25
  8
0
 10
50.54971583442013
 20
134.6024562256113
 30
0.0
  0
VERTEX
  5
D26
  8
0
 10
50.1237449206721
 20
135.0067812205509
 30
0.0
  0
VERTEX
  5
D27
  8
0
 10
49.63775821125507
 20
135.3275102592251
 30
0.0
  0
VERTEX
  5
D28
  8
0
 10
49.11043190290999
 20
135.5523179045164
 30
0.0
  0
VERTEX
  5
D29
  8
0
 10
48.56203084998472
 20
135.6725649246703
 30
0.0
  0
SEQEND
  5
F66
  8
0
  0
POLYLINE
  5
564
  8
0
 66
     1
 10
0.0
 20
0.0
 30
0.0
  0
VERTEX
  5
565
  8
0
 10
48.56203086
 20
129.99037686
 30
0.0
  0
VERTEX
  5
566
  8
0
 10
38.25499031
 20
131.22436624
 30
0.0
  0
SEQEND
  5
567
  8
0
  0
POLYLINE
  5
568
  8
0
 66
     1
 10
0.0
 20
0.0
 30
0.0
  0
VERTEX
  5
D2A
  8
0
 10
38.25499029998471
 20
136.9065543046703
 30
0.0
  0
VERTEX
  5
D2B
  8
0
 10
37.70658924868145
 20
136.9176196742276
 30
0.0
  0
VERTEX
  5
D2C
  8
0
 10
37.1792629425698
 20
136.8190781576395
 30
0.0
  0
VERTEX
  5
D2D
  8
0
 10
36.69327623581946
 20
136.6147166501172
 30
0.0
  0
VERTEX
  5
D2E
  8
0
 10
36.26730532498382
 20
136.3123886497696
 30
0.0
  0
VERTEX
  5
D2F
  8
0
 10
35.91772003324176
 20
135.9237124520761
 30
0.0
  0
VERTEX
  5
D30
  8
0
 10
35.65795472727464
 20
135.4636246653079
 30
0.0
  0
VERTEX
  5
D31
  8
0
 10
35.49799204208998
 20
134.9498062050501
 30
0.0
  0
VERTEX
  5
D32
  8
0
 10
35.44397925395729
 20
134.4020028265326
 30
0.0
  0
VERTEX
  5
D33
  8
0
 10
35.4979920440291
 20
133.8412663063323
 30
0.0
  0
VERTEX
  5
D34
  8
0
 10
35.65795473107837
 20
133.2891454344067
 30
0.0
  0
VERTEX
  5
D35
  8
0
 10
35.91772003876392
 20
132.7668579061825
 30
0.0
  0
VERTEX
  5
D36
  8
0
 10
36.26730533201219
 20
132.2944749384217
 30
0.0
  0
VERTEX
  5
D37
  8
0
 10
36.69327624408395
 20
131.8901499436183
 30
0.0
  0
VERTEX
  5
D38
  8
0
 10
37.17926295175281
 20
131.5694209045392
 30
0.0
  0
VERTEX
  5
D39
  8
0
 10
37.70658925843009
 20
131.3446132582613
 30
0.0
  0
VERTEX
  5
D3A
  8
0
 10
38.25499030992433
 20
131.2243662365378
 30
0.0
  0
SEQEND
  5
F67
  8
0
  0
LINE
  5
569
  8
0
 10
38.25499031
 20
136.90655431
 30
0.0
 11
48.56203086
 21
135.67256493
 31
0.0
  0
LINE
  5
56A
  8
0
 10
48.91135033
 20
135.02644401
 30
0.0
 11
48.56203086
 21
135.67256493
 31
0.0
  0
POLYLINE
  5
56B
  8
0
 66
     1
 10
0.0
 20
0.0
 30
0.0
  0
VERTEX
  5
D3B
  8
0
 10
48.91135032549752
 20
131.2383186306938
 30
0.0
  0
VERTEX
  5
D3C
  8
0
 10
49.27695102736703
 20
131.2309417155201
 30
0.0
  0
VERTEX
  5
D3D
  8
0
 10
49.62850189943592
 20
131.2966360581734
 30
0.0
  0
VERTEX
  5
D3E
  8
0
 10
49.95249303881187
 20
131.4328770619015
 30
0.0
  0
VERTEX
  5
D3F
  8
0
 10
50.23647364767658
 20
131.6344290613243
 30
0.0
  0
VERTEX
  5
D40
  8
0
 10
50.4695305104647
 20
131.8935465261177
 30
0.0
  0
VERTEX
  5
D41
  8
0
 10
50.64270738261867
 20
132.200271717402
 30
0.0
  0
VERTEX
  5
D42
  8
0
 10
50.74934917404515
 20
132.5428173580626
 30
0.0
  0
VERTEX
  5
D43
  8
0
 10
50.7853577004957
 20
132.9080196112008
 30
0.0
  0
VERTEX
  5
D44
  8
0
 10
50.7493491744895
 20
133.2818439590043
 30
0.0
  0
VERTEX
  5
D45
  8
0
 10
50.64270738349028
 20
133.6499245413974
 30
0.0
  0
VERTEX
  5
D46
  8
0
 10
50.46953051173009
 20
133.9981162279884
 30
0.0
  0
VERTEX
  5
D47
  8
0
 10
50.23647364928712
 20
134.3130382074994
 30
0.0
  0
VERTEX
  5
D48
  8
0
 10
49.95249304070566
 20
134.5825882048405
 30
0.0
  0
VERTEX
  5
D49
  8
0
 10
49.6285019015402
 20
134.7964075647556
 30
0.0
  0
VERTEX
  5
D4A
  8
0
 10
49.2769510296009
 20
134.9462793291357
 30
0.0
  0
VERTEX
  5
D4B
  8
0
 10
48.91135032777517
 20
135.0264440101116
 30
0.0
  0
SEQEND
  5
F68
  8
0
  0
POLYLINE
  5
56C
  8
0
 66
     1
 10
0.0
 20
0.0
 30
0.0
  0
VERTEX
  5
56D
  8
0
 10
48.56203086
 20
129.99037686
 30
0.0
  0
VERTEX
  5
56E
  8
0
 10
48.91135033
 20
131.23831863
 30
0.0
  0
VERTEX
  5
56F
  8
0
 10
38.60430979
 20
132.47230802
 30
0.0
  0
VERTEX
  5
570
  8
0
 10
38.25499031
 20
131.22436624
 30
0.0
  0
SEQEND
  5
571
  8
0
  0
POLYLINE
  5
572
  8
0
 66
     1
 10
0.0
 20
0.0
 30
0.0
  0
VERTEX
  5
D4C
  8
0
 10
38.60430978777517
 20
136.2604334001117
 30
0.0
  0
VERTEX
  5
D4D
  8
0
 10
38.23870908685969
 20
136.2678103140105
 30
0.0
  0
VERTEX
  5
D4E
  8
0
 10
37.88715821590266
 20
136.2021159704333
 30
0.0
  0
VERTEX
  5
D4F
  8
0
 10
37.56316707769216
 20
136.0658749661561
 30
0.0
  0
VERTEX
  5
D50
  8
0
 10
37.27918646994495
 20
135.8643229665566
 30
0.0
  0
VERTEX
  5
D51
  8
0
 10
37.04612960813375
 20
135.60520550193
 30
0.0
  0
VERTEX
  5
D52
  8
0
 10
36.87295273673772
 20
135.2984803111046
 30
0.0
  0
VERTEX
  5
D53
  8
0
 10
36.7663109457908
 20
134.9559346711235
 30
0.0
  0
VERTEX
  5
D54
  8
0
 10
36.7303024195043
 20
134.5907324187992
 30
0.0
  0
VERTEX
  5
D55
  8
0
 10
36.76631094534645
 20
134.216908071849
 30
0.0
  0
VERTEX
  5
D56
  8
0
 10
36.87295273586611
 20
133.8488274902502
 30
0.0
  0
VERTEX
  5
D57
  8
0
 10
37.04612960686836
 20
133.5006358042994
 30
0.0
  0
VERTEX
  5
D58
  8
0
 10
37.27918646833442
 20
133.1857138251892
 30
0.0
  0
VERTEX
  5
D59
  8
0
 10
37.56316707579838
 20
132.916163827939
 30
0.0
  0
VERTEX
  5
D5A
  8
0
 10
37.88715821379839
 20
132.702344467754
 30
0.0
  0
VERTEX
  5
D5B
  8
0
 10
38.23870908462582
 20
132.5524727027162
 30
0.0
  0
VERTEX
  5
D5C
  8
0
 10
38.60430978549753
 20
132.4723080206938
 30
0.0
  0
SEQEND
  5
F69
  8
0
  0
LINE
  5
573
  8
0
 10
38.60430979
 20
136.2604334
 30
0.0
 11
38.25499031
 21
136.90655431
 31
0.0
  0
LINE
  5
574
  8
0
 10
38.60430979
 20
136.2604334
 30
0.0
 11
48.91135033
 21
135.02644401
 31
0.0
  0
POLYLINE
  5
575
  8
0
 66
     1
 10
0.0
 20
0.0
 30
0.0
  0
VERTEX
  5
D5D
  8
0
 10
48.56203085992433
 20
153.6661604865378
 30
0.0
  0
VERTEX
  5
D5E
  8
0
 10
49.11043191265862
 20
153.6550951150682
 30
0.0
  0
VERTEX
  5
D5F
  8
0
 10
49.63775822043808
 20
153.7536366302704
 30
0.0
  0
VERTEX
  5
D60
  8
0
 10
50.12374492893659
 20
153.9579981369693
 30
0.0
  0
VERTEX
  5
D61
  8
0
 10
50.5497158414485
 20
154.2603261370517
 30
0.0
  0
VERTEX
  5
D62
  8
0
 10
50.8993011346559
 20
154.6490023349956
 30
0.0
  0
VERTEX
  5
D63
  8
0
 10
51.15906644175995
 20
155.109090122452
 30
0.0
  0
VERTEX
  5
D64
  8
0
 10
51.31902912766394
 20
155.622908583729
 30
0.0
  0
VERTEX
  5
D65
  8
0
 10
51.3730419160427
 20
156.1707119634674
 30
0.0
  0
VERTEX
  5
D66
  8
0
 10
51.31902912572482
 20
156.7314484849475
 30
0.0
  0
VERTEX
  5
D67
  8
0
 10
51.15906643795622
 20
157.2835693580646
 30
0.0
  0
VERTEX
  5
D68
  8
0
 10
50.89930112913375
 20
157.8058568872492
 30
0.0
  0
VERTEX
  5
D69
  8
0
 10
50.54971583442013
 20
158.2782398556113
 30
0.0
  0
VERTEX
  5
D6A
  8
0
 10
50.1237449206721
 20
158.6825648505509
 30
0.0
  0
VERTEX
  5
D6B
  8
0
 10
49.63775821125507
 20
159.0032938892251
 30
0.0
  0
VERTEX
  5
D6C
  8
0
 10
49.11043190290999
 20
159.2281015345164
 30
0.0
  0
VERTEX
  5
D6D
  8
0
 10
48.56203084998472
 20
159.3483485546703
 30
0.0
  0
SEQEND
  5
F6A
  8
0
  0
POLYLINE
  5
576
  8
0
 66
     1
 10
0.0
 20
0.0
 30
0.0
  0
VERTEX
  5
577
  8
0
 10
48.56203086
 20
153.66616048
 30
0.0
  0
VERTEX
  5
578
  8
0
 10
38.25499031
 20
154.90014987
 30
0.0
  0
SEQEND
  5
579
  8
0
  0
POLYLINE
  5
57A
  8
0
 66
     1
 10
0.0
 20
0.0
 30
0.0
  0
VERTEX
  5
D6E
  8
0
 10
38.25499029998471
 20
160.5823379346703
 30
0.0
  0
VERTEX
  5
D6F
  8
0
 10
37.70658924868145
 20
160.5934033042276
 30
0.0
  0
VERTEX
  5
D70
  8
0
 10
37.1792629425698
 20
160.4948617876395
 30
0.0
  0
VERTEX
  5
D71
  8
0
 10
36.69327623581946
 20
160.2905002801172
 30
0.0
  0
VERTEX
  5
D72
  8
0
 10
36.26730532498382
 20
159.9881722797696
 30
0.0
  0
VERTEX
  5
D73
  8
0
 10
35.91772003324176
 20
159.5994960820761
 30
0.0
  0
VERTEX
  5
D74
  8
0
 10
35.65795472727464
 20
159.1394082953079
 30
0.0
  0
VERTEX
  5
D75
  8
0
 10
35.49799204208998
 20
158.6255898350501
 30
0.0
  0
VERTEX
  5
D76
  8
0
 10
35.44397925395729
 20
158.0777864565326
 30
0.0
  0
VERTEX
  5
D77
  8
0
 10
35.4979920440291
 20
157.5170499363323
 30
0.0
  0
VERTEX
  5
D78
  8
0
 10
35.65795473107837
 20
156.9649290644067
 30
0.0
  0
VERTEX
  5
D79
  8
0
 10
35.91772003876392
 20
156.4426415361825
 30
0.0
  0
VERTEX
  5
D7A
  8
0
 10
36.26730533201219
 20
155.9702585684217
 30
0.0
  0
VERTEX
  5
D7B
  8
0
 10
36.69327624408395
 20
155.5659335736183
 30
0.0
  0
VERTEX
  5
D7C
  8
0
 10
37.17926295175281
 20
155.2452045345393
 30
0.0
  0
VERTEX
  5
D7D
  8
0
 10
37.70658925843009
 20
155.0203968882614
 30
0.0
  0
VERTEX
  5
D7E
  8
0
 10
38.25499030992433
 20
154.9001498665378
 30
0.0
  0
SEQEND
  5
F6B
  8
0
  0
LINE
  5
57B
  8
0
 10
38.25499031
 20
160.58233794
 30
0.0
 11
48.56203086
 21
159.34834855
 31
0.0
  0
LINE
  5
57C
  8
0
 10
48.91135033
 20
158.70222764
 30
0.0
 11
48.56203086
 21
159.34834855
 31
0.0
  0
POLYLINE
  5
57D
  8
0
 66
     1
 10
0.0
 20
0.0
 30
0.0
  0
VERTEX
  5
D7F
  8
0
 10
48.91135032549752
 20
154.9141022606937
 30
0.0
  0
VERTEX
  5
D80
  8
0
 10
49.27695102736703
 20
154.90672534552
 30
0.0
  0
VERTEX
  5
D81
  8
0
 10
49.62850189943592
 20
154.9724196881733
 30
0.0
  0
VERTEX
  5
D82
  8
0
 10
49.95249303881187
 20
155.1086606919015
 30
0.0
  0
VERTEX
  5
D83
  8
0
 10
50.23647364767658
 20
155.3102126913242
 30
0.0
  0
VERTEX
  5
D84
  8
0
 10
50.4695305104647
 20
155.5693301561177
 30
0.0
  0
VERTEX
  5
D85
  8
0
 10
50.64270738261867
 20
155.876055347402
 30
0.0
  0
VERTEX
  5
D86
  8
0
 10
50.74934917404515
 20
156.2186009880626
 30
0.0
  0
VERTEX
  5
D87
  8
0
 10
50.7853577004957
 20
156.5838032412008
 30
0.0
  0
VERTEX
  5
D88
  8
0
 10
50.7493491744895
 20
156.9576275890043
 30
0.0
  0
VERTEX
  5
D89
  8
0
 10
50.64270738349028
 20
157.3257081713974
 30
0.0
  0
VERTEX
  5
D8A
  8
0
 10
50.46953051173009
 20
157.6738998579884
 30
0.0
  0
VERTEX
  5
D8B
  8
0
 10
50.23647364928712
 20
157.9888218374994
 30
0.0
  0
VERTEX
  5
D8C
  8
0
 10
49.95249304070566
 20
158.2583718348405
 30
0.0
  0
VERTEX
  5
D8D
  8
0
 10
49.6285019015402
 20
158.4721911947556
 30
0.0
  0
VERTEX
  5
D8E
  8
0
 10
49.2769510296009
 20
158.6220629591357
 30
0.0
  0
VERTEX
  5
D8F
  8
0
 10
48.91135032777517
 20
158.7022276401116
 30
0.0
  0
SEQEND
  5
F6C
  8
0
  0
POLYLINE
  5
57E
  8
0
 66
     1
 10
0.0
 20
0.0
 30
0.0
  0
VERTEX
  5
57F
  8
0
 10
48.56203086
 20
153.66616048
 30
0.0
  0
VERTEX
  5
580
  8
0
 10
48.91135033
 20
154.91410226
 30
0.0
  0
VERTEX
  5
581
  8
0
 10
38.60430979
 20
156.14809164
 30
0.0
  0
VERTEX
  5
582
  8
0
 10
38.25499031
 20
154.90014987
 30
0.0
  0
SEQEND
  5
583
  8
0
  0
POLYLINE
  5
584
  8
0
 66
     1
 10
0.0
 20
0.0
 30
0.0
  0
VERTEX
  5
D90
  8
0
 10
38.60430978777517
 20
159.9362170201116
 30
0.0
  0
VERTEX
  5
D91
  8
0
 10
38.23870908685969
 20
159.9435939340105
 30
0.0
  0
VERTEX
  5
D92
  8
0
 10
37.88715821590266
 20
159.8778995904332
 30
0.0
  0
VERTEX
  5
D93
  8
0
 10
37.56316707769216
 20
159.7416585861561
 30
0.0
  0
VERTEX
  5
D94
  8
0
 10
37.27918646994495
 20
159.5401065865566
 30
0.0
  0
VERTEX
  5
D95
  8
0
 10
37.04612960813375
 20
159.28098912193
 30
0.0
  0
VERTEX
  5
D96
  8
0
 10
36.87295273673772
 20
158.9742639311046
 30
0.0
  0
VERTEX
  5
D97
  8
0
 10
36.7663109457908
 20
158.6317182911235
 30
0.0
  0
VERTEX
  5
D98
  8
0
 10
36.7303024195043
 20
158.2665160387992
 30
0.0
  0
VERTEX
  5
D99
  8
0
 10
36.76631094534645
 20
157.8926916918489
 30
0.0
  0
VERTEX
  5
D9A
  8
0
 10
36.87295273586611
 20
157.5246111102501
 30
0.0
  0
VERTEX
  5
D9B
  8
0
 10
37.04612960686836
 20
157.1764194242994
 30
0.0
  0
VERTEX
  5
D9C
  8
0
 10
37.27918646833442
 20
156.8614974451892
 30
0.0
  0
VERTEX
  5
D9D
  8
0
 10
37.56316707579838
 20
156.591947447939
 30
0.0
  0
VERTEX
  5
D9E
  8
0
 10
37.88715821379839
 20
156.378128087754
 30
0.0
  0
VERTEX
  5
D9F
  8
0
 10
38.23870908462582
 20
156.2282563227162
 30
0.0
  0
VERTEX
  5
DA0
  8
0
 10
38.60430978549753
 20
156.1480916406937
 30
0.0
  0
SEQEND
  5
F6D
  8
0
  0
LINE
  5
585
  8
0
 10
38.60430979
 20
159.93621702
 30
0.0
 11
38.25499031
 21
160.58233794
 31
0.0
  0
LINE
  5
586
  8
0
 10
38.60430979
 20
159.93621702
 30
0.0
 11
48.91135033
 21
158.70222764
 31
0.0
  0
POLYLINE
  5
587
  8
0
 66
     1
 10
0.0
 20
0.0
 30
0.0
  0
VERTEX
  5
DA1
  8
0
 10
24.94228800331855
 20
135.1730830528587
 30
0.0
  0
VERTEX
  5
DA2
  8
0
 10
24.77918196773226
 20
134.9977092753929
 30
0.0
  0
VERTEX
  5
DA3
  8
0
 10
24.65683071812762
 20
134.7890402426117
 30
0.0
  0
VERTEX
  5
DA4
  8
0
 10
24.57993614443067
 20
134.5550949884546
 30
0.0
  0
VERTEX
  5
DA5
  8
0
 10
24.55145326199765
 20
134.3048638978773
 30
0.0
  0
VERTEX
  5
DA6
  8
0
 10
24.57247665203153
 20
134.0479632113986
 30
0.0
  0
VERTEX
  5
DA7
  8
0
 10
24.64219839744007
 20
133.7942654783685
 30
0.0
  0
VERTEX
  5
DA8
  8
0
 10
24.75793913063671
 20
133.5535201604318
 30
0.0
  0
VERTEX
  5
DA9
  8
0
 10
24.91525100013479
 20
133.3349789651827
 30
0.0
  0
VERTEX
  5
DAA
  8
0
 10
25.1080885989864
 20
133.1470403082296
 30
0.0
  0
VERTEX
  5
DAB
  8
0
 10
25.3290412863821
 20
132.9969265667914
 30
0.0
  0
VERTEX
  5
DAC
  8
0
 10
25.56961797442244
 20
132.8904065277901
 30
0.0
  0
VERTEX
  5
DAD
  8
0
 10
25.82057343586537
 20
132.8315736966042
 30
0.0
  0
VERTEX
  5
DAE
  8
0
 10
26.07226359302587
 20
132.8226889859516
 30
0.0
  0
VERTEX
  5
DAF
  8
0
 10
26.31501613427437
 20
132.8640938302813
 30
0.0
  0
VERTEX
  5
DB0
  8
0
 10
26.53950221554993
 20
132.9541970646394
 30
0.0
  0
VERTEX
  5
DB1
  8
0
 10
26.7370949626073
 20
133.089536072246
 30
0.0
  0
SEQEND
  5
F6E
  8
0
  0
POLYLINE
  5
588
  8
0
 66
     1
 10
0.0
 20
0.0
 30
0.0
  0
VERTEX
  5
DB2
  8
0
 10
26.73709496
 20
133.08953607
 30
0.0
  0
VERTEX
  5
DB3
  8
0
 10
26.90020099443679
 20
133.2649098475252
 30
0.0
  0
VERTEX
  5
DB4
  8
0
 10
27.0225522430672
 20
133.4735788800425
 30
0.0
  0
VERTEX
  5
DB5
  8
0
 10
27.09944681603244
 20
133.7075241336734
 30
0.0
  0
VERTEX
  5
DB6
  8
0
 10
27.12792969802318
 20
133.9577552235392
 30
0.0
  0
VERTEX
  5
DB7
  8
0
 10
27.10690630786037
 20
134.2146559092097
 30
0.0
  0
VERTEX
  5
DB8
  8
0
 10
27.03718456263608
 20
134.4683536414285
 30
0.0
  0
VERTEX
  5
DB9
  8
0
 10
26.92144382991278
 20
134.709098958644
 30
0.0
  0
VERTEX
  5
DBA
  8
0
 10
26.76413196113074
 20
134.9276401533482
 30
0.0
  0
VERTEX
  5
DBB
  8
0
 10
26.57129436317196
 20
135.1155788100071
 30
0.0
  0
VERTEX
  5
DBC
  8
0
 10
26.35034167676455
 20
135.265692551459
 30
0.0
  0
VERTEX
  5
DBD
  8
0
 10
26.10976498971612
 20
135.3722125908177
 30
0.0
  0
VERTEX
  5
DBE
  8
0
 10
25.8588095291719
 20
135.4310454227171
 30
0.0
  0
VERTEX
  5
DBF
  8
0
 10
25.60711937272121
 20
135.4399301344264
 30
0.0
  0
VERTEX
  5
DC0
  8
0
 10
25.36436683190495
 20
135.3985252914579
 30
0.0
  0
VERTEX
  5
DC1
  8
0
 10
25.13988075070823
 20
135.3084220587032
 30
0.0
  0
VERTEX
  5
DC2
  8
0
 10
24.94228800331855
 20
135.1730830528587
 30
0.0
  0
SEQEND
  5
F6F
  8
0
  0
POLYLINE
  5
589
  8
0
 66
     1
 10
0.0
 20
0.0
 30
0.0
  0
VERTEX
  5
DC3
  8
0
 10
25.13311043800263
 20
135.3047753744289
 30
0.0
  0
VERTEX
  5
DC4
  8
0
 10
25.00891225814337
 20
135.0960390011998
 30
0.0
  0
VERTEX
  5
DC5
  8
0
 10
24.930478063665
 20
134.8615598627819
 30
0.0
  0
VERTEX
  5
DC6
  8
0
 10
24.90084951655244
 20
134.610431012101
 30
0.0
  0
VERTEX
  5
DC7
  8
0
 10
24.92117560578965
 20
134.3523911745116
 30
0.0
  0
VERTEX
  5
DC8
  8
0
 10
24.99066808980232
 20
134.097447082024
 30
0.0
  0
VERTEX
  5
DC9
  8
0
 10
25.10663206430457
 20
133.855485414288
 30
0.0
  0
VERTEX
  5
DCA
  8
0
 10
25.26457047013479
 20
133.6358893951827
 30
0.0
  0
VERTEX
  5
DCB
  8
0
 10
25.45835848828811
 20
133.4471749133175
 30
0.0
  0
VERTEX
  5
DCC
  8
0
 10
25.68048105914201
 20
133.2966602776176
 30
0.0
  0
VERTEX
  5
DCD
  8
0
 10
25.92232431492808
 20
133.1901824148039
 30
0.0
  0
VERTEX
  5
DCE
  8
0
 10
26.17450962375847
 20
133.1318705145712
 30
0.0
  0
VERTEX
  5
DCF
  8
0
 10
26.42725729104812
 20
133.123985900458
 30
0.0
  0
VERTEX
  5
DD0
  8
0
 10
26.67076581406618
 20
133.1668343361836
 30
0.0
  0
VERTEX
  5
DD1
  8
0
 10
26.89559198220287
 20
133.2587541681933
 30
0.0
  0
SEQEND
  5
F70
  8
0
  0
POLYLINE
  5
58A
  8
0
 66
     1
 10
0.0
 20
0.0
 30
0.0
  0
VERTEX
  5
DD2
  8
0
 10
9.168275849999999
 20
156.974648
 30
0.0
  0
VERTEX
  5
DD3
  8
0
 10
9.331381884436789
 20
157.1500217775252
 30
0.0
  0
VERTEX
  5
DD4
  8
0
 10
9.4537331330672
 20
157.3586908100425
 30
0.0
  0
VERTEX
  5
DD5
  8
0
 10
9.530627706032446
 20
157.5926360636734
 30
0.0
  0
VERTEX
  5
DD6
  8
0
 10
9.559110588023179
 20
157.8428671535392
 30
0.0
  0
VERTEX
  5
DD7
  8
0
 10
9.538087197860369
 20
158.0997678392096
 30
0.0
  0
VERTEX
  5
DD8
  8
0
 10
9.468365452636084
 20
158.3534655714284
 30
0.0
  0
VERTEX
  5
DD9
  8
0
 10
9.35262471991278
 20
158.594210888644
 30
0.0
  0
VERTEX
  5
DDA
  8
0
 10
9.195312851130737
 20
158.8127520833482
 30
0.0
  0
VERTEX
  5
DDB
  8
0
 10
9.00247525317196
 20
159.0006907400071
 30
0.0
  0
VERTEX
  5
DDC
  8
0
 10
8.781522566764554
 20
159.150804481459
 30
0.0
  0
VERTEX
  5
DDD
  8
0
 10
8.540945879716118
 20
159.2573245208177
 30
0.0
  0
VERTEX
  5
DDE
  8
0
 10
8.289990419171904
 20
159.3161573527171
 30
0.0
  0
VERTEX
  5
DDF
  8
0
 10
8.038300262721213
 20
159.3250420644264
 30
0.0
  0
VERTEX
  5
DE0
  8
0
 10
7.795547721904946
 20
159.2836372214579
 30
0.0
  0
VERTEX
  5
DE1
  8
0
 10
7.571061640708226
 20
159.1935339887032
 30
0.0
  0
VERTEX
  5
DE2
  8
0
 10
7.373468893318549
 20
159.0581949828587
 30
0.0
  0
SEQEND
  5
F71
  8
0
  0
POLYLINE
  5
58B
  8
0
 66
     1
 10
0.0
 20
0.0
 30
0.0
  0
VERTEX
  5
DE3
  8
0
 10
7.373468893318549
 20
159.0581949828587
 30
0.0
  0
VERTEX
  5
DE4
  8
0
 10
7.21036285773226
 20
158.8828212053929
 30
0.0
  0
VERTEX
  5
DE5
  8
0
 10
7.088011608127614
 20
158.6741521726117
 30
0.0
  0
VERTEX
  5
DE6
  8
0
 10
7.011117034430673
 20
158.4402069184545
 30
0.0
  0
VERTEX
  5
DE7
  8
0
 10
6.982634151997655
 20
158.1899758278772
 30
0.0
  0
VERTEX
  5
DE8
  8
0
 10
7.003657542031531
 20
157.9330751413986
 30
0.0
  0
VERTEX
  5
DE9
  8
0
 10
7.073379287440065
 20
157.6793774083685
 30
0.0
  0
VERTEX
  5
DEA
  8
0
 10
7.189120020636714
 20
157.4386320904318
 30
0.0
  0
VERTEX
  5
DEB
  8
0
 10
7.346431890134785
 20
157.2200908951827
 30
0.0
  0
VERTEX
  5
DEC
  8
0
 10
7.539269488986395
 20
157.0321522382296
 30
0.0
  0
VERTEX
  5
DED
  8
0
 10
7.7602221763821
 20
156.8820384967914
 30
0.0
  0
VERTEX
  5
DEE
  8
0
 10
8.000798864422437
 20
156.7755184577901
 30
0.0
  0
VERTEX
  5
DEF
  8
0
 10
8.251754325865374
 20
156.7166856266042
 30
0.0
  0
VERTEX
  5
DF0
  8
0
 10
8.503444483025866
 20
156.7078009159516
 30
0.0
  0
VERTEX
  5
DF1
  8
0
 10
8.746197024274366
 20
156.7492057602813
 30
0.0
  0
VERTEX
  5
DF2
  8
0
 10
8.970683105549933
 20
156.8393089946394
 30
0.0
  0
VERTEX
  5
DF3
  8
0
 10
9.168275852607303
 20
156.974648002246
 30
0.0
  0
SEQEND
  5
F72
  8
0
  0
POLYLINE
  5
58C
  8
0
 66
     1
 10
0.0
 20
0.0
 30
0.0
  0
VERTEX
  5
DF4
  8
0
 10
7.564291328002634
 20
159.1898873044289
 30
0.0
  0
VERTEX
  5
DF5
  8
0
 10
7.440093148143367
 20
158.9811509311998
 30
0.0
  0
VERTEX
  5
DF6
  8
0
 10
7.361658953664998
 20
158.7466717927819
 30
0.0
  0
VERTEX
  5
DF7
  8
0
 10
7.332030406552442
 20
158.495542942101
 30
0.0
  0
VERTEX
  5
DF8
  8
0
 10
7.352356495789649
 20
158.2375031045116
 30
0.0
  0
VERTEX
  5
DF9
  8
0
 10
7.421848979802316
 20
157.982559012024
 30
0.0
  0
VERTEX
  5
DFA
  8
0
 10
7.537812954304568
 20
157.740597344288
 30
0.0
  0
VERTEX
  5
DFB
  8
0
 10
7.695751360134786
 20
157.5210013251827
 30
0.0
  0
VERTEX
  5
DFC
  8
0
 10
7.889539378288106
 20
157.3322868433175
 30
0.0
  0
VERTEX
  5
DFD
  8
0
 10
8.111661949142007
 20
157.1817722076176
 30
0.0
  0
VERTEX
  5
DFE
  8
0
 10
8.353505204928082
 20
157.0752943448039
 30
0.0
  0
VERTEX
  5
DFF
  8
0
 10
8.605690513758475
 20
157.0169824445712
 30
0.0
  0
VERTEX
  5
E00
  8
0
 10
8.858438181048124
 20
157.009097830458
 30
0.0
  0
VERTEX
  5
E01
  8
0
 10
9.10194670406618
 20
157.0519462661836
 30
0.0
  0
VERTEX
  5
E02
  8
0
 10
9.326772872202874
 20
157.1438660981933
 30
0.0
  0
SEQEND
  5
F73
  8
0
  0
POLYLINE
  5
58D
  8
0
 66
     1
 10
0.0
 20
0.0
 30
0.0
  0
VERTEX
  5
E03
  8
0
 10
9.168275852607303
 20
139.928083792246
 30
0.0
  0
VERTEX
  5
E04
  8
0
 10
9.331381886371247
 20
140.1034575701278
 30
0.0
  0
VERTEX
  5
E05
  8
0
 10
9.453733134327413
 20
140.312126602842
 30
0.0
  0
VERTEX
  5
E06
  8
0
 10
9.530627706651343
 20
140.546071856517
 30
0.0
  0
VERTEX
  5
E07
  8
0
 10
9.559110588063618
 20
140.7963029462885
 30
0.0
  0
VERTEX
  5
E08
  8
0
 10
9.538087197409403
 20
141.0532036317471
 30
0.0
  0
VERTEX
  5
E09
  8
0
 10
9.468365451798203
 20
141.3069013636623
 30
0.0
  0
VERTEX
  5
E0A
  8
0
 10
9.352624718802547
 20
141.5476466805115
 30
0.0
  0
VERTEX
  5
E0B
  8
0
 10
9.195312849865216
 20
141.7661878748173
 30
0.0
  0
VERTEX
  5
E0C
  8
0
 10
9.00247525186337
 20
141.9541265310762
 30
0.0
  0
VERTEX
  5
E0D
  8
0
 10
8.7815225655135
 20
142.1042402721546
 30
0.0
  0
VERTEX
  5
E0E
  8
0
 10
8.540945878605802
 20
142.2107603111912
 30
0.0
  0
VERTEX
  5
E0F
  8
0
 10
8.28999041826357
 20
142.2695931428395
 30
0.0
  0
VERTEX
  5
E10
  8
0
 10
8.038300262051083
 20
142.2784778543823
 30
0.0
  0
VERTEX
  5
E11
  8
0
 10
7.795547721482776
 20
142.2370730113391
 30
0.0
  0
VERTEX
  5
E12
  8
0
 10
7.571061640517547
 20
142.1469697786014
 30
0.0
  0
VERTEX
  5
E13
  8
0
 10
7.37346889331855
 20
142.0116307728587
 30
0.0
  0
SEQEND
  5
F74
  8
0
  0
POLYLINE
  5
58E
  8
0
 66
     1
 10
0.0
 20
0.0
 30
0.0
  0
VERTEX
  5
E14
  8
0
 10
7.373468893318549
 20
142.0116307728587
 30
0.0
  0
VERTEX
  5
E15
  8
0
 10
7.210362857861225
 20
141.8362569955664
 30
0.0
  0
VERTEX
  5
E16
  8
0
 10
7.088011608307645
 20
141.6275879630116
 30
0.0
  0
VERTEX
  5
E17
  8
0
 10
7.011117034573495
 20
141.3936427091108
 30
0.0
  0
VERTEX
  5
E18
  8
0
 10
6.982634152011135
 20
141.1434116187937
 30
0.0
  0
VERTEX
  5
E19
  8
0
 10
7.003657541826547
 20
140.886510932552
 30
0.0
  0
VERTEX
  5
E1A
  8
0
 10
7.073379286937335
 20
140.6328131997088
 30
0.0
  0
VERTEX
  5
E1B
  8
0
 10
7.189120019773195
 20
140.3920678818843
 30
0.0
  0
VERTEX
  5
E1C
  8
0
 10
7.346431888869261
 20
140.1735266866518
 30
0.0
  0
VERTEX
  5
E1D
  8
0
 10
7.539269487303915
 20
139.9855880296041
 30
0.0
  0
VERTEX
  5
E1E
  8
0
 10
7.760222174297001
 20
139.8354742879508
 30
0.0
  0
VERTEX
  5
E1F
  8
0
 10
8.000798861979728
 20
139.7289542486118
 30
0.0
  0
VERTEX
  5
E20
  8
0
 10
8.251754323140348
 20
139.6701214169714
 30
0.0
  0
VERTEX
  5
E21
  8
0
 10
8.503444480121935
 20
139.6612367057606
 30
0.0
  0
VERTEX
  5
E22
  8
0
 10
8.746197021319116
 20
139.7026415494495
 30
0.0
  0
VERTEX
  5
E23
  8
0
 10
8.97068310268963
 20
139.7927447831117
 30
0.0
  0
VERTEX
  5
E24
  8
0
 10
9.168275849999999
 20
139.92808379
 30
0.0
  0
SEQEND
  5
F75
  8
0
  0
POLYLINE
  5
58F
  8
0
 66
     1
 10
0.0
 20
0.0
 30
0.0
  0
VERTEX
  5
E25
  8
0
 10
7.564291328002634
 20
142.1433230944289
 30
0.0
  0
VERTEX
  5
E26
  8
0
 10
7.440093148143367
 20
141.9345867211998
 30
0.0
  0
VERTEX
  5
E27
  8
0
 10
7.361658953664998
 20
141.700107582782
 30
0.0
  0
VERTEX
  5
E28
  8
0
 10
7.332030406552442
 20
141.448978732101
 30
0.0
  0
VERTEX
  5
E29
  8
0
 10
7.352356495789649
 20
141.1909388945116
 30
0.0
  0
VERTEX
  5
E2A
  8
0
 10
7.421848979802316
 20
140.935994802024
 30
0.0
  0
VERTEX
  5
E2B
  8
0
 10
7.537812954304568
 20
140.694033134288
 30
0.0
  0
VERTEX
  5
E2C
  8
0
 10
7.695751360134786
 20
140.4744371151827
 30
0.0
  0
VERTEX
  5
E2D
  8
0
 10
7.889539378288106
 20
140.2857226333175
 30
0.0
  0
VERTEX
  5
E2E
  8
0
 10
8.111661949142007
 20
140.1352079976176
 30
0.0
  0
VERTEX
  5
E2F
  8
0
 10
8.353505204928082
 20
140.0287301348039
 30
0.0
  0
VERTEX
  5
E30
  8
0
 10
8.605690513758475
 20
139.9704182345712
 30
0.0
  0
VERTEX
  5
E31
  8
0
 10
8.858438181048124
 20
139.962533620458
 30
0.0
  0
VERTEX
  5
E32
  8
0
 10
9.10194670406618
 20
140.0053820561836
 30
0.0
  0
VERTEX
  5
E33
  8
0
 10
9.326772872202874
 20
140.0973018881933
 30
0.0
  0
SEQEND
  5
F76
  8
0
  0
POLYLINE
  5
590
  8
0
 66
     1
 10
0.0
 20
0.0
 30
0.0
  0
VERTEX
  5
E34
  8
0
 10
44.30591407
 20
162.23817946
 30
0.0
  0
VERTEX
  5
E35
  8
0
 10
44.46902010443679
 20
162.4135532375252
 30
0.0
  0
VERTEX
  5
E36
  8
0
 10
44.5913713530672
 20
162.6222222700425
 30
0.0
  0
VERTEX
  5
E37
  8
0
 10
44.66826592603245
 20
162.8561675236733
 30
0.0
  0
VERTEX
  5
E38
  8
0
 10
44.69674880802318
 20
163.1063986135392
 30
0.0
  0
VERTEX
  5
E39
  8
0
 10
44.67572541786036
 20
163.3632992992096
 30
0.0
  0
VERTEX
  5
E3A
  8
0
 10
44.60600367263608
 20
163.6169970314284
 30
0.0
  0
VERTEX
  5
E3B
  8
0
 10
44.49026293991278
 20
163.857742348644
 30
0.0
  0
VERTEX
  5
E3C
  8
0
 10
44.33295107113074
 20
164.0762835433482
 30
0.0
  0
VERTEX
  5
E3D
  8
0
 10
44.14011347317196
 20
164.2642222000071
 30
0.0
  0
VERTEX
  5
E3E
  8
0
 10
43.91916078676455
 20
164.414335941459
 30
0.0
  0
VERTEX
  5
E3F
  8
0
 10
43.67858409971611
 20
164.5208559808177
 30
0.0
  0
VERTEX
  5
E40
  8
0
 10
43.42762863917191
 20
164.5796888127171
 30
0.0
  0
VERTEX
  5
E41
  8
0
 10
43.17593848272121
 20
164.5885735244264
 30
0.0
  0
VERTEX
  5
E42
  8
0
 10
42.93318594190495
 20
164.5471686814579
 30
0.0
  0
VERTEX
  5
E43
  8
0
 10
42.70869986070823
 20
164.4570654487032
 30
0.0
  0
VERTEX
  5
E44
  8
0
 10
42.51110711331854
 20
164.3217264428586
 30
0.0
  0
SEQEND
  5
F77
  8
0
  0
POLYLINE
  5
591
  8
0
 66
     1
 10
0.0
 20
0.0
 30
0.0
  0
VERTEX
  5
E45
  8
0
 10
42.51110711331854
 20
164.3217264428586
 30
0.0
  0
VERTEX
  5
E46
  8
0
 10
42.34800107773226
 20
164.1463526653929
 30
0.0
  0
VERTEX
  5
E47
  8
0
 10
42.22564982812761
 20
163.9376836326117
 30
0.0
  0
VERTEX
  5
E48
  8
0
 10
42.14875525443067
 20
163.7037383784545
 30
0.0
  0
VERTEX
  5
E49
  8
0
 10
42.12027237199766
 20
163.4535072878772
 30
0.0
  0
VERTEX
  5
E4A
  8
0
 10
42.14129576203153
 20
163.1966066013986
 30
0.0
  0
VERTEX
  5
E4B
  8
0
 10
42.21101750744007
 20
162.9429088683685
 30
0.0
  0
VERTEX
  5
E4C
  8
0
 10
42.32675824063671
 20
162.7021635504317
 30
0.0
  0
VERTEX
  5
E4D
  8
0
 10
42.48407011013478
 20
162.4836223551827
 30
0.0
  0
VERTEX
  5
E4E
  8
0
 10
42.6769077089864
 20
162.2956836982296
 30
0.0
  0
VERTEX
  5
E4F
  8
0
 10
42.89786039638209
 20
162.1455699567913
 30
0.0
  0
VERTEX
  5
E50
  8
0
 10
43.13843708442244
 20
162.0390499177901
 30
0.0
  0
VERTEX
  5
E51
  8
0
 10
43.38939254586537
 20
161.9802170866042
 30
0.0
  0
VERTEX
  5
E52
  8
0
 10
43.64108270302587
 20
161.9713323759516
 30
0.0
  0
VERTEX
  5
E53
  8
0
 10
43.88383524427437
 20
162.0127372202813
 30
0.0
  0
VERTEX
  5
E54
  8
0
 10
44.10832132554993
 20
162.1028404546394
 30
0.0
  0
VERTEX
  5
E55
  8
0
 10
44.30591407260731
 20
162.238179462246
 30
0.0
  0
SEQEND
  5
F78
  8
0
  0
POLYLINE
  5
592
  8
0
 66
     1
 10
0.0
 20
0.0
 30
0.0
  0
VERTEX
  5
E56
  8
0
 10
42.70192954800263
 20
164.4534187644289
 30
0.0
  0
VERTEX
  5
E57
  8
0
 10
42.57773136814337
 20
164.2446823911998
 30
0.0
  0
VERTEX
  5
E58
  8
0
 10
42.499297173665
 20
164.010203252782
 30
0.0
  0
VERTEX
  5
E59
  8
0
 10
42.46966862655245
 20
163.759074402101
 30
0.0
  0
VERTEX
  5
E5A
  8
0
 10
42.48999471578965
 20
163.5010345645116
 30
0.0
  0
VERTEX
  5
E5B
  8
0
 10
42.55948719980231
 20
163.246090472024
 30
0.0
  0
VERTEX
  5
E5C
  8
0
 10
42.67545117430457
 20
163.004128804288
 30
0.0
  0
VERTEX
  5
E5D
  8
0
 10
42.83338958013479
 20
162.7845327851827
 30
0.0
  0
VERTEX
  5
E5E
  8
0
 10
43.02717759828811
 20
162.5958183033175
 30
0.0
  0
VERTEX
  5
E5F
  8
0
 10
43.24930016914202
 20
162.4453036676176
 30
0.0
  0
VERTEX
  5
E60
  8
0
 10
43.49114342492808
 20
162.3388258048039
 30
0.0
  0
VERTEX
  5
E61
  8
0
 10
43.74332873375847
 20
162.2805139045712
 30
0.0
  0
VERTEX
  5
E62
  8
0
 10
43.99607640104813
 20
162.272629290458
 30
0.0
  0
VERTEX
  5
E63
  8
0
 10
44.23958492406618
 20
162.3154777261836
 30
0.0
  0
VERTEX
  5
E64
  8
0
 10
44.46441109220287
 20
162.4073975581933
 30
0.0
  0
SEQEND
  5
F79
  8
0
  0
POLYLINE
  5
593
  8
0
 66
     1
 10
0.0
 20
0.0
 30
0.0
  0
VERTEX
  5
E65
  8
0
 10
44.30591407
 20
144.24458391
 30
0.0
  0
VERTEX
  5
E66
  8
0
 10
44.46902010443679
 20
144.4199576875253
 30
0.0
  0
VERTEX
  5
E67
  8
0
 10
44.5913713530672
 20
144.6286267200425
 30
0.0
  0
VERTEX
  5
E68
  8
0
 10
44.66826592603245
 20
144.8625719736734
 30
0.0
  0
VERTEX
  5
E69
  8
0
 10
44.69674880802318
 20
145.1128030635392
 30
0.0
  0
VERTEX
  5
E6A
  8
0
 10
44.67572541786036
 20
145.3697037492097
 30
0.0
  0
VERTEX
  5
E6B
  8
0
 10
44.60600367263608
 20
145.6234014814285
 30
0.0
  0
VERTEX
  5
E6C
  8
0
 10
44.49026293991278
 20
145.864146798644
 30
0.0
  0
VERTEX
  5
E6D
  8
0
 10
44.33295107113074
 20
146.0826879933482
 30
0.0
  0
VERTEX
  5
E6E
  8
0
 10
44.14011347317196
 20
146.2706266500071
 30
0.0
  0
VERTEX
  5
E6F
  8
0
 10
43.91916078676455
 20
146.420740391459
 30
0.0
  0
VERTEX
  5
E70
  8
0
 10
43.67858409971611
 20
146.5272604308177
 30
0.0
  0
VERTEX
  5
E71
  8
0
 10
43.42762863917191
 20
146.5860932627172
 30
0.0
  0
VERTEX
  5
E72
  8
0
 10
43.17593848272121
 20
146.5949779744264
 30
0.0
  0
VERTEX
  5
E73
  8
0
 10
42.93318594190495
 20
146.5535731314579
 30
0.0
  0
VERTEX
  5
E74
  8
0
 10
42.70869986070823
 20
146.4634698987032
 30
0.0
  0
VERTEX
  5
E75
  8
0
 10
42.51110711331854
 20
146.3281308928587
 30
0.0
  0
SEQEND
  5
F7A
  8
0
  0
POLYLINE
  5
594
  8
0
 66
     1
 10
0.0
 20
0.0
 30
0.0
  0
VERTEX
  5
E76
  8
0
 10
42.51110711331854
 20
146.3281308928587
 30
0.0
  0
VERTEX
  5
E77
  8
0
 10
42.34800107773226
 20
146.1527571153929
 30
0.0
  0
VERTEX
  5
E78
  8
0
 10
42.22564982812761
 20
145.9440880826117
 30
0.0
  0
VERTEX
  5
E79
  8
0
 10
42.14875525443067
 20
145.7101428284546
 30
0.0
  0
VERTEX
  5
E7A
  8
0
 10
42.12027237199766
 20
145.4599117378773
 30
0.0
  0
VERTEX
  5
E7B
  8
0
 10
42.14129576203153
 20
145.2030110513986
 30
0.0
  0
VERTEX
  5
E7C
  8
0
 10
42.21101750744007
 20
144.9493133183686
 30
0.0
  0
VERTEX
  5
E7D
  8
0
 10
42.32675824063671
 20
144.7085680004318
 30
0.0
  0
VERTEX
  5
E7E
  8
0
 10
42.48407011013478
 20
144.4900268051827
 30
0.0
  0
VERTEX
  5
E7F
  8
0
 10
42.6769077089864
 20
144.3020881482296
 30
0.0
  0
VERTEX
  5
E80
  8
0
 10
42.89786039638209
 20
144.1519744067914
 30
0.0
  0
VERTEX
  5
E81
  8
0
 10
43.13843708442244
 20
144.0454543677901
 30
0.0
  0
VERTEX
  5
E82
  8
0
 10
43.38939254586537
 20
143.9866215366042
 30
0.0
  0
VERTEX
  5
E83
  8
0
 10
43.64108270302587
 20
143.9777368259516
 30
0.0
  0
VERTEX
  5
E84
  8
0
 10
43.88383524427437
 20
144.0191416702813
 30
0.0
  0
VERTEX
  5
E85
  8
0
 10
44.10832132554993
 20
144.1092449046394
 30
0.0
  0
VERTEX
  5
E86
  8
0
 10
44.30591407260731
 20
144.244583912246
 30
0.0
  0
SEQEND
  5
F7B
  8
0
  0
POLYLINE
  5
595
  8
0
 66
     1
 10
0.0
 20
0.0
 30
0.0
  0
VERTEX
  5
E87
  8
0
 10
42.70192954800263
 20
146.4598232144289
 30
0.0
  0
VERTEX
  5
E88
  8
0
 10
42.57773136814337
 20
146.2510868411998
 30
0.0
  0
VERTEX
  5
E89
  8
0
 10
42.499297173665
 20
146.016607702782
 30
0.0
  0
VERTEX
  5
E8A
  8
0
 10
42.46966862655245
 20
145.765478852101
 30
0.0
  0
VERTEX
  5
E8B
  8
0
 10
42.48999471578965
 20
145.5074390145116
 30
0.0
  0
VERTEX
  5
E8C
  8
0
 10
42.55948719980231
 20
145.252494922024
 30
0.0
  0
VERTEX
  5
E8D
  8
0
 10
42.67545117430457
 20
145.010533254288
 30
0.0
  0
VERTEX
  5
E8E
  8
0
 10
42.83338958013479
 20
144.7909372351827
 30
0.0
  0
VERTEX
  5
E8F
  8
0
 10
43.02717759828811
 20
144.6022227533175
 30
0.0
  0
VERTEX
  5
E90
  8
0
 10
43.24930016914202
 20
144.4517081176176
 30
0.0
  0
VERTEX
  5
E91
  8
0
 10
43.49114342492808
 20
144.3452302548039
 30
0.0
  0
VERTEX
  5
E92
  8
0
 10
43.74332873375847
 20
144.2869183545712
 30
0.0
  0
VERTEX
  5
E93
  8
0
 10
43.99607640104813
 20
144.279033740458
 30
0.0
  0
VERTEX
  5
E94
  8
0
 10
44.23958492406618
 20
144.3218821761836
 30
0.0
  0
VERTEX
  5
E95
  8
0
 10
44.46441109220287
 20
144.4138020081933
 30
0.0
  0
SEQEND
  5
F7C
  8
0
  0
POLYLINE
  5
596
  8
0
 66
     1
 10
0.0
 20
0.0
 30
0.0
  0
VERTEX
  5
E96
  8
0
 10
44.30591407260731
 20
126.250988352246
 30
0.0
  0
VERTEX
  5
E97
  8
0
 10
44.46902010637125
 20
126.4263621301278
 30
0.0
  0
VERTEX
  5
E98
  8
0
 10
44.59137135432741
 20
126.635031162842
 30
0.0
  0
VERTEX
  5
E99
  8
0
 10
44.66826592665134
 20
126.868976416517
 30
0.0
  0
VERTEX
  5
E9A
  8
0
 10
44.69674880806362
 20
127.1192075062885
 30
0.0
  0
VERTEX
  5
E9B
  8
0
 10
44.6757254174094
 20
127.3761081917471
 30
0.0
  0
VERTEX
  5
E9C
  8
0
 10
44.60600367179821
 20
127.6298059236622
 30
0.0
  0
VERTEX
  5
E9D
  8
0
 10
44.49026293880254
 20
127.8705512405114
 30
0.0
  0
VERTEX
  5
E9E
  8
0
 10
44.33295106986522
 20
128.0890924348173
 30
0.0
  0
VERTEX
  5
E9F
  8
0
 10
44.14011347186337
 20
128.2770310910762
 30
0.0
  0
VERTEX
  5
EA0
  8
0
 10
43.9191607855135
 20
128.4271448321546
 30
0.0
  0
VERTEX
  5
EA1
  8
0
 10
43.6785840986058
 20
128.5336648711912
 30
0.0
  0
VERTEX
  5
EA2
  8
0
 10
43.42762863826357
 20
128.5924977028395
 30
0.0
  0
VERTEX
  5
EA3
  8
0
 10
43.17593848205108
 20
128.6013824143823
 30
0.0
  0
VERTEX
  5
EA4
  8
0
 10
42.93318594148277
 20
128.5599775713391
 30
0.0
  0
VERTEX
  5
EA5
  8
0
 10
42.70869986051755
 20
128.4698743386014
 30
0.0
  0
VERTEX
  5
EA6
  8
0
 10
42.51110711331854
 20
128.3345353328586
 30
0.0
  0
SEQEND
  5
F7D
  8
0
  0
POLYLINE
  5
597
  8
0
 66
     1
 10
0.0
 20
0.0
 30
0.0
  0
VERTEX
  5
EA7
  8
0
 10
42.51110711331854
 20
128.3345353328586
 30
0.0
  0
VERTEX
  5
EA8
  8
0
 10
42.34800107786122
 20
128.1591615555664
 30
0.0
  0
VERTEX
  5
EA9
  8
0
 10
42.22564982830765
 20
127.9504925230116
 30
0.0
  0
VERTEX
  5
EAA
  8
0
 10
42.14875525457349
 20
127.7165472691108
 30
0.0
  0
VERTEX
  5
EAB
  8
0
 10
42.12027237201113
 20
127.4663161787937
 30
0.0
  0
VERTEX
  5
EAC
  8
0
 10
42.14129576182655
 20
127.209415492552
 30
0.0
  0
VERTEX
  5
EAD
  8
0
 10
42.21101750693734
 20
126.9557177597088
 30
0.0
  0
VERTEX
  5
EAE
  8
0
 10
42.32675823977319
 20
126.7149724418842
 30
0.0
  0
VERTEX
  5
EAF
  8
0
 10
42.48407010886926
 20
126.4964312466518
 30
0.0
  0
VERTEX
  5
EB0
  8
0
 10
42.67690770730392
 20
126.3084925896041
 30
0.0
  0
VERTEX
  5
EB1
  8
0
 10
42.897860394297
 20
126.1583788479508
 30
0.0
  0
VERTEX
  5
EB2
  8
0
 10
43.13843708197972
 20
126.0518588086118
 30
0.0
  0
VERTEX
  5
EB3
  8
0
 10
43.38939254314035
 20
125.9930259769714
 30
0.0
  0
VERTEX
  5
EB4
  8
0
 10
43.64108270012193
 20
125.9841412657606
 30
0.0
  0
VERTEX
  5
EB5
  8
0
 10
43.88383524131911
 20
126.0255461094495
 30
0.0
  0
VERTEX
  5
EB6
  8
0
 10
44.10832132268963
 20
126.1156493431117
 30
0.0
  0
VERTEX
  5
EB7
  8
0
 10
44.30591407
 20
126.25098835
 30
0.0
  0
SEQEND
  5
F7E
  8
0
  0
POLYLINE
  5
598
  8
0
 66
     1
 10
0.0
 20
0.0
 30
0.0
  0
VERTEX
  5
EB8
  8
0
 10
42.70192954800263
 20
128.4662276544289
 30
0.0
  0
VERTEX
  5
EB9
  8
0
 10
42.57773136814337
 20
128.2574912811998
 30
0.0
  0
VERTEX
  5
EBA
  8
0
 10
42.499297173665
 20
128.0230121427819
 30
0.0
  0
VERTEX
  5
EBB
  8
0
 10
42.46966862655245
 20
127.771883292101
 30
0.0
  0
VERTEX
  5
EBC
  8
0
 10
42.48999471578965
 20
127.5138434545116
 30
0.0
  0
VERTEX
  5
EBD
  8
0
 10
42.55948719980231
 20
127.258899362024
 30
0.0
  0
VERTEX
  5
EBE
  8
0
 10
42.67545117430457
 20
127.016937694288
 30
0.0
  0
VERTEX
  5
EBF
  8
0
 10
42.83338958013479
 20
126.7973416751827
 30
0.0
  0
VERTEX
  5
EC0
  8
0
 10
43.02717759828811
 20
126.6086271933175
 30
0.0
  0
VERTEX
  5
EC1
  8
0
 10
43.24930016914202
 20
126.4581125576176
 30
0.0
  0
VERTEX
  5
EC2
  8
0
 10
43.49114342492808
 20
126.3516346948039
 30
0.0
  0
VERTEX
  5
EC3
  8
0
 10
43.74332873375847
 20
126.2933227945712
 30
0.0
  0
VERTEX
  5
EC4
  8
0
 10
43.99607640104813
 20
126.285438180458
 30
0.0
  0
VERTEX
  5
EC5
  8
0
 10
44.23958492406618
 20
126.3282866161836
 30
0.0
  0
VERTEX
  5
EC6
  8
0
 10
44.46441109220287
 20
126.4202064481933
 30
0.0
  0
SEQEND
  5
F7F
  8
0
  0
POLYLINE
  5
599
  8
0
 66
     1
 10
0.0
 20
0.0
 30
0.0
  0
VERTEX
  5
EC7
  8
0
 10
24.94228800331855
 20
161.6899607128587
 30
0.0
  0
VERTEX
  5
EC8
  8
0
 10
24.77918196786122
 20
161.5145869355664
 30
0.0
  0
VERTEX
  5
EC9
  8
0
 10
24.65683071830765
 20
161.3059179030116
 30
0.0
  0
VERTEX
  5
ECA
  8
0
 10
24.57993614457349
 20
161.0719726491108
 30
0.0
  0
VERTEX
  5
ECB
  8
0
 10
24.55145326201114
 20
160.8217415587937
 30
0.0
  0
VERTEX
  5
ECC
  8
0
 10
24.57247665182655
 20
160.564840872552
 30
0.0
  0
VERTEX
  5
ECD
  8
0
 10
24.64219839693734
 20
160.3111431397088
 30
0.0
  0
VERTEX
  5
ECE
  8
0
 10
24.7579391297732
 20
160.0703978218843
 30
0.0
  0
VERTEX
  5
ECF
  8
0
 10
24.91525099886926
 20
159.8518566266518
 30
0.0
  0
VERTEX
  5
ED0
  8
0
 10
25.10808859730392
 20
159.6639179696041
 30
0.0
  0
VERTEX
  5
ED1
  8
0
 10
25.329041284297
 20
159.5138042279508
 30
0.0
  0
VERTEX
  5
ED2
  8
0
 10
25.56961797197973
 20
159.4072841886118
 30
0.0
  0
VERTEX
  5
ED3
  8
0
 10
25.82057343314035
 20
159.3484513569714
 30
0.0
  0
VERTEX
  5
ED4
  8
0
 10
26.07226359012193
 20
159.3395666457606
 30
0.0
  0
VERTEX
  5
ED5
  8
0
 10
26.31501613131912
 20
159.3809714894495
 30
0.0
  0
VERTEX
  5
ED6
  8
0
 10
26.53950221268963
 20
159.4710747231117
 30
0.0
  0
VERTEX
  5
ED7
  8
0
 10
26.73709496
 20
159.60641373
 30
0.0
  0
SEQEND
  5
F80
  8
0
  0
POLYLINE
  5
59A
  8
0
 66
     1
 10
0.0
 20
0.0
 30
0.0
  0
VERTEX
  5
ED8
  8
0
 10
26.73709496
 20
159.60641373
 30
0.0
  0
VERTEX
  5
ED9
  8
0
 10
26.90020099443679
 20
159.7817875075253
 30
0.0
  0
VERTEX
  5
EDA
  8
0
 10
27.0225522430672
 20
159.9904565400425
 30
0.0
  0
VERTEX
  5
EDB
  8
0
 10
27.09944681603244
 20
160.2244017936734
 30
0.0
  0
VERTEX
  5
EDC
  8
0
 10
27.12792969802318
 20
160.4746328835392
 30
0.0
  0
VERTEX
  5
EDD
  8
0
 10
27.10690630786037
 20
160.7315335692097
 30
0.0
  0
VERTEX
  5
EDE
  8
0
 10
27.03718456263608
 20
160.9852313014285
 30
0.0
  0
VERTEX
  5
EDF
  8
0
 10
26.92144382991278
 20
161.225976618644
 30
0.0
  0
VERTEX
  5
EE0
  8
0
 10
26.76413196113074
 20
161.4445178133482
 30
0.0
  0
VERTEX
  5
EE1
  8
0
 10
26.57129436317196
 20
161.6324564700071
 30
0.0
  0
VERTEX
  5
EE2
  8
0
 10
26.35034167676455
 20
161.782570211459
 30
0.0
  0
VERTEX
  5
EE3
  8
0
 10
26.10976498971612
 20
161.8890902508177
 30
0.0
  0
VERTEX
  5
EE4
  8
0
 10
25.8588095291719
 20
161.9479230827172
 30
0.0
  0
VERTEX
  5
EE5
  8
0
 10
25.60711937272121
 20
161.9568077944264
 30
0.0
  0
VERTEX
  5
EE6
  8
0
 10
25.36436683190495
 20
161.9154029514579
 30
0.0
  0
VERTEX
  5
EE7
  8
0
 10
25.13988075070823
 20
161.8252997187032
 30
0.0
  0
VERTEX
  5
EE8
  8
0
 10
24.94228800331855
 20
161.6899607128587
 30
0.0
  0
SEQEND
  5
F81
  8
0
  0
POLYLINE
  5
59B
  8
0
 66
     1
 10
0.0
 20
0.0
 30
0.0
  0
VERTEX
  5
EE9
  8
0
 10
25.13311043800263
 20
161.8216530344289
 30
0.0
  0
VERTEX
  5
EEA
  8
0
 10
25.00891225814337
 20
161.6129166611998
 30
0.0
  0
VERTEX
  5
EEB
  8
0
 10
24.930478063665
 20
161.378437522782
 30
0.0
  0
VERTEX
  5
EEC
  8
0
 10
24.90084951655244
 20
161.127308672101
 30
0.0
  0
VERTEX
  5
EED
  8
0
 10
24.92117560578965
 20
160.8692688345116
 30
0.0
  0
VERTEX
  5
EEE
  8
0
 10
24.99066808980232
 20
160.614324742024
 30
0.0
  0
VERTEX
  5
EEF
  8
0
 10
25.10663206430457
 20
160.372363074288
 30
0.0
  0
VERTEX
  5
EF0
  8
0
 10
25.26457047013479
 20
160.1527670551827
 30
0.0
  0
VERTEX
  5
EF1
  8
0
 10
25.45835848828811
 20
159.9640525733175
 30
0.0
  0
VERTEX
  5
EF2
  8
0
 10
25.68048105914201
 20
159.8135379376176
 30
0.0
  0
VERTEX
  5
EF3
  8
0
 10
25.92232431492808
 20
159.7070600748039
 30
0.0
  0
VERTEX
  5
EF4
  8
0
 10
26.17450962375847
 20
159.6487481745712
 30
0.0
  0
VERTEX
  5
EF5
  8
0
 10
26.42725729104812
 20
159.640863560458
 30
0.0
  0
VERTEX
  5
EF6
  8
0
 10
26.67076581406618
 20
159.6837119961836
 30
0.0
  0
VERTEX
  5
EF7
  8
0
 10
26.89559198220287
 20
159.7756318281933
 30
0.0
  0
SEQEND
  5
F82
  8
0
  0
LINE
  5
59C
  8
0
 10
56.40737981
 20
172.48376666
 30
0.0
 11
56.05806034
 21
172.18285623
 31
0.0
  0
LINE
  5
59D
  8
0
 10
-1.09916448
 20
164.82041809
 30
0.0
 11
56.05806034
 21
172.18285623
 31
0.0
  0
LINE
  5
59E
  8
0
 10
-0.74984501
 20
165.12132853
 30
0.0
 11
-1.09916448
 21
164.82041809
 31
0.0
  0
LINE
  5
59F
  8
0
 10
56.40737981
 20
172.48376666
 30
0.0
 11
-0.74984501
 21
165.12132853
 31
0.0
  0
LINE
  5
5A0
  8
0
 10
57.56011312
 20
172.34575802
 30
0.0
 11
56.40737981
 21
172.48376666
 31
0.0
  0
LINE
  5
5A1
  8
0
 10
56.05806034
 20
172.18285623
 30
0.0
 11
57.60073939
 21
171.99816213
 31
0.0
  0
LINE
  5
5A2
  8
0
 10
57.69781679
 20
129.01499246
 30
0.0
 11
57.69781679
 21
129.35052961
 31
0.0
  0
LINE
  5
5A3
  8
0
 10
57.69781679
 20
143.33884155
 30
0.0
 11
57.69781679
 21
143.71358626
 31
0.0
  0
LINE
  5
5A4
  8
0
 10
57.69781679
 20
157.66269064
 30
0.0
 11
57.69781679
 21
157.9982278
 31
0.0
  0
LINE
  5
5A5
  8
0
 10
56.05806034
 20
115.36097553
 30
0.0
 11
57.65912993
 21
115.16929074
 31
0.0
  0
LINE
  5
5A6
  8
0
 10
-1.09916448
 20
136.40947774
 30
0.0
 11
56.05806034
 21
115.36097553
 31
0.0
  0
LINE
  5
5A7
  8
0
 10
-1.09916448
 20
136.40947774
 30
0.0
 11
-1.09916448
 21
164.82041809
 31
0.0
  0
TEXT
  5
5A8
  8
TXT_DIM49
 10
113.72281997
 20
293.62311061
 30
0.0
 40
2.5
  1
50
 50
90.00020741
  7
ARIAL
  0
LINE
  5
5A9
  8
0
 62
     4
 10
114.22281997
 20
271.54294606
 30
0.0
 11
116.22281997
 21
269.54294606
 31
0.0
  0
LINE
  5
5AA
  8
0
 62
     4
 10
115.97281997
 20
319.79294606
 30
0.0
 11
114.47281997
 21
321.29294606
 31
0.0
  0
LINE
  5
5AB
  8
0
 62
     4
 10
115.22281997
 20
270.54294606
 30
0.0
 11
115.22281997
 21
320.54294606
 31
0.0
  0
LINE
  5
5AC
  8
0
 62
     4
 10
113.22281997
 20
270.54294606
 30
0.0
 11
117.22281997
 21
270.54294606
 31
0.0
  0
LINE
  5
5AD
  8
0
 62
     4
 10
113.22281997
 20
320.54294606
 30
0.0
 11
117.22281997
 21
320.54294606
 31
0.0
  0
TEXT
  5
5AE
  8
TXT_DIM49
 10
153.72281997
 20
293.62311061
 30
0.0
 40
2.5
  1
26
 50
90.00020741
  7
ARIAL
  0
LINE
  5
5AF
  8
0
 62
     4
 10
154.22281997
 20
283.54294606
 30
0.0
 11
156.22281997
 21
281.54294606
 31
0.0
  0
LINE
  5
5B0
  8
0
 62
     4
 10
155.97281997
 20
307.79294606
 30
0.0
 11
154.47281997
 21
309.29294606
 31
0.0
  0
LINE
  5
5B1
  8
0
 62
     4
 10
155.22281997
 20
282.54294606
 30
0.0
 11
155.22281997
 21
308.54294606
 31
0.0
  0
LINE
  5
5B2
  8
0
 62
     4
 10
153.22281997
 20
282.54294606
 30
0.0
 11
157.22281997
 21
282.54294606
 31
0.0
  0
LINE
  5
5B3
  8
0
 62
     4
 10
153.22281997
 20
308.54294606
 30
0.0
 11
157.22281997
 21
308.54294606
 31
0.0
  0
LINE
  5
5B4
  8
0
 62
     5
 10
201.40083552
 20
323.54294606
 30
0.0
 11
205.73987393
 21
316.43543225
 31
0.0
  0
TEXT
  5
5B5
  8
TXT_DIM49
 10
205.73987393
 20
315.18543225
 30
0.0
 40
2.5
  1
Ø5.5
  7
ARIAL
  0
TEXT
  5
5B6
  8
TXT_DIM49
 10
6.98100007
 20
358.99221987
 30
0.0
 40
2.5
  1
20
  7
ARIAL
  0
LINE
  5
5B7
  8
0
 62
     4
 10
-0.09916448
 20
358.49221987
 30
0.0
 11
-2.09916448
 21
356.49221987
 31
0.0
  0
LINE
  5
5B8
  8
0
 62
     4
 10
18.15083552
 20
356.74221987
 30
0.0
 11
19.65083552
 21
358.24221987
 31
0.0
  0
LINE
  5
5B9
  8
0
 62
     4
 10
-1.09916448
 20
357.49221987
 30
0.0
 11
18.90083552
 21
357.49221987
 31
0.0
  0
LINE
  5
5BA
  8
0
 62
     4
 10
-1.09916448
 20
355.49221987
 30
0.0
 11
-1.09916448
 21
359.49221987
 31
0.0
  0
LINE
  5
5BB
  8
0
 62
     4
 10
18.90083552
 20
355.49221987
 30
0.0
 11
18.90083552
 21
359.49221987
 31
0.0
  0
TEXT
  5
5BC
  8
TXT_DIM49
 10
34.29154468
 20
358.99221987
 30
0.0
 40
2.5
  1
37,5
  7
ARIAL
  0
LINE
  5
5BD
  8
0
 62
     4
 10
19.90083552
 20
358.49221987
 30
0.0
 11
17.90083552
 21
356.49221987
 31
0.0
  0
LINE
  5
5BE
  8
0
 62
     4
 10
55.65083552
 20
356.74221987
 30
0.0
 11
57.15083552
 21
358.24221987
 31
0.0
  0
LINE
  5
5BF
  8
0
 62
     4
 10
18.90083552
 20
357.49221987
 30
0.0
 11
56.40083552
 21
357.49221987
 31
0.0
  0
LINE
  5
5C0
  8
0
 62
     4
 10
18.90083552
 20
355.49221987
 30
0.0
 11
18.90083552
 21
359.49221987
 31
0.0
  0
LINE
  5
5C1
  8
0
 62
     4
 10
56.40083552
 20
355.49221987
 30
0.0
 11
56.40083552
 21
359.49221987
 31
0.0
  0
TEXT
  5
5C2
  8
TXT_DIM49
 10
71.79154468
 20
358.99221987
 30
0.0
 40
2.5
  1
37,5
  7
ARIAL
  0
LINE
  5
5C3
  8
0
 62
     4
 10
57.40083552
 20
358.49221987
 30
0.0
 11
55.40083552
 21
356.49221987
 31
0.0
  0
LINE
  5
5C4
  8
0
 62
     4
 10
93.15083552
 20
356.74221987
 30
0.0
 11
94.65083552
 21
358.24221987
 31
0.0
  0
LINE
  5
5C5
  8
0
 62
     4
 10
56.40083552
 20
357.49221987
 30
0.0
 11
93.90083552
 21
357.49221987
 31
0.0
  0
LINE
  5
5C6
  8
0
 62
     4
 10
56.40083552
 20
355.49221987
 30
0.0
 11
56.40083552
 21
359.49221987
 31
0.0
  0
LINE
  5
5C7
  8
0
 62
     4
 10
93.90083552
 20
355.49221987
 30
0.0
 11
93.90083552
 21
359.49221987
 31
0.0
  0
TEXT
  5
5C8
  8
TXT_DIM49
 10
-7.2582587
 20
248.62311061
 30
0.0
 40
2.5
  1
30
 50
90.00020741
  7
ARIAL
  0
LINE
  5
5C9
  8
0
 62
     4
 10
-6.7582587
 20
236.54294606
 30
0.0
 11
-4.7582587
 21
234.54294606
 31
0.0
  0
LINE
  5
5CA
  8
0
 62
     4
 10
-5.0082587
 20
264.79294606
 30
0.0
 11
-6.5082587
 21
266.29294606
 31
0.0
  0
LINE
  5
5CB
  8
0
 62
     4
 10
-5.7582587
 20
235.54294606
 30
0.0
 11
-5.7582587
 21
265.54294606
 31
0.0
  0
LINE
  5
5CC
  8
0
 62
     4
 10
-3.7582587
 20
235.54294606
 30
0.0
 11
-7.7582587
 21
235.54294606
 31
0.0
  0
LINE
  5
5CD
  8
0
 62
     4
 10
-3.7582587
 20
265.54294606
 30
0.0
 11
-7.7582587
 21
265.54294606
 31
0.0
  0
TEXT
  5
5CE
  8
TXT_DIM49
 10
-7.2582587
 20
293.62311061
 30
0.0
 40
2.5
  1
60
 50
90.00020741
  7
ARIAL
  0
LINE
  5
5CF
  8
0
 62
     4
 10
-6.7582587
 20
266.54294606
 30
0.0
 11
-4.7582587
 21
264.54294606
 31
0.0
  0
LINE
  5
5D0
  8
0
 62
     4
 10
-5.0082587
 20
324.79294606
 30
0.0
 11
-6.5082587
 21
326.29294606
 31
0.0
  0
LINE
  5
5D1
  8
0
 62
     4
 10
-5.7582587
 20
265.54294606
 30
0.0
 11
-5.7582587
 21
325.54294606
 31
0.0
  0
LINE
  5
5D2
  8
0
 62
     4
 10
-3.7582587
 20
265.54294606
 30
0.0
 11
-7.7582587
 21
265.54294606
 31
0.0
  0
LINE
  5
5D3
  8
0
 62
     4
 10
-3.7582587
 20
325.54294606
 30
0.0
 11
-7.7582587
 21
325.54294606
 31
0.0
  0
TEXT
  5
5D4
  8
TXT_DIM49
 10
-7.2582587
 20
338.62311061
 30
0.0
 40
2.5
  1
30
 50
90.00020741
  7
ARIAL
  0
LINE
  5
5D5
  8
0
 62
     4
 10
-6.7582587
 20
326.54294606
 30
0.0
 11
-4.7582587
 21
324.54294606
 31
0.0
  0
LINE
  5
5D6
  8
0
 62
     4
 10
-5.0082587
 20
354.79294606
 30
0.0
 11
-6.5082587
 21
356.29294606
 31
0.0
  0
LINE
  5
5D7
  8
0
 62
     4
 10
-5.7582587
 20
325.54294606
 30
0.0
 11
-5.7582587
 21
355.54294606
 31
0.0
  0
LINE
  5
5D8
  8
0
 62
     4
 10
-3.7582587
 20
325.54294606
 30
0.0
 11
-7.7582587
 21
325.54294606
 31
0.0
  0
LINE
  5
5D9
  8
0
 62
     4
 10
-3.7582587
 20
355.54294606
 30
0.0
 11
-7.7582587
 21
355.54294606
 31
0.0
  0
TEXT
  5
5DA
  8
TXT_DIM49
 10
57.0210824
 20
228.99221987
 30
0.0
 40
2.5
  1
122
  7
ARIAL
  0
LINE
  5
5DB
  8
0
 62
     4
 10
-0.09916448
 20
228.49221987
 30
0.0
 11
-2.09916448
 21
226.49221987
 31
0.0
  0
LINE
  5
5DC
  8
0
 62
     4
 10
120.15083552
 20
226.74221987
 30
0.0
 11
121.65083552
 21
228.24221987
 31
0.0
  0
LINE
  5
5DD
  8
0
 62
     4
 10
-1.09916448
 20
227.49221987
 30
0.0
 11
120.90083552
 21
227.49221987
 31
0.0
  0
LINE
  5
5DE
  8
0
 62
     4
 10
-1.09916448
 20
229.49221987
 30
0.0
 11
-1.09916448
 21
225.49221987
 31
0.0
  0
LINE
  5
5DF
  8
0
 62
     4
 10
120.90083552
 20
227.99221987
 30
0.0
 11
120.90083552
 21
225.49221987
 31
0.0
  0
TEXT
  5
5E0
  8
TXT_DIM49
 10
120.81841875
 20
228.99221987
 30
0.0
 40
2.5
  1
2
  7
ARIAL
  0
LINE
  5
5E1
  8
0
 62
     4
 10
121.90083552
 20
228.49221987
 30
0.0
 11
119.90083552
 21
226.49221987
 31
0.0
  0
LINE
  5
5E2
  8
0
 62
     4
 10
121.90583744
 20
226.74221987
 30
0.0
 11
123.40583744
 21
228.24221987
 31
0.0
  0
LINE
  5
5E3
  8
0
 62
     4
 10
120.90083552
 20
227.49221987
 30
0.0
 11
122.65583744
 21
227.49221987
 31
0.0
  0
LINE
  5
5E4
  8
0
 62
     4
 10
120.90083552
 20
227.99221987
 30
0.0
 11
120.90083552
 21
225.49221987
 31
0.0
  0
LINE
  5
5E5
  8
0
 62
     4
 10
122.65583744
 20
227.99221987
 30
0.0
 11
122.65583744
 21
225.49221987
 31
0.0
  0
TEXT
  5
5E6
  8
TXT_DIM49
 10
60.97516852
 20
293.62311061
 30
0.0
 40
2.5
  1
56
 50
90.00020741
  7
ARIAL
  0
LINE
  5
5E7
  8
0
 62
     4
 10
63.47516852
 20
322.54294606
 30
0.0
 11
61.47516852
 21
324.54294606
 31
0.0
  0
LINE
  5
5E8
  8
0
 62
     4
 10
61.72516852
 20
268.29294606
 30
0.0
 11
63.22516852
 21
266.79294606
 31
0.0
  0
LINE
  5
5E9
  8
0
 62
     4
 10
62.47516852
 20
323.54294606
 30
0.0
 11
62.47516852
 21
267.54294606
 31
0.0
  0
LINE
  5
5EA
  8
0
 62
     4
 10
60.47516852
 20
323.54294606
 30
0.0
 11
64.47516852
 21
323.54294606
 31
0.0
  0
LINE
  5
5EB
  8
0
 62
     4
 10
60.47516852
 20
267.54294606
 30
0.0
 11
64.47516852
 21
267.54294606
 31
0.0
  0
TEXT
  5
5EC
  8
TXT_DIM49
 10
85.13580582
 20
274.62311061
 30
0.0
 40
2.5
  1
38
 50
90.00020741
  7
ARIAL
  0
LINE
  5
5ED
  8
0
 62
     4
 10
85.63580582
 20
258.54294606
 30
0.0
 11
87.63580582
 21
256.54294606
 31
0.0
  0
LINE
  5
5EE
  8
0
 62
     4
 10
87.38580582
 20
294.79294606
 30
0.0
 11
85.88580582
 21
296.29294606
 31
0.0
  0
LINE
  5
5EF
  8
0
 62
     4
 10
86.63580582
 20
257.54294606
 30
0.0
 11
86.63580582
 21
295.54294606
 31
0.0
  0
LINE
  5
5F0
  8
0
 62
     4
 10
88.63580582
 20
257.54294606
 30
0.0
 11
84.63580582
 21
257.54294606
 31
0.0
  0
LINE
  5
5F1
  8
0
 62
     4
 10
88.63580582
 20
295.54294606
 30
0.0
 11
84.63580582
 21
295.54294606
 31
0.0
  0
TEXT
  5
5F2
  8
TXT_DIM49
 10
85.13580582
 20
312.62311061
 30
0.0
 40
2.5
  1
38
 50
90.00020741
  7
ARIAL
  0
LINE
  5
5F3
  8
0
 62
     4
 10
85.63580582
 20
296.54294606
 30
0.0
 11
87.63580582
 21
294.54294606
 31
0.0
  0
LINE
  5
5F4
  8
0
 62
     4
 10
87.38580582
 20
332.79294606
 30
0.0
 11
85.88580582
 21
334.29294606
 31
0.0
  0
LINE
  5
5F5
  8
0
 62
     4
 10
86.63580582
 20
295.54294606
 30
0.0
 11
86.63580582
 21
333.54294606
 31
0.0
  0
LINE
  5
5F6
  8
0
 62
     4
 10
88.63580582
 20
295.54294606
 30
0.0
 11
84.63580582
 21
295.54294606
 31
0.0
  0
LINE
  5
5F7
  8
0
 62
     4
 10
88.63580582
 20
333.54294606
 30
0.0
 11
84.63580582
 21
333.54294606
 31
0.0
  0
TEXT
  5
5F8
  8
TXT_DIM49
 10
161.98100007
 20
271.39897978
 30
0.0
 40
2.5
  1
34
  7
ARIAL
  0
LINE
  5
5F9
  8
0
 62
     4
 10
179.90083552
 20
268.89897978
 30
0.0
 11
181.90083552
 21
270.89897978
 31
0.0
  0
LINE
  5
5FA
  8
0
 62
     4
 10
147.65083552
 20
270.64897978
 30
0.0
 11
146.15083552
 21
269.14897978
 31
0.0
  0
LINE
  5
5FB
  8
0
 62
     4
 10
180.90083552
 20
269.89897978
 30
0.0
 11
146.90083552
 21
269.89897978
 31
0.0
  0
LINE
  5
5FC
  8
0
 62
     4
 10
180.90083552
 20
271.89897978
 30
0.0
 11
180.90083552
 21
267.89897978
 31
0.0
  0
LINE
  5
5FD
  8
0
 62
     4
 10
146.90083552
 20
271.89897978
 30
0.0
 11
146.90083552
 21
267.89897978
 31
0.0
  0
TEXT
  5
5FE
  8
TXT_DIM49
 10
7.23978953
 20
293.62311061
 30
0.0
 40
2.5
  1
36
 50
90.00020741
  7
ARIAL
  0
LINE
  5
5FF
  8
0
 62
     4
 10
7.73978953
 20
278.54294606
 30
0.0
 11
9.73978953
 21
276.54294606
 31
0.0
  0
LINE
  5
600
  8
0
 62
     4
 10
9.48978953
 20
312.79294606
 30
0.0
 11
7.98978953
 21
314.29294606
 31
0.0
  0
LINE
  5
601
  8
0
 62
     4
 10
8.73978953
 20
277.54294606
 30
0.0
 11
8.73978953
 21
313.54294606
 31
0.0
  0
LINE
  5
602
  8
0
 62
     4
 10
10.73978953
 20
277.54294606
 30
0.0
 11
6.73978953
 21
277.54294606
 31
0.0
  0
LINE
  5
603
  8
0
 62
     4
 10
10.73978953
 20
313.54294606
 30
0.0
 11
6.73978953
 21
313.54294606
 31
0.0
  0
LINE
  5
604
  8
0
 62
     5
 10
56.40083552
 20
267.54294606
 30
0.0
 11
52.32219348
 21
273.70807241
 31
0.0
  0
TEXT
  5
605
  8
TXT_DIM49
 10
44.8383747
 20
272.45807241
 30
0.0
 40
2.5
  1
Ø5.5
  7
ARIAL
  0
LINE
  5
606
  8
0
 62
     5
 10
56.40083552
 20
323.54294606
 30
0.0
 11
51.85750241
 21
316.12513365
 31
0.0
  0
TEXT
  5
607
  8
TXT_DIM49
 10
44.37368364
 20
314.87513365
 30
0.0
 40
2.5
  1
Ø5.5
  7
ARIAL
  0
TEXT
  5
608
  8
TXT_DIM49
 10
143.40083552
 20
304.78057405
 30
0.0
 40
2.5
  1
Ø
 50
90.00020741
  7
ARIAL
  0
TEXT
  5
609
  8
TXT_DIM49
 10
143.40083552
 20
308.46564694
 30
0.0
 40
2.5
  1
12
 50
90.00020741
  7
ARIAL
  0
LINE
  5
60A
  8
0
 62
     4
 10
143.90083552
 20
303.54294606
 30
0.0
 11
145.90083552
 21
301.54294606
 31
0.0
  0
LINE
  5
60B
  8
0
 62
     4
 10
145.65083552
 20
313.79294606
 30
0.0
 11
144.15083552
 21
315.29294606
 31
0.0
  0
LINE
  5
60C
  8
0
 62
     4
 10
144.90083552
 20
302.54294606
 30
0.0
 11
144.90083552
 21
314.54294606
 31
0.0
  0
LINE
  5
60D
  8
0
 62
     4
 10
146.90083552
 20
302.54294606
 30
0.0
 11
142.90083552
 21
302.54294606
 31
0.0
  0
LINE
  5
60E
  8
0
 62
     4
 10
146.90083552
 20
314.54294606
 30
0.0
 11
142.90083552
 21
314.54294606
 31
0.0
  0
TEXT
  5
60F
  8
TXT_DIM49
 10
320.71981099
 20
292.66319295
 30
0.0
 40
2.5
  1
120
 50
90.00020741
  7
ARIAL
  0
LINE
  5
610
  8
0
 62
     4
 10
321.21981099
 20
236.54294606
 30
0.0
 11
323.21981099
 21
234.54294606
 31
0.0
  0
LINE
  5
611
  8
0
 62
     4
 10
322.96981099
 20
354.79294606
 30
0.0
 11
321.46981099
 21
356.29294606
 31
0.0
  0
LINE
  5
612
  8
0
 62
     4
 10
322.21981099
 20
235.54294606
 30
0.0
 11
322.21981099
 21
355.54294606
 31
0.0
  0
LINE
  5
613
  8
0
 62
     4
 10
320.21981099
 20
235.54294606
 30
0.0
 11
324.21981099
 21
235.54294606
 31
0.0
  0
LINE
  5
614
  8
0
 62
     4
 10
320.21981099
 20
355.54294606
 30
0.0
 11
324.21981099
 21
355.54294606
 31
0.0
  0
LINE
  5
615
  8
0
 62
     5
 10
201.40083552
 20
267.54294606
 30
0.0
 11
204.65609932
 21
276.65061129
 31
0.0
  0
TEXT
  5
616
  8
TXT_DIM49
 10
204.65609932
 20
275.40061129
 30
0.0
 40
2.5
  1
Ø5.5
  7
ARIAL
  0
TEXT
  5
617
  8
TXT_DIM49
 10
193.6210824
 20
211.03486611
 30
0.0
 40
2.5
  1
125
  7
ARIAL
  0
LINE
  5
618
  8
0
 62
     4
 10
257.90083552
 20
208.53486611
 30
0.0
 11
259.90083552
 21
210.53486611
 31
0.0
  0
LINE
  5
619
  8
0
 62
     4
 10
134.85083552
 20
210.28486611
 30
0.0
 11
133.35083552
 21
208.78486611
 31
0.0
  0
LINE
  5
61A
  8
0
 62
     4
 10
258.90083552
 20
209.53486611
 30
0.0
 11
134.10083552
 21
209.53486611
 31
0.0
  0
LINE
  5
61B
  8
0
 62
     4
 10
258.90083552
 20
207.53486611
 30
0.0
 11
258.90083552
 21
211.53486611
 31
0.0
  0
LINE
  5
61C
  8
0
 62
     4
 10
134.10083552
 20
207.53486611
 30
0.0
 11
134.10083552
 21
211.53486611
 31
0.0
  0
TEXT
  5
61D
  8
TXT_DIM49
 10
126.98100007
 20
211.03486611
 30
0.0
 40
2.5
  1
10
  7
ARIAL
  0
LINE
  5
61E
  8
0
 62
     4
 10
133.10083552
 20
208.53486611
 30
0.0
 11
135.10083552
 21
210.53486611
 31
0.0
  0
LINE
  5
61F
  8
0
 62
     4
 10
124.45083552
 20
210.28486611
 30
0.0
 11
122.95083552
 21
208.78486611
 31
0.0
  0
LINE
  5
620
  8
0
 62
     4
 10
134.10083552
 20
209.53486611
 30
0.0
 11
123.70083552
 21
209.53486611
 31
0.0
  0
LINE
  5
621
  8
0
 62
     4
 10
134.10083552
 20
207.53486611
 30
0.0
 11
134.10083552
 21
211.53486611
 31
0.0
  0
LINE
  5
622
  8
0
 62
     4
 10
123.70083552
 20
207.53486611
 30
0.0
 11
123.70083552
 21
211.53486611
 31
0.0
  0
TEXT
  5
623
  8
TXT_DIM49
 10
58.4210824
 20
211.03486611
 30
0.0
 40
2.5
  1
125
  7
ARIAL
  0
LINE
  5
624
  8
0
 62
     4
 10
122.70083552
 20
208.53486611
 30
0.0
 11
124.70083552
 21
210.53486611
 31
0.0
  0
LINE
  5
625
  8
0
 62
     4
 10
-0.34916448
 20
210.28486611
 30
0.0
 11
-1.84916448
 21
208.78486611
 31
0.0
  0
LINE
  5
626
  8
0
 62
     4
 10
123.70083552
 20
209.53486611
 30
0.0
 11
-1.09916448
 21
209.53486611
 31
0.0
  0
LINE
  5
627
  8
0
 62
     4
 10
123.70083552
 20
207.53486611
 30
0.0
 11
123.70083552
 21
211.53486611
 31
0.0
  0
LINE
  5
628
  8
0
 62
     4
 10
-1.09916448
 20
207.53486611
 30
0.0
 11
-1.09916448
 21
211.53486611
 31
0.0
  0
TEXT
  5
629
  8
TXT_DIM49
 10
126.0210824
 20
187.63533012
 30
0.0
 40
2.5
  1
260
  7
ARIAL
  0
LINE
  5
62A
  8
0
 62
     4
 10
-0.09916448
 20
187.13533012
 30
0.0
 11
-2.09916448
 21
185.13533012
 31
0.0
  0
LINE
  5
62B
  8
0
 62
     4
 10
258.15083552
 20
185.38533012
 30
0.0
 11
259.65083552
 21
186.88533012
 31
0.0
  0
LINE
  5
62C
  8
0
 62
     4
 10
-1.09916448
 20
186.13533012
 30
0.0
 11
258.90083552
 21
186.13533012
 31
0.0
  0
LINE
  5
62D
  8
0
 62
     4
 10
-1.09916448
 20
188.13533012
 30
0.0
 11
-1.09916448
 21
184.13533012
 31
0.0
  0
LINE
  5
62E
  8
0
 62
     4
 10
258.90083552
 20
188.13533012
 30
0.0
 11
258.90083552
 21
184.13533012
 31
0.0
  0
TEXT
  5
62F
  8
TXT_DIM49
 10
264.37286049
 20
199.57494839
 30
0.0
 40
2.5
  1
2
 50
90.00020741
  7
ARIAL
  0
LINE
  5
630
  8
0
 62
     4
 10
266.87286049
 20
200.53486611
 30
0.0
 11
264.87286049
 21
202.53486611
 31
0.0
  0
LINE
  5
631
  8
0
 62
     4
 10
265.12286049
 20
200.28486611
 30
0.0
 11
266.62286049
 21
198.78486611
 31
0.0
  0
LINE
  5
632
  8
0
 62
     4
 10
265.87286049
 20
201.53486611
 30
0.0
 11
265.87286049
 21
199.53486611
 31
0.0
  0
LINE
  5
633
  8
0
 62
     4
 10
265.87286049
 20
200.53486611
 30
0.0
 11
265.37286043
 21
200.53486608
 31
0.0
  0
LINE
  5
634
  8
0
 62
     4
 10
263.87286049
 20
201.53486611
 30
0.0
 11
267.87286049
 21
201.53486611
 31
0.0
  0
LINE
  5
635
  8
0
 62
     4
 10
263.87286049
 20
199.53486611
 30
0.0
 11
267.87286049
 21
199.53486611
 31
0.0
  0
TEXT
  5
636
  8
TXT_DIM49
 10
264.37286049
 20
192.86565759
 30
0.0
 40
2.5
  1
1,5
 50
90.00020741
  7
ARIAL
  0
LINE
  5
637
  8
0
 62
     4
 10
266.87286049
 20
198.53486611
 30
0.0
 11
264.87286049
 21
200.53486611
 31
0.0
  0
LINE
  5
638
  8
0
 62
     4
 10
265.12286049
 20
198.78486611
 30
0.0
 11
266.62286049
 21
197.28486611
 31
0.0
  0
LINE
  5
639
  8
0
 62
     4
 10
265.87286049
 20
199.53486611
 30
0.0
 11
265.87286049
 21
191.86565759
 31
0.0
  0
LINE
  5
63A
  8
0
 62
     4
 10
265.87286049
 20
198.78486611
 30
0.0
 11
264.92286045
 21
198.5644037
 31
0.0
  0
LINE
  5
63B
  8
0
 62
     4
 10
263.87286049
 20
199.53486611
 30
0.0
 11
267.87286049
 21
199.53486611
 31
0.0
  0
LINE
  5
63C
  8
0
 62
     4
 10
263.87286049
 20
198.03486611
 30
0.0
 11
267.87286049
 21
198.03486611
 31
0.0
  0
TEXT
  5
63D
  8
TXT_DIM49
 10
304.79579053
 20
362.30716832
 30
0.0
 40
2.5
  1
10
  7
ARIAL
  0
LINE
  5
63E
  8
0
 62
     4
 10
310.71562598
 20
359.80716832
 30
0.0
 11
312.71562598
 21
361.80716832
 31
0.0
  0
LINE
  5
63F
  8
0
 62
     4
 10
302.46562598
 20
361.55716832
 30
0.0
 11
300.96562598
 21
360.05716832
 31
0.0
  0
LINE
  5
640
  8
0
 62
     4
 10
311.71562598
 20
360.80716832
 30
0.0
 11
301.71562598
 21
360.80716832
 31
0.0
  0
LINE
  5
641
  8
0
 62
     4
 10
311.71562598
 20
358.80716832
 30
0.0
 11
311.71562598
 21
362.80716832
 31
0.0
  0
LINE
  5
642
  8
0
 62
     4
 10
301.71562598
 20
358.80716832
 30
0.0
 11
301.71562598
 21
362.80716832
 31
0.0
  0
POINT
  5
643
  8
0
 10
175.21296289
 20
272.45430091
 30
0.0
  0
POINT
  5
644
  8
0
 62
     3
 10
313.8823302
 20
102.11698297
 30
0.0
  0
POINT
  5
645
  8
0
 62
     3
 10
379.7467439
 20
120.03597787
 30
0.0
  0
POINT
  5
646
  8
0
 62
     3
 10
313.8823302
 20
120.03597787
 30
0.0
  0
POINT
  5
647
  8
0
 62
     3
 10
379.7467439
 20
102.11698297
 30
0.0
  0
POINT
  5
648
  8
0
 62
     3
 10
362.05538896
 20
96.43430091
 30
0.0
  0
POINT
  5
649
  8
0
 62
     3
 10
379.74742093
 20
101.24757431
 30
0.0
  0
POINT
  5
64A
  8
0
 62
     3
 10
362.05538896
 20
101.24757431
 30
0.0
  0
POINT
  5
64B
  8
0
 62
     3
 10
379.74742093
 20
96.43430091
 30
0.0
  0
ENDSEC
  0
EOF
