  0
SECTION
  2
HEADER
  9
$ACADVER
  1
AC1006
  9
$DWGCODEPAGE
  3
ansi_1252
  9
$INSBASE
 10
0.0
 20
0.0
 30
0.0
  9
$EXTMIN
 10
-267.82760498
 20
-93.68489849
  9
$EXTMAX
 10
640.18574488
 20
324.66806475
  9
$LIMMIN
 10
-267.82760498
 20
-93.68489849
  9
$LIMMAX
 10
640.18574488
 20
324.66806475
  9
$ORTHOMODE
 70
     0
  9
$REGENMODE
 70
     1
  9
$FILLMODE
 70
     1
  9
$QTEXTMODE
 70
     0
  9
$MIRRTEXT
 70
     1
  9
$DRAGMODE
 70
     2
  9
$LTSCALE
 40
1.0
  9
$OSMODE
 70
    37
  9
$ATTMODE
 70
     1
  9
$TEXTSIZE
 40
1.0
  9
$TRACEWID
 40
0.05
  9
$TEXTSTYLE
  7
STANDARD
  9
$CLAYER
  8
0
  9
$CELTYPE
  6
BYBLOCK
  9
$CECOLOR
 62
   256
  9
$DIMSCALE
 40
1.0
  9
$DIMASZ
 40
0.18
  9
$DIMEXO
 40
0.0625
  9
$DIMDLI
 40
0.38
  9
$DIMRND
 40
0.0
  9
$DIMDLE
 40
0.0
  9
$DIMEXE
 40
0.18
  9
$DIMTP
 40
0.0
  9
$DIMTM
 40
0.0
  9
$DIMTXT
 40
0.18
  9
$DIMCEN
 40
0.09
  9
$DIMTSZ
 40
0.0
  9
$DIMTOL
 70
     0
  9
$DIMLIM
 70
     0
  9
$DIMTIH
 70
     1
  9
$DIMTOH
 70
     1
  9
$DIMSE1
 70
     0
  9
$DIMSE2
 70
     0
  9
$DIMTAD
 70
     0
  9
$DIMZIN
 70
     0
  9
$DIMBLK
  1

  9
$DIMASO
 70
     1
  9
$DIMSHO
 70
     1
  9
$DIMPOST
  1

  9
$DIMAPOST
  1

  9
$DIMALT
 70
     0
  9
$DIMALTD
 70
     2
  9
$DIMALTF
 40
25.4
  9
$DIMLFAC
 40
1.0
  9
$DIMTOFL
 70
     0
  9
$DIMTVP
 40
0.0
  9
$DIMTIX
 70
     0
  9
$DIMSOXD
 70
     0
  9
$DIMSAH
 70
     0
  9
$DIMBLK1
  1

  9
$DIMBLK2
  1

  9
$LUNITS
 70
     2
  9
$LUPREC
 70
     4
  9
$SKETCHINC
 40
0.1
  9
$FILLETRAD
 40
0.5
  9
$AUNITS
 70
     0
  9
$AUPREC
 70
     0
  9
$MENU
  1
.
  9
$ELEVATION
 40
0.0
  9
$THICKNESS
 40
0.0
  9
$LIMCHECK
 70
     0
  9
$CHAMFERA
 40
0.0
  9
$CHAMFERB
 40
0.0
  9
$SKPOLY
 70
     0
  9
$TDCREATE
 40
2447893.125
  9
$TDUPDATE
 40
2460791.478838519
  9
$TDINDWG
 40
0.0
  9
$TDUSRTIMER
 40
0.0
  9
$USRTIMER
 70
     1
  9
$ANGBASE
 50
0.0
  9
$ANGDIR
 70
     0
  9
$PDMODE
 70
     0
  9
$PDSIZE
 40
0.0
  9
$PLINEWID
 40
0.0
  9
$COORDS
 70
     1
  9
$SPLFRAME
 70
     0
  9
$SPLINETYPE
 70
     6
  9
$SPLINESEGS
 70
     8
  9
$ATTDIA
 70
     0
  9
$ATTREQ
 70
     1
  9
$HANDLING
 70
     1
  9
$HANDSEED
  5
6CA
  9
$SURFTAB1
 70
     6
  9
$SURFTAB2
 70
     6
  9
$SURFTYPE
 70
     6
  9
$SURFU
 70
     6
  9
$SURFV
 70
     6
  9
$UCSNAME
  2

  9
$UCSORG
 10
0.0
 20
0.0
 30
0.0
  9
$UCSXDIR
 10
1.0
 20
0.0
 30
0.0
  9
$UCSYDIR
 10
0.0
 20
1.0
 30
0.0
  9
$USERI1
 70
     0
  9
$USERI2
 70
     0
  9
$USERI3
 70
     0
  9
$USERI4
 70
     0
  9
$USERI5
 70
     0
  9
$USERR1
 40
0.0
  9
$USERR2
 40
0.0
  9
$USERR3
 40
0.0
  9
$USERR4
 40
0.0
  9
$USERR5
 40
0.0
  9
$WORLDVIEW
 70
     1
  0
ENDSEC
  0
SECTION
  2
TABLES
  0
TABLE
  2
VPORT
 70
     1
  0
VPORT
  2
*ACTIVE
 70
     0
 10
0.0
 20
0.0
 11
1.0
 21
1.0
 12
186.17906995
 22
115.49158313
 13
0.0
 23
0.0
 14
1.0
 24
1.0
 15
0.0
 25
0.0
 16
0.0
 26
0.0
 36
1.0
 17
0.0
 27
0.0
 37
0.0
 40
418.35296324
 41
2.170447994
 42
50.0
 43
0.0
 44
0.0
 50
0.0
 51
0.0
 71
     0
 72
   100
 73
     1
 74
     1
 75
     0
 76
     0
 77
     0
 78
     0
  0
ENDTAB
  0
TABLE
  2
LTYPE
 70
    19
  0
LTYPE
  2
CONTINUOUS
 70
     0
  3
Solid line
 72
    65
 73
     0
 40
0.0
  0
LTYPE
  2
DOT
 70
     0
  3
..............
 72
    65
 73
     2
 40
2.0
 49
0.5
 49
-1.5
  0
LTYPE
  2
HIDDEN
 70
     0
  3
-- -- -- -- --
 72
    65
 73
     2
 40
7.0
 49
4.0
 49
-3.0
  0
LTYPE
  2
DASHDOT
 70
     0
  3
--.--.--.--.--
 72
    65
 73
     4
 40
8.5
 49
4.0
 49
-2.0
 49
0.5
 49
-2.0
  0
LTYPE
  2
STRICHPUNKT2
 70
     0
  3
--.--.--.--.--
 72
    65
 73
     4
 40
18.5
 49
10.0
 49
-4.0
 49
0.5
 49
-4.0
  0
LTYPE
  2
STRICHPUNKT3
 70
     0
  3
--.--.--.--.--
 72
    65
 73
     4
 40
35.5
 49
25.0
 49
-5.0
 49
0.5
 49
-5.0
  0
LTYPE
  2
PHANTOM
 70
     0
  3
--..--..--..--
 72
    65
 73
     6
 40
23.0
 49
10.0
 49
-4.0
 49
0.5
 49
-4.0
 49
0.5
 49
-4.0
  0
LTYPE
  2
PHANTOM2
 70
     0
  3
--..--..--..--
 72
    65
 73
     6
 40
33.0
 49
20.0
 49
-4.0
 49
0.5
 49
-4.0
 49
0.5
 49
-4.0
  0
LTYPE
  2
PHANTOM3
 70
     0
  3
--..--..--..--
 72
    65
 73
     6
 40
50.0
 49
37.0
 49
-4.0
 49
0.5
 49
-4.0
 49
0.5
 49
-4.0
  0
LTYPE
  2
STR3PKT
 70
     0
  3
--...--...--...
 72
    65
 73
     8
 40
31.5
 49
20.0
 49
-2.5
 49
0.5
 49
-2.5
 49
0.5
 49
-2.5
 49
0.5
 49
-2.5
  0
LTYPE
  2
2STRPKT
 70
     0
  3
--.--.--.--.--
 72
    65
 73
     6
 40
28.0
 49
10.0
 49
-2.5
 49
10.0
 49
-2.5
 49
0.5
 49
-2.5
  0
LTYPE
  2
GESTRICHELT2
 70
     0
  3
-- -- -- -- --
 72
    65
 73
     2
 40
25.0
 49
10.0
 49
-15.0
  0
LTYPE
  2
2STR2PKT
 70
     0
  3
--..--..--..--
 72
    65
 73
     8
 40
31.0
 49
10.0
 49
-2.5
 49
10.0
 49
-2.5
 49
0.5
 49
-2.5
 49
0.5
 49
-2.5
  0
LTYPE
  2
STR3PKT2
 70
     0
  3
--...--...--...
 72
    65
 73
     8
 40
21.0
 49
10.0
 49
-2.5
 49
0.5
 49
-2.5
 49
0.5
 49
-2.5
 49
0.5
 49
-2.0
  0
LTYPE
  2
2STR3PKT
 70
     0
  3
--...--...--...
 72
    65
 73
    10
 40
34.0
 49
10.0
 49
-2.5
 49
10.0
 49
-2.5
 49
0.5
 49
-2.5
 49
0.5
 49
-2.5
 49
0.5
 49
-2.5
  0
LTYPE
  2
STRKSTR
 70
     0
  3
-- - -- - -- -
 72
    65
 73
     4
 40
30.0
 49
20.0
 49
-2.5
 49
5.0
 49
-2.5
  0
LTYPE
  2
STRKSTR2
 70
     0
  3
-- - -- - -- -
 72
    65
 73
     6
 40
37.5
 49
20.0
 49
-2.5
 49
5.0
 49
-2.5
 49
5.0
 49
-2.5
  0
LTYPE
  2
STRKSTR3
 70
     0
  3
-- - -- - -- -
 72
    65
 73
     8
 40
45.0
 49
20.0
 49
-2.5
 49
5.0
 49
-2.5
 49
5.0
 49
-2.5
 49
5.0
 49
-2.5
  0
LTYPE
  2
PUNKT2
 70
     0
  3
..............
 72
    65
 73
     2
 40
3.5
 49
0.5
 49
-3.0
  0
ENDTAB
  0
TABLE
  2
LAYER
 70
    16
  0
LAYER
  2
0
 70
     0
 62
     7
  6
CONTINUOUS
  0
LAYER
  2
LE_GREEN
 70
     0
 62
     3
  6
CONTINUOUS
  0
LAYER
  2
LE_RED
 70
     0
 62
     1
  6
CONTINUOUS
  0
LAYER
  2
LE_ALL
 70
     0
 62
     7
  6
CONTINUOUS
  0
LAYER
  2
LE_HIDDEN1
 70
     0
 62
     3
  6
HIDDEN
  0
LAYER
  2
LE_HIDDEN
 70
     0
 62
     7
  6
CONTINUOUS
  0
LAYER
  2
LE_MIDDLE
 70
     0
 62
     7
  6
CONTINUOUS
  0
LAYER
  2
TXT_YELLOW
 70
     0
 62
     2
  6
CONTINUOUS
  0
LAYER
  2
TXT_DIM49
 70
     0
 62
     2
  6
CONTINUOUS
  0
LAYER
  2
TXT_ALL
 70
     0
 62
     7
  6
CONTINUOUS
  0
LAYER
  2
DIM49
 70
     0
 62
     4
  6
CONTINUOUS
  0
LAYER
  2
HATCH
 70
     0
 62
     3
  6
CONTINUOUS
  0
LAYER
  2
APPLE
 70
     0
 62
     7
  6
CONTINUOUS
  0
LAYER
  2
10
 70
     0
 62
     7
  6
CONTINUOUS
  0
LAYER
  2
20
 70
     0
 62
     7
  6
CONTINUOUS
  0
LAYER
  2
49
 70
     0
 62
     7
  6
CONTINUOUS
  0
ENDTAB
  0
TABLE
  2
STYLE
 70
     5
  0
STYLE
  2
MONOTXT
 70
     0
 40
0.0
 41
1.0
 50
0.0
 71
     0
 42
1.0
  3
monotxt.shx
  4

  0
STYLE
  2
STANDARD
 70
     0
 40
0.0
 41
1.0
 50
0.0
 71
     0
 42
1.0
  3
txt
  4

  0
STYLE
  2
ARIAL
 70
     0
 40
0.0
 41
1.0
 50
0.0
 71
     0
 42
1.0
  3
arial.ttf
  4

  0
STYLE
  2
ARIAL_NARROW
 70
     0
 40
0.0
 41
1.0
 50
0.0
 71
     0
 42
1.0
  3
ArialN.ttf
  4

  0
STYLE
  2
ISOCPEUR
 70
     0
 40
0.0
 41
1.0
 50
0.0
 71
     0
 42
1.0
  3
ISOCPEUR.ttf
  4

  0
ENDTAB
  0
TABLE
  2
VIEW
 70
     0
  0
ENDTAB
  0
TABLE
  2
UCS
 70
     0
  0
ENDTAB
  0
ENDSEC
  0
SECTION
  2
BLOCKS
  0
ENDSEC
  0
SECTION
  2
ENTITIES
  0
POLYLINE
  5
16D
  8
0
 66
     1
 10
0.0
 20
0.0
 30
0.0
 70
     1
  0
VERTEX
  5
16E
  8
0
 10
-36.35244094
 20
-33.32642354
 30
0.0
  0
VERTEX
  5
16F
  8
0
 10
383.64755906
 20
-33.32642354
 30
0.0
  0
VERTEX
  5
170
  8
0
 10
383.64755906
 20
263.67357646
 30
0.0
  0
VERTEX
  5
171
  8
0
 10
-36.35244094
 20
263.67357646
 30
0.0
  0
SEQEND
  5
172
  8
0
  0
POLYLINE
  5
173
  8
0
 66
     1
 10
0.0
 20
0.0
 30
0.0
 70
     1
  0
VERTEX
  5
174
  8
0
 10
-31.35244094
 20
-28.32642354
 30
0.0
  0
VERTEX
  5
175
  8
0
 10
378.64755906
 20
-28.32642354
 30
0.0
  0
VERTEX
  5
176
  8
0
 10
378.64755906
 20
258.67357646
 30
0.0
  0
VERTEX
  5
177
  8
0
 10
-31.35244094
 20
258.67357646
 30
0.0
  0
SEQEND
  5
178
  8
0
  0
LINE
  5
179
  8
0
 10
193.64755906
 20
-28.32642354
 30
0.0
 11
193.64755906
 21
-33.32642354
 31
0.0
  0
LINE
  5
17A
  8
0
 10
193.64755906
 20
258.67357646
 30
0.0
 11
193.64755906
 21
263.67357646
 31
0.0
  0
LINE
  5
17B
  8
0
 10
-16.35244094
 20
-28.32642354
 30
0.0
 11
-16.35244094
 21
-33.32642354
 31
0.0
  0
LINE
  5
17C
  8
0
 10
-16.35244094
 20
258.67357646
 30
0.0
 11
-16.35244094
 21
263.67357646
 31
0.0
  0
TEXT
  5
17D
  8
TXT_ALL
 62
     4
 10
382.64755906
 20
-32.32642354
 30
0.0
 40
2.5
  1

 50
90.00020741
  0
POLYLINE
  5
17E
  8
0
 66
     1
 10
0.0
 20
0.0
 30
0.0
  0
VERTEX
  5
17F
  8
0
 10
378.64755906
 20
248.67357646
 30
0.0
  0
VERTEX
  5
180
  8
0
 10
309.65425906
 20
248.67357646
 30
0.0
  0
VERTEX
  5
181
  8
0
 10
309.65425906
 20
258.67357646
 30
0.0
  0
SEQEND
  5
182
  8
0
  0
LINE
  5
183
  8
0
 10
311.55755906
 20
-8.82642354
 30
0.0
 11
171.66755906
 21
-8.82642354
 31
0.0
  0
LINE
  5
184
  8
0
 10
171.66755906
 20
-18.57642354
 30
0.0
 11
311.55755906
 21
-18.57642354
 31
0.0
  0
POLYLINE
  5
185
  8
0
 66
     1
 10
0.0
 20
0.0
 30
0.0
  0
VERTEX
  5
186
  8
0
 10
171.66755906
 20
-8.82642354
 30
0.0
  0
VERTEX
  5
187
  8
0
 10
171.66755906
 20
-18.57642354
 30
0.0
  0
VERTEX
  5
188
  8
0
 10
171.66755906
 20
-28.32642354
 30
0.0
  0
SEQEND
  5
189
  8
0
  0
POLYLINE
  5
18A
  8
0
 66
     1
 10
0.0
 20
0.0
 30
0.0
  0
VERTEX
  5
18B
  8
0
 10
241.61255906
 20
-8.82642354
 30
0.0
  0
VERTEX
  5
18C
  8
0
 10
241.61255906
 20
-18.57642354
 30
0.0
  0
VERTEX
  5
18D
  8
0
 10
241.61255906
 20
-28.32642354
 30
0.0
  0
SEQEND
  5
18E
  8
0
  0
TEXT
  5
18F
  8
TXT_ALL
 10
173.66755906
 20
-15.00142349
 30
0.0
 40
2.5999999
  1
E-mail: verkoop@jonkers-bouwmetaal.nl
  7
ARIAL
  0
TEXT
  5
190
  8
TXT_ALL
 10
173.66755906
 20
-24.75142349
 30
0.0
 40
2.5999999
  1
Telefoon: 0527-685156
  7
ARIAL
  0
TEXT
  5
191
  8
TXT_ALL
 10
243.61255906
 20
-24.75142349
 30
0.0
 40
2.5999999
  1
Website: www.jonkers-bouwmetaal.nl
  7
ARIAL
  0
TEXT
  5
192
  8
TXT_ALL
 10
243.61255906
 20
-15.00142349
 30
0.0
 40
2.5999999
  1
Adres: Hoornse Hop 10, 8321 WX Urk
  7
ARIAL
  0
TEXT
  5
193
  8
TXT_ALL
 10
-27.91048068
 20
252.42357646
 30
0.0
 40
2.5
  1
Art. nr. 91012321
  7
ARIAL
  0
TEXT
  5
194
  8
TXT_ALL
 10
14.82755613
 20
252.42357646
 30
0.0
 40
2.5
  1
Omschrijving: H2101-anker 210x200 70x8
  7
ARIAL
  0
LINE
  5
195
  8
0
 10
378.64755906
 20
248.67357646
 30
0.0
 11
-31.35244094
 21
248.67357646
 31
0.0
  0
LINE
  5
196
  8
0
 10
11.66755906
 20
248.67357646
 30
0.0
 11
11.66755906
 21
258.67357646
 31
0.0
  0
LINE
  5
197
  8
0
 10
171.66755906
 20
248.67357646
 30
0.0
 11
171.66755906
 21
258.67357646
 31
0.0
  0
TEXT
  5
198
  8
TXT_ALL
 10
242.66125906
 20
252.42357646
 30
0.0
 40
2.5
  1
Behandeling: Thermisch Verzinkt
  7
ARIAL
  0
LINE
  5
199
  8
0
 10
311.55755906
 20
-8.82642354
 30
0.0
 11
378.64755906
 21
-8.82642354
 31
0.0
  0
LINE
  5
19A
  8
0
 10
311.55755906
 20
-28.32642354
 30
0.0
 11
311.55755906
 21
-8.82642354
 31
0.0
  0
LINE
  5
19B
  8
0
 10
311.55755906
 20
-28.32642354
 30
0.0
 11
311.55755906
 21
-8.82642354
 31
0.0
  0
TEXT
  5
19C
  8
TXT_ALL
 10
106.01275716
 20
-27.17189013
 30
0.0
 40
2.5
  1

  0
TEXT
  5
19D
  8
TXT_ALL
 10
227.14794012
 20
-17.07642354
 30
0.0
 40
2.5
  1

  0
POLYLINE
  5
19E
  8
0
 66
     1
 10
0.0
 20
0.0
 30
0.0
  0
VERTEX
  5
19F
  8
0
 10
309.65425906
 20
248.67357646
 30
0.0
  0
VERTEX
  5
1A0
  8
0
 10
240.66125906
 20
248.67357646
 30
0.0
  0
VERTEX
  5
1A1
  8
0
 10
240.66125906
 20
258.67357646
 30
0.0
  0
SEQEND
  5
1A2
  8
0
  0
TEXT
  5
1A3
  8
TXT_ALL
 10
311.65425906
 20
252.42357646
 30
0.0
 40
2.5
  1
Verpakkingshoeveelheid: 1 st.
  7
ARIAL
  0
TEXT
  5
1A4
  8
TXT_ALL
 10
173.66755906
 20
252.42357646
 30
0.0
 40
2.5
  1
Materiaal: S355
  7
ARIAL
  0
TEXT
  5
1A5
  8
TXT_ALL
 10
346.42920629
 20
-31.57593339
 30
0.0
 40
1.5
  1
Onderdeel van
  7
ARIAL
  0
POLYLINE
  5
1A6
  8
0
 66
     1
 10
0.0
 20
0.0
 30
0.0
  0
VERTEX
  5
48C
  8
0
 10
5.22146155
 20
45.64145292
 30
0.0
  0
VERTEX
  5
48D
  8
0
 10
5.455688195488408
 20
45.67972629583907
 30
0.0
  0
VERTEX
  5
48E
  8
0
 10
5.69772652197589
 20
45.84997694227827
 30
0.0
  0
VERTEX
  5
48F
  8
0
 10
5.938275132333379
 20
46.14566222246751
 30
0.0
  0
VERTEX
  5
490
  8
0
 10
6.16808987838711
 20
46.5554191169372
 30
0.0
  0
VERTEX
  5
491
  8
0
 10
6.37833910834795
 20
47.06350089806308
 30
0.0
  0
VERTEX
  5
492
  8
0
 10
6.560943062236037
 20
47.65038226797649
 30
0.0
  0
VERTEX
  5
493
  8
0
 10
6.708884372524913
 20
48.29350970480991
 30
0.0
  0
VERTEX
  5
494
  8
0
 10
6.816477737639572
 20
48.96816818189214
 30
0.0
  0
VERTEX
  5
495
  8
0
 10
6.879588404907127
 20
49.64843095236081
 30
0.0
  0
VERTEX
  5
496
  8
0
 10
6.895791066782886
 20
50.30815589950212
 30
0.0
  0
VERTEX
  5
497
  8
0
 10
6.864463064058937
 20
50.92199016363319
 30
0.0
  0
VERTEX
  5
498
  8
0
 10
6.786808314308272
 20
51.46634443827943
 30
0.0
  0
VERTEX
  5
499
  8
0
 10
6.665811046007726
 20
51.92029949399122
 30
0.0
  0
VERTEX
  5
49A
  8
0
 10
6.506121116311447
 20
52.26641009259824
 30
0.0
  0
VERTEX
  5
49B
  8
0
 10
6.313875319648539
 20
52.49137539792736
 30
0.0
  0
VERTEX
  5
49C
  8
0
 10
6.096461554155243
 20
52.58655011947649
 30
0.0
  0
SEQEND
  5
6A7
  8
0
  0
POLYLINE
  5
1A7
  8
0
 66
     1
 10
0.0
 20
0.0
 30
0.0
  0
VERTEX
  5
49D
  8
0
 10
6.096461554155243
 20
52.58655011947649
 30
0.0
  0
VERTEX
  5
49E
  8
0
 10
5.862234908345665
 20
52.54827674583962
 30
0.0
  0
VERTEX
  5
49F
  8
0
 10
5.620196581354082
 20
52.37802610093681
 30
0.0
  0
VERTEX
  5
4A0
  8
0
 10
5.379647970371309
 20
52.08234082158894
 30
0.0
  0
VERTEX
  5
4A1
  8
0
 10
5.149833223637258
 20
51.67258392728501
 30
0.0
  0
VERTEX
  5
4A2
  8
0
 10
4.939583993007444
 20
51.16450214571469
 30
0.0
  0
VERTEX
  5
4A3
  8
0
 10
4.756980038524246
 20
50.57762077485263
 30
0.0
  0
VERTEX
  5
4A4
  8
0
 10
4.609038727768963
 20
49.93449333670561
 30
0.0
  0
VERTEX
  5
4A5
  8
0
 10
4.501445362360428
 20
49.25983485810787
 30
0.0
  0
VERTEX
  5
4A6
  8
0
 10
4.438334695001658
 20
48.57957208609815
 30
0.0
  0
VERTEX
  5
4A7
  8
0
 10
4.422132033251902
 20
47.9198471375686
 30
0.0
  0
VERTEX
  5
4A8
  8
0
 10
4.453460036317067
 20
47.30601287237092
 30
0.0
  0
VERTEX
  5
4A9
  8
0
 10
4.531114786605561
 20
46.76165859712819
 30
0.0
  0
VERTEX
  5
4AA
  8
0
 10
4.652112055606284
 20
46.30770354140824
 30
0.0
  0
VERTEX
  5
4AB
  8
0
 10
4.811801986116998
 20
45.96159294346121
 30
0.0
  0
VERTEX
  5
4AC
  8
0
 10
5.00404778364934
 20
45.73662763949542
 30
0.0
  0
VERTEX
  5
4AD
  8
0
 10
5.22146155
 20
45.64145292
 30
0.0
  0
SEQEND
  5
6A8
  8
0
  0
POLYLINE
  5
1A8
  8
0
 66
     1
 10
0.0
 20
0.0
 30
0.0
  0
VERTEX
  5
4AE
  8
0
 10
5.22146155
 20
71.56870156000001
 30
0.0
  0
VERTEX
  5
4AF
  8
0
 10
5.455688195488408
 20
71.60697493583906
 30
0.0
  0
VERTEX
  5
4B0
  8
0
 10
5.69772652197589
 20
71.77722558227828
 30
0.0
  0
VERTEX
  5
4B1
  8
0
 10
5.938275132333379
 20
72.07291086246751
 30
0.0
  0
VERTEX
  5
4B2
  8
0
 10
6.16808987838711
 20
72.48266775693722
 30
0.0
  0
VERTEX
  5
4B3
  8
0
 10
6.37833910834795
 20
72.99074953806308
 30
0.0
  0
VERTEX
  5
4B4
  8
0
 10
6.560943062236037
 20
73.5776309079765
 30
0.0
  0
VERTEX
  5
4B5
  8
0
 10
6.708884372524913
 20
74.22075834480991
 30
0.0
  0
VERTEX
  5
4B6
  8
0
 10
6.816477737639572
 20
74.89541682189214
 30
0.0
  0
VERTEX
  5
4B7
  8
0
 10
6.879588404907127
 20
75.57567959236081
 30
0.0
  0
VERTEX
  5
4B8
  8
0
 10
6.895791066782886
 20
76.23540453950211
 30
0.0
  0
VERTEX
  5
4B9
  8
0
 10
6.864463064058937
 20
76.8492388036332
 30
0.0
  0
VERTEX
  5
4BA
  8
0
 10
6.786808314308272
 20
77.39359307827944
 30
0.0
  0
VERTEX
  5
4BB
  8
0
 10
6.665811046007726
 20
77.84754813399122
 30
0.0
  0
VERTEX
  5
4BC
  8
0
 10
6.506121116311447
 20
78.19365873259824
 30
0.0
  0
VERTEX
  5
4BD
  8
0
 10
6.313875319648539
 20
78.41862403792736
 30
0.0
  0
VERTEX
  5
4BE
  8
0
 10
6.096461554155243
 20
78.51379875947649
 30
0.0
  0
SEQEND
  5
6A9
  8
0
  0
POLYLINE
  5
1A9
  8
0
 66
     1
 10
0.0
 20
0.0
 30
0.0
  0
VERTEX
  5
4BF
  8
0
 10
6.096461554155243
 20
78.51379875947649
 30
0.0
  0
VERTEX
  5
4C0
  8
0
 10
5.862234908345665
 20
78.47552538583962
 30
0.0
  0
VERTEX
  5
4C1
  8
0
 10
5.620196581354082
 20
78.30527474093681
 30
0.0
  0
VERTEX
  5
4C2
  8
0
 10
5.379647970371309
 20
78.00958946158893
 30
0.0
  0
VERTEX
  5
4C3
  8
0
 10
5.149833223637258
 20
77.59983256728502
 30
0.0
  0
VERTEX
  5
4C4
  8
0
 10
4.939583993007444
 20
77.09175078571468
 30
0.0
  0
VERTEX
  5
4C5
  8
0
 10
4.756980038524246
 20
76.50486941485265
 30
0.0
  0
VERTEX
  5
4C6
  8
0
 10
4.609038727768963
 20
75.8617419767056
 30
0.0
  0
VERTEX
  5
4C7
  8
0
 10
4.501445362360428
 20
75.18708349810787
 30
0.0
  0
VERTEX
  5
4C8
  8
0
 10
4.438334695001658
 20
74.50682072609816
 30
0.0
  0
VERTEX
  5
4C9
  8
0
 10
4.422132033251902
 20
73.8470957775686
 30
0.0
  0
VERTEX
  5
4CA
  8
0
 10
4.453460036317067
 20
73.23326151237092
 30
0.0
  0
VERTEX
  5
4CB
  8
0
 10
4.531114786605561
 20
72.68890723712819
 30
0.0
  0
VERTEX
  5
4CC
  8
0
 10
4.652112055606284
 20
72.23495218140825
 30
0.0
  0
VERTEX
  5
4CD
  8
0
 10
4.811801986116998
 20
71.8888415834612
 30
0.0
  0
VERTEX
  5
4CE
  8
0
 10
5.00404778364934
 20
71.66387627949543
 30
0.0
  0
VERTEX
  5
4CF
  8
0
 10
5.22146155
 20
71.56870156000001
 30
0.0
  0
SEQEND
  5
6AA
  8
0
  0
POLYLINE
  5
1AA
  8
0
 66
     1
 10
0.0
 20
0.0
 30
0.0
  0
VERTEX
  5
4D0
  8
0
 10
5.22146155
 20
97.49595021
 30
0.0
  0
VERTEX
  5
4D1
  8
0
 10
5.455688195488408
 20
97.53422358583906
 30
0.0
  0
VERTEX
  5
4D2
  8
0
 10
5.69772652197589
 20
97.70447423227827
 30
0.0
  0
VERTEX
  5
4D3
  8
0
 10
5.938275132333379
 20
98.0001595124675
 30
0.0
  0
VERTEX
  5
4D4
  8
0
 10
6.16808987838711
 20
98.40991640693721
 30
0.0
  0
VERTEX
  5
4D5
  8
0
 10
6.37833910834795
 20
98.91799818806308
 30
0.0
  0
VERTEX
  5
4D6
  8
0
 10
6.560943062236037
 20
99.5048795579765
 30
0.0
  0
VERTEX
  5
4D7
  8
0
 10
6.708884372524913
 20
100.1480069948099
 30
0.0
  0
VERTEX
  5
4D8
  8
0
 10
6.816477737639572
 20
100.8226654718921
 30
0.0
  0
VERTEX
  5
4D9
  8
0
 10
6.879588404907127
 20
101.5029282423608
 30
0.0
  0
VERTEX
  5
4DA
  8
0
 10
6.895791066782886
 20
102.1626531895021
 30
0.0
  0
VERTEX
  5
4DB
  8
0
 10
6.864463064058937
 20
102.7764874536332
 30
0.0
  0
VERTEX
  5
4DC
  8
0
 10
6.786808314308272
 20
103.3208417282794
 30
0.0
  0
VERTEX
  5
4DD
  8
0
 10
6.665811046007726
 20
103.7747967839912
 30
0.0
  0
VERTEX
  5
4DE
  8
0
 10
6.506121116311447
 20
104.1209073825982
 30
0.0
  0
VERTEX
  5
4DF
  8
0
 10
6.313875319648539
 20
104.3458726879274
 30
0.0
  0
VERTEX
  5
4E0
  8
0
 10
6.096461554155243
 20
104.4410474094765
 30
0.0
  0
SEQEND
  5
6AB
  8
0
  0
POLYLINE
  5
1AB
  8
0
 66
     1
 10
0.0
 20
0.0
 30
0.0
  0
VERTEX
  5
4E1
  8
0
 10
6.096461554155243
 20
104.4410474094765
 30
0.0
  0
VERTEX
  5
4E2
  8
0
 10
5.862234908345665
 20
104.4027740358396
 30
0.0
  0
VERTEX
  5
4E3
  8
0
 10
5.620196581354082
 20
104.2325233909368
 30
0.0
  0
VERTEX
  5
4E4
  8
0
 10
5.379647970371309
 20
103.9368381115889
 30
0.0
  0
VERTEX
  5
4E5
  8
0
 10
5.149833223637258
 20
103.527081217285
 30
0.0
  0
VERTEX
  5
4E6
  8
0
 10
4.939583993007444
 20
103.0189994357147
 30
0.0
  0
VERTEX
  5
4E7
  8
0
 10
4.756980038524246
 20
102.4321180648526
 30
0.0
  0
VERTEX
  5
4E8
  8
0
 10
4.609038727768963
 20
101.7889906267056
 30
0.0
  0
VERTEX
  5
4E9
  8
0
 10
4.501445362360428
 20
101.1143321481079
 30
0.0
  0
VERTEX
  5
4EA
  8
0
 10
4.438334695001658
 20
100.4340693760982
 30
0.0
  0
VERTEX
  5
4EB
  8
0
 10
4.422132033251902
 20
99.7743444275686
 30
0.0
  0
VERTEX
  5
4EC
  8
0
 10
4.453460036317067
 20
99.16051016237091
 30
0.0
  0
VERTEX
  5
4ED
  8
0
 10
4.531114786605561
 20
98.61615588712819
 30
0.0
  0
VERTEX
  5
4EE
  8
0
 10
4.652112055606284
 20
98.16220083140824
 30
0.0
  0
VERTEX
  5
4EF
  8
0
 10
4.811801986116998
 20
97.8160902334612
 30
0.0
  0
VERTEX
  5
4F0
  8
0
 10
5.00404778364934
 20
97.59112492949542
 30
0.0
  0
VERTEX
  5
4F1
  8
0
 10
5.22146155
 20
97.49595021
 30
0.0
  0
SEQEND
  5
6AC
  8
0
  0
POLYLINE
  5
1AC
  8
0
 66
     1
 10
0.0
 20
0.0
 30
0.0
  0
VERTEX
  5
4F2
  8
0
 10
9.70337893
 20
105.66082453
 30
0.0
  0
VERTEX
  5
4F3
  8
0
 10
9.90414462557552
 20
105.6936302805545
 30
0.0
  0
VERTEX
  5
4F4
  8
0
 10
10.11160604774309
 20
105.8395594055861
 30
0.0
  0
VERTEX
  5
4F5
  8
0
 10
10.3177905704127
 20
106.0930039306704
 30
0.0
  0
VERTEX
  5
4F6
  8
0
 10
10.51477463802579
 20
106.4442241248642
 30
0.0
  0
VERTEX
  5
4F7
  8
0
 10
10.69498826335119
 20
106.8797227931018
 30
0.0
  0
VERTEX
  5
4F8
  8
0
 10
10.85150593784837
 20
107.3827639658314
 30
0.0
  0
VERTEX
  5
4F9
  8
0
 10
10.97831277507625
 20
107.9340160529378
 30
0.0
  0
VERTEX
  5
4FA
  8
0
 10
11.07053565940535
 20
108.5122947459075
 30
0.0
  0
VERTEX
  5
4FB
  8
0
 10
11.12463051711815
 20
109.0953771189228
 30
0.0
  0
VERTEX
  5
4FC
  8
0
 10
11.13851851317425
 20
109.660855643436
 30
0.0
  0
VERTEX
  5
4FD
  8
0
 10
11.11166593967489
 20
110.1869992969236
 30
0.0
  0
VERTEX
  5
4FE
  8
0
 10
11.04510472595821
 20
110.6535886738929
 30
0.0
  0
VERTEX
  5
4FF
  8
0
 10
10.94139278213356
 20
111.0426930062942
 30
0.0
  0
VERTEX
  5
500
  8
0
 10
10.80451570003072
 20
111.3393592328795
 30
0.0
  0
VERTEX
  5
501
  8
0
 10
10.63973358914135
 20
111.5321866369596
 30
0.0
  0
VERTEX
  5
502
  8
0
 10
10.45337893356164
 20
111.6137649695513
 30
0.0
  0
SEQEND
  5
6AD
  8
0
  0
POLYLINE
  5
1AD
  8
0
 66
     1
 10
0.0
 20
0.0
 30
0.0
  0
VERTEX
  5
503
  8
0
 10
10.45337893356164
 20
111.6137649695513
 30
0.0
  0
VERTEX
  5
504
  8
0
 10
10.25261323771083
 20
111.5809592208844
 30
0.0
  0
VERTEX
  5
505
  8
0
 10
10.04515181511116
 20
111.4350300971697
 30
0.0
  0
VERTEX
  5
506
  8
0
 10
9.838967291905607
 20
111.1815855728065
 30
0.0
  0
VERTEX
  5
507
  8
0
 10
9.641983223709383
 20
110.8303653787548
 30
0.0
  0
VERTEX
  5
508
  8
0
 10
9.461769597810578
 20
110.3948667101363
 30
0.0
  0
VERTEX
  5
509
  8
0
 10
9.305251922803295
 20
109.8918255365935
 30
0.0
  0
VERTEX
  5
50A
  8
0
 10
9.178445085175639
 20
109.3405734483612
 30
0.0
  0
VERTEX
  5
50B
  8
0
 10
9.086222200594653
 20
108.7622947540925
 30
0.0
  0
VERTEX
  5
50C
  8
0
 10
9.032127342803665
 20
108.1792123797563
 30
0.0
  0
VERTEX
  5
50D
  8
0
 10
9.018239346855573
 20
107.6137338540532
 30
0.0
  0
VERTEX
  5
50E
  8
0
 10
9.0450919206474
 20
107.0875901996514
 30
0.0
  0
VERTEX
  5
50F
  8
0
 10
9.111653134825072
 20
106.6210008221708
 30
0.0
  0
VERTEX
  5
510
  8
0
 10
9.215365079249873
 20
106.2318964897625
 30
0.0
  0
VERTEX
  5
511
  8
0
 10
9.352242162050807
 20
105.9352302637429
 30
0.0
  0
VERTEX
  5
512
  8
0
 10
9.517024273685406
 20
105.7424028608314
 30
0.0
  0
VERTEX
  5
513
  8
0
 10
9.70337893
 20
105.66082453
 30
0.0
  0
SEQEND
  5
6AE
  8
0
  0
POLYLINE
  5
1AE
  8
0
 66
     1
 10
0.0
 20
0.0
 30
0.0
  0
VERTEX
  5
514
  8
0
 10
9.70337893
 20
91.51868891000001
 30
0.0
  0
VERTEX
  5
515
  8
0
 10
9.90414462557552
 20
91.55149466055451
 30
0.0
  0
VERTEX
  5
516
  8
0
 10
10.11160604774309
 20
91.69742378558607
 30
0.0
  0
VERTEX
  5
517
  8
0
 10
10.3177905704127
 20
91.95086831067046
 30
0.0
  0
VERTEX
  5
518
  8
0
 10
10.51477463802579
 20
92.30208850486424
 30
0.0
  0
VERTEX
  5
519
  8
0
 10
10.69498826335119
 20
92.73758717310183
 30
0.0
  0
VERTEX
  5
51A
  8
0
 10
10.85150593784837
 20
93.24062834583142
 30
0.0
  0
VERTEX
  5
51B
  8
0
 10
10.97831277507625
 20
93.79188043293784
 30
0.0
  0
VERTEX
  5
51C
  8
0
 10
11.07053565940535
 20
94.37015912590755
 30
0.0
  0
VERTEX
  5
51D
  8
0
 10
11.12463051711815
 20
94.95324149892278
 30
0.0
  0
VERTEX
  5
51E
  8
0
 10
11.13851851317425
 20
95.51872002343596
 30
0.0
  0
VERTEX
  5
51F
  8
0
 10
11.11166593967489
 20
96.04486367692357
 30
0.0
  0
VERTEX
  5
520
  8
0
 10
11.04510472595821
 20
96.51145305389288
 30
0.0
  0
VERTEX
  5
521
  8
0
 10
10.94139278213356
 20
96.90055738629417
 30
0.0
  0
VERTEX
  5
522
  8
0
 10
10.80451570003072
 20
97.19722361287953
 30
0.0
  0
VERTEX
  5
523
  8
0
 10
10.63973358914135
 20
97.39005101695957
 30
0.0
  0
VERTEX
  5
524
  8
0
 10
10.45337893356164
 20
97.47162934955128
 30
0.0
  0
SEQEND
  5
6AF
  8
0
  0
POLYLINE
  5
1AF
  8
0
 66
     1
 10
0.0
 20
0.0
 30
0.0
  0
VERTEX
  5
525
  8
0
 10
10.45337893356164
 20
97.47162934955128
 30
0.0
  0
VERTEX
  5
526
  8
0
 10
10.25261323771083
 20
97.43882360088436
 30
0.0
  0
VERTEX
  5
527
  8
0
 10
10.04515181511116
 20
97.29289447716972
 30
0.0
  0
VERTEX
  5
528
  8
0
 10
9.838967291905607
 20
97.03944995280649
 30
0.0
  0
VERTEX
  5
529
  8
0
 10
9.641983223709383
 20
96.6882297587548
 30
0.0
  0
VERTEX
  5
52A
  8
0
 10
9.461769597810578
 20
96.25273109013628
 30
0.0
  0
VERTEX
  5
52B
  8
0
 10
9.305251922803295
 20
95.74968991659355
 30
0.0
  0
VERTEX
  5
52C
  8
0
 10
9.178445085175639
 20
95.19843782836118
 30
0.0
  0
VERTEX
  5
52D
  8
0
 10
9.086222200594653
 20
94.62015913409246
 30
0.0
  0
VERTEX
  5
52E
  8
0
 10
9.032127342803665
 20
94.03707675975633
 30
0.0
  0
VERTEX
  5
52F
  8
0
 10
9.018239346855573
 20
93.47159823405322
 30
0.0
  0
VERTEX
  5
530
  8
0
 10
9.0450919206474
 20
92.9454545796514
 30
0.0
  0
VERTEX
  5
531
  8
0
 10
9.111653134825072
 20
92.4788652021708
 30
0.0
  0
VERTEX
  5
532
  8
0
 10
9.215365079249873
 20
92.08976086976251
 30
0.0
  0
VERTEX
  5
533
  8
0
 10
9.352242162050807
 20
91.79309464374286
 30
0.0
  0
VERTEX
  5
534
  8
0
 10
9.517024273685406
 20
91.60026724083139
 30
0.0
  0
VERTEX
  5
535
  8
0
 10
9.70337893
 20
91.51868891000001
 30
0.0
  0
SEQEND
  5
6B0
  8
0
  0
POLYLINE
  5
1B0
  8
0
 66
     1
 10
0.0
 20
0.0
 30
0.0
  0
VERTEX
  5
536
  8
0
 10
9.70337893
 20
77.37655328000001
 30
0.0
  0
VERTEX
  5
537
  8
0
 10
9.90414462557552
 20
77.40935903055451
 30
0.0
  0
VERTEX
  5
538
  8
0
 10
10.11160604774309
 20
77.55528815558607
 30
0.0
  0
VERTEX
  5
539
  8
0
 10
10.3177905704127
 20
77.80873268067046
 30
0.0
  0
VERTEX
  5
53A
  8
0
 10
10.51477463802579
 20
78.15995287486425
 30
0.0
  0
VERTEX
  5
53B
  8
0
 10
10.69498826335119
 20
78.59545154310183
 30
0.0
  0
VERTEX
  5
53C
  8
0
 10
10.85150593784837
 20
79.09849271583143
 30
0.0
  0
VERTEX
  5
53D
  8
0
 10
10.97831277507625
 20
79.64974480293785
 30
0.0
  0
VERTEX
  5
53E
  8
0
 10
11.07053565940535
 20
80.22802349590755
 30
0.0
  0
VERTEX
  5
53F
  8
0
 10
11.12463051711815
 20
80.81110586892278
 30
0.0
  0
VERTEX
  5
540
  8
0
 10
11.13851851317425
 20
81.37658439343596
 30
0.0
  0
VERTEX
  5
541
  8
0
 10
11.11166593967489
 20
81.90272804692357
 30
0.0
  0
VERTEX
  5
542
  8
0
 10
11.04510472595821
 20
82.36931742389288
 30
0.0
  0
VERTEX
  5
543
  8
0
 10
10.94139278213356
 20
82.75842175629417
 30
0.0
  0
VERTEX
  5
544
  8
0
 10
10.80451570003072
 20
83.05508798287953
 30
0.0
  0
VERTEX
  5
545
  8
0
 10
10.63973358914135
 20
83.24791538695958
 30
0.0
  0
VERTEX
  5
546
  8
0
 10
10.45337893356164
 20
83.32949371955128
 30
0.0
  0
SEQEND
  5
6B1
  8
0
  0
POLYLINE
  5
1B1
  8
0
 66
     1
 10
0.0
 20
0.0
 30
0.0
  0
VERTEX
  5
547
  8
0
 10
10.45337893356164
 20
83.32949371955128
 30
0.0
  0
VERTEX
  5
548
  8
0
 10
10.25261323771083
 20
83.29668797088436
 30
0.0
  0
VERTEX
  5
549
  8
0
 10
10.04515181511116
 20
83.15075884716973
 30
0.0
  0
VERTEX
  5
54A
  8
0
 10
9.838967291905607
 20
82.8973143228065
 30
0.0
  0
VERTEX
  5
54B
  8
0
 10
9.641983223709383
 20
82.5460941287548
 30
0.0
  0
VERTEX
  5
54C
  8
0
 10
9.461769597810578
 20
82.11059546013628
 30
0.0
  0
VERTEX
  5
54D
  8
0
 10
9.305251922803295
 20
81.60755428659355
 30
0.0
  0
VERTEX
  5
54E
  8
0
 10
9.178445085175639
 20
81.05630219836118
 30
0.0
  0
VERTEX
  5
54F
  8
0
 10
9.086222200594653
 20
80.47802350409246
 30
0.0
  0
VERTEX
  5
550
  8
0
 10
9.032127342803665
 20
79.89494112975633
 30
0.0
  0
VERTEX
  5
551
  8
0
 10
9.018239346855573
 20
79.32946260405322
 30
0.0
  0
VERTEX
  5
552
  8
0
 10
9.0450919206474
 20
78.8033189496514
 30
0.0
  0
VERTEX
  5
553
  8
0
 10
9.111653134825072
 20
78.3367295721708
 30
0.0
  0
VERTEX
  5
554
  8
0
 10
9.215365079249873
 20
77.94762523976252
 30
0.0
  0
VERTEX
  5
555
  8
0
 10
9.352242162050807
 20
77.65095901374286
 30
0.0
  0
VERTEX
  5
556
  8
0
 10
9.517024273685406
 20
77.45813161083139
 30
0.0
  0
VERTEX
  5
557
  8
0
 10
9.70337893
 20
77.37655328000001
 30
0.0
  0
SEQEND
  5
6B2
  8
0
  0
POLYLINE
  5
1B2
  8
0
 66
     1
 10
0.0
 20
0.0
 30
0.0
  0
VERTEX
  5
558
  8
0
 10
9.76587893
 20
61.37347342
 30
0.0
  0
VERTEX
  5
559
  8
0
 10
9.933183676312932
 20
61.40081154546208
 30
0.0
  0
VERTEX
  5
55A
  8
0
 10
10.10606819478591
 20
61.52241914965504
 30
0.0
  0
VERTEX
  5
55B
  8
0
 10
10.27788863034391
 20
61.73362292055872
 30
0.0
  0
VERTEX
  5
55C
  8
0
 10
10.44204202002149
 20
62.02630641572019
 30
0.0
  0
VERTEX
  5
55D
  8
0
 10
10.59222004112599
 20
62.38922197258484
 30
0.0
  0
VERTEX
  5
55E
  8
0
 10
10.72265143654031
 20
62.80842294985952
 30
0.0
  0
VERTEX
  5
55F
  8
0
 10
10.82832380089688
 20
63.26779968911487
 30
0.0
  0
VERTEX
  5
560
  8
0
 10
10.90517620450445
 20
63.74969859992295
 30
0.0
  0
VERTEX
  5
561
  8
0
 10
10.95025525259846
 20
64.23560057743565
 30
0.0
  0
VERTEX
  5
562
  8
0
 10
10.9618285826452
 20
64.70683268119663
 30
0.0
  0
VERTEX
  5
563
  8
0
 10
10.93945143806241
 20
65.14528572576963
 30
0.0
  0
VERTEX
  5
564
  8
0
 10
10.88398375996518
 20
65.53411020657741
 30
0.0
  0
VERTEX
  5
565
  8
0
 10
10.7975571401113
 20
65.8583638169118
 30
0.0
  0
VERTEX
  5
566
  8
0
 10
10.6834929050256
 20
66.1055856723996
 30
0.0
  0
VERTEX
  5
567
  8
0
 10
10.54617447928446
 20
66.26627517579965
 30
0.0
  0
VERTEX
  5
568
  8
0
 10
10.39087893296803
 20
66.33425711962607
 30
0.0
  0
SEQEND
  5
6B3
  8
0
  0
POLYLINE
  5
1B3
  8
0
 66
     1
 10
0.0
 20
0.0
 30
0.0
  0
VERTEX
  5
569
  8
0
 10
10.39087893296803
 20
66.33425711962607
 30
0.0
  0
VERTEX
  5
56A
  8
0
 10
10.22357418642569
 20
66.30691899573698
 30
0.0
  0
VERTEX
  5
56B
  8
0
 10
10.05068966759264
 20
66.18531139264144
 30
0.0
  0
VERTEX
  5
56C
  8
0
 10
9.878869231588006
 20
65.97410762233874
 30
0.0
  0
VERTEX
  5
56D
  8
0
 10
9.714715841424486
 20
65.68142412729567
 30
0.0
  0
VERTEX
  5
56E
  8
0
 10
9.56453781984215
 20
65.31850857011355
 30
0.0
  0
VERTEX
  5
56F
  8
0
 10
9.434106424002746
 20
64.89930759216129
 30
0.0
  0
VERTEX
  5
570
  8
0
 10
9.328434059313034
 20
64.43993085196765
 30
0.0
  0
VERTEX
  5
571
  8
0
 10
9.251581655495546
 20
63.95803194007705
 30
0.0
  0
VERTEX
  5
572
  8
0
 10
9.206502607336388
 20
63.47212996146361
 30
0.0
  0
VERTEX
  5
573
  8
0
 10
9.194929277379643
 20
63.00089785671102
 30
0.0
  0
VERTEX
  5
574
  8
0
 10
9.217306422206164
 20
62.56244481137616
 30
0.0
  0
VERTEX
  5
575
  8
0
 10
9.27277410068756
 20
62.17362033014233
 30
0.0
  0
VERTEX
  5
576
  8
0
 10
9.35920072104156
 20
61.84936671980209
 30
0.0
  0
VERTEX
  5
577
  8
0
 10
9.473264956709006
 20
61.60214486478571
 30
0.0
  0
VERTEX
  5
578
  8
0
 10
9.610583383071173
 20
61.44145536235948
 30
0.0
  0
VERTEX
  5
579
  8
0
 10
9.76587893
 20
61.37347342
 30
0.0
  0
SEQEND
  5
6B4
  8
0
  0
POLYLINE
  5
1B4
  8
0
 66
     1
 10
0.0
 20
0.0
 30
0.0
  0
VERTEX
  5
57A
  8
0
 10
9.76587893
 20
47.23133780000001
 30
0.0
  0
VERTEX
  5
57B
  8
0
 10
9.933183676312932
 20
47.25867592546209
 30
0.0
  0
VERTEX
  5
57C
  8
0
 10
10.10606819478591
 20
47.38028352965505
 30
0.0
  0
VERTEX
  5
57D
  8
0
 10
10.27788863034391
 20
47.59148730055872
 30
0.0
  0
VERTEX
  5
57E
  8
0
 10
10.44204202002149
 20
47.88417079572019
 30
0.0
  0
VERTEX
  5
57F
  8
0
 10
10.59222004112599
 20
48.24708635258484
 30
0.0
  0
VERTEX
  5
580
  8
0
 10
10.72265143654031
 20
48.66628732985952
 30
0.0
  0
VERTEX
  5
581
  8
0
 10
10.82832380089688
 20
49.12566406911487
 30
0.0
  0
VERTEX
  5
582
  8
0
 10
10.90517620450445
 20
49.60756297992295
 30
0.0
  0
VERTEX
  5
583
  8
0
 10
10.95025525259846
 20
50.09346495743564
 30
0.0
  0
VERTEX
  5
584
  8
0
 10
10.9618285826452
 20
50.56469706119663
 30
0.0
  0
VERTEX
  5
585
  8
0
 10
10.93945143806241
 20
51.00315010576963
 30
0.0
  0
VERTEX
  5
586
  8
0
 10
10.88398375996518
 20
51.3919745865774
 30
0.0
  0
VERTEX
  5
587
  8
0
 10
10.7975571401113
 20
51.7162281969118
 30
0.0
  0
VERTEX
  5
588
  8
0
 10
10.6834929050256
 20
51.9634500523996
 30
0.0
  0
VERTEX
  5
589
  8
0
 10
10.54617447928446
 20
52.12413955579965
 30
0.0
  0
VERTEX
  5
58A
  8
0
 10
10.39087893296803
 20
52.19212149962606
 30
0.0
  0
SEQEND
  5
6B5
  8
0
  0
POLYLINE
  5
1B5
  8
0
 66
     1
 10
0.0
 20
0.0
 30
0.0
  0
VERTEX
  5
58B
  8
0
 10
10.39087893296803
 20
52.19212149962606
 30
0.0
  0
VERTEX
  5
58C
  8
0
 10
10.22357418642569
 20
52.16478337573697
 30
0.0
  0
VERTEX
  5
58D
  8
0
 10
10.05068966759264
 20
52.04317577264144
 30
0.0
  0
VERTEX
  5
58E
  8
0
 10
9.878869231588006
 20
51.83197200233874
 30
0.0
  0
VERTEX
  5
58F
  8
0
 10
9.714715841424486
 20
51.53928850729568
 30
0.0
  0
VERTEX
  5
590
  8
0
 10
9.56453781984215
 20
51.17637295011356
 30
0.0
  0
VERTEX
  5
591
  8
0
 10
9.434106424002746
 20
50.7571719721613
 30
0.0
  0
VERTEX
  5
592
  8
0
 10
9.328434059313034
 20
50.29779523196765
 30
0.0
  0
VERTEX
  5
593
  8
0
 10
9.251581655495546
 20
49.81589632007705
 30
0.0
  0
VERTEX
  5
594
  8
0
 10
9.206502607336388
 20
49.32999434146361
 30
0.0
  0
VERTEX
  5
595
  8
0
 10
9.194929277379643
 20
48.85876223671102
 30
0.0
  0
VERTEX
  5
596
  8
0
 10
9.217306422206164
 20
48.42030919137616
 30
0.0
  0
VERTEX
  5
597
  8
0
 10
9.27277410068756
 20
48.03148471014233
 30
0.0
  0
VERTEX
  5
598
  8
0
 10
9.35920072104156
 20
47.70723109980209
 30
0.0
  0
VERTEX
  5
599
  8
0
 10
9.473264956709006
 20
47.46000924478571
 30
0.0
  0
VERTEX
  5
59A
  8
0
 10
9.610583383071173
 20
47.29931974235949
 30
0.0
  0
VERTEX
  5
59B
  8
0
 10
9.76587893
 20
47.23133780000001
 30
0.0
  0
SEQEND
  5
6B6
  8
0
  0
POLYLINE
  5
1B6
  8
0
 66
     1
 10
0.0
 20
0.0
 30
0.0
  0
VERTEX
  5
59C
  8
0
 10
0.9270441700000001
 20
33.30795947
 30
0.0
  0
VERTEX
  5
59D
  8
0
 10
1.094348916312933
 20
33.33529759546208
 30
0.0
  0
VERTEX
  5
59E
  8
0
 10
1.267233434785913
 20
33.45690519965504
 30
0.0
  0
VERTEX
  5
59F
  8
0
 10
1.439053870343913
 20
33.66810897055871
 30
0.0
  0
VERTEX
  5
5A0
  8
0
 10
1.603207260021491
 20
33.96079246572019
 30
0.0
  0
VERTEX
  5
5A1
  8
0
 10
1.753385281125989
 20
34.32370802258484
 30
0.0
  0
VERTEX
  5
5A2
  8
0
 10
1.883816676540313
 20
34.74290899985952
 30
0.0
  0
VERTEX
  5
5A3
  8
0
 10
1.989489040896878
 20
35.20228573911486
 30
0.0
  0
VERTEX
  5
5A4
  8
0
 10
2.066341444504455
 20
35.68418464992295
 30
0.0
  0
VERTEX
  5
5A5
  8
0
 10
2.11142049259846
 20
36.17008662743564
 30
0.0
  0
VERTEX
  5
5A6
  8
0
 10
2.122993822645206
 20
36.64131873119663
 30
0.0
  0
VERTEX
  5
5A7
  8
0
 10
2.100616678062408
 20
37.07977177576963
 30
0.0
  0
VERTEX
  5
5A8
  8
0
 10
2.045148999965178
 20
37.46859625657739
 30
0.0
  0
VERTEX
  5
5A9
  8
0
 10
1.958722380111304
 20
37.79284986691179
 30
0.0
  0
VERTEX
  5
5AA
  8
0
 10
1.844658145025597
 20
38.0400717223996
 30
0.0
  0
VERTEX
  5
5AB
  8
0
 10
1.707339719284456
 20
38.20076122579965
 30
0.0
  0
VERTEX
  5
5AC
  8
0
 10
1.552044172968031
 20
38.26874316962606
 30
0.0
  0
SEQEND
  5
6B7
  8
0
  0
POLYLINE
  5
1B7
  8
0
 66
     1
 10
0.0
 20
0.0
 30
0.0
  0
VERTEX
  5
5AD
  8
0
 10
1.552044172968031
 20
38.26874316962606
 30
0.0
  0
VERTEX
  5
5AE
  8
0
 10
1.384739426425691
 20
38.24140504573697
 30
0.0
  0
VERTEX
  5
5AF
  8
0
 10
1.211854907592638
 20
38.11979744264143
 30
0.0
  0
VERTEX
  5
5B0
  8
0
 10
1.040034471588007
 20
37.90859367233874
 30
0.0
  0
VERTEX
  5
5B1
  8
0
 10
0.8758810814244864
 20
37.61591017729567
 30
0.0
  0
VERTEX
  5
5B2
  8
0
 10
0.7257030598421493
 20
37.25299462011355
 30
0.0
  0
VERTEX
  5
5B3
  8
0
 10
0.5952716640027459
 20
36.83379364216129
 30
0.0
  0
VERTEX
  5
5B4
  8
0
 10
0.4895992993130339
 20
36.37441690196764
 30
0.0
  0
VERTEX
  5
5B5
  8
0
 10
0.4127468954955449
 20
35.89251799007705
 30
0.0
  0
VERTEX
  5
5B6
  8
0
 10
0.3676678473363877
 20
35.4066160114636
 30
0.0
  0
VERTEX
  5
5B7
  8
0
 10
0.3560945173796438
 20
34.93538390671102
 30
0.0
  0
VERTEX
  5
5B8
  8
0
 10
0.3784716622061662
 20
34.49693086137616
 30
0.0
  0
VERTEX
  5
5B9
  8
0
 10
0.4339393406875593
 20
34.10810638014232
 30
0.0
  0
VERTEX
  5
5BA
  8
0
 10
0.5203659610415607
 20
33.78385276980209
 30
0.0
  0
VERTEX
  5
5BB
  8
0
 10
0.6344301967090067
 20
33.5366309147857
 30
0.0
  0
VERTEX
  5
5BC
  8
0
 10
0.7717486230711725
 20
33.37594141235948
 30
0.0
  0
VERTEX
  5
5BD
  8
0
 10
0.9270441699999998
 20
33.30795947
 30
0.0
  0
SEQEND
  5
6B8
  8
0
  0
POLYLINE
  5
1B8
  8
0
 66
     1
 10
0.0
 20
0.0
 30
0.0
  0
VERTEX
  5
5BE
  8
0
 10
0.9270441700000001
 20
47.4500951
 30
0.0
  0
VERTEX
  5
5BF
  8
0
 10
1.094348916312933
 20
47.47743322546209
 30
0.0
  0
VERTEX
  5
5C0
  8
0
 10
1.267233434785913
 20
47.59904082965505
 30
0.0
  0
VERTEX
  5
5C1
  8
0
 10
1.439053870343913
 20
47.81024460055872
 30
0.0
  0
VERTEX
  5
5C2
  8
0
 10
1.603207260021491
 20
48.10292809572019
 30
0.0
  0
VERTEX
  5
5C3
  8
0
 10
1.753385281125989
 20
48.46584365258484
 30
0.0
  0
VERTEX
  5
5C4
  8
0
 10
1.883816676540313
 20
48.88504462985952
 30
0.0
  0
VERTEX
  5
5C5
  8
0
 10
1.989489040896878
 20
49.34442136911487
 30
0.0
  0
VERTEX
  5
5C6
  8
0
 10
2.066341444504455
 20
49.82632027992295
 30
0.0
  0
VERTEX
  5
5C7
  8
0
 10
2.11142049259846
 20
50.31222225743565
 30
0.0
  0
VERTEX
  5
5C8
  8
0
 10
2.122993822645206
 20
50.78345436119663
 30
0.0
  0
VERTEX
  5
5C9
  8
0
 10
2.100616678062408
 20
51.22190740576963
 30
0.0
  0
VERTEX
  5
5CA
  8
0
 10
2.045148999965178
 20
51.6107318865774
 30
0.0
  0
VERTEX
  5
5CB
  8
0
 10
1.958722380111304
 20
51.9349854969118
 30
0.0
  0
VERTEX
  5
5CC
  8
0
 10
1.844658145025597
 20
52.1822073523996
 30
0.0
  0
VERTEX
  5
5CD
  8
0
 10
1.707339719284456
 20
52.34289685579965
 30
0.0
  0
VERTEX
  5
5CE
  8
0
 10
1.552044172968031
 20
52.41087879962607
 30
0.0
  0
SEQEND
  5
6B9
  8
0
  0
POLYLINE
  5
1B9
  8
0
 66
     1
 10
0.0
 20
0.0
 30
0.0
  0
VERTEX
  5
5CF
  8
0
 10
1.552044172968031
 20
52.41087879962607
 30
0.0
  0
VERTEX
  5
5D0
  8
0
 10
1.384739426425691
 20
52.38354067573697
 30
0.0
  0
VERTEX
  5
5D1
  8
0
 10
1.211854907592638
 20
52.26193307264144
 30
0.0
  0
VERTEX
  5
5D2
  8
0
 10
1.040034471588007
 20
52.05072930233874
 30
0.0
  0
VERTEX
  5
5D3
  8
0
 10
0.8758810814244864
 20
51.75804580729568
 30
0.0
  0
VERTEX
  5
5D4
  8
0
 10
0.7257030598421493
 20
51.39513025011356
 30
0.0
  0
VERTEX
  5
5D5
  8
0
 10
0.5952716640027459
 20
50.9759292721613
 30
0.0
  0
VERTEX
  5
5D6
  8
0
 10
0.4895992993130339
 20
50.51655253196765
 30
0.0
  0
VERTEX
  5
5D7
  8
0
 10
0.4127468954955449
 20
50.03465362007705
 30
0.0
  0
VERTEX
  5
5D8
  8
0
 10
0.3676678473363877
 20
49.54875164146361
 30
0.0
  0
VERTEX
  5
5D9
  8
0
 10
0.3560945173796438
 20
49.07751953671102
 30
0.0
  0
VERTEX
  5
5DA
  8
0
 10
0.3784716622061662
 20
48.63906649137616
 30
0.0
  0
VERTEX
  5
5DB
  8
0
 10
0.4339393406875593
 20
48.25024201014233
 30
0.0
  0
VERTEX
  5
5DC
  8
0
 10
0.5203659610415607
 20
47.92598839980209
 30
0.0
  0
VERTEX
  5
5DD
  8
0
 10
0.6344301967090067
 20
47.67876654478571
 30
0.0
  0
VERTEX
  5
5DE
  8
0
 10
0.7717486230711725
 20
47.51807704235949
 30
0.0
  0
VERTEX
  5
5DF
  8
0
 10
0.9270441699999998
 20
47.4500951
 30
0.0
  0
SEQEND
  5
6BA
  8
0
  0
POLYLINE
  5
1BA
  8
0
 66
     1
 10
0.0
 20
0.0
 30
0.0
  0
VERTEX
  5
5E0
  8
0
 10
0.8645441700000001
 20
63.45317495999999
 30
0.0
  0
VERTEX
  5
5E1
  8
0
 10
1.06530986557552
 20
63.4859807105545
 30
0.0
  0
VERTEX
  5
5E2
  8
0
 10
1.272771287743096
 20
63.63190983558605
 30
0.0
  0
VERTEX
  5
5E3
  8
0
 10
1.478955810412696
 20
63.88535436067045
 30
0.0
  0
VERTEX
  5
5E4
  8
0
 10
1.675939878025789
 20
64.23657455486423
 30
0.0
  0
VERTEX
  5
5E5
  8
0
 10
1.856153503351187
 20
64.67207322310182
 30
0.0
  0
VERTEX
  5
5E6
  8
0
 10
2.012671177848375
 20
65.17511439583141
 30
0.0
  0
VERTEX
  5
5E7
  8
0
 10
2.139478015076253
 20
65.72636648293783
 30
0.0
  0
VERTEX
  5
5E8
  8
0
 10
2.231700899405346
 20
66.30464517590754
 30
0.0
  0
VERTEX
  5
5E9
  8
0
 10
2.285795757118152
 20
66.88772754892277
 30
0.0
  0
VERTEX
  5
5EA
  8
0
 10
2.299683753174247
 20
67.45320607343595
 30
0.0
  0
VERTEX
  5
5EB
  8
0
 10
2.27283117967489
 20
67.97934972692356
 30
0.0
  0
VERTEX
  5
5EC
  8
0
 10
2.206269965958214
 20
68.44593910389287
 30
0.0
  0
VERTEX
  5
5ED
  8
0
 10
2.102558022133564
 20
68.83504343629416
 30
0.0
  0
VERTEX
  5
5EE
  8
0
 10
1.965680940030716
 20
69.13170966287952
 30
0.0
  0
VERTEX
  5
5EF
  8
0
 10
1.800898829141347
 20
69.32453706695956
 30
0.0
  0
VERTEX
  5
5F0
  8
0
 10
1.614544173561637
 20
69.40611539955127
 30
0.0
  0
SEQEND
  5
6BB
  8
0
  0
POLYLINE
  5
1BB
  8
0
 66
     1
 10
0.0
 20
0.0
 30
0.0
  0
VERTEX
  5
5F1
  8
0
 10
1.614544173561637
 20
69.40611539955127
 30
0.0
  0
VERTEX
  5
5F2
  8
0
 10
1.413778477710829
 20
69.37330965088435
 30
0.0
  0
VERTEX
  5
5F3
  8
0
 10
1.206317055111166
 20
69.22738052716971
 30
0.0
  0
VERTEX
  5
5F4
  8
0
 10
1.000132531905608
 20
68.97393600280648
 30
0.0
  0
VERTEX
  5
5F5
  8
0
 10
0.8031484637093839
 20
68.62271580875479
 30
0.0
  0
VERTEX
  5
5F6
  8
0
 10
0.6229348378105792
 20
68.18721714013627
 30
0.0
  0
VERTEX
  5
5F7
  8
0
 10
0.4664171628032951
 20
67.68417596659354
 30
0.0
  0
VERTEX
  5
5F8
  8
0
 10
0.3396103251756409
 20
67.13292387836117
 30
0.0
  0
VERTEX
  5
5F9
  8
0
 10
0.2473874405946538
 20
66.55464518409245
 30
0.0
  0
VERTEX
  5
5FA
  8
0
 10
0.1932925828036655
 20
65.97156280975632
 30
0.0
  0
VERTEX
  5
5FB
  8
0
 10
0.1794045868555728
 20
65.40608428405321
 30
0.0
  0
VERTEX
  5
5FC
  8
0
 10
0.2062571606473995
 20
64.87994062965139
 30
0.0
  0
VERTEX
  5
5FD
  8
0
 10
0.2728183748250713
 20
64.41335125217078
 30
0.0
  0
VERTEX
  5
5FE
  8
0
 10
0.3765303192498729
 20
64.0242469197625
 30
0.0
  0
VERTEX
  5
5FF
  8
0
 10
0.5134074020508081
 20
63.72758069374284
 30
0.0
  0
VERTEX
  5
600
  8
0
 10
0.6781895136854073
 20
63.53475329083137
 30
0.0
  0
VERTEX
  5
601
  8
0
 10
0.8645441699999998
 20
63.45317495999999
 30
0.0
  0
SEQEND
  5
6BC
  8
0
  0
POLYLINE
  5
1BC
  8
0
 66
     1
 10
0.0
 20
0.0
 30
0.0
  0
VERTEX
  5
602
  8
0
 10
0.8645441700000001
 20
77.59531058
 30
0.0
  0
VERTEX
  5
603
  8
0
 10
1.06530986557552
 20
77.6281163305545
 30
0.0
  0
VERTEX
  5
604
  8
0
 10
1.272771287743096
 20
77.77404545558606
 30
0.0
  0
VERTEX
  5
605
  8
0
 10
1.478955810412696
 20
78.02748998067045
 30
0.0
  0
VERTEX
  5
606
  8
0
 10
1.675939878025789
 20
78.37871017486424
 30
0.0
  0
VERTEX
  5
607
  8
0
 10
1.856153503351187
 20
78.81420884310182
 30
0.0
  0
VERTEX
  5
608
  8
0
 10
2.012671177848375
 20
79.31725001583142
 30
0.0
  0
VERTEX
  5
609
  8
0
 10
2.139478015076253
 20
79.86850210293784
 30
0.0
  0
VERTEX
  5
60A
  8
0
 10
2.231700899405346
 20
80.44678079590754
 30
0.0
  0
VERTEX
  5
60B
  8
0
 10
2.285795757118152
 20
81.02986316892277
 30
0.0
  0
VERTEX
  5
60C
  8
0
 10
2.299683753174247
 20
81.59534169343596
 30
0.0
  0
VERTEX
  5
60D
  8
0
 10
2.27283117967489
 20
82.12148534692356
 30
0.0
  0
VERTEX
  5
60E
  8
0
 10
2.206269965958214
 20
82.58807472389287
 30
0.0
  0
VERTEX
  5
60F
  8
0
 10
2.102558022133564
 20
82.97717905629416
 30
0.0
  0
VERTEX
  5
610
  8
0
 10
1.965680940030716
 20
83.27384528287952
 30
0.0
  0
VERTEX
  5
611
  8
0
 10
1.800898829141347
 20
83.46667268695957
 30
0.0
  0
VERTEX
  5
612
  8
0
 10
1.614544173561637
 20
83.54825101955127
 30
0.0
  0
SEQEND
  5
6BD
  8
0
  0
POLYLINE
  5
1BD
  8
0
 66
     1
 10
0.0
 20
0.0
 30
0.0
  0
VERTEX
  5
613
  8
0
 10
1.614544173561637
 20
83.54825101955127
 30
0.0
  0
VERTEX
  5
614
  8
0
 10
1.413778477710829
 20
83.51544527088436
 30
0.0
  0
VERTEX
  5
615
  8
0
 10
1.206317055111166
 20
83.36951614716972
 30
0.0
  0
VERTEX
  5
616
  8
0
 10
1.000132531905608
 20
83.11607162280649
 30
0.0
  0
VERTEX
  5
617
  8
0
 10
0.8031484637093839
 20
82.7648514287548
 30
0.0
  0
VERTEX
  5
618
  8
0
 10
0.6229348378105792
 20
82.32935276013627
 30
0.0
  0
VERTEX
  5
619
  8
0
 10
0.4664171628032951
 20
81.82631158659355
 30
0.0
  0
VERTEX
  5
61A
  8
0
 10
0.3396103251756409
 20
81.27505949836117
 30
0.0
  0
VERTEX
  5
61B
  8
0
 10
0.2473874405946538
 20
80.69678080409246
 30
0.0
  0
VERTEX
  5
61C
  8
0
 10
0.1932925828036655
 20
80.11369842975633
 30
0.0
  0
VERTEX
  5
61D
  8
0
 10
0.1794045868555728
 20
79.54821990405321
 30
0.0
  0
VERTEX
  5
61E
  8
0
 10
0.2062571606473995
 20
79.02207624965139
 30
0.0
  0
VERTEX
  5
61F
  8
0
 10
0.2728183748250713
 20
78.55548687217079
 30
0.0
  0
VERTEX
  5
620
  8
0
 10
0.3765303192498729
 20
78.16638253976251
 30
0.0
  0
VERTEX
  5
621
  8
0
 10
0.5134074020508081
 20
77.86971631374286
 30
0.0
  0
VERTEX
  5
622
  8
0
 10
0.6781895136854073
 20
77.67688891083138
 30
0.0
  0
VERTEX
  5
623
  8
0
 10
0.8645441699999998
 20
77.59531058
 30
0.0
  0
SEQEND
  5
6BE
  8
0
  0
POLYLINE
  5
1BE
  8
0
 66
     1
 10
0.0
 20
0.0
 30
0.0
  0
VERTEX
  5
624
  8
0
 10
0.8645441700000001
 20
91.73744620000001
 30
0.0
  0
VERTEX
  5
625
  8
0
 10
1.06530986557552
 20
91.77025195055451
 30
0.0
  0
VERTEX
  5
626
  8
0
 10
1.272771287743096
 20
91.91618107558607
 30
0.0
  0
VERTEX
  5
627
  8
0
 10
1.478955810412696
 20
92.16962560067046
 30
0.0
  0
VERTEX
  5
628
  8
0
 10
1.675939878025789
 20
92.52084579486424
 30
0.0
  0
VERTEX
  5
629
  8
0
 10
1.856153503351187
 20
92.95634446310183
 30
0.0
  0
VERTEX
  5
62A
  8
0
 10
2.012671177848375
 20
93.45938563583142
 30
0.0
  0
VERTEX
  5
62B
  8
0
 10
2.139478015076253
 20
94.01063772293784
 30
0.0
  0
VERTEX
  5
62C
  8
0
 10
2.231700899405346
 20
94.58891641590755
 30
0.0
  0
VERTEX
  5
62D
  8
0
 10
2.285795757118152
 20
95.17199878892278
 30
0.0
  0
VERTEX
  5
62E
  8
0
 10
2.299683753174247
 20
95.73747731343596
 30
0.0
  0
VERTEX
  5
62F
  8
0
 10
2.27283117967489
 20
96.26362096692357
 30
0.0
  0
VERTEX
  5
630
  8
0
 10
2.206269965958214
 20
96.73021034389288
 30
0.0
  0
VERTEX
  5
631
  8
0
 10
2.102558022133564
 20
97.11931467629417
 30
0.0
  0
VERTEX
  5
632
  8
0
 10
1.965680940030716
 20
97.41598090287953
 30
0.0
  0
VERTEX
  5
633
  8
0
 10
1.800898829141347
 20
97.60880830695957
 30
0.0
  0
VERTEX
  5
634
  8
0
 10
1.614544173561637
 20
97.69038663955128
 30
0.0
  0
SEQEND
  5
6BF
  8
0
  0
POLYLINE
  5
1BF
  8
0
 66
     1
 10
0.0
 20
0.0
 30
0.0
  0
VERTEX
  5
635
  8
0
 10
1.614544173561637
 20
97.69038663955128
 30
0.0
  0
VERTEX
  5
636
  8
0
 10
1.413778477710829
 20
97.65758089088436
 30
0.0
  0
VERTEX
  5
637
  8
0
 10
1.206317055111166
 20
97.51165176716972
 30
0.0
  0
VERTEX
  5
638
  8
0
 10
1.000132531905608
 20
97.25820724280649
 30
0.0
  0
VERTEX
  5
639
  8
0
 10
0.8031484637093839
 20
96.9069870487548
 30
0.0
  0
VERTEX
  5
63A
  8
0
 10
0.6229348378105792
 20
96.47148838013628
 30
0.0
  0
VERTEX
  5
63B
  8
0
 10
0.4664171628032951
 20
95.96844720659355
 30
0.0
  0
VERTEX
  5
63C
  8
0
 10
0.3396103251756409
 20
95.41719511836118
 30
0.0
  0
VERTEX
  5
63D
  8
0
 10
0.2473874405946538
 20
94.83891642409246
 30
0.0
  0
VERTEX
  5
63E
  8
0
 10
0.1932925828036655
 20
94.25583404975633
 30
0.0
  0
VERTEX
  5
63F
  8
0
 10
0.1794045868555728
 20
93.69035552405322
 30
0.0
  0
VERTEX
  5
640
  8
0
 10
0.2062571606473995
 20
93.1642118696514
 30
0.0
  0
VERTEX
  5
641
  8
0
 10
0.2728183748250713
 20
92.6976224921708
 30
0.0
  0
VERTEX
  5
642
  8
0
 10
0.3765303192498729
 20
92.30851815976251
 30
0.0
  0
VERTEX
  5
643
  8
0
 10
0.5134074020508081
 20
92.01185193374286
 30
0.0
  0
VERTEX
  5
644
  8
0
 10
0.6781895136854073
 20
91.81902453083138
 30
0.0
  0
VERTEX
  5
645
  8
0
 10
0.8645441699999998
 20
91.73744620000001
 30
0.0
  0
SEQEND
  5
6C0
  8
0
  0
POLYLINE
  5
1C0
  8
0
 66
     1
 10
0.0
 20
0.0
 30
0.0
  0
VERTEX
  5
1C1
  8
0
 10
11.84614589
 20
115.85317291
 30
0.0
  0
VERTEX
  5
1C2
  8
0
 10
-0.52822278
 20
104.94000553
 30
0.0
  0
VERTEX
  5
1C3
  8
0
 10
-4.26988017
 20
105.41141005
 30
0.0
  0
SEQEND
  5
1C4
  8
0
  0
LINE
  5
1C5
  8
0
 10
8.1044885
 20
116.32457743
 30
0.0
 11
-4.26988017
 21
105.41141005
 31
0.0
  0
LINE
  5
1C6
  8
0
 10
11.84614589
 20
115.85317291
 30
0.0
 11
8.1044885
 21
116.32457743
 31
0.0
  0
POLYLINE
  5
1C7
  8
0
 66
     1
 10
0.0
 20
0.0
 30
0.0
  0
VERTEX
  5
1C8
  8
0
 10
11.84614589
 20
115.85317291
 30
0.0
  0
VERTEX
  5
1C9
  8
0
 10
11.84614589
 20
29.11474108
 30
0.0
  0
VERTEX
  5
1CA
  8
0
 10
-0.52822278
 20
18.20157371
 30
0.0
  0
VERTEX
  5
1CB
  8
0
 10
-0.52822278
 20
104.94000553
 30
0.0
  0
SEQEND
  5
1CC
  8
0
  0
LINE
  5
1CD
  8
0
 10
-4.26988017
 20
18.67297823
 30
0.0
 11
-4.26988017
 21
105.41141005
 31
0.0
  0
LINE
  5
1CE
  8
0
  6
STRICHPUNKT2
 62
     1
 10
2.64266569
 20
94.53713973
 30
0.0
 11
0.24738743
 21
94.83891642
 31
0.0
  0
LINE
  5
1CF
  8
0
  6
STRICHPUNKT2
 62
     1
 10
1.23954417
 20
94.71391642
 30
0.0
 11
2.83053443
 21
96.11703794
 31
0.0
  0
LINE
  5
1D0
  8
0
  6
STRICHPUNKT2
 62
     1
 10
1.23954417
 20
94.71391642
 30
0.0
 11
-0.35144609
 21
93.3107949
 31
0.0
  0
LINE
  5
1D1
  8
0
  6
STRICHPUNKT2
 62
     1
 10
1.23954417
 20
94.71391642
 30
0.0
 11
1.23954417
 21
98.95655711
 31
0.0
  0
LINE
  5
1D2
  8
0
  6
STRICHPUNKT2
 62
     1
 10
1.23954417
 20
94.71391642
 30
0.0
 11
1.23954417
 21
90.47127574
 31
0.0
  0
LINE
  5
1D3
  8
0
  6
STRICHPUNKT2
 62
     1
 10
2.64266569
 20
80.3950041
 30
0.0
 11
0.24738743
 21
80.6967808
 31
0.0
  0
LINE
  5
1D4
  8
0
  6
STRICHPUNKT2
 62
     1
 10
1.23954417
 20
80.5717808
 30
0.0
 11
2.83053443
 21
81.97490232
 31
0.0
  0
LINE
  5
1D5
  8
0
  6
STRICHPUNKT2
 62
     1
 10
1.23954417
 20
80.5717808
 30
0.0
 11
-0.35144609
 21
79.16865928
 31
0.0
  0
LINE
  5
1D6
  8
0
  6
STRICHPUNKT2
 62
     1
 10
1.23954417
 20
80.5717808
 30
0.0
 11
1.23954417
 21
84.81442149
 31
0.0
  0
LINE
  5
1D7
  8
0
  6
STRICHPUNKT2
 62
     1
 10
1.23954417
 20
80.5717808
 30
0.0
 11
1.23954417
 21
76.32914011
 31
0.0
  0
LINE
  5
1D8
  8
0
  6
STRICHPUNKT2
 62
     1
 10
2.64266569
 20
66.25286848
 30
0.0
 11
0.24738743
 21
66.55464518
 31
0.0
  0
LINE
  5
1D9
  8
0
  6
STRICHPUNKT2
 62
     1
 10
1.23954417
 20
66.42964518
 30
0.0
 11
2.83053443
 21
67.8327667
 31
0.0
  0
LINE
  5
1DA
  8
0
  6
STRICHPUNKT2
 62
     1
 10
1.23954417
 20
66.42964518
 30
0.0
 11
-0.35144609
 21
65.02652366
 31
0.0
  0
LINE
  5
1DB
  8
0
  6
STRICHPUNKT2
 62
     1
 10
1.23954417
 20
66.42964518
 30
0.0
 11
1.23954417
 21
70.67228586
 31
0.0
  0
LINE
  5
1DC
  8
0
  6
STRICHPUNKT2
 62
     1
 10
1.23954417
 20
66.42964518
 30
0.0
 11
1.23954417
 21
62.18700449
 31
0.0
  0
LINE
  5
1DD
  8
0
  6
STRICHPUNKT2
 62
     1
 10
2.4088121
 20
49.78317304
 30
0.0
 11
0.41274688
 21
50.03465361
 31
0.0
  0
LINE
  5
1DE
  8
0
  6
STRICHPUNKT2
 62
     1
 10
1.23954417
 20
49.93048695
 30
0.0
 11
2.56536938
 21
51.09975488
 31
0.0
  0
LINE
  5
1DF
  8
0
  6
STRICHPUNKT2
 62
     1
 10
1.23954417
 20
49.93048695
 30
0.0
 11
-0.08628105
 21
48.76121901
 31
0.0
  0
LINE
  5
1E0
  8
0
  6
STRICHPUNKT2
 62
     1
 10
1.23954417
 20
49.93048695
 30
0.0
 11
1.23954417
 21
53.46602085
 31
0.0
  0
LINE
  5
1E1
  8
0
  6
STRICHPUNKT2
 62
     1
 10
1.23954417
 20
49.93048695
 30
0.0
 11
1.23954417
 21
46.39495304
 31
0.0
  0
LINE
  5
1E2
  8
0
  6
STRICHPUNKT2
 62
     1
 10
2.4088121
 20
35.64103741
 30
0.0
 11
0.41274688
 21
35.89251799
 31
0.0
  0
LINE
  5
1E3
  8
0
  6
STRICHPUNKT2
 62
     1
 10
1.23954417
 20
35.78835132
 30
0.0
 11
2.56536938
 21
36.95761926
 31
0.0
  0
LINE
  5
1E4
  8
0
  6
STRICHPUNKT2
 62
     1
 10
1.23954417
 20
35.78835132
 30
0.0
 11
-0.08628105
 21
34.61908339
 31
0.0
  0
LINE
  5
1E5
  8
0
  6
STRICHPUNKT2
 62
     1
 10
1.23954417
 20
35.78835132
 30
0.0
 11
1.23954417
 21
39.32388523
 31
0.0
  0
LINE
  5
1E6
  8
0
  6
STRICHPUNKT2
 62
     1
 10
1.23954417
 20
35.78835132
 30
0.0
 11
1.23954417
 21
32.25281742
 31
0.0
  0
LINE
  5
1E7
  8
0
  6
STRICHPUNKT2
 62
     1
 10
11.24764687
 20
49.56441574
 30
0.0
 11
9.25158165
 21
49.81589632
 31
0.0
  0
LINE
  5
1E8
  8
0
  6
STRICHPUNKT2
 62
     1
 10
10.07837893
 20
49.71172965
 30
0.0
 11
11.40420415
 21
50.88099758
 31
0.0
  0
LINE
  5
1E9
  8
0
  6
STRICHPUNKT2
 62
     1
 10
10.07837893
 20
49.71172965
 30
0.0
 11
8.75255372
 21
48.54246172
 31
0.0
  0
LINE
  5
1EA
  8
0
  6
STRICHPUNKT2
 62
     1
 10
10.07837893
 20
49.71172965
 30
0.0
 11
10.07837893
 21
53.24726356
 31
0.0
  0
LINE
  5
1EB
  8
0
  6
STRICHPUNKT2
 62
     1
 10
10.07837893
 20
49.71172965
 30
0.0
 11
10.07837893
 21
46.17619574
 31
0.0
  0
LINE
  5
1EC
  8
0
  6
STRICHPUNKT2
 62
     1
 10
11.24764687
 20
63.70655136
 30
0.0
 11
9.25158165
 21
63.95803194
 31
0.0
  0
LINE
  5
1ED
  8
0
  6
STRICHPUNKT2
 62
     1
 10
10.07837893
 20
63.85386527
 30
0.0
 11
11.40420415
 21
65.02313321
 31
0.0
  0
LINE
  5
1EE
  8
0
  6
STRICHPUNKT2
 62
     1
 10
10.07837893
 20
63.85386527
 30
0.0
 11
8.75255372
 21
62.68459734
 31
0.0
  0
LINE
  5
1EF
  8
0
  6
STRICHPUNKT2
 62
     1
 10
10.07837893
 20
63.85386527
 30
0.0
 11
10.07837893
 21
67.38939918
 31
0.0
  0
LINE
  5
1F0
  8
0
  6
STRICHPUNKT2
 62
     1
 10
10.07837893
 20
63.85386527
 30
0.0
 11
10.07837893
 21
60.31833137
 31
0.0
  0
LINE
  5
1F1
  8
0
  6
STRICHPUNKT2
 62
     1
 10
11.48150045
 20
80.17624681
 30
0.0
 11
9.08622219
 21
80.4780235
 31
0.0
  0
LINE
  5
1F2
  8
0
  6
STRICHPUNKT2
 62
     1
 10
10.07837893
 20
80.3530235
 30
0.0
 11
11.66936919
 21
81.75614502
 31
0.0
  0
LINE
  5
1F3
  8
0
  6
STRICHPUNKT2
 62
     1
 10
10.07837893
 20
80.3530235
 30
0.0
 11
8.48738868
 21
78.94990198
 31
0.0
  0
LINE
  5
1F4
  8
0
  6
STRICHPUNKT2
 62
     1
 10
10.07837893
 20
80.3530235
 30
0.0
 11
10.07837893
 21
84.59566419
 31
0.0
  0
LINE
  5
1F5
  8
0
  6
STRICHPUNKT2
 62
     1
 10
10.07837893
 20
80.3530235
 30
0.0
 11
10.07837893
 21
76.11038281
 31
0.0
  0
LINE
  5
1F6
  8
0
  6
STRICHPUNKT2
 62
     1
 10
11.48150045
 20
94.31838243
 30
0.0
 11
9.08622219
 21
94.62015913
 31
0.0
  0
LINE
  5
1F7
  8
0
  6
STRICHPUNKT2
 62
     1
 10
10.07837893
 20
94.49515913
 30
0.0
 11
11.66936919
 21
95.89828065
 31
0.0
  0
LINE
  5
1F8
  8
0
  6
STRICHPUNKT2
 62
     1
 10
10.07837893
 20
94.49515913
 30
0.0
 11
8.48738868
 21
93.09203761
 31
0.0
  0
LINE
  5
1F9
  8
0
  6
STRICHPUNKT2
 62
     1
 10
10.07837893
 20
94.49515913
 30
0.0
 11
10.07837893
 21
98.73779981
 31
0.0
  0
LINE
  5
1FA
  8
0
  6
STRICHPUNKT2
 62
     1
 10
10.07837893
 20
94.49515913
 30
0.0
 11
10.07837893
 21
90.25251844
 31
0.0
  0
LINE
  5
1FB
  8
0
  6
STRICHPUNKT2
 62
     1
 10
11.48150045
 20
108.46051805
 30
0.0
 11
9.08622219
 21
108.76229475
 31
0.0
  0
LINE
  5
1FC
  8
0
  6
STRICHPUNKT2
 62
     1
 10
10.07837893
 20
108.63729475
 30
0.0
 11
11.66936919
 21
110.04041627
 31
0.0
  0
LINE
  5
1FD
  8
0
  6
STRICHPUNKT2
 62
     1
 10
10.07837893
 20
108.63729475
 30
0.0
 11
8.48738868
 21
107.23417323
 31
0.0
  0
LINE
  5
1FE
  8
0
  6
STRICHPUNKT2
 62
     1
 10
10.07837893
 20
108.63729475
 30
0.0
 11
10.07837893
 21
112.87993544
 31
0.0
  0
LINE
  5
1FF
  8
0
  6
STRICHPUNKT2
 62
     1
 10
10.07837893
 20
108.63729475
 30
0.0
 11
10.07837893
 21
104.39465406
 31
0.0
  0
LINE
  5
200
  8
0
  6
STRICHPUNKT2
 62
     1
 10
7.06208307
 20
100.79172211
 30
0.0
 11
4.50144535
 21
101.11433214
 31
0.0
  0
LINE
  5
201
  8
0
  6
STRICHPUNKT2
 62
     1
 10
5.65896155
 20
100.96849881
 30
0.0
 11
7.4267285
 21
102.52752272
 31
0.0
  0
LINE
  5
202
  8
0
  6
STRICHPUNKT2
 62
     1
 10
5.65896155
 20
100.96849881
 30
0.0
 11
3.8911946
 21
99.40947489
 31
0.0
  0
LINE
  5
203
  8
0
  6
STRICHPUNKT2
 62
     1
 10
5.65896155
 20
100.96849881
 30
0.0
 11
5.65896155
 21
105.68254401
 31
0.0
  0
LINE
  5
204
  8
0
  6
STRICHPUNKT2
 62
     1
 10
5.65896155
 20
100.96849881
 30
0.0
 11
5.65896155
 21
96.2544536
 31
0.0
  0
LINE
  5
205
  8
0
  6
STRICHPUNKT2
 62
     1
 10
7.06208307
 20
74.86447347
 30
0.0
 11
4.50144535
 21
75.18708349
 31
0.0
  0
LINE
  5
206
  8
0
  6
STRICHPUNKT2
 62
     1
 10
5.65896155
 20
75.04125016
 30
0.0
 11
7.4267285
 21
76.60027407
 31
0.0
  0
LINE
  5
207
  8
0
  6
STRICHPUNKT2
 62
     1
 10
5.65896155
 20
75.04125016
 30
0.0
 11
3.8911946
 21
73.48222625
 31
0.0
  0
LINE
  5
208
  8
0
  6
STRICHPUNKT2
 62
     1
 10
5.65896155
 20
75.04125016
 30
0.0
 11
5.65896155
 21
79.75529537
 31
0.0
  0
LINE
  5
209
  8
0
  6
STRICHPUNKT2
 62
     1
 10
5.65896155
 20
75.04125016
 30
0.0
 11
5.65896155
 21
70.32720495
 31
0.0
  0
LINE
  5
20A
  8
0
  6
STRICHPUNKT2
 62
     1
 10
7.06208307
 20
48.93722482
 30
0.0
 11
4.50144535
 21
49.25983485
 31
0.0
  0
LINE
  5
20B
  8
0
  6
STRICHPUNKT2
 62
     1
 10
5.65896155
 20
49.11400152
 30
0.0
 11
7.4267285
 21
50.67302543
 31
0.0
  0
LINE
  5
20C
  8
0
  6
STRICHPUNKT2
 62
     1
 10
5.65896155
 20
49.11400152
 30
0.0
 11
3.8911946
 21
47.55497761
 31
0.0
  0
LINE
  5
20D
  8
0
  6
STRICHPUNKT2
 62
     1
 10
5.65896155
 20
49.11400152
 30
0.0
 11
5.65896155
 21
53.82804673
 31
0.0
  0
LINE
  5
20E
  8
0
  6
STRICHPUNKT2
 62
     1
 10
5.65896155
 20
49.11400152
 30
0.0
 11
5.65896155
 21
44.39995631
 31
0.0
  0
POLYLINE
  5
20F
  8
0
 66
     1
 10
0.0
 20
0.0
 30
0.0
  0
VERTEX
  5
646
  8
0
 10
55.41299366
 20
13.05155568538469
 30
0.0
  0
VERTEX
  5
647
  8
0
 10
55.50410447313879
 20
12.75124174763655
 30
0.0
  0
VERTEX
  5
648
  8
0
 10
55.7737475054389
 20
12.46308863101988
 30
0.0
  0
VERTEX
  5
649
  8
0
 10
56.21100391387714
 20
12.19876472028819
 30
0.0
  0
VERTEX
  5
64A
  8
0
 10
56.79816757030368
 20
11.96897346757198
 30
0.0
  0
VERTEX
  5
64B
  8
0
 10
57.51146204801561
 20
11.78301997004029
 30
0.0
  0
VERTEX
  5
64C
  8
0
 10
58.32200341715573
 20
11.64843417212315
 30
0.0
  0
SEQEND
  5
6C1
  8
0
  0
POLYLINE
  5
210
  8
0
 66
     1
 10
0.0
 20
0.0
 30
0.0
  0
VERTEX
  5
64D
  8
0
 10
61.50398392982717
 20
14.45467718447732
 30
0.0
  0
VERTEX
  5
64E
  8
0
 10
60.66611140794585
 20
14.53039957019383
 30
0.0
  0
VERTEX
  5
64F
  8
0
 10
59.80021043639626
 20
14.55108447783128
 30
0.0
  0
VERTEX
  5
650
  8
0
 10
58.93850686812767
 20
14.5159620863435
 30
0.0
  0
VERTEX
  5
651
  8
0
 10
58.11307034319046
 20
14.42633953021872
 30
0.0
  0
VERTEX
  5
652
  8
0
 10
57.35462076714609
 20
14.28555225243427
 30
0.0
  0
VERTEX
  5
653
  8
0
 10
56.6913850219477
 20
14.09883987075255
 30
0.0
  0
VERTEX
  5
654
  8
0
 10
56.14804645857619
 20
13.87315117718741
 30
0.0
  0
VERTEX
  5
655
  8
0
 10
55.74482626769906
 20
13.61688552788937
 30
0.0
  0
VERTEX
  5
656
  8
0
 10
55.49673091657332
 20
13.33958024802791
 30
0.0
  0
VERTEX
  5
657
  8
0
 10
55.41299366
 20
13.05155568538469
 30
0.0
  0
SEQEND
  5
6C2
  8
0
  0
POLYLINE
  5
211
  8
0
 66
     1
 10
0.0
 20
0.0
 30
0.0
  0
VERTEX
  5
212
  8
0
 10
61.50398392
 20
14.4546772
 30
0.0
  0
VERTEX
  5
213
  8
0
 10
85.82475693
 20
11.39054781
 30
0.0
  0
SEQEND
  5
214
  8
0
  0
POLYLINE
  5
215
  8
0
 66
     1
 10
0.0
 20
0.0
 30
0.0
  0
VERTEX
  5
658
  8
0
 10
88.73376667
 20
9.98742629
 30
0.0
  0
VERTEX
  5
659
  8
0
 10
88.64265585512858
 20
10.28774022518973
 30
0.0
  0
VERTEX
  5
65A
  8
0
 10
88.37301282410834
 20
10.57589333933397
 30
0.0
  0
VERTEX
  5
65B
  8
0
 10
87.9357564197307
 20
10.84021724797162
 30
0.0
  0
VERTEX
  5
65C
  8
0
 10
87.34859276968922
 20
11.07000849923338
 30
0.0
  0
VERTEX
  5
65D
  8
0
 10
86.63529830003644
 20
11.25596199616245
 30
0.0
  0
VERTEX
  5
65E
  8
0
 10
85.82475693982717
 20
11.39054779447732
 30
0.0
  0
SEQEND
  5
6C3
  8
0
  0
POLYLINE
  5
216
  8
0
 66
     1
 10
0.0
 20
0.0
 30
0.0
  0
VERTEX
  5
65F
  8
0
 10
82.64277642715572
 20
8.584304782123155
 30
0.0
  0
VERTEX
  5
660
  8
0
 10
83.48064894924194
 20
8.508582398267755
 30
0.0
  0
VERTEX
  5
661
  8
0
 10
84.34654991990303
 20
8.4878974923885
 30
0.0
  0
VERTEX
  5
662
  8
0
 10
85.20825348631656
 20
8.52301988546388
 30
0.0
  0
VERTEX
  5
663
  8
0
 10
86.03369000859453
 20
8.612642442950373
 30
0.0
  0
VERTEX
  5
664
  8
0
 10
86.79213958136386
 20
8.753429721829685
 30
0.0
  0
VERTEX
  5
665
  8
0
 10
87.45537532287543
 20
8.940142104313919
 30
0.0
  0
VERTEX
  5
666
  8
0
 10
87.99871388235739
 20
9.165830798379591
 30
0.0
  0
VERTEX
  5
667
  8
0
 10
88.40193406934587
 20
9.42209644788198
 30
0.0
  0
VERTEX
  5
668
  8
0
 10
88.65002941677223
 20
9.69940172767177
 30
0.0
  0
VERTEX
  5
669
  8
0
 10
88.73376667
 20
9.98742629
 30
0.0
  0
SEQEND
  5
6C4
  8
0
  0
LINE
  5
217
  8
0
 10
82.64277642
 20
8.58430477
 30
0.0
 11
58.3220034
 21
11.64843416
 31
0.0
  0
LINE
  5
218
  8
0
 10
61.50398392
 20
11.24754229
 30
0.0
 11
61.50398392
 21
14.4546772
 31
0.0
  0
LINE
  5
219
  8
0
 10
85.82475693
 20
8.58430477
 30
0.0
 11
85.82475693
 21
11.39054781
 31
0.0
  0
POLYLINE
  5
21A
  8
0
 66
     1
 10
0.0
 20
0.0
 30
0.0
  0
VERTEX
  5
66A
  8
0
 10
28.81827043
 20
16.52816402418809
 30
0.0
  0
VERTEX
  5
66B
  8
0
 10
28.88552194629072
 20
16.30055865044146
 30
0.0
  0
VERTEX
  5
66C
  8
0
 10
29.08469206200337
 20
16.08170002342433
 30
0.0
  0
VERTEX
  5
66D
  8
0
 10
29.40812678126957
 20
15.87999875745479
 30
0.0
  0
VERTEX
  5
66E
  8
0
 10
29.84339668918387
 20
15.70320611908634
 30
0.0
  0
VERTEX
  5
66F
  8
0
 10
30.37377460724921
 20
15.5581161502805
 30
0.0
  0
VERTEX
  5
670
  8
0
 10
30.97887840946726
 20
15.45030457718379
 30
0.0
  0
VERTEX
  5
671
  8
0
 10
31.63545429601194
 20
15.38391453809832
 30
0.0
  0
VERTEX
  5
672
  8
0
 10
32.31827042371786
 20
15.361497365
 30
0.0
  0
VERTEX
  5
673
  8
0
 10
33.0010865516652
 20
15.38391453728126
 30
0.0
  0
VERTEX
  5
674
  8
0
 10
33.65766243892486
 20
15.45030457558107
 30
0.0
  0
VERTEX
  5
675
  8
0
 10
34.26276624230398
 20
15.55811614795372
 30
0.0
  0
VERTEX
  5
676
  8
0
 10
34.79314416193184
 20
15.70320611612491
 30
0.0
  0
VERTEX
  5
677
  8
0
 10
35.22841407175009
 20
15.87999875397252
 30
0.0
  0
VERTEX
  5
678
  8
0
 10
35.55184879318848
 20
16.08170001955504
 30
0.0
  0
VERTEX
  5
679
  8
0
 10
35.75101891125811
 20
16.30055864633384
 30
0.0
  0
VERTEX
  5
67A
  8
0
 10
35.81827043
 20
16.52816402
 30
0.0
  0
SEQEND
  5
6C5
  8
0
  0
POLYLINE
  5
21B
  8
0
 66
     1
 10
0.0
 20
0.0
 30
0.0
  0
VERTEX
  5
67B
  8
0
 10
35.81827043
 20
16.52816402
 30
0.0
  0
VERTEX
  5
67C
  8
0
 10
35.7510189115645
 20
16.7557693931527
 30
0.0
  0
VERTEX
  5
67D
  8
0
 10
35.55184879439052
 20
16.97462801947763
 30
0.0
  0
VERTEX
  5
67E
  8
0
 10
35.22841407436772
 20
17.17632928472162
 30
0.0
  0
VERTEX
  5
67F
  8
0
 10
34.79314416637398
 20
17.35312192239437
 30
0.0
  0
VERTEX
  5
680
  8
0
 10
34.26276624883324
 20
17.49821189059204
 30
0.0
  0
VERTEX
  5
681
  8
0
 10
33.65766244763076
 20
17.60602346321689
 30
0.0
  0
VERTEX
  5
682
  8
0
 10
33.0010865624477
 20
17.67241350200381
 30
0.0
  0
VERTEX
  5
683
  8
0
 10
32.31827043628213
 20
17.694830675
 30
0.0
  0
VERTEX
  5
684
  8
0
 10
31.63545430987516
 20
17.67241350282087
 30
0.0
  0
VERTEX
  5
685
  8
0
 10
30.97887842397711
 20
17.6060234648196
 30
0.0
  0
VERTEX
  5
686
  8
0
 10
30.37377462161357
 20
17.49821189291882
 30
0.0
  0
VERTEX
  5
687
  8
0
 10
29.84339670251029
 20
17.3531219253558
 30
0.0
  0
VERTEX
  5
688
  8
0
 10
29.40812679261261
 20
17.17632928820389
 30
0.0
  0
VERTEX
  5
689
  8
0
 10
29.08469207041762
 20
16.97462802334693
 30
0.0
  0
VERTEX
  5
68A
  8
0
 10
28.88552195088666
 20
16.75576939726032
 30
0.0
  0
VERTEX
  5
68B
  8
0
 10
28.81827043
 20
16.52816402418809
 30
0.0
  0
SEQEND
  5
6C6
  8
0
  0
LINE
  5
21C
  8
0
 10
3.2134346
 20
13.95893302
 30
0.0
 11
93.94862623
 21
2.52737339
 31
0.0
  0
LINE
  5
21D
  8
0
 10
106.3229949
 20
13.44054077
 30
0.0
 11
93.94862623
 21
2.52737339
 31
0.0
  0
POLYLINE
  5
21E
  8
0
 66
     1
 10
0.0
 20
0.0
 30
0.0
  0
VERTEX
  5
21F
  8
0
 10
106.3229949
 20
13.44054077
 30
0.0
  0
VERTEX
  5
220
  8
0
 10
15.58780327
 20
24.8721004
 30
0.0
  0
VERTEX
  5
221
  8
0
 10
3.2134346
 20
13.95893302
 30
0.0
  0
SEQEND
  5
222
  8
0
  0
LINE
  5
223
  8
0
 10
3.2134346
 20
10.18769685
 30
0.0
 11
93.94862623
 21
-1.24386278
 31
0.0
  0
LINE
  5
224
  8
0
 10
93.94862623
 20
2.52737339
 30
0.0
 11
93.94862623
 21
-1.24386278
 31
0.0
  0
LINE
  5
225
  8
0
 10
106.3229949
 20
9.6693046
 30
0.0
 11
93.94862623
 21
-1.24386278
 31
0.0
  0
LINE
  5
226
  8
0
 10
106.3229949
 20
13.44054077
 30
0.0
 11
106.3229949
 21
9.6693046
 31
0.0
  0
LINE
  5
227
  8
0
  6
STRICHPUNKT2
 62
     1
 10
32.31827043
 20
17.94237758
 30
0.0
 11
32.31827043
 21
15.36149735
 31
0.0
  0
LINE
  5
228
  8
0
  6
STRICHPUNKT2
 62
     1
 10
32.31827043
 20
16.52816402
 30
0.0
 11
36.99534217
 21
15.93890837
 31
0.0
  0
LINE
  5
229
  8
0
  6
STRICHPUNKT2
 62
     1
 10
32.31827043
 20
16.52816402
 30
0.0
 11
27.6411987
 21
17.11741967
 31
0.0
  0
LINE
  5
22A
  8
0
  6
STRICHPUNKT2
 62
     1
 10
32.31827043
 20
16.52816402
 30
0.0
 11
34.08603739
 21
18.08718793
 31
0.0
  0
LINE
  5
22B
  8
0
  6
STRICHPUNKT2
 62
     1
 10
32.31827043
 20
16.52816402
 30
0.0
 11
30.55050348
 21
14.96914011
 31
0.0
  0
LINE
  5
22C
  8
0
  6
STRICHPUNKT2
 62
     1
 10
59.91299366
 20
14.46576924
 30
0.0
 11
59.91299366
 21
11.44798823
 31
0.0
  0
LINE
  5
22D
  8
0
  6
STRICHPUNKT2
 62
     1
 10
84.23376667
 20
11.40163985
 30
0.0
 11
84.23376667
 21
8.48742629
 31
0.0
  0
LINE
  5
22E
  8
0
  6
STRICHPUNKT2
 62
     1
 10
54.30050758
 20
13.75866246
 30
0.0
 11
89.84625275
 21
9.28031951
 31
0.0
  0
LINE
  5
22F
  8
0
  6
STRICHPUNKT2
 62
     1
 10
57.79167332
 20
11.18072698
 30
0.0
 11
62.034314
 21
14.92238437
 31
0.0
  0
LINE
  5
230
  8
0
  6
STRICHPUNKT2
 62
     1
 10
82.11244633
 20
8.1165976
 30
0.0
 11
86.35508702
 21
11.85825499
 31
0.0
  0
LINE
  5
231
  8
0
 10
11.84614589
 20
29.11474108
 30
0.0
 11
-0.52822278
 21
18.20157371
 31
0.0
  0
POLYLINE
  5
232
  8
0
 66
     1
 10
0.0
 20
0.0
 30
0.0
  0
VERTEX
  5
68C
  8
0
 10
11.84614589180268
 20
29.11474107699308
 30
0.0
  0
VERTEX
  5
68D
  8
0
 10
11.91804079211062
 20
28.36995149771284
 30
0.0
  0
VERTEX
  5
68E
  8
0
 10
12.13096260520116
 20
27.63566795296958
 30
0.0
  0
VERTEX
  5
68F
  8
0
 10
12.47672886527574
 20
26.94010854735349
 30
0.0
  0
VERTEX
  5
690
  8
0
 10
12.94205196898221
 20
26.31000323851767
 30
0.0
  0
VERTEX
  5
691
  8
0
 10
13.50904981055556
 20
25.76956661990474
 30
0.0
  0
VERTEX
  5
692
  8
0
 10
14.15593298110807
 20
25.33956736750854
 30
0.0
  0
VERTEX
  5
693
  8
0
 10
14.85784212338607
 20
25.03653011130979
 30
0.0
  0
VERTEX
  5
694
  8
0
 10
15.5878032629196
 20
24.87210040301854
 30
0.0
  0
SEQEND
  5
6C7
  8
0
  0
POLYLINE
  5
233
  8
0
 66
     1
 10
0.0
 20
0.0
 30
0.0
  0
VERTEX
  5
234
  8
0
 10
15.58780327
 20
24.8721004
 30
0.0
  0
VERTEX
  5
235
  8
0
 10
3.2134346
 20
13.95893302
 30
0.0
  0
SEQEND
  5
236
  8
0
  0
POLYLINE
  5
237
  8
0
 66
     1
 10
0.0
 20
0.0
 30
0.0
  0
VERTEX
  5
695
  8
0
 10
-0.5282227781973157
 20
18.20157370699308
 30
0.0
  0
VERTEX
  5
696
  8
0
 10
-0.4563278778893778
 20
17.45678412771284
 30
0.0
  0
VERTEX
  5
697
  8
0
 10
-0.243406064798835
 20
16.72250058296958
 30
0.0
  0
VERTEX
  5
698
  8
0
 10
0.1023601952757343
 20
16.02694117735349
 30
0.0
  0
VERTEX
  5
699
  8
0
 10
0.5676832989822063
 20
15.39683586851767
 30
0.0
  0
VERTEX
  5
69A
  8
0
 10
1.134681140555554
 20
14.85639924990474
 30
0.0
  0
VERTEX
  5
69B
  8
0
 10
1.781564311108073
 20
14.42639999750854
 30
0.0
  0
VERTEX
  5
69C
  8
0
 10
2.48347345338607
 20
14.12336274130979
 30
0.0
  0
VERTEX
  5
69D
  8
0
 10
3.213434592919602
 20
13.95893303301854
 30
0.0
  0
SEQEND
  5
6C8
  8
0
  0
POLYLINE
  5
238
  8
0
 66
     1
 10
0.0
 20
0.0
 30
0.0
  0
VERTEX
  5
69E
  8
0
 10
-4.269880156394631
 20
18.67297822398617
 30
0.0
  0
VERTEX
  5
69F
  8
0
 10
-4.126090355778755
 20
17.18339906542567
 30
0.0
  0
VERTEX
  5
6A0
  8
0
 10
-3.70024672959767
 20
15.71483197593915
 30
0.0
  0
VERTEX
  5
6A1
  8
0
 10
-3.008714209448532
 20
14.32371316470697
 30
0.0
  0
VERTEX
  5
6A2
  8
0
 10
-2.078068002035588
 20
13.06350254703534
 30
0.0
  0
VERTEX
  5
6A3
  8
0
 10
-0.9440723188888924
 20
11.98262930980948
 30
0.0
  0
VERTEX
  5
6A4
  8
0
 10
0.3496940222161458
 20
11.12263080501708
 30
0.0
  0
VERTEX
  5
6A5
  8
0
 10
1.75351230677214
 20
10.51655629261958
 30
0.0
  0
VERTEX
  5
6A6
  8
0
 10
3.213434585839204
 20
10.18769687603707
 30
0.0
  0
SEQEND
  5
6C9
  8
0
  0
CIRCLE
  5
239
  8
0
 10
321.82373296
 20
157.919605
 30
0.0
 40
3.5
  0
CIRCLE
  5
23A
  8
0
 10
321.82373296
 20
185.419605
 30
0.0
 40
3.5
  0
CIRCLE
  5
23B
  8
0
 10
321.82373296
 20
212.919605
 30
0.0
 40
3.5
  0
CIRCLE
  5
23C
  8
0
 10
334.32373296
 20
216.919605
 30
0.0
 40
3.0
  0
CIRCLE
  5
23D
  8
0
 10
334.32373296
 20
201.919605
 30
0.0
 40
3.0
  0
CIRCLE
  5
23E
  8
0
 10
334.32373296
 20
186.919605
 30
0.0
 40
3.0
  0
CIRCLE
  5
23F
  8
0
 10
334.32373296
 20
169.419605
 30
0.0
 40
2.5
  0
CIRCLE
  5
240
  8
0
 10
334.32373296
 20
154.419605
 30
0.0
 40
2.5
  0
CIRCLE
  5
241
  8
0
 10
309.32373296
 20
147.919605
 30
0.0
 40
2.5
  0
CIRCLE
  5
242
  8
0
 10
309.32373296
 20
162.919605
 30
0.0
 40
2.5
  0
CIRCLE
  5
243
  8
0
 10
309.32373296
 20
180.419605
 30
0.0
 40
3.0
  0
CIRCLE
  5
244
  8
0
 10
309.32373296
 20
195.419605
 30
0.0
 40
3.0
  0
CIRCLE
  5
245
  8
0
 10
309.32373296
 20
210.419605
 30
0.0
 40
3.0
  0
LINE
  5
246
  8
0
 10
304.32373296
 20
130.919605
 30
0.0
 11
304.32373296
 21
222.919605
 31
0.0
  0
LINE
  5
247
  8
0
 10
339.32373296
 20
222.919605
 30
0.0
 11
304.32373296
 21
222.919605
 31
0.0
  0
POLYLINE
  5
248
  8
0
 66
     1
 10
0.0
 20
0.0
 30
0.0
  0
VERTEX
  5
249
  8
0
 10
339.32373296
 20
222.919605
 30
0.0
  0
VERTEX
  5
24A
  8
0
 10
339.32373296
 20
130.919605
 30
0.0
  0
VERTEX
  5
24B
  8
0
 10
304.32373296
 20
130.919605
 30
0.0
  0
SEQEND
  5
24C
  8
0
  0
LINE
  5
24D
  8
0
  6
STRICHPUNKT2
 62
     1
 10
309.32373296
 20
210.419605
 30
0.0
 11
313.82373296
 21
210.419605
 31
0.0
  0
LINE
  5
24E
  8
0
  6
STRICHPUNKT2
 62
     1
 10
309.32373296
 20
210.419605
 30
0.0
 11
304.82373296
 21
210.419605
 31
0.0
  0
LINE
  5
24F
  8
0
  6
STRICHPUNKT2
 62
     1
 10
309.32373296
 20
210.419605
 30
0.0
 11
309.32373296
 21
214.919605
 31
0.0
  0
LINE
  5
250
  8
0
  6
STRICHPUNKT2
 62
     1
 10
309.32373296
 20
210.419605
 30
0.0
 11
309.32373296
 21
205.919605
 31
0.0
  0
LINE
  5
251
  8
0
  6
STRICHPUNKT2
 62
     1
 10
309.32373296
 20
195.419605
 30
0.0
 11
313.82373296
 21
195.419605
 31
0.0
  0
LINE
  5
252
  8
0
  6
STRICHPUNKT2
 62
     1
 10
309.32373296
 20
195.419605
 30
0.0
 11
304.82373296
 21
195.419605
 31
0.0
  0
LINE
  5
253
  8
0
  6
STRICHPUNKT2
 62
     1
 10
309.32373296
 20
195.419605
 30
0.0
 11
309.32373296
 21
199.919605
 31
0.0
  0
LINE
  5
254
  8
0
  6
STRICHPUNKT2
 62
     1
 10
309.32373296
 20
195.419605
 30
0.0
 11
309.32373296
 21
190.919605
 31
0.0
  0
LINE
  5
255
  8
0
  6
STRICHPUNKT2
 62
     1
 10
309.32373296
 20
180.419605
 30
0.0
 11
313.82373296
 21
180.419605
 31
0.0
  0
LINE
  5
256
  8
0
  6
STRICHPUNKT2
 62
     1
 10
309.32373296
 20
180.419605
 30
0.0
 11
304.82373296
 21
180.419605
 31
0.0
  0
LINE
  5
257
  8
0
  6
STRICHPUNKT2
 62
     1
 10
309.32373296
 20
180.419605
 30
0.0
 11
309.32373296
 21
184.919605
 31
0.0
  0
LINE
  5
258
  8
0
  6
STRICHPUNKT2
 62
     1
 10
309.32373296
 20
180.419605
 30
0.0
 11
309.32373296
 21
175.919605
 31
0.0
  0
LINE
  5
259
  8
0
  6
STRICHPUNKT2
 62
     1
 10
309.32373296
 20
162.919605
 30
0.0
 11
313.07373296
 21
162.919605
 31
0.0
  0
LINE
  5
25A
  8
0
  6
STRICHPUNKT2
 62
     1
 10
309.32373296
 20
162.919605
 30
0.0
 11
305.57373296
 21
162.919605
 31
0.0
  0
LINE
  5
25B
  8
0
  6
STRICHPUNKT2
 62
     1
 10
309.32373296
 20
162.919605
 30
0.0
 11
309.32373296
 21
166.669605
 31
0.0
  0
LINE
  5
25C
  8
0
  6
STRICHPUNKT2
 62
     1
 10
309.32373296
 20
162.919605
 30
0.0
 11
309.32373296
 21
159.169605
 31
0.0
  0
LINE
  5
25D
  8
0
  6
STRICHPUNKT2
 62
     1
 10
309.32373296
 20
147.919605
 30
0.0
 11
313.07373296
 21
147.919605
 31
0.0
  0
LINE
  5
25E
  8
0
  6
STRICHPUNKT2
 62
     1
 10
309.32373296
 20
147.919605
 30
0.0
 11
305.57373296
 21
147.919605
 31
0.0
  0
LINE
  5
25F
  8
0
  6
STRICHPUNKT2
 62
     1
 10
309.32373296
 20
147.919605
 30
0.0
 11
309.32373296
 21
151.669605
 31
0.0
  0
LINE
  5
260
  8
0
  6
STRICHPUNKT2
 62
     1
 10
309.32373296
 20
147.919605
 30
0.0
 11
309.32373296
 21
144.169605
 31
0.0
  0
LINE
  5
261
  8
0
  6
STRICHPUNKT2
 62
     1
 10
334.32373296
 20
154.419605
 30
0.0
 11
338.07373296
 21
154.419605
 31
0.0
  0
LINE
  5
262
  8
0
  6
STRICHPUNKT2
 62
     1
 10
334.32373296
 20
154.419605
 30
0.0
 11
330.57373296
 21
154.419605
 31
0.0
  0
LINE
  5
263
  8
0
  6
STRICHPUNKT2
 62
     1
 10
334.32373296
 20
154.419605
 30
0.0
 11
334.32373296
 21
158.169605
 31
0.0
  0
LINE
  5
264
  8
0
  6
STRICHPUNKT2
 62
     1
 10
334.32373296
 20
154.419605
 30
0.0
 11
334.32373296
 21
150.669605
 31
0.0
  0
LINE
  5
265
  8
0
  6
STRICHPUNKT2
 62
     1
 10
334.32373296
 20
169.419605
 30
0.0
 11
338.07373296
 21
169.419605
 31
0.0
  0
LINE
  5
266
  8
0
  6
STRICHPUNKT2
 62
     1
 10
334.32373296
 20
169.419605
 30
0.0
 11
330.57373296
 21
169.419605
 31
0.0
  0
LINE
  5
267
  8
0
  6
STRICHPUNKT2
 62
     1
 10
334.32373296
 20
169.419605
 30
0.0
 11
334.32373296
 21
173.169605
 31
0.0
  0
LINE
  5
268
  8
0
  6
STRICHPUNKT2
 62
     1
 10
334.32373296
 20
169.419605
 30
0.0
 11
334.32373296
 21
165.669605
 31
0.0
  0
LINE
  5
269
  8
0
  6
STRICHPUNKT2
 62
     1
 10
334.32373296
 20
186.919605
 30
0.0
 11
338.82373296
 21
186.919605
 31
0.0
  0
LINE
  5
26A
  8
0
  6
STRICHPUNKT2
 62
     1
 10
334.32373296
 20
186.919605
 30
0.0
 11
329.82373296
 21
186.919605
 31
0.0
  0
LINE
  5
26B
  8
0
  6
STRICHPUNKT2
 62
     1
 10
334.32373296
 20
186.919605
 30
0.0
 11
334.32373296
 21
191.419605
 31
0.0
  0
LINE
  5
26C
  8
0
  6
STRICHPUNKT2
 62
     1
 10
334.32373296
 20
186.919605
 30
0.0
 11
334.32373296
 21
182.419605
 31
0.0
  0
LINE
  5
26D
  8
0
  6
STRICHPUNKT2
 62
     1
 10
334.32373296
 20
201.919605
 30
0.0
 11
338.82373296
 21
201.919605
 31
0.0
  0
LINE
  5
26E
  8
0
  6
STRICHPUNKT2
 62
     1
 10
334.32373296
 20
201.919605
 30
0.0
 11
329.82373296
 21
201.919605
 31
0.0
  0
LINE
  5
26F
  8
0
  6
STRICHPUNKT2
 62
     1
 10
334.32373296
 20
201.919605
 30
0.0
 11
334.32373296
 21
206.419605
 31
0.0
  0
LINE
  5
270
  8
0
  6
STRICHPUNKT2
 62
     1
 10
334.32373296
 20
201.919605
 30
0.0
 11
334.32373296
 21
197.419605
 31
0.0
  0
LINE
  5
271
  8
0
  6
STRICHPUNKT2
 62
     1
 10
334.32373296
 20
216.919605
 30
0.0
 11
338.82373296
 21
216.919605
 31
0.0
  0
LINE
  5
272
  8
0
  6
STRICHPUNKT2
 62
     1
 10
334.32373296
 20
216.919605
 30
0.0
 11
329.82373296
 21
216.919605
 31
0.0
  0
LINE
  5
273
  8
0
  6
STRICHPUNKT2
 62
     1
 10
334.32373296
 20
216.919605
 30
0.0
 11
334.32373296
 21
221.419605
 31
0.0
  0
LINE
  5
274
  8
0
  6
STRICHPUNKT2
 62
     1
 10
334.32373296
 20
216.919605
 30
0.0
 11
334.32373296
 21
212.419605
 31
0.0
  0
LINE
  5
275
  8
0
  6
STRICHPUNKT2
 62
     1
 10
321.82373296
 20
212.919605
 30
0.0
 11
326.82373296
 21
212.919605
 31
0.0
  0
LINE
  5
276
  8
0
  6
STRICHPUNKT2
 62
     1
 10
321.82373296
 20
212.919605
 30
0.0
 11
316.82373296
 21
212.919605
 31
0.0
  0
LINE
  5
277
  8
0
  6
STRICHPUNKT2
 62
     1
 10
321.82373296
 20
212.919605
 30
0.0
 11
321.82373296
 21
217.919605
 31
0.0
  0
LINE
  5
278
  8
0
  6
STRICHPUNKT2
 62
     1
 10
321.82373296
 20
212.919605
 30
0.0
 11
321.82373296
 21
207.919605
 31
0.0
  0
LINE
  5
279
  8
0
  6
STRICHPUNKT2
 62
     1
 10
321.82373296
 20
185.419605
 30
0.0
 11
326.82373296
 21
185.419605
 31
0.0
  0
LINE
  5
27A
  8
0
  6
STRICHPUNKT2
 62
     1
 10
321.82373296
 20
185.419605
 30
0.0
 11
316.82373296
 21
185.419605
 31
0.0
  0
LINE
  5
27B
  8
0
  6
STRICHPUNKT2
 62
     1
 10
321.82373296
 20
185.419605
 30
0.0
 11
321.82373296
 21
190.419605
 31
0.0
  0
LINE
  5
27C
  8
0
  6
STRICHPUNKT2
 62
     1
 10
321.82373296
 20
185.419605
 30
0.0
 11
321.82373296
 21
180.419605
 31
0.0
  0
LINE
  5
27D
  8
0
  6
STRICHPUNKT2
 62
     1
 10
321.82373296
 20
157.919605
 30
0.0
 11
326.82373296
 21
157.919605
 31
0.0
  0
LINE
  5
27E
  8
0
  6
STRICHPUNKT2
 62
     1
 10
321.82373296
 20
157.919605
 30
0.0
 11
316.82373296
 21
157.919605
 31
0.0
  0
LINE
  5
27F
  8
0
  6
STRICHPUNKT2
 62
     1
 10
321.82373296
 20
157.919605
 30
0.0
 11
321.82373296
 21
162.919605
 31
0.0
  0
LINE
  5
280
  8
0
  6
STRICHPUNKT2
 62
     1
 10
321.82373296
 20
157.919605
 30
0.0
 11
321.82373296
 21
152.919605
 31
0.0
  0
POLYLINE
  5
281
  8
0
 66
     1
 10
0.0
 20
0.0
 30
0.0
  0
VERTEX
  5
282
  8
0
 10
339.32373296
 20
126.919605
 30
0.0
  0
VERTEX
  5
283
  8
0
 10
304.32373296
 20
126.919605
 30
0.0
  0
VERTEX
  5
284
  8
0
 10
304.32373296
 20
122.919605
 30
0.0
  0
SEQEND
  5
285
  8
0
  0
LINE
  5
286
  8
0
 10
339.32373296
 20
122.919605
 30
0.0
 11
304.32373296
 21
122.919605
 31
0.0
  0
LINE
  5
287
  8
0
 10
339.32373296
 20
126.919605
 30
0.0
 11
339.32373296
 21
122.919605
 31
0.0
  0
LINE
  5
288
  8
0
  6
STRICHPUNKT2
 62
     1
 10
321.82373296
 20
122.919605
 30
0.0
 11
321.82373296
 21
121.419605
 31
0.0
  0
LINE
  5
289
  8
0
  6
STRICHPUNKT2
 62
     1
 10
321.82373296
 20
128.419605
 30
0.0
 11
321.82373296
 21
126.919605
 31
0.0
  0
LINE
  5
28A
  8
0
 10
339.32373296
 20
130.919605
 30
0.0
 11
304.32373296
 21
130.919605
 31
0.0
  0
LINE
  5
28B
  8
0
 10
304.32373296
 20
126.919605
 30
0.0
 11
304.32373296
 21
130.919605
 31
0.0
  0
LINE
  5
28C
  8
0
 10
339.32373296
 20
130.919605
 30
0.0
 11
339.32373296
 21
126.919605
 31
0.0
  0
POLYLINE
  5
28D
  8
0
 66
     1
 10
0.0
 20
0.0
 30
0.0
  0
VERTEX
  5
28E
  8
0
 10
145.84406758
 20
130.919605
 30
0.0
  0
VERTEX
  5
28F
  8
0
 10
145.84406758
 20
222.919605
 30
0.0
  0
VERTEX
  5
290
  8
0
 10
141.84406758
 20
222.919605
 30
0.0
  0
SEQEND
  5
291
  8
0
  0
LINE
  5
292
  8
0
 10
141.84406758
 20
130.919605
 30
0.0
 11
141.84406758
 21
222.919605
 31
0.0
  0
LINE
  5
293
  8
0
  6
STRICHPUNKT2
 62
     1
 10
141.84406758
 20
210.419605
 30
0.0
 11
140.34406758
 21
210.419605
 31
0.0
  0
LINE
  5
294
  8
0
  6
STRICHPUNKT2
 62
     1
 10
147.34406758
 20
210.419605
 30
0.0
 11
145.84406758
 21
210.419605
 31
0.0
  0
LINE
  5
295
  8
0
  6
STRICHPUNKT2
 62
     1
 10
141.84406758
 20
157.919605
 30
0.0
 11
140.34406758
 21
157.919605
 31
0.0
  0
LINE
  5
296
  8
0
  6
STRICHPUNKT2
 62
     1
 10
147.34406758
 20
157.919605
 30
0.0
 11
145.84406758
 21
157.919605
 31
0.0
  0
LINE
  5
297
  8
0
  6
STRICHPUNKT2
 62
     1
 10
141.84406758
 20
154.419605
 30
0.0
 11
140.59406758
 21
154.419605
 31
0.0
  0
LINE
  5
298
  8
0
  6
STRICHPUNKT2
 62
     1
 10
147.09406758
 20
154.419605
 30
0.0
 11
145.84406758
 21
154.419605
 31
0.0
  0
LINE
  5
299
  8
0
  6
STRICHPUNKT2
 62
     1
 10
141.84406758
 20
212.919605
 30
0.0
 11
140.34406758
 21
212.919605
 31
0.0
  0
LINE
  5
29A
  8
0
  6
STRICHPUNKT2
 62
     1
 10
147.34406758
 20
212.919605
 30
0.0
 11
145.84406758
 21
212.919605
 31
0.0
  0
LINE
  5
29B
  8
0
  6
STRICHPUNKT2
 62
     1
 10
141.84406758
 20
162.919605
 30
0.0
 11
140.59406758
 21
162.919605
 31
0.0
  0
LINE
  5
29C
  8
0
  6
STRICHPUNKT2
 62
     1
 10
147.09406758
 20
162.919605
 30
0.0
 11
145.84406758
 21
162.919605
 31
0.0
  0
LINE
  5
29D
  8
0
  6
STRICHPUNKT2
 62
     1
 10
141.84406758
 20
147.919605
 30
0.0
 11
140.59406758
 21
147.919605
 31
0.0
  0
LINE
  5
29E
  8
0
  6
STRICHPUNKT2
 62
     1
 10
147.09406758
 20
147.919605
 30
0.0
 11
145.84406758
 21
147.919605
 31
0.0
  0
LINE
  5
29F
  8
0
  6
STRICHPUNKT2
 62
     1
 10
141.84406758
 20
216.919605
 30
0.0
 11
140.34406758
 21
216.919605
 31
0.0
  0
LINE
  5
2A0
  8
0
  6
STRICHPUNKT2
 62
     1
 10
147.34406758
 20
216.919605
 30
0.0
 11
145.84406758
 21
216.919605
 31
0.0
  0
LINE
  5
2A1
  8
0
  6
STRICHPUNKT2
 62
     1
 10
141.84406758
 20
201.919605
 30
0.0
 11
140.34406758
 21
201.919605
 31
0.0
  0
LINE
  5
2A2
  8
0
  6
STRICHPUNKT2
 62
     1
 10
147.34406758
 20
201.919605
 30
0.0
 11
145.84406758
 21
201.919605
 31
0.0
  0
LINE
  5
2A3
  8
0
  6
STRICHPUNKT2
 62
     1
 10
141.84406758
 20
180.419605
 30
0.0
 11
140.34406758
 21
180.419605
 31
0.0
  0
LINE
  5
2A4
  8
0
  6
STRICHPUNKT2
 62
     1
 10
147.34406758
 20
180.419605
 30
0.0
 11
145.84406758
 21
180.419605
 31
0.0
  0
LINE
  5
2A5
  8
0
  6
STRICHPUNKT2
 62
     1
 10
141.84406758
 20
195.419605
 30
0.0
 11
140.34406758
 21
195.419605
 31
0.0
  0
LINE
  5
2A6
  8
0
  6
STRICHPUNKT2
 62
     1
 10
147.34406758
 20
195.419605
 30
0.0
 11
145.84406758
 21
195.419605
 31
0.0
  0
LINE
  5
2A7
  8
0
  6
STRICHPUNKT2
 62
     1
 10
141.84406758
 20
185.419605
 30
0.0
 11
140.34406758
 21
185.419605
 31
0.0
  0
LINE
  5
2A8
  8
0
  6
STRICHPUNKT2
 62
     1
 10
147.34406758
 20
185.419605
 30
0.0
 11
145.84406758
 21
185.419605
 31
0.0
  0
LINE
  5
2A9
  8
0
  6
STRICHPUNKT2
 62
     1
 10
141.84406758
 20
169.419605
 30
0.0
 11
140.59406758
 21
169.419605
 31
0.0
  0
LINE
  5
2AA
  8
0
  6
STRICHPUNKT2
 62
     1
 10
147.09406758
 20
169.419605
 30
0.0
 11
145.84406758
 21
169.419605
 31
0.0
  0
LINE
  5
2AB
  8
0
  6
STRICHPUNKT2
 62
     1
 10
141.84406758
 20
186.919605
 30
0.0
 11
140.34406758
 21
186.919605
 31
0.0
  0
LINE
  5
2AC
  8
0
  6
STRICHPUNKT2
 62
     1
 10
147.34406758
 20
186.919605
 30
0.0
 11
145.84406758
 21
186.919605
 31
0.0
  0
POLYLINE
  5
2AD
  8
0
 66
     1
 10
0.0
 20
0.0
 30
0.0
  0
VERTEX
  5
2AE
  8
0
 10
149.84406758
 20
126.919605
 30
0.0
  0
VERTEX
  5
2AF
  8
0
 10
246.84406758
 20
126.919605
 30
0.0
  0
VERTEX
  5
2B0
  8
0
 10
246.84406758
 20
122.919605
 30
0.0
  0
SEQEND
  5
2B1
  8
0
  0
LINE
  5
2B2
  8
0
 10
149.84406758
 20
122.919605
 30
0.0
 11
246.84406758
 21
122.919605
 31
0.0
  0
LINE
  5
2B3
  8
0
  6
STRICHPUNKT2
 62
     1
 10
174.34406758
 20
122.919605
 30
0.0
 11
174.34406758
 21
121.419605
 31
0.0
  0
LINE
  5
2B4
  8
0
  6
STRICHPUNKT2
 62
     1
 10
174.34406758
 20
128.419605
 30
0.0
 11
174.34406758
 21
126.919605
 31
0.0
  0
LINE
  5
2B5
  8
0
  6
STRICHPUNKT2
 62
     1
 10
203.84406758
 20
122.919605
 30
0.0
 11
203.84406758
 21
121.419605
 31
0.0
  0
LINE
  5
2B6
  8
0
  6
STRICHPUNKT2
 62
     1
 10
203.84406758
 20
128.419605
 30
0.0
 11
203.84406758
 21
126.919605
 31
0.0
  0
LINE
  5
2B7
  8
0
  6
STRICHPUNKT2
 62
     1
 10
229.84406758
 20
122.919605
 30
0.0
 11
229.84406758
 21
121.419605
 31
0.0
  0
LINE
  5
2B8
  8
0
  6
STRICHPUNKT2
 62
     1
 10
229.84406758
 20
128.419605
 30
0.0
 11
229.84406758
 21
126.919605
 31
0.0
  0
ARC
  5
2B9
  8
0
 10
149.84406758
 20
130.919605
 30
0.0
 40
4.0
 50
180.0
 51
-90.0
  0
ARC
  5
2BA
  8
0
 10
149.84406758
 20
130.919605
 30
0.0
 40
8.0
 50
180.0
 51
-90.0
  0
CIRCLE
  5
2BB
  8
0
 10
68.98954562
 20
157.919605
 30
0.0
 40
3.5
  0
CIRCLE
  5
2BC
  8
0
 10
68.98954562
 20
185.419605
 30
0.0
 40
3.5
  0
CIRCLE
  5
2BD
  8
0
 10
68.98954562
 20
212.919605
 30
0.0
 40
3.5
  0
CIRCLE
  5
2BE
  8
0
 10
56.48954562
 20
216.919605
 30
0.0
 40
3.0
  0
CIRCLE
  5
2BF
  8
0
 10
56.48954562
 20
201.919605
 30
0.0
 40
3.0
  0
CIRCLE
  5
2C0
  8
0
 10
56.48954562
 20
186.919605
 30
0.0
 40
3.0
  0
CIRCLE
  5
2C1
  8
0
 10
56.48954562
 20
169.419605
 30
0.0
 40
2.5
  0
CIRCLE
  5
2C2
  8
0
 10
56.48954562
 20
154.419605
 30
0.0
 40
2.5
  0
CIRCLE
  5
2C3
  8
0
 10
81.48954562
 20
147.919605
 30
0.0
 40
2.5
  0
CIRCLE
  5
2C4
  8
0
 10
81.48954562
 20
162.919605
 30
0.0
 40
2.5
  0
CIRCLE
  5
2C5
  8
0
 10
81.48954562
 20
180.419605
 30
0.0
 40
3.0
  0
CIRCLE
  5
2C6
  8
0
 10
81.48954562
 20
195.419605
 30
0.0
 40
3.0
  0
CIRCLE
  5
2C7
  8
0
 10
81.48954562
 20
210.419605
 30
0.0
 40
3.0
  0
LINE
  5
2C8
  8
0
 10
51.48954562
 20
222.919605
 30
0.0
 11
86.48954562
 21
222.919605
 31
0.0
  0
LINE
  5
2C9
  8
0
 10
86.48954562
 20
130.919605
 30
0.0
 11
86.48954562
 21
222.919605
 31
0.0
  0
LINE
  5
2CA
  8
0
 10
51.48954562
 20
130.919605
 30
0.0
 11
86.48954562
 21
130.919605
 31
0.0
  0
LINE
  5
2CB
  8
0
 10
51.48954562
 20
222.919605
 30
0.0
 11
51.48954562
 21
130.919605
 31
0.0
  0
LINE
  5
2CC
  8
0
  6
STRICHPUNKT2
 62
     1
 10
81.48954562
 20
210.419605
 30
0.0
 11
76.98954562
 21
210.419605
 31
0.0
  0
LINE
  5
2CD
  8
0
  6
STRICHPUNKT2
 62
     1
 10
81.48954562
 20
210.419605
 30
0.0
 11
85.98954562
 21
210.419605
 31
0.0
  0
LINE
  5
2CE
  8
0
  6
STRICHPUNKT2
 62
     1
 10
81.48954562
 20
210.419605
 30
0.0
 11
81.48954562
 21
214.919605
 31
0.0
  0
LINE
  5
2CF
  8
0
  6
STRICHPUNKT2
 62
     1
 10
81.48954562
 20
210.419605
 30
0.0
 11
81.48954562
 21
205.919605
 31
0.0
  0
LINE
  5
2D0
  8
0
  6
STRICHPUNKT2
 62
     1
 10
81.48954562
 20
195.419605
 30
0.0
 11
76.98954562
 21
195.419605
 31
0.0
  0
LINE
  5
2D1
  8
0
  6
STRICHPUNKT2
 62
     1
 10
81.48954562
 20
195.419605
 30
0.0
 11
85.98954562
 21
195.419605
 31
0.0
  0
LINE
  5
2D2
  8
0
  6
STRICHPUNKT2
 62
     1
 10
81.48954562
 20
195.419605
 30
0.0
 11
81.48954562
 21
199.919605
 31
0.0
  0
LINE
  5
2D3
  8
0
  6
STRICHPUNKT2
 62
     1
 10
81.48954562
 20
195.419605
 30
0.0
 11
81.48954562
 21
190.919605
 31
0.0
  0
LINE
  5
2D4
  8
0
  6
STRICHPUNKT2
 62
     1
 10
81.48954562
 20
180.419605
 30
0.0
 11
76.98954562
 21
180.419605
 31
0.0
  0
LINE
  5
2D5
  8
0
  6
STRICHPUNKT2
 62
     1
 10
81.48954562
 20
180.419605
 30
0.0
 11
85.98954562
 21
180.419605
 31
0.0
  0
LINE
  5
2D6
  8
0
  6
STRICHPUNKT2
 62
     1
 10
81.48954562
 20
180.419605
 30
0.0
 11
81.48954562
 21
184.919605
 31
0.0
  0
LINE
  5
2D7
  8
0
  6
STRICHPUNKT2
 62
     1
 10
81.48954562
 20
180.419605
 30
0.0
 11
81.48954562
 21
175.919605
 31
0.0
  0
LINE
  5
2D8
  8
0
  6
STRICHPUNKT2
 62
     1
 10
81.48954562
 20
162.919605
 30
0.0
 11
77.73954562
 21
162.919605
 31
0.0
  0
LINE
  5
2D9
  8
0
  6
STRICHPUNKT2
 62
     1
 10
81.48954562
 20
162.919605
 30
0.0
 11
85.23954562
 21
162.919605
 31
0.0
  0
LINE
  5
2DA
  8
0
  6
STRICHPUNKT2
 62
     1
 10
81.48954562
 20
162.919605
 30
0.0
 11
81.48954562
 21
166.669605
 31
0.0
  0
LINE
  5
2DB
  8
0
  6
STRICHPUNKT2
 62
     1
 10
81.48954562
 20
162.919605
 30
0.0
 11
81.48954562
 21
159.169605
 31
0.0
  0
LINE
  5
2DC
  8
0
  6
STRICHPUNKT2
 62
     1
 10
81.48954562
 20
147.919605
 30
0.0
 11
77.73954562
 21
147.919605
 31
0.0
  0
LINE
  5
2DD
  8
0
  6
STRICHPUNKT2
 62
     1
 10
81.48954562
 20
147.919605
 30
0.0
 11
85.23954562
 21
147.919605
 31
0.0
  0
LINE
  5
2DE
  8
0
  6
STRICHPUNKT2
 62
     1
 10
81.48954562
 20
147.919605
 30
0.0
 11
81.48954562
 21
151.669605
 31
0.0
  0
LINE
  5
2DF
  8
0
  6
STRICHPUNKT2
 62
     1
 10
81.48954562
 20
147.919605
 30
0.0
 11
81.48954562
 21
144.169605
 31
0.0
  0
LINE
  5
2E0
  8
0
  6
STRICHPUNKT2
 62
     1
 10
56.48954562
 20
154.419605
 30
0.0
 11
52.73954562
 21
154.419605
 31
0.0
  0
LINE
  5
2E1
  8
0
  6
STRICHPUNKT2
 62
     1
 10
56.48954562
 20
154.419605
 30
0.0
 11
60.23954562
 21
154.419605
 31
0.0
  0
LINE
  5
2E2
  8
0
  6
STRICHPUNKT2
 62
     1
 10
56.48954562
 20
154.419605
 30
0.0
 11
56.48954562
 21
158.169605
 31
0.0
  0
LINE
  5
2E3
  8
0
  6
STRICHPUNKT2
 62
     1
 10
56.48954562
 20
154.419605
 30
0.0
 11
56.48954562
 21
150.669605
 31
0.0
  0
LINE
  5
2E4
  8
0
  6
STRICHPUNKT2
 62
     1
 10
56.48954562
 20
169.419605
 30
0.0
 11
52.73954562
 21
169.419605
 31
0.0
  0
LINE
  5
2E5
  8
0
  6
STRICHPUNKT2
 62
     1
 10
56.48954562
 20
169.419605
 30
0.0
 11
60.23954562
 21
169.419605
 31
0.0
  0
LINE
  5
2E6
  8
0
  6
STRICHPUNKT2
 62
     1
 10
56.48954562
 20
169.419605
 30
0.0
 11
56.48954562
 21
173.169605
 31
0.0
  0
LINE
  5
2E7
  8
0
  6
STRICHPUNKT2
 62
     1
 10
56.48954562
 20
169.419605
 30
0.0
 11
56.48954562
 21
165.669605
 31
0.0
  0
LINE
  5
2E8
  8
0
  6
STRICHPUNKT2
 62
     1
 10
56.48954562
 20
186.919605
 30
0.0
 11
51.98954562
 21
186.919605
 31
0.0
  0
LINE
  5
2E9
  8
0
  6
STRICHPUNKT2
 62
     1
 10
56.48954562
 20
186.919605
 30
0.0
 11
60.98954562
 21
186.919605
 31
0.0
  0
LINE
  5
2EA
  8
0
  6
STRICHPUNKT2
 62
     1
 10
56.48954562
 20
186.919605
 30
0.0
 11
56.48954562
 21
191.419605
 31
0.0
  0
LINE
  5
2EB
  8
0
  6
STRICHPUNKT2
 62
     1
 10
56.48954562
 20
186.919605
 30
0.0
 11
56.48954562
 21
182.419605
 31
0.0
  0
LINE
  5
2EC
  8
0
  6
STRICHPUNKT2
 62
     1
 10
56.48954562
 20
201.919605
 30
0.0
 11
51.98954562
 21
201.919605
 31
0.0
  0
LINE
  5
2ED
  8
0
  6
STRICHPUNKT2
 62
     1
 10
56.48954562
 20
201.919605
 30
0.0
 11
60.98954562
 21
201.919605
 31
0.0
  0
LINE
  5
2EE
  8
0
  6
STRICHPUNKT2
 62
     1
 10
56.48954562
 20
201.919605
 30
0.0
 11
56.48954562
 21
206.419605
 31
0.0
  0
LINE
  5
2EF
  8
0
  6
STRICHPUNKT2
 62
     1
 10
56.48954562
 20
201.919605
 30
0.0
 11
56.48954562
 21
197.419605
 31
0.0
  0
LINE
  5
2F0
  8
0
  6
STRICHPUNKT2
 62
     1
 10
56.48954562
 20
216.919605
 30
0.0
 11
51.98954562
 21
216.919605
 31
0.0
  0
LINE
  5
2F1
  8
0
  6
STRICHPUNKT2
 62
     1
 10
56.48954562
 20
216.919605
 30
0.0
 11
60.98954562
 21
216.919605
 31
0.0
  0
LINE
  5
2F2
  8
0
  6
STRICHPUNKT2
 62
     1
 10
56.48954562
 20
216.919605
 30
0.0
 11
56.48954562
 21
221.419605
 31
0.0
  0
LINE
  5
2F3
  8
0
  6
STRICHPUNKT2
 62
     1
 10
56.48954562
 20
216.919605
 30
0.0
 11
56.48954562
 21
212.419605
 31
0.0
  0
LINE
  5
2F4
  8
0
  6
STRICHPUNKT2
 62
     1
 10
68.98954562
 20
212.919605
 30
0.0
 11
63.98954562
 21
212.919605
 31
0.0
  0
LINE
  5
2F5
  8
0
  6
STRICHPUNKT2
 62
     1
 10
68.98954562
 20
212.919605
 30
0.0
 11
73.98954562
 21
212.919605
 31
0.0
  0
LINE
  5
2F6
  8
0
  6
STRICHPUNKT2
 62
     1
 10
68.98954562
 20
212.919605
 30
0.0
 11
68.98954562
 21
217.919605
 31
0.0
  0
LINE
  5
2F7
  8
0
  6
STRICHPUNKT2
 62
     1
 10
68.98954562
 20
212.919605
 30
0.0
 11
68.98954562
 21
207.919605
 31
0.0
  0
LINE
  5
2F8
  8
0
  6
STRICHPUNKT2
 62
     1
 10
68.98954562
 20
185.419605
 30
0.0
 11
63.98954562
 21
185.419605
 31
0.0
  0
LINE
  5
2F9
  8
0
  6
STRICHPUNKT2
 62
     1
 10
68.98954562
 20
185.419605
 30
0.0
 11
73.98954562
 21
185.419605
 31
0.0
  0
LINE
  5
2FA
  8
0
  6
STRICHPUNKT2
 62
     1
 10
68.98954562
 20
185.419605
 30
0.0
 11
68.98954562
 21
190.419605
 31
0.0
  0
LINE
  5
2FB
  8
0
  6
STRICHPUNKT2
 62
     1
 10
68.98954562
 20
185.419605
 30
0.0
 11
68.98954562
 21
180.419605
 31
0.0
  0
LINE
  5
2FC
  8
0
  6
STRICHPUNKT2
 62
     1
 10
68.98954562
 20
157.919605
 30
0.0
 11
63.98954562
 21
157.919605
 31
0.0
  0
LINE
  5
2FD
  8
0
  6
STRICHPUNKT2
 62
     1
 10
68.98954562
 20
157.919605
 30
0.0
 11
73.98954562
 21
157.919605
 31
0.0
  0
LINE
  5
2FE
  8
0
  6
STRICHPUNKT2
 62
     1
 10
68.98954562
 20
157.919605
 30
0.0
 11
68.98954562
 21
162.919605
 31
0.0
  0
LINE
  5
2FF
  8
0
  6
STRICHPUNKT2
 62
     1
 10
68.98954562
 20
157.919605
 30
0.0
 11
68.98954562
 21
152.919605
 31
0.0
  0
LINE
  5
300
  8
0
 10
51.48954562
 20
122.919605
 30
0.0
 11
86.48954562
 21
122.919605
 31
0.0
  0
LINE
  5
301
  8
0
  6
STRICHPUNKT2
 62
     1
 10
68.98954562
 20
122.919605
 30
0.0
 11
68.98954562
 21
121.419605
 31
0.0
  0
LINE
  5
302
  8
0
 10
51.48954562
 20
130.919605
 30
0.0
 11
86.48954562
 21
130.919605
 31
0.0
  0
LINE
  5
303
  8
0
 10
86.48954562
 20
122.919605
 30
0.0
 11
86.48954562
 21
130.919605
 31
0.0
  0
LINE
  5
304
  8
0
 10
51.48954562
 20
122.919605
 30
0.0
 11
86.48954562
 21
122.919605
 31
0.0
  0
LINE
  5
305
  8
0
 10
51.48954562
 20
130.919605
 30
0.0
 11
51.48954562
 21
122.919605
 31
0.0
  0
POLYLINE
  5
306
  8
0
 66
     1
 10
0.0
 20
0.0
 30
0.0
  0
VERTEX
  5
307
  8
0
 10
145.84406758
 20
84.59101569
 30
0.0
  0
VERTEX
  5
308
  8
0
 10
145.84406758
 20
49.59101569
 30
0.0
  0
VERTEX
  5
309
  8
0
 10
141.84406758
 20
49.59101569
 30
0.0
  0
SEQEND
  5
30A
  8
0
  0
LINE
  5
30B
  8
0
 10
141.84406758
 20
84.59101569
 30
0.0
 11
141.84406758
 21
49.59101569
 31
0.0
  0
LINE
  5
30C
  8
0
 10
145.84406758
 20
84.59101569
 30
0.0
 11
141.84406758
 21
84.59101569
 31
0.0
  0
LINE
  5
30D
  8
0
  6
STRICHPUNKT2
 62
     1
 10
141.84406758
 20
54.59101569
 30
0.0
 11
140.34406758
 21
54.59101569
 31
0.0
  0
LINE
  5
30E
  8
0
  6
STRICHPUNKT2
 62
     1
 10
147.34406758
 20
54.59101569
 30
0.0
 11
145.84406758
 21
54.59101569
 31
0.0
  0
LINE
  5
30F
  8
0
  6
STRICHPUNKT2
 62
     1
 10
141.84406758
 20
79.59101569
 30
0.0
 11
140.34406758
 21
79.59101569
 31
0.0
  0
LINE
  5
310
  8
0
  6
STRICHPUNKT2
 62
     1
 10
147.34406758
 20
79.59101569
 30
0.0
 11
145.84406758
 21
79.59101569
 31
0.0
  0
LINE
  5
311
  8
0
  6
STRICHPUNKT2
 62
     1
 10
141.84406758
 20
67.09101569
 30
0.0
 11
140.34406758
 21
67.09101569
 31
0.0
  0
LINE
  5
312
  8
0
  6
STRICHPUNKT2
 62
     1
 10
147.34406758
 20
67.09101569
 30
0.0
 11
145.84406758
 21
67.09101569
 31
0.0
  0
POLYLINE
  5
313
  8
0
 66
     1
 10
0.0
 20
0.0
 30
0.0
 70
     1
  0
VERTEX
  5
314
  8
0
 10
203.84406758
 20
62.59101569
 30
0.0
 42
-1.0
  0
VERTEX
  5
315
  8
0
 10
203.84406758
 20
71.59101569
 30
0.0
  0
VERTEX
  5
316
  8
0
 10
229.84406758
 20
71.59101569
 30
0.0
 42
-1.0
  0
VERTEX
  5
317
  8
0
 10
229.84406758
 20
62.59101569
 30
0.0
  0
SEQEND
  5
318
  8
0
  0
CIRCLE
  5
319
  8
0
 10
174.34406758
 20
67.09101569
 30
0.0
 40
3.5
  0
LINE
  5
31A
  8
0
 10
149.84406758
 20
49.59101569
 30
0.0
 11
246.84406758
 21
49.59101569
 31
0.0
  0
LINE
  5
31B
  8
0
 10
246.84406758
 20
84.59101569
 30
0.0
 11
246.84406758
 21
49.59101569
 31
0.0
  0
POLYLINE
  5
31C
  8
0
 66
     1
 10
0.0
 20
0.0
 30
0.0
  0
VERTEX
  5
31D
  8
0
 10
246.84406758
 20
84.59101569
 30
0.0
  0
VERTEX
  5
31E
  8
0
 10
149.84406758
 20
84.59101569
 30
0.0
  0
VERTEX
  5
31F
  8
0
 10
149.84406758
 20
49.59101569
 30
0.0
  0
SEQEND
  5
320
  8
0
  0
LINE
  5
321
  8
0
  6
STRICHPUNKT2
 62
     1
 10
174.34406758
 20
67.09101569
 30
0.0
 11
179.34406758
 21
67.09101569
 31
0.0
  0
LINE
  5
322
  8
0
  6
STRICHPUNKT2
 62
     1
 10
174.34406758
 20
67.09101569
 30
0.0
 11
169.34406758
 21
67.09101569
 31
0.0
  0
LINE
  5
323
  8
0
  6
STRICHPUNKT2
 62
     1
 10
174.34406758
 20
67.09101569
 30
0.0
 11
174.34406758
 21
72.09101569
 31
0.0
  0
LINE
  5
324
  8
0
  6
STRICHPUNKT2
 62
     1
 10
174.34406758
 20
67.09101569
 30
0.0
 11
174.34406758
 21
62.09101569
 31
0.0
  0
LINE
  5
325
  8
0
  6
STRICHPUNKT2
 62
     1
 10
197.84406758
 20
67.09101569
 30
0.0
 11
235.84406758
 21
67.09101569
 31
0.0
  0
LINE
  5
326
  8
0
  6
STRICHPUNKT2
 62
     1
 10
203.84406758
 20
61.09101569
 30
0.0
 11
203.84406758
 21
73.09101569
 31
0.0
  0
LINE
  5
327
  8
0
  6
STRICHPUNKT2
 62
     1
 10
229.84406758
 20
61.09101569
 30
0.0
 11
229.84406758
 21
73.09101569
 31
0.0
  0
POLYLINE
  5
328
  8
0
 66
     1
 10
0.0
 20
0.0
 30
0.0
  0
VERTEX
  5
329
  8
0
 10
145.84406758
 20
84.59101569
 30
0.0
  0
VERTEX
  5
32A
  8
0
 10
149.84406758
 20
84.59101569
 30
0.0
  0
VERTEX
  5
32B
  8
0
 10
149.84406758
 20
49.59101569
 30
0.0
  0
VERTEX
  5
32C
  8
0
 10
145.84406758
 20
49.59101569
 30
0.0
  0
SEQEND
  5
32D
  8
0
  0
TEXT
  5
32E
  8
TXT_DIM49
 10
130.34406758
 20
170.03985189
 30
0.0
 40
2.5
  1
200
 50
90.00020741
  7
ARIAL
  0
LINE
  5
32F
  8
0
 62
     4
 10
132.84406758
 20
221.919605
 30
0.0
 11
130.84406758
 21
223.919605
 31
0.0
  0
LINE
  5
330
  8
0
 62
     4
 10
131.09406758
 20
123.669605
 30
0.0
 11
132.59406758
 21
122.169605
 31
0.0
  0
LINE
  5
331
  8
0
 62
     4
 10
131.84406758
 20
222.919605
 30
0.0
 11
131.84406758
 21
122.919605
 31
0.0
  0
LINE
  5
332
  8
0
 62
     4
 10
133.84406758
 20
222.919605
 30
0.0
 11
129.84406758
 21
222.919605
 31
0.0
  0
LINE
  5
333
  8
0
 62
     4
 10
133.84406758
 20
122.919605
 30
0.0
 11
129.84406758
 21
122.919605
 31
0.0
  0
TEXT
  5
334
  8
TXT_DIM49
 10
191.46431447
 20
115.37629376
 30
0.0
 40
2.5
  1
210
  7
ARIAL
  0
LINE
  5
335
  8
0
 62
     4
 10
142.84406758
 20
114.87629376
 30
0.0
 11
140.84406758
 21
112.87629376
 31
0.0
  0
LINE
  5
336
  8
0
 62
     4
 10
246.09406758
 20
113.12629376
 30
0.0
 11
247.59406758
 21
114.62629376
 31
0.0
  0
LINE
  5
337
  8
0
 62
     4
 10
141.84406758
 20
113.87629376
 30
0.0
 11
246.84406758
 21
113.87629376
 31
0.0
  0
LINE
  5
338
  8
0
 62
     4
 10
141.84406758
 20
115.87629376
 30
0.0
 11
141.84406758
 21
111.87629376
 31
0.0
  0
LINE
  5
339
  8
0
 62
     4
 10
246.84406758
 20
115.87629376
 30
0.0
 11
246.84406758
 21
111.87629376
 31
0.0
  0
TEXT
  5
33A
  8
TXT_DIM49
 10
252.22351938
 20
123.95968728
 30
0.0
 40
2.5
  1
8
 50
90.00020741
  7
ARIAL
  0
LINE
  5
33B
  8
0
 62
     4
 10
254.72351938
 20
125.919605
 30
0.0
 11
252.72351938
 21
127.919605
 31
0.0
  0
LINE
  5
33C
  8
0
 62
     4
 10
252.97351938
 20
123.669605
 30
0.0
 11
254.47351938
 21
122.169605
 31
0.0
  0
LINE
  5
33D
  8
0
 62
     4
 10
253.72351938
 20
126.919605
 30
0.0
 11
253.72351938
 21
122.919605
 31
0.0
  0
LINE
  5
33E
  8
0
 62
     4
 10
251.72351938
 20
126.919605
 30
0.0
 11
255.72351938
 21
126.919605
 31
0.0
  0
LINE
  5
33F
  8
0
 62
     4
 10
251.72351938
 20
122.919605
 30
0.0
 11
255.72351938
 21
122.919605
 31
0.0
  0
TEXT
  5
340
  8
TXT_DIM49
 10
142.88414986
 20
228.72918963
 30
0.0
 40
2.5
  1
8
  7
ARIAL
  0
LINE
  5
341
  8
0
 62
     4
 10
142.84406758
 20
228.22918963
 30
0.0
 11
140.84406758
 21
226.22918963
 31
0.0
  0
LINE
  5
342
  8
0
 62
     4
 10
145.09406758
 20
226.47918963
 30
0.0
 11
146.59406758
 21
227.97918963
 31
0.0
  0
LINE
  5
343
  8
0
 62
     4
 10
141.84406758
 20
227.22918963
 30
0.0
 11
145.84406758
 21
227.22918963
 31
0.0
  0
LINE
  5
344
  8
0
 62
     4
 10
141.84406758
 20
225.22918963
 30
0.0
 11
141.84406758
 21
229.22918963
 31
0.0
  0
LINE
  5
345
  8
0
 62
     4
 10
145.84406758
 20
225.22918963
 30
0.0
 11
145.84406758
 21
229.22918963
 31
0.0
  0
TEXT
  5
346
  8
TXT_DIM49
 10
82.06971017
 20
228.86328079
 30
0.0
 40
2.5
  1
10
  7
ARIAL
  0
LINE
  5
347
  8
0
 62
     4
 10
85.48954562
 20
226.36328079
 30
0.0
 11
87.48954562
 21
228.36328079
 31
0.0
  0
LINE
  5
348
  8
0
 62
     4
 10
82.23954562
 20
228.11328079
 30
0.0
 11
80.73954562
 21
226.61328079
 31
0.0
  0
LINE
  5
349
  8
0
 62
     4
 10
86.48954562
 20
227.36328079
 30
0.0
 11
81.48954562
 21
227.36328079
 31
0.0
  0
LINE
  5
34A
  8
0
 62
     4
 10
86.48954562
 20
225.36328079
 30
0.0
 11
86.48954562
 21
229.36328079
 31
0.0
  0
LINE
  5
34B
  8
0
 62
     4
 10
81.48954562
 20
225.36328079
 30
0.0
 11
81.48954562
 21
229.36328079
 31
0.0
  0
TEXT
  5
34C
  8
TXT_DIM49
 10
73.31971017
 20
228.86328079
 30
0.0
 40
2.5
  1
25
  7
ARIAL
  0
LINE
  5
34D
  8
0
 62
     4
 10
80.48954562
 20
226.36328079
 30
0.0
 11
82.48954562
 21
228.36328079
 31
0.0
  0
LINE
  5
34E
  8
0
 62
     4
 10
69.73954562
 20
228.11328079
 30
0.0
 11
68.23954562
 21
226.61328079
 31
0.0
  0
LINE
  5
34F
  8
0
 62
     4
 10
81.48954562
 20
227.36328079
 30
0.0
 11
68.98954562
 21
227.36328079
 31
0.0
  0
LINE
  5
350
  8
0
 62
     4
 10
81.48954562
 20
225.36328079
 30
0.0
 11
81.48954562
 21
229.36328079
 31
0.0
  0
LINE
  5
351
  8
0
 62
     4
 10
68.98954562
 20
225.36328079
 30
0.0
 11
68.98954562
 21
229.36328079
 31
0.0
  0
TEXT
  5
352
  8
TXT_DIM49
 10
60.81971017
 20
228.86328079
 30
0.0
 40
2.5
  1
25
  7
ARIAL
  0
LINE
  5
353
  8
0
 62
     4
 10
67.98954562
 20
226.36328079
 30
0.0
 11
69.98954562
 21
228.36328079
 31
0.0
  0
LINE
  5
354
  8
0
 62
     4
 10
57.23954562
 20
228.11328079
 30
0.0
 11
55.73954562
 21
226.61328079
 31
0.0
  0
LINE
  5
355
  8
0
 62
     4
 10
68.98954562
 20
227.36328079
 30
0.0
 11
56.48954562
 21
227.36328079
 31
0.0
  0
LINE
  5
356
  8
0
 62
     4
 10
68.98954562
 20
225.36328079
 30
0.0
 11
68.98954562
 21
229.36328079
 31
0.0
  0
LINE
  5
357
  8
0
 62
     4
 10
56.48954562
 20
225.36328079
 30
0.0
 11
56.48954562
 21
229.36328079
 31
0.0
  0
TEXT
  5
358
  8
TXT_DIM49
 10
52.06971017
 20
228.86328079
 30
0.0
 40
2.5
  1
10
  7
ARIAL
  0
LINE
  5
359
  8
0
 62
     4
 10
55.48954562
 20
226.36328079
 30
0.0
 11
57.48954562
 21
228.36328079
 31
0.0
  0
LINE
  5
35A
  8
0
 62
     4
 10
52.23954562
 20
228.11328079
 30
0.0
 11
50.73954562
 21
226.61328079
 31
0.0
  0
LINE
  5
35B
  8
0
 62
     4
 10
56.48954562
 20
227.36328079
 30
0.0
 11
51.48954562
 21
227.36328079
 31
0.0
  0
LINE
  5
35C
  8
0
 62
     4
 10
56.48954562
 20
225.36328079
 30
0.0
 11
56.48954562
 21
229.36328079
 31
0.0
  0
LINE
  5
35D
  8
0
 62
     4
 10
51.48954562
 20
225.36328079
 30
0.0
 11
51.48954562
 21
229.36328079
 31
0.0
  0
TEXT
  5
35E
  8
TXT_DIM49
 10
92.37344436
 20
214.74976955
 30
0.0
 40
2.5
  1
25
 50
90.00020741
  7
ARIAL
  0
LINE
  5
35F
  8
0
 62
     4
 10
94.87344436
 20
221.919605
 30
0.0
 11
92.87344436
 21
223.919605
 31
0.0
  0
LINE
  5
360
  8
0
 62
     4
 10
93.12344436
 20
211.169605
 30
0.0
 11
94.62344436
 21
209.669605
 31
0.0
  0
LINE
  5
361
  8
0
 62
     4
 10
93.87344436
 20
222.919605
 30
0.0
 11
93.87344436
 21
210.419605
 31
0.0
  0
LINE
  5
362
  8
0
 62
     4
 10
91.87344436
 20
222.919605
 30
0.0
 11
95.87344436
 21
222.919605
 31
0.0
  0
LINE
  5
363
  8
0
 62
     4
 10
91.87344436
 20
210.419605
 30
0.0
 11
95.87344436
 21
210.419605
 31
0.0
  0
TEXT
  5
364
  8
TXT_DIM49
 10
92.37344436
 20
200.99976955
 30
0.0
 40
2.5
  1
30
 50
90.00020741
  7
ARIAL
  0
LINE
  5
365
  8
0
 62
     4
 10
94.87344436
 20
209.419605
 30
0.0
 11
92.87344436
 21
211.419605
 31
0.0
  0
LINE
  5
366
  8
0
 62
     4
 10
93.12344436
 20
196.169605
 30
0.0
 11
94.62344436
 21
194.669605
 31
0.0
  0
LINE
  5
367
  8
0
 62
     4
 10
93.87344436
 20
210.419605
 30
0.0
 11
93.87344436
 21
195.419605
 31
0.0
  0
LINE
  5
368
  8
0
 62
     4
 10
91.87344436
 20
210.419605
 30
0.0
 11
95.87344436
 21
210.419605
 31
0.0
  0
LINE
  5
369
  8
0
 62
     4
 10
91.87344436
 20
195.419605
 30
0.0
 11
95.87344436
 21
195.419605
 31
0.0
  0
TEXT
  5
36A
  8
TXT_DIM49
 10
92.37344436
 20
185.99976955
 30
0.0
 40
2.5
  1
30
 50
90.00020741
  7
ARIAL
  0
LINE
  5
36B
  8
0
 62
     4
 10
94.87344436
 20
194.419605
 30
0.0
 11
92.87344436
 21
196.419605
 31
0.0
  0
LINE
  5
36C
  8
0
 62
     4
 10
93.12344436
 20
181.169605
 30
0.0
 11
94.62344436
 21
179.669605
 31
0.0
  0
LINE
  5
36D
  8
0
 62
     4
 10
93.87344436
 20
195.419605
 30
0.0
 11
93.87344436
 21
180.419605
 31
0.0
  0
LINE
  5
36E
  8
0
 62
     4
 10
91.87344436
 20
195.419605
 30
0.0
 11
95.87344436
 21
195.419605
 31
0.0
  0
LINE
  5
36F
  8
0
 62
     4
 10
91.87344436
 20
180.419605
 30
0.0
 11
95.87344436
 21
180.419605
 31
0.0
  0
TEXT
  5
370
  8
TXT_DIM49
 10
92.37344436
 20
169.74976955
 30
0.0
 40
2.5
  1
35
 50
90.00020741
  7
ARIAL
  0
LINE
  5
371
  8
0
 62
     4
 10
94.87344436
 20
179.419605
 30
0.0
 11
92.87344436
 21
181.419605
 31
0.0
  0
LINE
  5
372
  8
0
 62
     4
 10
93.12344436
 20
163.669605
 30
0.0
 11
94.62344436
 21
162.169605
 31
0.0
  0
LINE
  5
373
  8
0
 62
     4
 10
93.87344436
 20
180.419605
 30
0.0
 11
93.87344436
 21
162.919605
 31
0.0
  0
LINE
  5
374
  8
0
 62
     4
 10
91.87344436
 20
180.419605
 30
0.0
 11
95.87344436
 21
180.419605
 31
0.0
  0
LINE
  5
375
  8
0
 62
     4
 10
91.87344436
 20
162.919605
 30
0.0
 11
95.87344436
 21
162.919605
 31
0.0
  0
TEXT
  5
376
  8
TXT_DIM49
 10
92.37344436
 20
153.49976955
 30
0.0
 40
2.5
  1
30
 50
90.00020741
  7
ARIAL
  0
LINE
  5
377
  8
0
 62
     4
 10
94.87344436
 20
161.919605
 30
0.0
 11
92.87344436
 21
163.919605
 31
0.0
  0
LINE
  5
378
  8
0
 62
     4
 10
93.12344436
 20
148.669605
 30
0.0
 11
94.62344436
 21
147.169605
 31
0.0
  0
LINE
  5
379
  8
0
 62
     4
 10
93.87344436
 20
162.919605
 30
0.0
 11
93.87344436
 21
147.919605
 31
0.0
  0
LINE
  5
37A
  8
0
 62
     4
 10
91.87344436
 20
162.919605
 30
0.0
 11
95.87344436
 21
162.919605
 31
0.0
  0
LINE
  5
37B
  8
0
 62
     4
 10
91.87344436
 20
147.919605
 30
0.0
 11
95.87344436
 21
147.919605
 31
0.0
  0
TEXT
  5
37C
  8
TXT_DIM49
 10
92.37344436
 20
133.49976955
 30
0.0
 40
2.5
  1
50
 50
90.00020741
  7
ARIAL
  0
LINE
  5
37D
  8
0
 62
     4
 10
94.87344436
 20
146.919605
 30
0.0
 11
92.87344436
 21
148.919605
 31
0.0
  0
LINE
  5
37E
  8
0
 62
     4
 10
93.12344436
 20
123.669605
 30
0.0
 11
94.62344436
 21
122.169605
 31
0.0
  0
LINE
  5
37F
  8
0
 62
     4
 10
93.87344436
 20
147.919605
 30
0.0
 11
93.87344436
 21
122.919605
 31
0.0
  0
LINE
  5
380
  8
0
 62
     4
 10
91.87344436
 20
147.919605
 30
0.0
 11
95.87344436
 21
147.919605
 31
0.0
  0
LINE
  5
381
  8
0
 62
     4
 10
91.87344436
 20
122.919605
 30
0.0
 11
95.87344436
 21
122.919605
 31
0.0
  0
TEXT
  5
382
  8
TXT_DIM49
 10
44.26744857
 20
217.99976955
 30
0.0
 40
2.5
  1
12
 50
90.00020741
  7
ARIAL
  0
LINE
  5
383
  8
0
 62
     4
 10
46.76744857
 20
221.919605
 30
0.0
 11
44.76744857
 21
223.919605
 31
0.0
  0
LINE
  5
384
  8
0
 62
     4
 10
45.01744857
 20
217.669605
 30
0.0
 11
46.51744857
 21
216.169605
 31
0.0
  0
LINE
  5
385
  8
0
 62
     4
 10
45.76744857
 20
222.919605
 30
0.0
 11
45.76744857
 21
216.919605
 31
0.0
  0
LINE
  5
386
  8
0
 62
     4
 10
47.76744857
 20
222.919605
 30
0.0
 11
43.76744857
 21
222.919605
 31
0.0
  0
LINE
  5
387
  8
0
 62
     4
 10
47.76744857
 20
216.919605
 30
0.0
 11
43.76744857
 21
216.919605
 31
0.0
  0
TEXT
  5
388
  8
TXT_DIM49
 10
44.26744857
 20
207.49976955
 30
0.0
 40
2.5
  1
30
 50
90.00020741
  7
ARIAL
  0
LINE
  5
389
  8
0
 62
     4
 10
46.76744857
 20
215.919605
 30
0.0
 11
44.76744857
 21
217.919605
 31
0.0
  0
LINE
  5
38A
  8
0
 62
     4
 10
45.01744857
 20
202.669605
 30
0.0
 11
46.51744857
 21
201.169605
 31
0.0
  0
LINE
  5
38B
  8
0
 62
     4
 10
45.76744857
 20
216.919605
 30
0.0
 11
45.76744857
 21
201.919605
 31
0.0
  0
LINE
  5
38C
  8
0
 62
     4
 10
47.76744857
 20
216.919605
 30
0.0
 11
43.76744857
 21
216.919605
 31
0.0
  0
LINE
  5
38D
  8
0
 62
     4
 10
47.76744857
 20
201.919605
 30
0.0
 11
43.76744857
 21
201.919605
 31
0.0
  0
TEXT
  5
38E
  8
TXT_DIM49
 10
44.26744857
 20
192.49976955
 30
0.0
 40
2.5
  1
30
 50
90.00020741
  7
ARIAL
  0
LINE
  5
38F
  8
0
 62
     4
 10
46.76744857
 20
200.919605
 30
0.0
 11
44.76744857
 21
202.919605
 31
0.0
  0
LINE
  5
390
  8
0
 62
     4
 10
45.01744857
 20
187.669605
 30
0.0
 11
46.51744857
 21
186.169605
 31
0.0
  0
LINE
  5
391
  8
0
 62
     4
 10
45.76744857
 20
201.919605
 30
0.0
 11
45.76744857
 21
186.919605
 31
0.0
  0
LINE
  5
392
  8
0
 62
     4
 10
47.76744857
 20
201.919605
 30
0.0
 11
43.76744857
 21
201.919605
 31
0.0
  0
LINE
  5
393
  8
0
 62
     4
 10
47.76744857
 20
186.919605
 30
0.0
 11
43.76744857
 21
186.919605
 31
0.0
  0
TEXT
  5
394
  8
TXT_DIM49
 10
44.26744857
 20
176.24976955
 30
0.0
 40
2.5
  1
35
 50
90.00020741
  7
ARIAL
  0
LINE
  5
395
  8
0
 62
     4
 10
46.76744857
 20
185.919605
 30
0.0
 11
44.76744857
 21
187.919605
 31
0.0
  0
LINE
  5
396
  8
0
 62
     4
 10
45.01744857
 20
170.169605
 30
0.0
 11
46.51744857
 21
168.669605
 31
0.0
  0
LINE
  5
397
  8
0
 62
     4
 10
45.76744857
 20
186.919605
 30
0.0
 11
45.76744857
 21
169.419605
 31
0.0
  0
LINE
  5
398
  8
0
 62
     4
 10
47.76744857
 20
186.919605
 30
0.0
 11
43.76744857
 21
186.919605
 31
0.0
  0
LINE
  5
399
  8
0
 62
     4
 10
47.76744857
 20
169.419605
 30
0.0
 11
43.76744857
 21
169.419605
 31
0.0
  0
TEXT
  5
39A
  8
TXT_DIM49
 10
44.26744857
 20
159.99976955
 30
0.0
 40
2.5
  1
30
 50
90.00020741
  7
ARIAL
  0
LINE
  5
39B
  8
0
 62
     4
 10
46.76744857
 20
168.419605
 30
0.0
 11
44.76744857
 21
170.419605
 31
0.0
  0
LINE
  5
39C
  8
0
 62
     4
 10
45.01744857
 20
155.169605
 30
0.0
 11
46.51744857
 21
153.669605
 31
0.0
  0
LINE
  5
39D
  8
0
 62
     4
 10
45.76744857
 20
169.419605
 30
0.0
 11
45.76744857
 21
154.419605
 31
0.0
  0
LINE
  5
39E
  8
0
 62
     4
 10
47.76744857
 20
169.419605
 30
0.0
 11
43.76744857
 21
169.419605
 31
0.0
  0
LINE
  5
39F
  8
0
 62
     4
 10
47.76744857
 20
154.419605
 30
0.0
 11
43.76744857
 21
154.419605
 31
0.0
  0
TEXT
  5
3A0
  8
TXT_DIM49
 10
44.26744857
 20
136.74976955
 30
0.0
 40
2.5
  1
63
 50
90.00020741
  7
ARIAL
  0
LINE
  5
3A1
  8
0
 62
     4
 10
46.76744857
 20
153.419605
 30
0.0
 11
44.76744857
 21
155.419605
 31
0.0
  0
LINE
  5
3A2
  8
0
 62
     4
 10
45.01744857
 20
123.669605
 30
0.0
 11
46.51744857
 21
122.169605
 31
0.0
  0
LINE
  5
3A3
  8
0
 62
     4
 10
45.76744857
 20
154.419605
 30
0.0
 11
45.76744857
 21
122.919605
 31
0.0
  0
LINE
  5
3A4
  8
0
 62
     4
 10
47.76744857
 20
154.419605
 30
0.0
 11
43.76744857
 21
154.419605
 31
0.0
  0
LINE
  5
3A5
  8
0
 62
     4
 10
47.76744857
 20
122.919605
 30
0.0
 11
43.76744857
 21
122.919605
 31
0.0
  0
LINE
  5
3A6
  8
0
 62
     5
 10
59.48954562
 20
201.919605
 30
0.0
 11
64.32666518
 21
199.46464532
 31
0.0
  0
LINE
  5
3A7
  8
0
 62
     5
 10
59.48954562
 20
186.919605
 30
0.0
 11
64.32666518
 21
199.46464532
 31
0.0
  0
LINE
  5
3A8
  8
0
 62
     5
 10
78.48954562
 20
195.419605
 30
0.0
 11
64.32666518
 21
199.46464532
 31
0.0
  0
LINE
  5
3A9
  8
0
 62
     5
 10
78.48954562
 20
210.419605
 30
0.0
 11
64.32666518
 21
199.46464532
 31
0.0
  0
LINE
  5
3AA
  8
0
 62
     5
 10
59.48954562
 20
216.919605
 30
0.0
 11
64.32666518
 21
199.46464532
 31
0.0
  0
TEXT
  5
3AB
  8
TXT_DIM49
 10
64.32666518
 20
198.21464532
 30
0.0
 40
2.5
  1
Ø12
  7
ARIAL
  0
LINE
  5
3AC
  8
0
 62
     5
 10
56.48954562
 20
151.919605
 30
0.0
 11
64.64427936
 21
140.58199551
 31
0.0
  0
LINE
  5
3AD
  8
0
 62
     5
 10
78.98954562
 20
147.919605
 30
0.0
 11
64.64427936
 21
140.58199551
 31
0.0
  0
LINE
  5
3AE
  8
0
 62
     5
 10
78.98954562
 20
162.919605
 30
0.0
 11
64.64427936
 21
140.58199551
 31
0.0
  0
LINE
  5
3AF
  8
0
 62
     5
 10
56.48954562
 20
166.919605
 30
0.0
 11
64.64427936
 21
140.58199551
 31
0.0
  0
TEXT
  5
3B0
  8
TXT_DIM49
 10
64.64427936
 20
139.33199551
 30
0.0
 40
2.5
  1
Ø10
  7
ARIAL
  0
TEXT
  5
3B1
  8
TXT_DIM49
 10
236.42423213
 20
91.64499813
 30
0.0
 40
2.5
  1
34
  7
ARIAL
  0
LINE
  5
3B2
  8
0
 62
     4
 10
245.84406758
 20
89.14499813
 30
0.0
 11
247.84406758
 21
91.14499813
 31
0.0
  0
LINE
  5
3B3
  8
0
 62
     4
 10
230.59406758
 20
90.89499813
 30
0.0
 11
229.09406758
 21
89.39499813
 31
0.0
  0
LINE
  5
3B4
  8
0
 62
     4
 10
246.84406758
 20
90.14499813
 30
0.0
 11
229.84406758
 21
90.14499813
 31
0.0
  0
LINE
  5
3B5
  8
0
 62
     4
 10
246.84406758
 20
88.14499813
 30
0.0
 11
246.84406758
 21
92.14499813
 31
0.0
  0
LINE
  5
3B6
  8
0
 62
     4
 10
229.84406758
 20
88.14499813
 30
0.0
 11
229.84406758
 21
92.14499813
 31
0.0
  0
TEXT
  5
3B7
  8
TXT_DIM49
 10
214.92423213
 20
91.64499813
 30
0.0
 40
2.5
  1
52
  7
ARIAL
  0
LINE
  5
3B8
  8
0
 62
     4
 10
228.84406758
 20
89.14499813
 30
0.0
 11
230.84406758
 21
91.14499813
 31
0.0
  0
LINE
  5
3B9
  8
0
 62
     4
 10
204.59406758
 20
90.89499813
 30
0.0
 11
203.09406758
 21
89.39499813
 31
0.0
  0
LINE
  5
3BA
  8
0
 62
     4
 10
229.84406758
 20
90.14499813
 30
0.0
 11
203.84406758
 21
90.14499813
 31
0.0
  0
LINE
  5
3BB
  8
0
 62
     4
 10
229.84406758
 20
88.14499813
 30
0.0
 11
229.84406758
 21
92.14499813
 31
0.0
  0
LINE
  5
3BC
  8
0
 62
     4
 10
203.84406758
 20
88.14499813
 30
0.0
 11
203.84406758
 21
92.14499813
 31
0.0
  0
TEXT
  5
3BD
  8
TXT_DIM49
 10
187.17423213
 20
91.64499813
 30
0.0
 40
2.5
  1
59
  7
ARIAL
  0
LINE
  5
3BE
  8
0
 62
     4
 10
202.84406758
 20
89.14499813
 30
0.0
 11
204.84406758
 21
91.14499813
 31
0.0
  0
LINE
  5
3BF
  8
0
 62
     4
 10
175.09406758
 20
90.89499813
 30
0.0
 11
173.59406758
 21
89.39499813
 31
0.0
  0
LINE
  5
3C0
  8
0
 62
     4
 10
203.84406758
 20
90.14499813
 30
0.0
 11
174.34406758
 21
90.14499813
 31
0.0
  0
LINE
  5
3C1
  8
0
 62
     4
 10
203.84406758
 20
88.14499813
 30
0.0
 11
203.84406758
 21
92.14499813
 31
0.0
  0
LINE
  5
3C2
  8
0
 62
     4
 10
174.34406758
 20
88.14499813
 30
0.0
 11
174.34406758
 21
92.14499813
 31
0.0
  0
TEXT
  5
3C3
  8
TXT_DIM49
 10
156.17423213
 20
91.64499813
 30
0.0
 40
2.5
  1
65
  7
ARIAL
  0
LINE
  5
3C4
  8
0
 62
     4
 10
173.34406758
 20
89.14499813
 30
0.0
 11
175.34406758
 21
91.14499813
 31
0.0
  0
LINE
  5
3C5
  8
0
 62
     4
 10
142.59406758
 20
90.89499813
 30
0.0
 11
141.09406758
 21
89.39499813
 31
0.0
  0
LINE
  5
3C6
  8
0
 62
     4
 10
174.34406758
 20
90.14499813
 30
0.0
 11
141.84406758
 21
90.14499813
 31
0.0
  0
LINE
  5
3C7
  8
0
 62
     4
 10
174.34406758
 20
88.14499813
 30
0.0
 11
174.34406758
 21
92.14499813
 31
0.0
  0
LINE
  5
3C8
  8
0
 62
     4
 10
141.84406758
 20
88.14499813
 30
0.0
 11
141.84406758
 21
92.14499813
 31
0.0
  0
TEXT
  5
3C9
  8
TXT_DIM49
 10
250.70034892
 20
73.92118024
 30
0.0
 40
2.5
  1
35
 50
90.00020741
  7
ARIAL
  0
LINE
  5
3CA
  8
0
 62
     4
 10
253.20034892
 20
83.59101569
 30
0.0
 11
251.20034892
 21
85.59101569
 31
0.0
  0
LINE
  5
3CB
  8
0
 62
     4
 10
251.45034892
 20
67.84101569
 30
0.0
 11
252.95034892
 21
66.34101569
 31
0.0
  0
LINE
  5
3CC
  8
0
 62
     4
 10
252.20034892
 20
84.59101569
 30
0.0
 11
252.20034892
 21
67.09101569
 31
0.0
  0
LINE
  5
3CD
  8
0
 62
     4
 10
250.20034892
 20
84.59101569
 30
0.0
 11
254.20034892
 21
84.59101569
 31
0.0
  0
LINE
  5
3CE
  8
0
 62
     4
 10
250.20034892
 20
67.09101569
 30
0.0
 11
254.20034892
 21
67.09101569
 31
0.0
  0
TEXT
  5
3CF
  8
TXT_DIM49
 10
250.70034892
 20
56.42118024
 30
0.0
 40
2.5
  1
35
 50
90.00020741
  7
ARIAL
  0
LINE
  5
3D0
  8
0
 62
     4
 10
253.20034892
 20
66.09101569
 30
0.0
 11
251.20034892
 21
68.09101569
 31
0.0
  0
LINE
  5
3D1
  8
0
 62
     4
 10
251.45034892
 20
50.34101569
 30
0.0
 11
252.95034892
 21
48.84101569
 31
0.0
  0
LINE
  5
3D2
  8
0
 62
     4
 10
252.20034892
 20
67.09101569
 30
0.0
 11
252.20034892
 21
49.59101569
 31
0.0
  0
LINE
  5
3D3
  8
0
 62
     4
 10
250.20034892
 20
67.09101569
 30
0.0
 11
254.20034892
 21
67.09101569
 31
0.0
  0
LINE
  5
3D4
  8
0
 62
     4
 10
250.20034892
 20
49.59101569
 30
0.0
 11
254.20034892
 21
49.59101569
 31
0.0
  0
TEXT
  5
3D5
  8
TXT_DIM49
 10
130.70034892
 20
65.17118024
 30
0.0
 40
2.5
  1
70
 50
90.00020741
  7
ARIAL
  0
LINE
  5
3D6
  8
0
 62
     4
 10
133.20034892
 20
83.59101569
 30
0.0
 11
131.20034892
 21
85.59101569
 31
0.0
  0
LINE
  5
3D7
  8
0
 62
     4
 10
131.45034892
 20
50.34101569
 30
0.0
 11
132.95034892
 21
48.84101569
 31
0.0
  0
LINE
  5
3D8
  8
0
 62
     4
 10
132.20034892
 20
84.59101569
 30
0.0
 11
132.20034892
 21
49.59101569
 31
0.0
  0
LINE
  5
3D9
  8
0
 62
     4
 10
134.20034892
 20
84.59101569
 30
0.0
 11
130.20034892
 21
84.59101569
 31
0.0
  0
LINE
  5
3DA
  8
0
 62
     4
 10
134.20034892
 20
49.59101569
 30
0.0
 11
130.20034892
 21
49.59101569
 31
0.0
  0
LINE
  5
3DB
  8
0
 62
     5
 10
174.34406758
 20
70.59101569
 30
0.0
 11
169.39850305
 21
73.65696355
 31
0.0
  0
TEXT
  5
3DC
  8
TXT_DIM49
 10
162.87375925
 20
72.40696355
 30
0.0
 40
2.5
  1
Ø14
  7
ARIAL
  0
LINE
  5
3DD
  8
0
 62
     5
 10
216.84406758
 20
71.59101569
 30
0.0
 11
214.58973647
 21
76.87989316
 31
0.0
  0
TEXT
  5
3DE
  8
TXT_DIM49
 10
190.59937778
 20
75.62989316
 30
0.0
 40
2.5
  1
Slobgat 18 x 70
  7
ARIAL
  0
TEXT
  5
3DF
  8
TXT_DIM49
 10
334.90389751
 20
229.77825602
 30
0.0
 40
2.5
  1
10
  7
ARIAL
  0
LINE
  5
3E0
  8
0
 62
     4
 10
338.32373296
 20
227.27825602
 30
0.0
 11
340.32373296
 21
229.27825602
 31
0.0
  0
LINE
  5
3E1
  8
0
 62
     4
 10
335.07373296
 20
229.02825602
 30
0.0
 11
333.57373296
 21
227.52825602
 31
0.0
  0
LINE
  5
3E2
  8
0
 62
     4
 10
339.32373296
 20
228.27825602
 30
0.0
 11
334.32373296
 21
228.27825602
 31
0.0
  0
LINE
  5
3E3
  8
0
 62
     4
 10
339.32373296
 20
226.27825602
 30
0.0
 11
339.32373296
 21
230.27825602
 31
0.0
  0
LINE
  5
3E4
  8
0
 62
     4
 10
334.32373296
 20
226.27825602
 30
0.0
 11
334.32373296
 21
230.27825602
 31
0.0
  0
TEXT
  5
3E5
  8
TXT_DIM49
 10
326.15389751
 20
229.77825602
 30
0.0
 40
2.5
  1
25
  7
ARIAL
  0
LINE
  5
3E6
  8
0
 62
     4
 10
333.32373296
 20
227.27825602
 30
0.0
 11
335.32373296
 21
229.27825602
 31
0.0
  0
LINE
  5
3E7
  8
0
 62
     4
 10
322.57373296
 20
229.02825602
 30
0.0
 11
321.07373296
 21
227.52825602
 31
0.0
  0
LINE
  5
3E8
  8
0
 62
     4
 10
334.32373296
 20
228.27825602
 30
0.0
 11
321.82373296
 21
228.27825602
 31
0.0
  0
LINE
  5
3E9
  8
0
 62
     4
 10
334.32373296
 20
226.27825602
 30
0.0
 11
334.32373296
 21
230.27825602
 31
0.0
  0
LINE
  5
3EA
  8
0
 62
     4
 10
321.82373296
 20
226.27825602
 30
0.0
 11
321.82373296
 21
230.27825602
 31
0.0
  0
TEXT
  5
3EB
  8
TXT_DIM49
 10
313.65389751
 20
229.77825602
 30
0.0
 40
2.5
  1
25
  7
ARIAL
  0
LINE
  5
3EC
  8
0
 62
     4
 10
320.82373296
 20
227.27825602
 30
0.0
 11
322.82373296
 21
229.27825602
 31
0.0
  0
LINE
  5
3ED
  8
0
 62
     4
 10
310.07373296
 20
229.02825602
 30
0.0
 11
308.57373296
 21
227.52825602
 31
0.0
  0
LINE
  5
3EE
  8
0
 62
     4
 10
321.82373296
 20
228.27825602
 30
0.0
 11
309.32373296
 21
228.27825602
 31
0.0
  0
LINE
  5
3EF
  8
0
 62
     4
 10
321.82373296
 20
226.27825602
 30
0.0
 11
321.82373296
 21
230.27825602
 31
0.0
  0
LINE
  5
3F0
  8
0
 62
     4
 10
309.32373296
 20
226.27825602
 30
0.0
 11
309.32373296
 21
230.27825602
 31
0.0
  0
TEXT
  5
3F1
  8
TXT_DIM49
 10
304.90389751
 20
229.77825602
 30
0.0
 40
2.5
  1
10
  7
ARIAL
  0
LINE
  5
3F2
  8
0
 62
     4
 10
308.32373296
 20
227.27825602
 30
0.0
 11
310.32373296
 21
229.27825602
 31
0.0
  0
LINE
  5
3F3
  8
0
 62
     4
 10
305.07373296
 20
229.02825602
 30
0.0
 11
303.57373296
 21
227.52825602
 31
0.0
  0
LINE
  5
3F4
  8
0
 62
     4
 10
309.32373296
 20
228.27825602
 30
0.0
 11
304.32373296
 21
228.27825602
 31
0.0
  0
LINE
  5
3F5
  8
0
 62
     4
 10
309.32373296
 20
226.27825602
 30
0.0
 11
309.32373296
 21
230.27825602
 31
0.0
  0
LINE
  5
3F6
  8
0
 62
     4
 10
304.32373296
 20
226.27825602
 30
0.0
 11
304.32373296
 21
230.27825602
 31
0.0
  0
TEXT
  5
3F7
  8
TXT_DIM49
 10
343.60098898
 20
215.99976955
 30
0.0
 40
2.5
  1
20
 50
90.00020741
  7
ARIAL
  0
LINE
  5
3F8
  8
0
 62
     4
 10
346.10098898
 20
221.919605
 30
0.0
 11
344.10098898
 21
223.919605
 31
0.0
  0
LINE
  5
3F9
  8
0
 62
     4
 10
344.35098898
 20
213.669605
 30
0.0
 11
345.85098898
 21
212.169605
 31
0.0
  0
LINE
  5
3FA
  8
0
 62
     4
 10
345.10098898
 20
222.919605
 30
0.0
 11
345.10098898
 21
212.919605
 31
0.0
  0
LINE
  5
3FB
  8
0
 62
     4
 10
343.10098898
 20
222.919605
 30
0.0
 11
347.10098898
 21
222.919605
 31
0.0
  0
LINE
  5
3FC
  8
0
 62
     4
 10
343.10098898
 20
212.919605
 30
0.0
 11
347.10098898
 21
212.919605
 31
0.0
  0
TEXT
  5
3FD
  8
TXT_DIM49
 10
343.60098898
 20
197.24976955
 30
0.0
 40
2.5
  1
55
 50
90.00020741
  7
ARIAL
  0
LINE
  5
3FE
  8
0
 62
     4
 10
346.10098898
 20
211.919605
 30
0.0
 11
344.10098898
 21
213.919605
 31
0.0
  0
LINE
  5
3FF
  8
0
 62
     4
 10
344.35098898
 20
186.169605
 30
0.0
 11
345.85098898
 21
184.669605
 31
0.0
  0
LINE
  5
400
  8
0
 62
     4
 10
345.10098898
 20
212.919605
 30
0.0
 11
345.10098898
 21
185.419605
 31
0.0
  0
LINE
  5
401
  8
0
 62
     4
 10
343.10098898
 20
212.919605
 30
0.0
 11
347.10098898
 21
212.919605
 31
0.0
  0
LINE
  5
402
  8
0
 62
     4
 10
343.10098898
 20
185.419605
 30
0.0
 11
347.10098898
 21
185.419605
 31
0.0
  0
TEXT
  5
403
  8
TXT_DIM49
 10
343.60098898
 20
169.74976955
 30
0.0
 40
2.5
  1
55
 50
90.00020741
  7
ARIAL
  0
LINE
  5
404
  8
0
 62
     4
 10
346.10098898
 20
184.419605
 30
0.0
 11
344.10098898
 21
186.419605
 31
0.0
  0
LINE
  5
405
  8
0
 62
     4
 10
344.35098898
 20
158.669605
 30
0.0
 11
345.85098898
 21
157.169605
 31
0.0
  0
LINE
  5
406
  8
0
 62
     4
 10
345.10098898
 20
185.419605
 30
0.0
 11
345.10098898
 21
157.919605
 31
0.0
  0
LINE
  5
407
  8
0
 62
     4
 10
343.10098898
 20
185.419605
 30
0.0
 11
347.10098898
 21
185.419605
 31
0.0
  0
LINE
  5
408
  8
0
 62
     4
 10
343.10098898
 20
157.919605
 30
0.0
 11
347.10098898
 21
157.919605
 31
0.0
  0
TEXT
  5
409
  8
TXT_DIM49
 10
343.60098898
 20
138.49976955
 30
0.0
 40
2.5
  1
70
 50
90.00020741
  7
ARIAL
  0
LINE
  5
40A
  8
0
 62
     4
 10
346.10098898
 20
156.919605
 30
0.0
 11
344.10098898
 21
158.919605
 31
0.0
  0
LINE
  5
40B
  8
0
 62
     4
 10
344.35098898
 20
123.669605
 30
0.0
 11
345.85098898
 21
122.169605
 31
0.0
  0
LINE
  5
40C
  8
0
 62
     4
 10
345.10098898
 20
157.919605
 30
0.0
 11
345.10098898
 21
122.919605
 31
0.0
  0
LINE
  5
40D
  8
0
 62
     4
 10
343.10098898
 20
157.919605
 30
0.0
 11
347.10098898
 21
157.919605
 31
0.0
  0
LINE
  5
40E
  8
0
 62
     4
 10
343.10098898
 20
122.919605
 30
0.0
 11
347.10098898
 21
122.919605
 31
0.0
  0
LINE
  5
40F
  8
0
 62
     5
 10
321.82373296
 20
209.419605
 30
0.0
 11
320.24529682
 21
200.72302789
 31
0.0
  0
LINE
  5
410
  8
0
 62
     5
 10
321.82373296
 20
188.919605
 30
0.0
 11
320.24529682
 21
200.72302789
 31
0.0
  0
TEXT
  5
411
  8
TXT_DIM49
 10
313.72055302
 20
199.47302789
 30
0.0
 40
2.5
  1
Ø14
  7
ARIAL
  0
LINE
  5
412
  8
0
 62
     5
 10
321.82373296
 20
161.419605
 30
0.0
 11
322.66353541
 21
165.55480206
 31
0.0
  0
TEXT
  5
413
  8
TXT_DIM49
 10
322.66353541
 20
164.30480206
 30
0.0
 40
2.5
  1
Ø14
  7
ARIAL
  0
ENDSEC
  0
EOF
