  0
SECTION
  2
HEADER
  9
$ACADVER
  1
AC1006
  9
$DWGCODEPAGE
  3
ansi_1252
  9
$INSBASE
 10
0.0
 20
0.0
 30
0.0
  9
$EXTMIN
 10
1199.16788408
 20
-861.06411911
  9
$EXTMAX
 10
2168.36967951
 20
-414.51953565
  9
$LIMMIN
 10
1199.16788408
 20
-861.06411911
  9
$LIMMAX
 10
2168.36967951
 20
-414.51953565
  9
$ORTHOMODE
 70
     0
  9
$REGENMODE
 70
     1
  9
$FILLMODE
 70
     1
  9
$QTEXTMODE
 70
     0
  9
$MIRRTEXT
 70
     1
  9
$DRAGMODE
 70
     2
  9
$LTSCALE
 40
1.0
  9
$OSMODE
 70
    37
  9
$ATTMODE
 70
     1
  9
$TEXTSIZE
 40
1.0
  9
$TRACEWID
 40
0.05
  9
$TEXTSTYLE
  7
STANDARD
  9
$CLAYER
  8
0
  9
$CELTYPE
  6
BYBLOCK
  9
$CECOLOR
 62
   256
  9
$DIMSCALE
 40
1.0
  9
$DIMASZ
 40
0.18
  9
$DIMEXO
 40
0.0625
  9
$DIMDLI
 40
0.38
  9
$DIMRND
 40
0.0
  9
$DIMDLE
 40
0.0
  9
$DIMEXE
 40
0.18
  9
$DIMTP
 40
0.0
  9
$DIMTM
 40
0.0
  9
$DIMTXT
 40
0.18
  9
$DIMCEN
 40
0.09
  9
$DIMTSZ
 40
0.0
  9
$DIMTOL
 70
     0
  9
$DIMLIM
 70
     0
  9
$DIMTIH
 70
     1
  9
$DIMTOH
 70
     1
  9
$DIMSE1
 70
     0
  9
$DIMSE2
 70
     0
  9
$DIMTAD
 70
     0
  9
$DIMZIN
 70
     0
  9
$DIMBLK
  1

  9
$DIMASO
 70
     1
  9
$DIMSHO
 70
     1
  9
$DIMPOST
  1

  9
$DIMAPOST
  1

  9
$DIMALT
 70
     0
  9
$DIMALTD
 70
     2
  9
$DIMALTF
 40
25.4
  9
$DIMLFAC
 40
1.0
  9
$DIMTOFL
 70
     0
  9
$DIMTVP
 40
0.0
  9
$DIMTIX
 70
     0
  9
$DIMSOXD
 70
     0
  9
$DIMSAH
 70
     0
  9
$DIMBLK1
  1

  9
$DIMBLK2
  1

  9
$LUNITS
 70
     2
  9
$LUPREC
 70
     4
  9
$SKETCHINC
 40
0.1
  9
$FILLETRAD
 40
0.5
  9
$AUNITS
 70
     0
  9
$AUPREC
 70
     0
  9
$MENU
  1
.
  9
$ELEVATION
 40
0.0
  9
$THICKNESS
 40
0.0
  9
$LIMCHECK
 70
     0
  9
$CHAMFERA
 40
0.0
  9
$CHAMFERB
 40
0.0
  9
$SKPOLY
 70
     0
  9
$TDCREATE
 40
2447893.125
  9
$TDUPDATE
 40
2460791.488218518
  9
$TDINDWG
 40
0.0
  9
$TDUSRTIMER
 40
0.0
  9
$USRTIMER
 70
     1
  9
$ANGBASE
 50
0.0
  9
$ANGDIR
 70
     0
  9
$PDMODE
 70
     0
  9
$PDSIZE
 40
0.0
  9
$PLINEWID
 40
0.0
  9
$COORDS
 70
     1
  9
$SPLFRAME
 70
     0
  9
$SPLINETYPE
 70
     6
  9
$SPLINESEGS
 70
     8
  9
$ATTDIA
 70
     0
  9
$ATTREQ
 70
     1
  9
$HANDLING
 70
     1
  9
$HANDSEED
  5
33C
  9
$SURFTAB1
 70
     6
  9
$SURFTAB2
 70
     6
  9
$SURFTYPE
 70
     6
  9
$SURFU
 70
     6
  9
$SURFV
 70
     6
  9
$UCSNAME
  2

  9
$UCSORG
 10
0.0
 20
0.0
 30
0.0
  9
$UCSXDIR
 10
1.0
 20
0.0
 30
0.0
  9
$UCSYDIR
 10
0.0
 20
1.0
 30
0.0
  9
$USERI1
 70
     0
  9
$USERI2
 70
     0
  9
$USERI3
 70
     0
  9
$USERI4
 70
     0
  9
$USERI5
 70
     0
  9
$USERR1
 40
0.0
  9
$USERR2
 40
0.0
  9
$USERR3
 40
0.0
  9
$USERR4
 40
0.0
  9
$USERR5
 40
0.0
  9
$WORLDVIEW
 70
     1
  0
ENDSEC
  0
SECTION
  2
TABLES
  0
TABLE
  2
VPORT
 70
     1
  0
VPORT
  2
*ACTIVE
 70
     0
 10
0.0
 20
0.0
 11
1.0
 21
1.0
 12
1683.7687818
 22
-637.79182738
 13
0.0
 23
0.0
 14
1.0
 24
1.0
 15
0.0
 25
0.0
 16
0.0
 26
0.0
 36
1.0
 17
0.0
 27
0.0
 37
0.0
 40
446.544583464
 41
2.170447994
 42
50.0
 43
0.0
 44
0.0
 50
0.0
 51
0.0
 71
     0
 72
   100
 73
     1
 74
     1
 75
     0
 76
     0
 77
     0
 78
     0
  0
ENDTAB
  0
TABLE
  2
LTYPE
 70
    19
  0
LTYPE
  2
CONTINUOUS
 70
     0
  3
Solid line
 72
    65
 73
     0
 40
0.0
  0
LTYPE
  2
DOT
 70
     0
  3
..............
 72
    65
 73
     2
 40
2.0
 49
0.5
 49
-1.5
  0
LTYPE
  2
HIDDEN
 70
     0
  3
-- -- -- -- --
 72
    65
 73
     2
 40
7.0
 49
4.0
 49
-3.0
  0
LTYPE
  2
DASHDOT
 70
     0
  3
--.--.--.--.--
 72
    65
 73
     4
 40
8.5
 49
4.0
 49
-2.0
 49
0.5
 49
-2.0
  0
LTYPE
  2
STRICHPUNKT2
 70
     0
  3
--.--.--.--.--
 72
    65
 73
     4
 40
18.5
 49
10.0
 49
-4.0
 49
0.5
 49
-4.0
  0
LTYPE
  2
STRICHPUNKT3
 70
     0
  3
--.--.--.--.--
 72
    65
 73
     4
 40
35.5
 49
25.0
 49
-5.0
 49
0.5
 49
-5.0
  0
LTYPE
  2
PHANTOM
 70
     0
  3
--..--..--..--
 72
    65
 73
     6
 40
23.0
 49
10.0
 49
-4.0
 49
0.5
 49
-4.0
 49
0.5
 49
-4.0
  0
LTYPE
  2
PHANTOM2
 70
     0
  3
--..--..--..--
 72
    65
 73
     6
 40
33.0
 49
20.0
 49
-4.0
 49
0.5
 49
-4.0
 49
0.5
 49
-4.0
  0
LTYPE
  2
PHANTOM3
 70
     0
  3
--..--..--..--
 72
    65
 73
     6
 40
50.0
 49
37.0
 49
-4.0
 49
0.5
 49
-4.0
 49
0.5
 49
-4.0
  0
LTYPE
  2
STR3PKT
 70
     0
  3
--...--...--...
 72
    65
 73
     8
 40
31.5
 49
20.0
 49
-2.5
 49
0.5
 49
-2.5
 49
0.5
 49
-2.5
 49
0.5
 49
-2.5
  0
LTYPE
  2
2STRPKT
 70
     0
  3
--.--.--.--.--
 72
    65
 73
     6
 40
28.0
 49
10.0
 49
-2.5
 49
10.0
 49
-2.5
 49
0.5
 49
-2.5
  0
LTYPE
  2
GESTRICHELT2
 70
     0
  3
-- -- -- -- --
 72
    65
 73
     2
 40
25.0
 49
10.0
 49
-15.0
  0
LTYPE
  2
2STR2PKT
 70
     0
  3
--..--..--..--
 72
    65
 73
     8
 40
31.0
 49
10.0
 49
-2.5
 49
10.0
 49
-2.5
 49
0.5
 49
-2.5
 49
0.5
 49
-2.5
  0
LTYPE
  2
STR3PKT2
 70
     0
  3
--...--...--...
 72
    65
 73
     8
 40
21.0
 49
10.0
 49
-2.5
 49
0.5
 49
-2.5
 49
0.5
 49
-2.5
 49
0.5
 49
-2.0
  0
LTYPE
  2
2STR3PKT
 70
     0
  3
--...--...--...
 72
    65
 73
    10
 40
34.0
 49
10.0
 49
-2.5
 49
10.0
 49
-2.5
 49
0.5
 49
-2.5
 49
0.5
 49
-2.5
 49
0.5
 49
-2.5
  0
LTYPE
  2
STRKSTR
 70
     0
  3
-- - -- - -- -
 72
    65
 73
     4
 40
30.0
 49
20.0
 49
-2.5
 49
5.0
 49
-2.5
  0
LTYPE
  2
STRKSTR2
 70
     0
  3
-- - -- - -- -
 72
    65
 73
     6
 40
37.5
 49
20.0
 49
-2.5
 49
5.0
 49
-2.5
 49
5.0
 49
-2.5
  0
LTYPE
  2
STRKSTR3
 70
     0
  3
-- - -- - -- -
 72
    65
 73
     8
 40
45.0
 49
20.0
 49
-2.5
 49
5.0
 49
-2.5
 49
5.0
 49
-2.5
 49
5.0
 49
-2.5
  0
LTYPE
  2
PUNKT2
 70
     0
  3
..............
 72
    65
 73
     2
 40
3.5
 49
0.5
 49
-3.0
  0
ENDTAB
  0
TABLE
  2
LAYER
 70
    16
  0
LAYER
  2
0
 70
     0
 62
     7
  6
CONTINUOUS
  0
LAYER
  2
LE_GREEN
 70
     0
 62
     3
  6
CONTINUOUS
  0
LAYER
  2
LE_RED
 70
     0
 62
     1
  6
CONTINUOUS
  0
LAYER
  2
LE_ALL
 70
     0
 62
     7
  6
CONTINUOUS
  0
LAYER
  2
LE_HIDDEN1
 70
     0
 62
     3
  6
HIDDEN
  0
LAYER
  2
LE_HIDDEN
 70
     0
 62
     7
  6
CONTINUOUS
  0
LAYER
  2
LE_MIDDLE
 70
     0
 62
     7
  6
CONTINUOUS
  0
LAYER
  2
TXT_YELLOW
 70
     0
 62
     2
  6
CONTINUOUS
  0
LAYER
  2
TXT_DIM49
 70
     0
 62
     2
  6
CONTINUOUS
  0
LAYER
  2
TXT_ALL
 70
     0
 62
     7
  6
CONTINUOUS
  0
LAYER
  2
DIM49
 70
     0
 62
     4
  6
CONTINUOUS
  0
LAYER
  2
HATCH
 70
     0
 62
     3
  6
CONTINUOUS
  0
LAYER
  2
APPLE
 70
     0
 62
     7
  6
CONTINUOUS
  0
LAYER
  2
10
 70
     0
 62
     7
  6
CONTINUOUS
  0
LAYER
  2
20
 70
     0
 62
     7
  6
CONTINUOUS
  0
LAYER
  2
49
 70
     0
 62
     7
  6
CONTINUOUS
  0
ENDTAB
  0
TABLE
  2
STYLE
 70
     5
  0
STYLE
  2
MONOTXT
 70
     0
 40
0.0
 41
1.0
 50
0.0
 71
     0
 42
1.0
  3
monotxt.shx
  4

  0
STYLE
  2
STANDARD
 70
     0
 40
0.0
 41
1.0
 50
0.0
 71
     0
 42
1.0
  3
txt
  4

  0
STYLE
  2
ARIAL
 70
     0
 40
0.0
 41
1.0
 50
0.0
 71
     0
 42
1.0
  3
arial.ttf
  4

  0
STYLE
  2
ARIAL_NARROW
 70
     0
 40
0.0
 41
1.0
 50
0.0
 71
     0
 42
1.0
  3
ArialN.ttf
  4

  0
STYLE
  2
ISOCPEUR
 70
     0
 40
0.0
 41
1.0
 50
0.0
 71
     0
 42
1.0
  3
ISOCPEUR.ttf
  4

  0
ENDTAB
  0
TABLE
  2
VIEW
 70
     0
  0
ENDTAB
  0
TABLE
  2
UCS
 70
     0
  0
ENDTAB
  0
ENDSEC
  0
SECTION
  2
BLOCKS
  0
ENDSEC
  0
SECTION
  2
ENTITIES
  0
POLYLINE
  5
16D
  8
0
 66
     1
 10
0.0
 20
0.0
 30
0.0
 70
     1
  0
VERTEX
  5
16E
  8
0
 10
1377.76791731
 20
-798.4087182
 30
0.0
  0
VERTEX
  5
16F
  8
0
 10
1797.76791731
 20
-798.4087182
 30
0.0
  0
VERTEX
  5
170
  8
0
 10
1797.76791731
 20
-501.4087182
 30
0.0
  0
VERTEX
  5
171
  8
0
 10
1377.76791731
 20
-501.4087182
 30
0.0
  0
SEQEND
  5
172
  8
0
  0
POLYLINE
  5
173
  8
0
 66
     1
 10
0.0
 20
0.0
 30
0.0
 70
     1
  0
VERTEX
  5
174
  8
0
 10
1382.76791731
 20
-793.4087182
 30
0.0
  0
VERTEX
  5
175
  8
0
 10
1792.76791731
 20
-793.4087182
 30
0.0
  0
VERTEX
  5
176
  8
0
 10
1792.76791731
 20
-506.4087182
 30
0.0
  0
VERTEX
  5
177
  8
0
 10
1382.76791731
 20
-506.4087182
 30
0.0
  0
SEQEND
  5
178
  8
0
  0
LINE
  5
179
  8
0
 10
1607.76791731
 20
-793.4087182
 30
0.0
 11
1607.76791731
 21
-798.4087182
 31
0.0
  0
LINE
  5
17A
  8
0
 10
1607.76791731
 20
-506.4087182
 30
0.0
 11
1607.76791731
 21
-501.4087182
 31
0.0
  0
LINE
  5
17B
  8
0
 10
1397.76791731
 20
-793.4087182
 30
0.0
 11
1397.76791731
 21
-798.4087182
 31
0.0
  0
LINE
  5
17C
  8
0
 10
1397.76791731
 20
-506.4087182
 30
0.0
 11
1397.76791731
 21
-501.4087182
 31
0.0
  0
TEXT
  5
17D
  8
TXT_ALL
 62
     4
 10
1796.76791731
 20
-797.4087182
 30
0.0
 40
2.5
  1

 50
90.00020741
  0
POLYLINE
  5
17E
  8
0
 66
     1
 10
0.0
 20
0.0
 30
0.0
  0
VERTEX
  5
17F
  8
0
 10
1792.76791731
 20
-516.4087182
 30
0.0
  0
VERTEX
  5
180
  8
0
 10
1723.77461731
 20
-516.4087182
 30
0.0
  0
VERTEX
  5
181
  8
0
 10
1723.77461731
 20
-506.4087182
 30
0.0
  0
SEQEND
  5
182
  8
0
  0
LINE
  5
183
  8
0
 10
1725.67791731
 20
-773.9087182
 30
0.0
 11
1585.78791731
 21
-773.9087182
 31
0.0
  0
LINE
  5
184
  8
0
 10
1585.78791731
 20
-783.6587182
 30
0.0
 11
1725.67791731
 21
-783.6587182
 31
0.0
  0
POLYLINE
  5
185
  8
0
 66
     1
 10
0.0
 20
0.0
 30
0.0
  0
VERTEX
  5
186
  8
0
 10
1585.78791731
 20
-773.9087182
 30
0.0
  0
VERTEX
  5
187
  8
0
 10
1585.78791731
 20
-783.6587182
 30
0.0
  0
VERTEX
  5
188
  8
0
 10
1585.78791731
 20
-793.4087182
 30
0.0
  0
SEQEND
  5
189
  8
0
  0
POLYLINE
  5
18A
  8
0
 66
     1
 10
0.0
 20
0.0
 30
0.0
  0
VERTEX
  5
18B
  8
0
 10
1655.73291731
 20
-773.9087182
 30
0.0
  0
VERTEX
  5
18C
  8
0
 10
1655.73291731
 20
-783.6587182
 30
0.0
  0
VERTEX
  5
18D
  8
0
 10
1655.73291731
 20
-793.4087182
 30
0.0
  0
SEQEND
  5
18E
  8
0
  0
TEXT
  5
18F
  8
TXT_ALL
 10
1587.78791731
 20
-780.08371815
 30
0.0
 40
2.5999999
  1
E-mail: verkoop@jonkers-bouwmetaal.nl
  7
ARIAL
  0
TEXT
  5
190
  8
TXT_ALL
 10
1587.78791731
 20
-789.83371815
 30
0.0
 40
2.5999999
  1
Telefoon: 0527-685156
  7
ARIAL
  0
TEXT
  5
191
  8
TXT_ALL
 10
1657.73291731
 20
-789.83371815
 30
0.0
 40
2.5999999
  1
Website: www.jonkers-bouwmetaal.nl
  7
ARIAL
  0
TEXT
  5
192
  8
TXT_ALL
 10
1657.73291731
 20
-780.08371815
 30
0.0
 40
2.5999999
  1
Adres: Hoornse Hop 10, 8321 WX Urk
  7
ARIAL
  0
TEXT
  5
193
  8
TXT_ALL
 10
1386.20987756
 20
-512.6587182000001
 30
0.0
 40
2.5
  1
Art. nr. 91009194-01
  7
ARIAL
  0
TEXT
  5
194
  8
TXT_ALL
 10
1428.94791438
 20
-512.6587182000001
 30
0.0
 40
2.5
  1
Omschrijving: J05-anker 250x25 60x8
  7
ARIAL
  0
LINE
  5
195
  8
0
 10
1792.76791731
 20
-516.4087182
 30
0.0
 11
1382.76791731
 21
-516.4087182
 31
0.0
  0
LINE
  5
196
  8
0
 10
1425.78791731
 20
-516.4087182
 30
0.0
 11
1425.78791731
 21
-506.4087182
 31
0.0
  0
LINE
  5
197
  8
0
 10
1585.78791731
 20
-516.4087182
 30
0.0
 11
1585.78791731
 21
-506.4087182
 31
0.0
  0
TEXT
  5
198
  8
TXT_ALL
 10
1656.78161731
 20
-512.6587182000001
 30
0.0
 40
2.5
  1
Behandeling: Thermisch Verzinkt
  7
ARIAL
  0
LINE
  5
199
  8
0
 10
1725.67791731
 20
-773.9087182
 30
0.0
 11
1792.76791731
 21
-773.9087182
 31
0.0
  0
LINE
  5
19A
  8
0
 10
1725.67791731
 20
-793.4087182
 30
0.0
 11
1725.67791731
 21
-773.9087182
 31
0.0
  0
LINE
  5
19B
  8
0
 10
1725.67791731
 20
-793.4087182
 30
0.0
 11
1725.67791731
 21
-773.9087182
 31
0.0
  0
TEXT
  5
19C
  8
TXT_ALL
 10
1520.1331154
 20
-792.25418479
 30
0.0
 40
2.5
  1

  0
TEXT
  5
19D
  8
TXT_ALL
 10
1641.26829836
 20
-782.1587182
 30
0.0
 40
2.5
  1

  0
POLYLINE
  5
19E
  8
0
 66
     1
 10
0.0
 20
0.0
 30
0.0
  0
VERTEX
  5
19F
  8
0
 10
1723.77461731
 20
-516.4087182
 30
0.0
  0
VERTEX
  5
1A0
  8
0
 10
1654.78161731
 20
-516.4087182
 30
0.0
  0
VERTEX
  5
1A1
  8
0
 10
1654.78161731
 20
-506.4087182
 30
0.0
  0
SEQEND
  5
1A2
  8
0
  0
TEXT
  5
1A3
  8
TXT_ALL
 10
1725.77461731
 20
-512.6587182000001
 30
0.0
 40
2.5
  1
Verpakkingshoeveelheid: 1 st.
  7
ARIAL
  0
TEXT
  5
1A4
  8
TXT_ALL
 10
1587.78791731
 20
-512.6587182000001
 30
0.0
 40
2.5
  1
Materiaal: S355
  7
ARIAL
  0
TEXT
  5
1A5
  8
TXT_ALL
 10
1760.57257819
 20
-796.65822805
 30
0.0
 40
1.5
  1
Onderdeel van
  7
ARIAL
  0
POLYLINE
  5
1A6
  8
0
 66
     1
 10
0.0
 20
0.0
 30
0.0
  0
VERTEX
  5
2D2
  8
0
 10
1515.6295561
 20
-721.5359867316238
 30
0.0
  0
VERTEX
  5
2D3
  8
0
 10
1515.764059132581
 20
-721.9911974791171
 30
0.0
  0
VERTEX
  5
2D4
  8
0
 10
1516.162399364007
 20
-722.4289147331514
 30
0.0
  0
VERTEX
  5
2D5
  8
0
 10
1516.809268802539
 20
-722.8323172650904
 30
0.0
  0
VERTEX
  5
2D6
  8
0
 10
1517.679808618368
 20
-723.1859025418273
 30
0.0
  0
VERTEX
  5
2D7
  8
0
 10
1518.740564454498
 20
-723.476082479439
 30
0.0
  0
VERTEX
  5
2D8
  8
0
 10
1519.950772058934
 20
-723.6917056256324
 30
0.0
  0
VERTEX
  5
2D9
  8
0
 10
1521.263923832024
 20
-723.8244857038034
 30
0.0
  0
VERTEX
  5
2DA
  8
0
 10
1522.629556087436
 20
-723.8693200499999
 30
0.0
  0
VERTEX
  5
2DB
  8
0
 10
1523.99518834333
 20
-723.8244857054375
 30
0.0
  0
VERTEX
  5
2DC
  8
0
 10
1525.30834011785
 20
-723.6917056288379
 30
0.0
  0
VERTEX
  5
2DD
  8
0
 10
1526.518547724608
 20
-723.4760824840926
 30
0.0
  0
VERTEX
  5
2DE
  8
0
 10
1527.579303563864
 20
-723.1859025477502
 30
0.0
  0
VERTEX
  5
2DF
  8
0
 10
1528.4498433835
 20
-722.832317272055
 30
0.0
  0
VERTEX
  5
2E0
  8
0
 10
1529.096712826377
 20
-722.4289147408899
 30
0.0
  0
VERTEX
  5
2E1
  8
0
 10
1529.495053062516
 20
-721.9911974873323
 30
0.0
  0
VERTEX
  5
2E2
  8
0
 10
1529.6295561
 20
-721.53598674
 30
0.0
  0
SEQEND
  5
333
  8
0
  0
POLYLINE
  5
1A7
  8
0
 66
     1
 10
0.0
 20
0.0
 30
0.0
  0
VERTEX
  5
2E3
  8
0
 10
1529.6295561
 20
-721.53598674
 30
0.0
  0
VERTEX
  5
2E4
  8
0
 10
1529.495053063129
 20
-721.0807759936946
 30
0.0
  0
VERTEX
  5
2E5
  8
0
 10
1529.096712828781
 20
-720.6430587410447
 30
0.0
  0
VERTEX
  5
2E6
  8
0
 10
1528.449843388735
 20
-720.2396562105567
 30
0.0
  0
VERTEX
  5
2E7
  8
0
 10
1527.579303572748
 20
-719.8860709352113
 30
0.0
  0
VERTEX
  5
2E8
  8
0
 10
1526.518547737666
 20
-719.5958909988159
 30
0.0
  0
VERTEX
  5
2E9
  8
0
 10
1525.308340135261
 20
-719.3802678535662
 30
0.0
  0
VERTEX
  5
2EA
  8
0
 10
1523.995188364895
 20
-719.2474877759923
 30
0.0
  0
VERTEX
  5
2EB
  8
0
 10
1522.629556112564
 20
-719.20265343
 30
0.0
  0
VERTEX
  5
2EC
  8
0
 10
1521.26392385975
 20
-719.2474877743582
 30
0.0
  0
VERTEX
  5
2ED
  8
0
 10
1519.950772087954
 20
-719.3802678503608
 30
0.0
  0
VERTEX
  5
2EE
  8
0
 10
1518.740564483227
 20
-719.5958909941623
 30
0.0
  0
VERTEX
  5
2EF
  8
0
 10
1517.679808645021
 20
-719.8860709292884
 30
0.0
  0
VERTEX
  5
2F0
  8
0
 10
1516.809268825225
 20
-720.2396562035922
 30
0.0
  0
VERTEX
  5
2F1
  8
0
 10
1516.162399380835
 20
-720.6430587333061
 30
0.0
  0
VERTEX
  5
2F2
  8
0
 10
1515.764059141773
 20
-721.0807759854794
 30
0.0
  0
VERTEX
  5
2F3
  8
0
 10
1515.6295561
 20
-721.5359867316238
 30
0.0
  0
SEQEND
  5
334
  8
0
  0
POLYLINE
  5
1A8
  8
0
 66
     1
 10
0.0
 20
0.0
 30
0.0
  0
VERTEX
  5
2F4
  8
0
 10
1621.30016208
 20
-733.0853975
 30
0.0
  0
VERTEX
  5
2F5
  8
0
 10
1621.158434145756
 20
-732.6182424897048
 30
0.0
  0
VERTEX
  5
2F6
  8
0
 10
1620.738989430835
 20
-732.1700043121472
 30
0.0
  0
VERTEX
  5
2F7
  8
0
 10
1620.058812801803
 20
-731.7588337875997
 30
0.0
  0
VERTEX
  5
2F8
  8
0
 10
1619.145447123961
 20
-731.4013807300814
 30
0.0
  0
VERTEX
  5
2F9
  8
0
 10
1618.035877948946
 20
-731.1121197348584
 30
0.0
  0
VERTEX
  5
2FA
  8
0
 10
1616.775035833065
 20
-730.9027640485908
 30
0.0
  0
SEQEND
  5
335
  8
0
  0
POLYLINE
  5
1A9
  8
0
 66
     1
 10
0.0
 20
0.0
 30
0.0
  0
VERTEX
  5
2FB
  8
0
 10
1611.825288368909
 20
-735.2680309566973
 30
0.0
  0
VERTEX
  5
2FC
  8
0
 10
1613.128645625487
 20
-735.3858213315835
 30
0.0
  0
VERTEX
  5
2FD
  8
0
 10
1614.47560269096
 20
-735.4179978518401
 30
0.0
  0
VERTEX
  5
2FE
  8
0
 10
1615.816030460937
 20
-735.3633630181673
 30
0.0
  0
VERTEX
  5
2FF
  8
0
 10
1617.100042828925
 20
-735.2239501509661
 30
0.0
  0
VERTEX
  5
300
  8
0
 10
1618.279853275455
 20
-735.0049477171539
 30
0.0
  0
VERTEX
  5
301
  8
0
 10
1619.311553317806
 20
-734.7145062332895
 30
0.0
  0
VERTEX
  5
302
  8
0
 10
1620.156746632556
 20
-734.3634349314095
 30
0.0
  0
VERTEX
  5
303
  8
0
 10
1620.783978034538
 20
-733.9647994766281
 30
0.0
  0
VERTEX
  5
304
  8
0
 10
1621.169904130535
 20
-733.5334357080661
 30
0.0
  0
VERTEX
  5
305
  8
0
 10
1621.30016208
 20
-733.0853975
 30
0.0
  0
SEQEND
  5
336
  8
0
  0
POLYLINE
  5
1AA
  8
0
 66
     1
 10
0.0
 20
0.0
 30
0.0
  0
VERTEX
  5
1AB
  8
0
 10
1611.82528835
 20
-735.26803098
 30
0.0
  0
VERTEX
  5
1AC
  8
0
 10
1568.7962284
 20
-729.84687899
 30
0.0
  0
SEQEND
  5
1AD
  8
0
  0
POLYLINE
  5
1AE
  8
0
 66
     1
 10
0.0
 20
0.0
 30
0.0
  0
VERTEX
  5
306
  8
0
 10
1564.27110213
 20
-727.6642455016238
 30
0.0
  0
VERTEX
  5
307
  8
0
 10
1564.412830061549
 20
-728.1314005158987
 30
0.0
  0
VERTEX
  5
308
  8
0
 10
1564.83227477846
 20
-728.5796386973024
 30
0.0
  0
VERTEX
  5
309
  8
0
 10
1565.512451413809
 20
-728.9908092251072
 30
0.0
  0
VERTEX
  5
30A
  8
0
 10
1566.425817101583
 20
-729.348262284888
 30
0.0
  0
VERTEX
  5
30B
  8
0
 10
1567.535386289135
 20
-729.6375232810484
 30
0.0
  0
VERTEX
  5
30C
  8
0
 10
1568.796228418909
 20
-729.8468789666973
 30
0.0
  0
SEQEND
  5
337
  8
0
  0
POLYLINE
  5
1AF
  8
0
 66
     1
 10
0.0
 20
0.0
 30
0.0
  0
VERTEX
  5
30D
  8
0
 10
1573.745975883064
 20
-725.4816120585908
 30
0.0
  0
VERTEX
  5
30E
  8
0
 10
1572.442618626805
 20
-725.3638216808096
 30
0.0
  0
VERTEX
  5
30F
  8
0
 10
1571.09566155995
 20
-725.331645157818
 30
0.0
  0
VERTEX
  5
310
  8
0
 10
1569.755233787087
 20
-725.3862799890212
 30
0.0
  0
VERTEX
  5
311
  8
0
 10
1568.471221414963
 20
-725.5256928541042
 30
0.0
  0
VERTEX
  5
312
  8
0
 10
1567.291410963338
 20
-725.7446952862133
 30
0.0
  0
VERTEX
  5
313
  8
0
 10
1566.259710915252
 20
-726.0351367688294
 30
0.0
  0
VERTEX
  5
314
  8
0
 10
1565.414517594452
 20
-726.3862080699307
 30
0.0
  0
VERTEX
  5
315
  8
0
 10
1564.787286186421
 20
-726.7848435243943
 30
0.0
  0
VERTEX
  5
316
  8
0
 10
1564.401360084669
 20
-727.2162072930677
 30
0.0
  0
VERTEX
  5
317
  8
0
 10
1564.27110213
 20
-727.6642455016238
 30
0.0
  0
SEQEND
  5
338
  8
0
  0
LINE
  5
1B0
  8
0
 10
1573.74597587
 20
-725.48161204
 30
0.0
 11
1616.77503581
 21
-730.90276403
 31
0.0
  0
LINE
  5
1B1
  8
0
 10
1616.77503581
 20
-735.26803098
 30
0.0
 11
1616.77503581
 21
-730.90276403
 31
0.0
  0
LINE
  5
1B2
  8
0
 10
1573.74597587
 20
-730.47048855
 30
0.0
 11
1573.74597587
 21
-725.48161204
 31
0.0
  0
POLYLINE
  5
1B3
  8
0
 66
     1
 10
0.0
 20
0.0
 30
0.0
  0
VERTEX
  5
1B4
  8
0
 10
1633.62681946
 20
-746.21077713
 30
0.0
  0
VERTEX
  5
1B5
  8
0
 10
1654.84002289
 20
-727.5024902
 30
0.0
  0
VERTEX
  5
1B6
  8
0
 10
1654.84002289
 20
-735.04496253
 30
0.0
  0
SEQEND
  5
1B7
  8
0
  0
LINE
  5
1B8
  8
0
 10
1633.62681946
 20
-753.75324947
 30
0.0
 11
1654.84002289
 21
-735.04496253
 31
0.0
  0
LINE
  5
1B9
  8
0
 10
1633.62681946
 20
-746.21077713
 30
0.0
 11
1633.62681946
 21
-753.75324947
 31
0.0
  0
POLYLINE
  5
1BA
  8
0
 66
     1
 10
0.0
 20
0.0
 30
0.0
  0
VERTEX
  5
1BB
  8
0
 10
1633.62681946
 20
-746.21077713
 30
0.0
  0
VERTEX
  5
1BC
  8
0
 10
1414.73986233
 20
-718.63361267
 30
0.0
  0
VERTEX
  5
1BD
  8
0
 10
1435.95306576
 20
-699.92532573
 30
0.0
  0
VERTEX
  5
1BE
  8
0
 10
1654.84002289
 20
-727.5024902
 30
0.0
  0
SEQEND
  5
1BF
  8
0
  0
LINE
  5
1C0
  8
0
 10
1414.73986233
 20
-718.63361267
 30
0.0
 11
1414.73986233
 21
-726.176085
 31
0.0
  0
LINE
  5
1C1
  8
0
 10
1633.62681946
 20
-753.75324947
 30
0.0
 11
1414.73986233
 21
-726.176085
 31
0.0
  0
LINE
  5
1C2
  8
0
  6
STRICHPUNKT2
 62
     1
 10
1614.30016208
 20
-729.78556586
 30
0.0
 11
1614.30016208
 21
-743.92770148
 31
0.0
  0
LINE
  5
1C3
  8
0
  6
STRICHPUNKT2
 62
     1
 10
1571.27110213
 20
-724.36441387
 30
0.0
 11
1571.27110213
 21
-738.50654949
 31
0.0
  0
LINE
  5
1C4
  8
0
  6
STRICHPUNKT2
 62
     1
 10
1624.12201272
 20
-734.32283437
 30
0.0
 11
1561.44925149
 21
-726.42680864
 31
0.0
  0
LINE
  5
1C5
  8
0
  6
STRICHPUNKT2
 62
     1
 10
1618.01247268
 20
-729.81144729
 30
0.0
 11
1610.58785148
 21
-736.35934771
 31
0.0
  0
LINE
  5
1C6
  8
0
  6
STRICHPUNKT2
 62
     1
 10
1574.98341273
 20
-724.3902953
 30
0.0
 11
1567.55879153
 21
-730.93819572
 31
0.0
  0
LINE
  5
1C7
  8
0
  6
STRICHPUNKT2
 62
     1
 10
1624.12201272
 20
-741.8653067
 30
0.0
 11
1561.44925149
 21
-733.96928098
 31
0.0
  0
LINE
  5
1C8
  8
0
  6
STRICHPUNKT2
 62
     1
 10
1618.01247268
 20
-737.35391962
 30
0.0
 11
1610.58785148
 21
-743.90182005
 31
0.0
  0
LINE
  5
1C9
  8
0
  6
STRICHPUNKT2
 62
     1
 10
1574.98341273
 20
-731.93276763
 30
0.0
 11
1567.55879153
 21
-738.48066806
 31
0.0
  0
LINE
  5
1CA
  8
0
  6
STRICHPUNKT2
 62
     1
 10
1614.30016208
 20
-729.78556586
 30
0.0
 11
1614.30016208
 21
-743.92770148
 31
0.0
  0
LINE
  5
1CB
  8
0
  6
STRICHPUNKT2
 62
     1
 10
1571.27110213
 20
-724.36441387
 30
0.0
 11
1571.27110213
 21
-738.50654949
 31
0.0
  0
LINE
  5
1CC
  8
0
  6
STRICHPUNKT2
 62
     1
 10
1624.12201272
 20
-734.32283437
 30
0.0
 11
1561.44925149
 21
-726.42680864
 31
0.0
  0
LINE
  5
1CD
  8
0
  6
STRICHPUNKT2
 62
     1
 10
1618.01247268
 20
-729.81144729
 30
0.0
 11
1610.58785148
 21
-736.35934771
 31
0.0
  0
LINE
  5
1CE
  8
0
  6
STRICHPUNKT2
 62
     1
 10
1574.98341273
 20
-724.3902953
 30
0.0
 11
1567.55879153
 21
-730.93819572
 31
0.0
  0
LINE
  5
1CF
  8
0
  6
STRICHPUNKT2
 62
     1
 10
1624.12201272
 20
-741.8653067
 30
0.0
 11
1561.44925149
 21
-733.96928098
 31
0.0
  0
LINE
  5
1D0
  8
0
  6
STRICHPUNKT2
 62
     1
 10
1618.01247268
 20
-737.35391962
 30
0.0
 11
1610.58785148
 21
-743.90182005
 31
0.0
  0
LINE
  5
1D1
  8
0
  6
STRICHPUNKT2
 62
     1
 10
1574.98341273
 20
-731.93276763
 30
0.0
 11
1567.55879153
 21
-738.48066806
 31
0.0
  0
LINE
  5
1D2
  8
0
  6
STRICHPUNKT2
 62
     1
 10
1522.6295561
 20
-718.2361551
 30
0.0
 11
1522.6295561
 21
-732.37829072
 31
0.0
  0
LINE
  5
1D3
  8
0
  6
STRICHPUNKT2
 62
     1
 10
1522.6295561
 20
-721.53598674
 30
0.0
 11
1512.80770546
 21
-720.29854987
 31
0.0
  0
LINE
  5
1D4
  8
0
  6
STRICHPUNKT2
 62
     1
 10
1522.6295561
 20
-721.53598674
 30
0.0
 11
1532.45140674
 21
-722.77342361
 31
0.0
  0
LINE
  5
1D5
  8
0
  6
STRICHPUNKT2
 62
     1
 10
1522.6295561
 20
-721.53598674
 30
0.0
 11
1518.9172455
 21
-724.80993695
 31
0.0
  0
LINE
  5
1D6
  8
0
  6
STRICHPUNKT2
 62
     1
 10
1522.6295561
 20
-721.53598674
 30
0.0
 11
1526.3418667
 21
-718.26203653
 31
0.0
  0
LINE
  5
1D7
  8
0
  6
STRICHPUNKT2
 62
     1
 10
1522.6295561
 20
-729.07845907
 30
0.0
 11
1512.80770546
 21
-727.84102221
 31
0.0
  0
LINE
  5
1D8
  8
0
  6
STRICHPUNKT2
 62
     1
 10
1522.6295561
 20
-729.07845907
 30
0.0
 11
1532.45140674
 21
-730.31589594
 31
0.0
  0
LINE
  5
1D9
  8
0
  6
STRICHPUNKT2
 62
     1
 10
1522.6295561
 20
-729.07845907
 30
0.0
 11
1518.9172455
 21
-732.35240929
 31
0.0
  0
LINE
  5
1DA
  8
0
  6
STRICHPUNKT2
 62
     1
 10
1522.6295561
 20
-729.07845907
 30
0.0
 11
1526.3418667
 21
-725.80450886
 31
0.0
  0
LINE
  5
1DB
  8
0
 10
1428.46975099
 20
-682.95476299
 30
0.0
 11
1428.46975099
 21
-691.44004436
 31
0.0
  0
LINE
  5
1DC
  8
0
 10
1407.25654756
 20
-710.14833129
 30
0.0
 11
1428.46975099
 21
-691.44004436
 31
0.0
  0
POLYLINE
  5
1DD
  8
0
 66
     1
 10
0.0
 20
0.0
 30
0.0
  0
VERTEX
  5
1DE
  8
0
 10
1407.25654756
 20
-710.14833129
 30
0.0
  0
VERTEX
  5
1DF
  8
0
 10
1407.25654756
 20
-701.66304992
 30
0.0
  0
VERTEX
  5
1E0
  8
0
 10
1428.46975099
 20
-682.95476299
 30
0.0
  0
VERTEX
  5
1E1
  8
0
 10
1420.98643622
 20
-682.01195394
 30
0.0
  0
SEQEND
  5
1E2
  8
0
  0
LINE
  5
1E3
  8
0
 10
1399.77323278
 20
-700.72024088
 30
0.0
 11
1420.98643622
 21
-682.01195394
 31
0.0
  0
LINE
  5
1E4
  8
0
 10
1407.25654756
 20
-701.66304992
 30
0.0
 11
1399.77323278
 21
-700.72024088
 31
0.0
  0
LINE
  5
1E5
  8
0
 10
1399.77323278
 20
-709.20552225
 30
0.0
 11
1399.77323278
 21
-700.72024088
 31
0.0
  0
LINE
  5
1E6
  8
0
 10
1407.25654756
 20
-710.14833129
 30
0.0
 11
1399.77323278
 21
-709.20552225
 31
0.0
  0
LINE
  5
1E7
  8
0
 10
1414.73986233
 20
-718.63361267
 30
0.0
 11
1435.95306576
 21
-699.92532573
 31
0.0
  0
LINE
  5
1E8
  8
0
 10
1414.73986233
 20
-718.63361267
 30
0.0
 11
1414.73986233
 21
-726.176085
 31
0.0
  0
POLYLINE
  5
1E9
  8
0
 66
     1
 10
0.0
 20
0.0
 30
0.0
  0
VERTEX
  5
318
  8
0
 10
1407.256547573606
 20
-710.1483312960138
 30
0.0
  0
VERTEX
  5
319
  8
0
 10
1407.400337374221
 20
-711.6379104545744
 30
0.0
  0
VERTEX
  5
31A
  8
0
 10
1407.826181000403
 20
-713.1064775440609
 30
0.0
  0
VERTEX
  5
31B
  8
0
 10
1408.517713520552
 20
-714.497596355293
 30
0.0
  0
VERTEX
  5
31C
  8
0
 10
1409.448359727964
 20
-715.7578069729647
 30
0.0
  0
VERTEX
  5
31D
  8
0
 10
1410.582355411111
 20
-716.8386802101905
 30
0.0
  0
VERTEX
  5
31E
  8
0
 10
1411.876121752216
 20
-717.6986787149829
 30
0.0
  0
VERTEX
  5
31F
  8
0
 10
1413.279940036772
 20
-718.3047532273805
 30
0.0
  0
VERTEX
  5
320
  8
0
 10
1414.739862315839
 20
-718.6336126439629
 30
0.0
  0
SEQEND
  5
339
  8
0
  0
POLYLINE
  5
1EA
  8
0
 66
     1
 10
0.0
 20
0.0
 30
0.0
  0
VERTEX
  5
1EB
  8
0
 10
1407.25654756
 20
-710.14833129
 30
0.0
  0
VERTEX
  5
1EC
  8
0
 10
1428.46975099
 20
-691.44004436
 30
0.0
  0
SEQEND
  5
1ED
  8
0
  0
POLYLINE
  5
1EE
  8
0
 66
     1
 10
0.0
 20
0.0
 30
0.0
  0
VERTEX
  5
321
  8
0
 10
1428.469751003606
 20
-691.4400443660138
 30
0.0
  0
VERTEX
  5
322
  8
0
 10
1428.613540804221
 20
-692.9296235245744
 30
0.0
  0
VERTEX
  5
323
  8
0
 10
1429.039384430403
 20
-694.3981906140609
 30
0.0
  0
VERTEX
  5
324
  8
0
 10
1429.730916950552
 20
-695.789309425293
 30
0.0
  0
VERTEX
  5
325
  8
0
 10
1430.661563157964
 20
-697.0495200429647
 30
0.0
  0
VERTEX
  5
326
  8
0
 10
1431.795558841111
 20
-698.1303932801906
 30
0.0
  0
VERTEX
  5
327
  8
0
 10
1433.089325182216
 20
-698.9903917849829
 30
0.0
  0
VERTEX
  5
328
  8
0
 10
1434.493143466772
 20
-699.5964662973805
 30
0.0
  0
VERTEX
  5
329
  8
0
 10
1435.953065745839
 20
-699.9253257139629
 30
0.0
  0
SEQEND
  5
33A
  8
0
  0
LINE
  5
1EF
  8
0
 10
1407.25654756
 20
-710.14833129
 30
0.0
 11
1399.77323278
 21
-709.20552225
 31
0.0
  0
POLYLINE
  5
1F0
  8
0
 66
     1
 10
0.0
 20
0.0
 30
0.0
  0
VERTEX
  5
32A
  8
0
 10
1399.773232817211
 20
-709.2055222620277
 30
0.0
  0
VERTEX
  5
32B
  8
0
 10
1400.060812418443
 20
-712.1846805791487
 30
0.0
  0
VERTEX
  5
32C
  8
0
 10
1400.912499670805
 20
-715.1218147581217
 30
0.0
  0
VERTEX
  5
32D
  8
0
 10
1402.295564711103
 20
-717.9040523805861
 30
0.0
  0
VERTEX
  5
32E
  8
0
 10
1404.156857125929
 20
-720.4244736159294
 30
0.0
  0
VERTEX
  5
32F
  8
0
 10
1406.424848492222
 20
-722.5862200903811
 30
0.0
  0
VERTEX
  5
330
  8
0
 10
1409.012381174432
 20
-724.3062170999659
 30
0.0
  0
VERTEX
  5
331
  8
0
 10
1411.820017743544
 20
-725.5183661247609
 30
0.0
  0
VERTEX
  5
332
  8
0
 10
1414.739862301679
 20
-726.1760849579259
 30
0.0
  0
SEQEND
  5
33B
  8
0
  0
POLYLINE
  5
1F1
  8
0
 66
     1
 10
0.0
 20
0.0
 30
0.0
  0
VERTEX
  5
1F2
  8
0
 10
1753.11244857
 20
-576.29046692
 30
0.0
  0
VERTEX
  5
1F3
  8
0
 10
1519.11244857
 20
-576.29046692
 30
0.0
  0
VERTEX
  5
1F4
  8
0
 10
1519.11244857
 20
-584.29046692
 30
0.0
  0
SEQEND
  5
1F5
  8
0
  0
LINE
  5
1F6
  8
0
 10
1753.11244857
 20
-584.29046692
 30
0.0
 11
1519.11244857
 21
-584.29046692
 31
0.0
  0
LINE
  5
1F7
  8
0
 10
1753.11244857
 20
-576.29046692
 30
0.0
 11
1753.11244857
 21
-584.29046692
 31
0.0
  0
LINE
  5
1F8
  8
0
  6
STRICHPUNKT2
 62
     1
 10
1721.11244857
 20
-572.79046692
 30
0.0
 11
1721.11244857
 21
-587.79046692
 31
0.0
  0
LINE
  5
1F9
  8
0
  6
STRICHPUNKT2
 62
     1
 10
1675.11244857
 20
-572.79046692
 30
0.0
 11
1675.11244857
 21
-587.79046692
 31
0.0
  0
LINE
  5
1FA
  8
0
  6
STRICHPUNKT2
 62
     1
 10
1623.11244857
 20
-572.79046692
 30
0.0
 11
1623.11244857
 21
-587.79046692
 31
0.0
  0
LINE
  5
1FB
  8
0
  6
STRICHPUNKT2
 62
     1
 10
1675.11244857
 20
-572.79046692
 30
0.0
 11
1675.11244857
 21
-587.79046692
 31
0.0
  0
LINE
  5
1FC
  8
0
  6
STRICHPUNKT2
 62
     1
 10
1721.11244857
 20
-572.79046692
 30
0.0
 11
1721.11244857
 21
-587.79046692
 31
0.0
  0
POLYLINE
  5
1FD
  8
0
 66
     1
 10
0.0
 20
0.0
 30
0.0
  0
VERTEX
  5
1FE
  8
0
 10
1511.11244857
 20
-568.29046692
 30
0.0
  0
VERTEX
  5
1FF
  8
0
 10
1511.11244857
 20
-559.29046692
 30
0.0
  0
VERTEX
  5
200
  8
0
 10
1503.11244857
 20
-559.29046692
 30
0.0
  0
SEQEND
  5
201
  8
0
  0
LINE
  5
202
  8
0
 10
1503.11244857
 20
-568.29046692
 30
0.0
 11
1503.11244857
 21
-559.29046692
 31
0.0
  0
LINE
  5
203
  8
0
 10
1511.11244857
 20
-568.29046692
 30
0.0
 11
1503.11244857
 21
-568.29046692
 31
0.0
  0
POLYLINE
  5
204
  8
0
 66
     1
 10
0.0
 20
0.0
 30
0.0
  0
VERTEX
  5
205
  8
0
 10
1519.11244857
 20
-576.29046692
 30
0.0
 42
-0.414213562
  0
VERTEX
  5
206
  8
0
 10
1511.11244857
 20
-568.29046692
 30
0.0
  0
VERTEX
  5
207
  8
0
 10
1503.11244857
 20
-568.29046692
 30
0.0
  0
SEQEND
  5
208
  8
0
  0
ARC
  5
209
  8
0
 10
1519.11244857
 20
-568.29046692
 30
0.0
 40
16.0
 50
180.0
 51
-90.0
  0
LINE
  5
20A
  8
0
 10
1519.11244857
 20
-576.29046692
 30
0.0
 11
1519.11244857
 21
-584.29046692
 31
0.0
  0
LINE
  5
20B
  8
0
 10
1464.36098053
 20
-584.29046692
 30
0.0
 11
1404.36098053
 21
-584.29046692
 31
0.0
  0
LINE
  5
20C
  8
0
  6
STRICHPUNKT2
 62
     1
 10
1434.36098053
 20
-572.79046692
 30
0.0
 11
1434.36098053
 21
-587.79046692
 31
0.0
  0
LINE
  5
20D
  8
0
  6
STRICHPUNKT2
 62
     1
 10
1434.36098053
 20
-572.79046692
 30
0.0
 11
1434.36098053
 21
-587.79046692
 31
0.0
  0
LINE
  5
20E
  8
0
  6
STRICHPUNKT2
 62
     1
 10
1434.36098053
 20
-572.79046692
 30
0.0
 11
1434.36098053
 21
-587.79046692
 31
0.0
  0
LINE
  5
20F
  8
0
  6
STRICHPUNKT2
 62
     1
 10
1434.36098053
 20
-572.79046692
 30
0.0
 11
1434.36098053
 21
-587.79046692
 31
0.0
  0
LINE
  5
210
  8
0
  6
STRICHPUNKT2
 62
     1
 10
1434.36098053
 20
-572.79046692
 30
0.0
 11
1434.36098053
 21
-587.79046692
 31
0.0
  0
LINE
  5
211
  8
0
 10
1464.36098053
 20
-568.29046692
 30
0.0
 11
1404.36098053
 21
-568.29046692
 31
0.0
  0
LINE
  5
212
  8
0
 10
1404.36098053
 20
-559.29046692
 30
0.0
 11
1404.36098053
 21
-568.29046692
 31
0.0
  0
LINE
  5
213
  8
0
 10
1464.36098053
 20
-559.29046692
 30
0.0
 11
1404.36098053
 21
-559.29046692
 31
0.0
  0
LINE
  5
214
  8
0
 10
1464.36098053
 20
-568.29046692
 30
0.0
 11
1464.36098053
 21
-559.29046692
 31
0.0
  0
LINE
  5
215
  8
0
 10
1464.36098053
 20
-584.29046692
 30
0.0
 11
1404.36098053
 21
-584.29046692
 31
0.0
  0
LINE
  5
216
  8
0
 10
1404.36098053
 20
-568.29046692
 30
0.0
 11
1404.36098053
 21
-584.29046692
 31
0.0
  0
LINE
  5
217
  8
0
 10
1464.36098053
 20
-568.29046692
 30
0.0
 11
1404.36098053
 21
-568.29046692
 31
0.0
  0
LINE
  5
218
  8
0
 10
1464.36098053
 20
-584.29046692
 30
0.0
 11
1464.36098053
 21
-568.29046692
 31
0.0
  0
CIRCLE
  5
219
  8
0
 10
1623.11244857
 20
-643.93802541
 30
0.0
 40
7.0
  0
POLYLINE
  5
21A
  8
0
 66
     1
 10
0.0
 20
0.0
 30
0.0
 70
     1
  0
VERTEX
  5
21B
  8
0
 10
1721.11244857
 20
-636.93802541
 30
0.0
 42
-1.0
  0
VERTEX
  5
21C
  8
0
 10
1721.11244857
 20
-650.93802541
 30
0.0
  0
VERTEX
  5
21D
  8
0
 10
1675.11244857
 20
-650.93802541
 30
0.0
 42
-1.0
  0
VERTEX
  5
21E
  8
0
 10
1675.11244857
 20
-636.93802541
 30
0.0
  0
SEQEND
  5
21F
  8
0
  0
LINE
  5
220
  8
0
 10
1519.11244857
 20
-613.93802541
 30
0.0
 11
1753.11244857
 21
-613.93802541
 31
0.0
  0
LINE
  5
221
  8
0
 10
1753.11244857
 20
-673.93802541
 30
0.0
 11
1753.11244857
 21
-613.93802541
 31
0.0
  0
POLYLINE
  5
222
  8
0
 66
     1
 10
0.0
 20
0.0
 30
0.0
  0
VERTEX
  5
223
  8
0
 10
1753.11244857
 20
-673.93802541
 30
0.0
  0
VERTEX
  5
224
  8
0
 10
1519.11244857
 20
-673.93802541
 30
0.0
  0
VERTEX
  5
225
  8
0
 10
1519.11244857
 20
-613.93802541
 30
0.0
  0
SEQEND
  5
226
  8
0
  0
LINE
  5
227
  8
0
  6
STRICHPUNKT2
 62
     1
 10
1731.61244857
 20
-643.93802541
 30
0.0
 11
1664.61244857
 21
-643.93802541
 31
0.0
  0
LINE
  5
228
  8
0
  6
STRICHPUNKT2
 62
     1
 10
1721.11244857
 20
-633.43802541
 30
0.0
 11
1721.11244857
 21
-654.43802541
 31
0.0
  0
LINE
  5
229
  8
0
  6
STRICHPUNKT2
 62
     1
 10
1675.11244857
 20
-633.43802541
 30
0.0
 11
1675.11244857
 21
-654.43802541
 31
0.0
  0
LINE
  5
22A
  8
0
  6
STRICHPUNKT2
 62
     1
 10
1731.61244857
 20
-643.93802541
 30
0.0
 11
1664.61244857
 21
-643.93802541
 31
0.0
  0
LINE
  5
22B
  8
0
  6
STRICHPUNKT2
 62
     1
 10
1721.11244857
 20
-633.43802541
 30
0.0
 11
1721.11244857
 21
-654.43802541
 31
0.0
  0
LINE
  5
22C
  8
0
  6
STRICHPUNKT2
 62
     1
 10
1675.11244857
 20
-633.43802541
 30
0.0
 11
1675.11244857
 21
-654.43802541
 31
0.0
  0
LINE
  5
22D
  8
0
  6
STRICHPUNKT2
 62
     1
 10
1731.61244857
 20
-643.93802541
 30
0.0
 11
1664.61244857
 21
-643.93802541
 31
0.0
  0
LINE
  5
22E
  8
0
  6
STRICHPUNKT2
 62
     1
 10
1721.11244857
 20
-633.43802541
 30
0.0
 11
1721.11244857
 21
-654.43802541
 31
0.0
  0
LINE
  5
22F
  8
0
  6
STRICHPUNKT2
 62
     1
 10
1675.11244857
 20
-633.43802541
 30
0.0
 11
1675.11244857
 21
-654.43802541
 31
0.0
  0
LINE
  5
230
  8
0
  6
STRICHPUNKT2
 62
     1
 10
1731.61244857
 20
-643.93802541
 30
0.0
 11
1664.61244857
 21
-643.93802541
 31
0.0
  0
LINE
  5
231
  8
0
  6
STRICHPUNKT2
 62
     1
 10
1721.11244857
 20
-633.43802541
 30
0.0
 11
1721.11244857
 21
-654.43802541
 31
0.0
  0
LINE
  5
232
  8
0
  6
STRICHPUNKT2
 62
     1
 10
1675.11244857
 20
-633.43802541
 30
0.0
 11
1675.11244857
 21
-654.43802541
 31
0.0
  0
LINE
  5
233
  8
0
  6
STRICHPUNKT2
 62
     1
 10
1623.11244857
 20
-643.93802541
 30
0.0
 11
1612.61244857
 21
-643.93802541
 31
0.0
  0
LINE
  5
234
  8
0
  6
STRICHPUNKT2
 62
     1
 10
1623.11244857
 20
-643.93802541
 30
0.0
 11
1633.61244857
 21
-643.93802541
 31
0.0
  0
LINE
  5
235
  8
0
  6
STRICHPUNKT2
 62
     1
 10
1623.11244857
 20
-643.93802541
 30
0.0
 11
1623.11244857
 21
-654.43802541
 31
0.0
  0
LINE
  5
236
  8
0
  6
STRICHPUNKT2
 62
     1
 10
1623.11244857
 20
-643.93802541
 30
0.0
 11
1623.11244857
 21
-633.43802541
 31
0.0
  0
LINE
  5
237
  8
0
  6
STRICHPUNKT2
 62
     1
 10
1623.11244857
 20
-643.93802541
 30
0.0
 11
1612.61244857
 21
-643.93802541
 31
0.0
  0
LINE
  5
238
  8
0
  6
STRICHPUNKT2
 62
     1
 10
1623.11244857
 20
-643.93802541
 30
0.0
 11
1633.61244857
 21
-643.93802541
 31
0.0
  0
LINE
  5
239
  8
0
  6
STRICHPUNKT2
 62
     1
 10
1623.11244857
 20
-643.93802541
 30
0.0
 11
1623.11244857
 21
-654.43802541
 31
0.0
  0
LINE
  5
23A
  8
0
  6
STRICHPUNKT2
 62
     1
 10
1623.11244857
 20
-643.93802541
 30
0.0
 11
1623.11244857
 21
-633.43802541
 31
0.0
  0
POLYLINE
  5
23B
  8
0
 66
     1
 10
0.0
 20
0.0
 30
0.0
  0
VERTEX
  5
23C
  8
0
 10
1511.11244857
 20
-673.93802541
 30
0.0
  0
VERTEX
  5
23D
  8
0
 10
1511.11244857
 20
-613.93802541
 30
0.0
  0
VERTEX
  5
23E
  8
0
 10
1503.11244857
 20
-613.93802541
 30
0.0
  0
SEQEND
  5
23F
  8
0
  0
LINE
  5
240
  8
0
 10
1503.11244857
 20
-673.93802541
 30
0.0
 11
1503.11244857
 21
-613.93802541
 31
0.0
  0
LINE
  5
241
  8
0
 10
1511.11244857
 20
-673.93802541
 30
0.0
 11
1503.11244857
 21
-673.93802541
 31
0.0
  0
LINE
  5
242
  8
0
 10
1519.11244857
 20
-673.93802541
 30
0.0
 11
1519.11244857
 21
-613.93802541
 31
0.0
  0
LINE
  5
243
  8
0
 10
1511.11244857
 20
-613.93802541
 30
0.0
 11
1519.11244857
 21
-613.93802541
 31
0.0
  0
LINE
  5
244
  8
0
 10
1519.11244857
 20
-673.93802541
 30
0.0
 11
1511.11244857
 21
-673.93802541
 31
0.0
  0
TEXT
  5
245
  8
TXT_DIM49
 10
1625.33018863
 20
-594.41776983
 30
0.0
 40
2.5
  1
250
  7
ARIAL
  0
LINE
  5
246
  8
0
 62
     4
 10
1504.11244857
 20
-594.91776983
 30
0.0
 11
1502.11244857
 21
-596.91776983
 31
0.0
  0
LINE
  5
247
  8
0
 62
     4
 10
1752.36244857
 20
-596.66776983
 30
0.0
 11
1753.86244857
 21
-595.16776983
 31
0.0
  0
LINE
  5
248
  8
0
 62
     4
 10
1503.11244857
 20
-595.91776983
 30
0.0
 11
1753.11244857
 21
-595.91776983
 31
0.0
  0
LINE
  5
249
  8
0
 62
     4
 10
1503.11244857
 20
-593.91776983
 30
0.0
 11
1503.11244857
 21
-597.91776983
 31
0.0
  0
LINE
  5
24A
  8
0
 62
     4
 10
1753.11244857
 20
-593.91776983
 30
0.0
 11
1753.11244857
 21
-597.91776983
 31
0.0
  0
TEXT
  5
24B
  8
TXT_DIM49
 10
1761.61244857
 20
-581.21792222
 30
0.0
 40
2.5
  1
8
 50
90.00020741
  7
ARIAL
  0
LINE
  5
24C
  8
0
 62
     4
 10
1764.11244857
 20
-577.29046692
 30
0.0
 11
1762.11244857
 21
-575.29046692
 31
0.0
  0
LINE
  5
24D
  8
0
 62
     4
 10
1762.36244857
 20
-583.54046692
 30
0.0
 11
1763.86244857
 21
-585.04046692
 31
0.0
  0
LINE
  5
24E
  8
0
 62
     4
 10
1763.11244857
 20
-576.29046692
 30
0.0
 11
1763.11244857
 21
-584.29046692
 31
0.0
  0
LINE
  5
24F
  8
0
 62
     4
 10
1761.11244857
 20
-576.29046692
 30
0.0
 11
1765.11244857
 21
-576.29046692
 31
0.0
  0
LINE
  5
250
  8
0
 62
     4
 10
1761.11244857
 20
-584.29046692
 30
0.0
 11
1765.11244857
 21
-584.29046692
 31
0.0
  0
TEXT
  5
251
  8
TXT_DIM49
 10
1432.50614049
 20
-550.13659938
 30
0.0
 40
2.5
  1
60
  7
ARIAL
  0
LINE
  5
252
  8
0
 62
     4
 10
1405.36098053
 20
-550.63659938
 30
0.0
 11
1403.36098053
 21
-552.63659938
 31
0.0
  0
LINE
  5
253
  8
0
 62
     4
 10
1463.61098053
 20
-552.38659938
 30
0.0
 11
1465.11098053
 21
-550.88659938
 31
0.0
  0
LINE
  5
254
  8
0
 62
     4
 10
1404.36098053
 20
-551.63659938
 30
0.0
 11
1464.36098053
 21
-551.63659938
 31
0.0
  0
LINE
  5
255
  8
0
 62
     4
 10
1404.36098053
 20
-553.63659938
 30
0.0
 11
1404.36098053
 21
-549.63659938
 31
0.0
  0
LINE
  5
256
  8
0
 62
     4
 10
1464.36098053
 20
-553.63659938
 30
0.0
 11
1464.36098053
 21
-549.63659938
 31
0.0
  0
TEXT
  5
257
  8
TXT_DIM49
 10
1392.86098053
 20
-573.64530696
 30
0.0
 40
2.5
  1
25
 50
90.00020741
  7
ARIAL
  0
LINE
  5
258
  8
0
 62
     4
 10
1395.36098053
 20
-560.29046692
 30
0.0
 11
1393.36098053
 21
-558.29046692
 31
0.0
  0
LINE
  5
259
  8
0
 62
     4
 10
1393.61098053
 20
-583.54046692
 30
0.0
 11
1395.11098053
 21
-585.04046692
 31
0.0
  0
LINE
  5
25A
  8
0
 62
     4
 10
1394.36098053
 20
-559.29046692
 30
0.0
 11
1394.36098053
 21
-584.29046692
 31
0.0
  0
LINE
  5
25B
  8
0
 62
     4
 10
1396.36098053
 20
-559.29046692
 30
0.0
 11
1392.36098053
 21
-559.29046692
 31
0.0
  0
LINE
  5
25C
  8
0
 62
     4
 10
1396.36098053
 20
-584.29046692
 30
0.0
 11
1392.36098053
 21
-584.29046692
 31
0.0
  0
TEXT
  5
25D
  8
TXT_DIM49
 10
1761.61244857
 20
-630.79286545
 30
0.0
 40
2.5
  1
30
 50
90.00020741
  7
ARIAL
  0
LINE
  5
25E
  8
0
 62
     4
 10
1764.11244857
 20
-614.93802541
 30
0.0
 11
1762.11244857
 21
-612.93802541
 31
0.0
  0
LINE
  5
25F
  8
0
 62
     4
 10
1762.36244857
 20
-643.18802541
 30
0.0
 11
1763.86244857
 21
-644.68802541
 31
0.0
  0
LINE
  5
260
  8
0
 62
     4
 10
1763.11244857
 20
-613.93802541
 30
0.0
 11
1763.11244857
 21
-643.93802541
 31
0.0
  0
LINE
  5
261
  8
0
 62
     4
 10
1761.11244857
 20
-613.93802541
 30
0.0
 11
1765.11244857
 21
-613.93802541
 31
0.0
  0
LINE
  5
262
  8
0
 62
     4
 10
1761.11244857
 20
-643.93802541
 30
0.0
 11
1765.11244857
 21
-643.93802541
 31
0.0
  0
TEXT
  5
263
  8
TXT_DIM49
 10
1761.69606412
 20
-660.79286545
 30
0.0
 40
2.5
  1
30
 50
90.00020741
  7
ARIAL
  0
LINE
  5
264
  8
0
 62
     4
 10
1764.19606412
 20
-644.93802541
 30
0.0
 11
1762.19606412
 21
-642.93802541
 31
0.0
  0
LINE
  5
265
  8
0
 62
     4
 10
1762.44606412
 20
-673.18802541
 30
0.0
 11
1763.94606412
 21
-674.68802541
 31
0.0
  0
LINE
  5
266
  8
0
 62
     4
 10
1763.19606412
 20
-643.93802541
 30
0.0
 11
1763.19606412
 21
-673.93802541
 31
0.0
  0
LINE
  5
267
  8
0
 62
     4
 10
1761.19606412
 20
-643.93802541
 30
0.0
 11
1765.19606412
 21
-643.93802541
 31
0.0
  0
LINE
  5
268
  8
0
 62
     4
 10
1761.19606412
 20
-673.93802541
 30
0.0
 11
1765.19606412
 21
-673.93802541
 31
0.0
  0
TEXT
  5
269
  8
TXT_DIM49
 10
1735.25760853
 20
-624.25541903
 30
0.0
 40
2.5
  1
32
  7
ARIAL
  0
LINE
  5
26A
  8
0
 62
     4
 10
1752.11244857
 20
-626.75541903
 30
0.0
 11
1754.11244857
 21
-624.75541903
 31
0.0
  0
LINE
  5
26B
  8
0
 62
     4
 10
1721.86244857
 20
-625.00541903
 30
0.0
 11
1720.36244857
 21
-626.50541903
 31
0.0
  0
LINE
  5
26C
  8
0
 62
     4
 10
1753.11244857
 20
-625.75541903
 30
0.0
 11
1721.11244857
 21
-625.75541903
 31
0.0
  0
LINE
  5
26D
  8
0
 62
     4
 10
1753.11244857
 20
-623.75541903
 30
0.0
 11
1753.11244857
 21
-627.75541903
 31
0.0
  0
LINE
  5
26E
  8
0
 62
     4
 10
1721.11244857
 20
-627.75541903
 30
0.0
 11
1721.11244857
 21
-623.75541903
 31
0.0
  0
TEXT
  5
26F
  8
TXT_DIM49
 10
1685.33018863
 20
-662.43802541
 30
0.0
 40
2.5
  1
130
  7
ARIAL
  0
LINE
  5
270
  8
0
 62
     4
 10
1752.11244857
 20
-664.93802541
 30
0.0
 11
1754.11244857
 21
-662.93802541
 31
0.0
  0
LINE
  5
271
  8
0
 62
     4
 10
1623.86244857
 20
-663.18802541
 30
0.0
 11
1622.36244857
 21
-664.68802541
 31
0.0
  0
LINE
  5
272
  8
0
 62
     4
 10
1753.11244857
 20
-663.93802541
 30
0.0
 11
1623.11244857
 21
-663.93802541
 31
0.0
  0
LINE
  5
273
  8
0
 62
     4
 10
1753.11244857
 20
-665.93802541
 30
0.0
 11
1753.11244857
 21
-661.93802541
 31
0.0
  0
LINE
  5
274
  8
0
 62
     4
 10
1623.11244857
 20
-661.93802541
 30
0.0
 11
1623.11244857
 21
-665.93802541
 31
0.0
  0
LINE
  5
275
  8
0
 62
     5
 10
1698.11244857
 20
-636.93802541
 30
0.0
 11
1691.24742513
 21
-628.63285709
 31
0.0
  0
TEXT
  5
276
  8
TXT_DIM49
 10
1668.17615545
 20
-629.88285709
 30
0.0
 40
2.5
  1
Slobgat 14 x 60
  7
ARIAL
  0
LINE
  5
277
  8
0
 62
     5
 10
1619.07359205
 20
-638.22071502
 30
0.0
 11
1611.24950894
 21
-633.02527963
 31
0.0
  0
TEXT
  5
278
  8
TXT_DIM49
 10
1604.96586722
 20
-634.27527963
 30
0.0
 40
2.5
  1
Ø14
  7
ARIAL
  0
ENDSEC
  0
EOF
