  0
SECTION
  2
HEADER
  9
$ACADVER
  1
AC1006
  9
$DWGCODEPAGE
  3
ansi_1252
  9
$INSBASE
 10
0.0
 20
0.0
 30
0.0
  9
$EXTMIN
 10
2373.02641574
 20
-44.55954961
  9
$EXTMAX
 10
3030.54193105
 20
258.38045039
  9
$LIMMIN
 10
2373.02641574
 20
-44.55954961
  9
$LIMMAX
 10
3030.54193105
 20
258.38045039
  9
$ORTHOMODE
 70
     0
  9
$REGENMODE
 70
     1
  9
$FILLMODE
 70
     1
  9
$QTEXTMODE
 70
     0
  9
$MIRRTEXT
 70
     1
  9
$DRAGMODE
 70
     2
  9
$LTSCALE
 40
1.0
  9
$OSMODE
 70
    37
  9
$ATTMODE
 70
     1
  9
$TEXTSIZE
 40
1.0
  9
$TRACEWID
 40
0.05
  9
$TEXTSTYLE
  7
STANDARD
  9
$CLAYER
  8
0
  9
$CELTYPE
  6
BYBLOCK
  9
$CECOLOR
 62
   256
  9
$DIMSCALE
 40
1.0
  9
$DIMASZ
 40
0.18
  9
$DIMEXO
 40
0.0625
  9
$DIMDLI
 40
0.38
  9
$DIMRND
 40
0.0
  9
$DIMDLE
 40
0.0
  9
$DIMEXE
 40
0.18
  9
$DIMTP
 40
0.0
  9
$DIMTM
 40
0.0
  9
$DIMTXT
 40
0.18
  9
$DIMCEN
 40
0.09
  9
$DIMTSZ
 40
0.0
  9
$DIMTOL
 70
     0
  9
$DIMLIM
 70
     0
  9
$DIMTIH
 70
     1
  9
$DIMTOH
 70
     1
  9
$DIMSE1
 70
     0
  9
$DIMSE2
 70
     0
  9
$DIMTAD
 70
     0
  9
$DIMZIN
 70
     0
  9
$DIMBLK
  1

  9
$DIMASO
 70
     1
  9
$DIMSHO
 70
     1
  9
$DIMPOST
  1

  9
$DIMAPOST
  1

  9
$DIMALT
 70
     0
  9
$DIMALTD
 70
     2
  9
$DIMALTF
 40
25.4
  9
$DIMLFAC
 40
1.0
  9
$DIMTOFL
 70
     0
  9
$DIMTVP
 40
0.0
  9
$DIMTIX
 70
     0
  9
$DIMSOXD
 70
     0
  9
$DIMSAH
 70
     0
  9
$DIMBLK1
  1

  9
$DIMBLK2
  1

  9
$LUNITS
 70
     2
  9
$LUPREC
 70
     4
  9
$SKETCHINC
 40
0.1
  9
$FILLETRAD
 40
0.5
  9
$AUNITS
 70
     0
  9
$AUPREC
 70
     0
  9
$MENU
  1
.
  9
$ELEVATION
 40
0.0
  9
$THICKNESS
 40
0.0
  9
$LIMCHECK
 70
     0
  9
$CHAMFERA
 40
0.0
  9
$CHAMFERB
 40
0.0
  9
$SKPOLY
 70
     0
  9
$TDCREATE
 40
2447893.125
  9
$TDUPDATE
 40
2460791.477999132
  9
$TDINDWG
 40
0.0
  9
$TDUSRTIMER
 40
0.0
  9
$USRTIMER
 70
     1
  9
$ANGBASE
 50
0.0
  9
$ANGDIR
 70
     0
  9
$PDMODE
 70
     0
  9
$PDSIZE
 40
0.0
  9
$PLINEWID
 40
0.0
  9
$COORDS
 70
     1
  9
$SPLFRAME
 70
     0
  9
$SPLINETYPE
 70
     6
  9
$SPLINESEGS
 70
     8
  9
$ATTDIA
 70
     0
  9
$ATTREQ
 70
     1
  9
$HANDLING
 70
     1
  9
$HANDSEED
  5
3EE
  9
$SURFTAB1
 70
     6
  9
$SURFTAB2
 70
     6
  9
$SURFTYPE
 70
     6
  9
$SURFU
 70
     6
  9
$SURFV
 70
     6
  9
$UCSNAME
  2

  9
$UCSORG
 10
0.0
 20
0.0
 30
0.0
  9
$UCSXDIR
 10
1.0
 20
0.0
 30
0.0
  9
$UCSYDIR
 10
0.0
 20
1.0
 30
0.0
  9
$USERI1
 70
     0
  9
$USERI2
 70
     0
  9
$USERI3
 70
     0
  9
$USERI4
 70
     0
  9
$USERI5
 70
     0
  9
$USERR1
 40
0.0
  9
$USERR2
 40
0.0
  9
$USERR3
 40
0.0
  9
$USERR4
 40
0.0
  9
$USERR5
 40
0.0
  9
$WORLDVIEW
 70
     1
  0
ENDSEC
  0
SECTION
  2
TABLES
  0
TABLE
  2
VPORT
 70
     1
  0
VPORT
  2
*ACTIVE
 70
     0
 10
0.0
 20
0.0
 11
1.0
 21
1.0
 12
2701.7841734
 22
106.91045039
 13
0.0
 23
0.0
 14
1.0
 24
1.0
 15
0.0
 25
0.0
 16
0.0
 26
0.0
 36
1.0
 17
0.0
 27
0.0
 37
0.0
 40
302.94
 41
2.170447994
 42
50.0
 43
0.0
 44
0.0
 50
0.0
 51
0.0
 71
     0
 72
   100
 73
     1
 74
     1
 75
     0
 76
     0
 77
     0
 78
     0
  0
ENDTAB
  0
TABLE
  2
LTYPE
 70
    19
  0
LTYPE
  2
CONTINUOUS
 70
     0
  3
Solid line
 72
    65
 73
     0
 40
0.0
  0
LTYPE
  2
DOT
 70
     0
  3
..............
 72
    65
 73
     2
 40
2.0
 49
0.5
 49
-1.5
  0
LTYPE
  2
HIDDEN
 70
     0
  3
-- -- -- -- --
 72
    65
 73
     2
 40
7.0
 49
4.0
 49
-3.0
  0
LTYPE
  2
DASHDOT
 70
     0
  3
--.--.--.--.--
 72
    65
 73
     4
 40
8.5
 49
4.0
 49
-2.0
 49
0.5
 49
-2.0
  0
LTYPE
  2
STRICHPUNKT2
 70
     0
  3
--.--.--.--.--
 72
    65
 73
     4
 40
18.5
 49
10.0
 49
-4.0
 49
0.5
 49
-4.0
  0
LTYPE
  2
STRICHPUNKT3
 70
     0
  3
--.--.--.--.--
 72
    65
 73
     4
 40
35.5
 49
25.0
 49
-5.0
 49
0.5
 49
-5.0
  0
LTYPE
  2
PHANTOM
 70
     0
  3
--..--..--..--
 72
    65
 73
     6
 40
23.0
 49
10.0
 49
-4.0
 49
0.5
 49
-4.0
 49
0.5
 49
-4.0
  0
LTYPE
  2
PHANTOM2
 70
     0
  3
--..--..--..--
 72
    65
 73
     6
 40
33.0
 49
20.0
 49
-4.0
 49
0.5
 49
-4.0
 49
0.5
 49
-4.0
  0
LTYPE
  2
PHANTOM3
 70
     0
  3
--..--..--..--
 72
    65
 73
     6
 40
50.0
 49
37.0
 49
-4.0
 49
0.5
 49
-4.0
 49
0.5
 49
-4.0
  0
LTYPE
  2
STR3PKT
 70
     0
  3
--...--...--...
 72
    65
 73
     8
 40
31.5
 49
20.0
 49
-2.5
 49
0.5
 49
-2.5
 49
0.5
 49
-2.5
 49
0.5
 49
-2.5
  0
LTYPE
  2
2STRPKT
 70
     0
  3
--.--.--.--.--
 72
    65
 73
     6
 40
28.0
 49
10.0
 49
-2.5
 49
10.0
 49
-2.5
 49
0.5
 49
-2.5
  0
LTYPE
  2
GESTRICHELT2
 70
     0
  3
-- -- -- -- --
 72
    65
 73
     2
 40
25.0
 49
10.0
 49
-15.0
  0
LTYPE
  2
2STR2PKT
 70
     0
  3
--..--..--..--
 72
    65
 73
     8
 40
31.0
 49
10.0
 49
-2.5
 49
10.0
 49
-2.5
 49
0.5
 49
-2.5
 49
0.5
 49
-2.5
  0
LTYPE
  2
STR3PKT2
 70
     0
  3
--...--...--...
 72
    65
 73
     8
 40
21.0
 49
10.0
 49
-2.5
 49
0.5
 49
-2.5
 49
0.5
 49
-2.5
 49
0.5
 49
-2.0
  0
LTYPE
  2
2STR3PKT
 70
     0
  3
--...--...--...
 72
    65
 73
    10
 40
34.0
 49
10.0
 49
-2.5
 49
10.0
 49
-2.5
 49
0.5
 49
-2.5
 49
0.5
 49
-2.5
 49
0.5
 49
-2.5
  0
LTYPE
  2
STRKSTR
 70
     0
  3
-- - -- - -- -
 72
    65
 73
     4
 40
30.0
 49
20.0
 49
-2.5
 49
5.0
 49
-2.5
  0
LTYPE
  2
STRKSTR2
 70
     0
  3
-- - -- - -- -
 72
    65
 73
     6
 40
37.5
 49
20.0
 49
-2.5
 49
5.0
 49
-2.5
 49
5.0
 49
-2.5
  0
LTYPE
  2
STRKSTR3
 70
     0
  3
-- - -- - -- -
 72
    65
 73
     8
 40
45.0
 49
20.0
 49
-2.5
 49
5.0
 49
-2.5
 49
5.0
 49
-2.5
 49
5.0
 49
-2.5
  0
LTYPE
  2
PUNKT2
 70
     0
  3
..............
 72
    65
 73
     2
 40
3.5
 49
0.5
 49
-3.0
  0
ENDTAB
  0
TABLE
  2
LAYER
 70
    17
  0
LAYER
  2
0
 70
     0
 62
     7
  6
CONTINUOUS
  0
LAYER
  2
LE_GREEN
 70
     0
 62
     3
  6
CONTINUOUS
  0
LAYER
  2
LE_RED
 70
     0
 62
     1
  6
CONTINUOUS
  0
LAYER
  2
LE_ALL
 70
     0
 62
     7
  6
CONTINUOUS
  0
LAYER
  2
LE_HIDDEN1
 70
     0
 62
     3
  6
HIDDEN
  0
LAYER
  2
LE_HIDDEN
 70
     0
 62
     7
  6
CONTINUOUS
  0
LAYER
  2
LE_MIDDLE
 70
     0
 62
     7
  6
CONTINUOUS
  0
LAYER
  2
TXT_YELLOW
 70
     0
 62
     2
  6
CONTINUOUS
  0
LAYER
  2
TXT_DIM49
 70
     0
 62
     2
  6
CONTINUOUS
  0
LAYER
  2
TXT_ALL
 70
     0
 62
     7
  6
CONTINUOUS
  0
LAYER
  2
DIM49
 70
     0
 62
     4
  6
CONTINUOUS
  0
LAYER
  2
HATCH
 70
     0
 62
     3
  6
CONTINUOUS
  0
LAYER
  2
APPLE
 70
     0
 62
     7
  6
CONTINUOUS
  0
LAYER
  2
10
 70
     0
 62
     7
  6
CONTINUOUS
  0
LAYER
  2
20
 70
     0
 62
     7
  6
CONTINUOUS
  0
LAYER
  2
47
 70
     0
 62
     7
  6
CONTINUOUS
  0
LAYER
  2
49
 70
     0
 62
     7
  6
CONTINUOUS
  0
ENDTAB
  0
TABLE
  2
STYLE
 70
     5
  0
STYLE
  2
MONOTXT
 70
     0
 40
0.0
 41
1.0
 50
0.0
 71
     0
 42
1.0
  3
monotxt.shx
  4

  0
STYLE
  2
STANDARD
 70
     0
 40
0.0
 41
1.0
 50
0.0
 71
     0
 42
1.0
  3
txt
  4

  0
STYLE
  2
ARIAL
 70
     0
 40
0.0
 41
1.0
 50
0.0
 71
     0
 42
1.0
  3
arial.ttf
  4

  0
STYLE
  2
ARIAL_NARROW
 70
     0
 40
0.0
 41
1.0
 50
0.0
 71
     0
 42
1.0
  3
ArialN.ttf
  4

  0
STYLE
  2
ISOCPEUR
 70
     0
 40
0.0
 41
1.0
 50
0.0
 71
     0
 42
1.0
  3
ISOCPEUR.ttf
  4

  0
ENDTAB
  0
TABLE
  2
VIEW
 70
     0
  0
ENDTAB
  0
TABLE
  2
UCS
 70
     0
  0
ENDTAB
  0
ENDSEC
  0
SECTION
  2
BLOCKS
  0
ENDSEC
  0
SECTION
  2
ENTITIES
  0
POLYLINE
  5
16E
  8
0
 66
     1
 10
0.0
 20
0.0
 30
0.0
 70
     1
  0
VERTEX
  5
16F
  8
0
 10
2491.7841734
 20
-41.58954961
 30
0.0
  0
VERTEX
  5
170
  8
0
 10
2911.7841734
 20
-41.58954961
 30
0.0
  0
VERTEX
  5
171
  8
0
 10
2911.7841734
 20
255.41045039
 30
0.0
  0
VERTEX
  5
172
  8
0
 10
2491.7841734
 20
255.41045039
 30
0.0
  0
SEQEND
  5
173
  8
0
  0
POLYLINE
  5
174
  8
0
 66
     1
 10
0.0
 20
0.0
 30
0.0
 70
     1
  0
VERTEX
  5
175
  8
0
 10
2496.7841734
 20
-36.58954961
 30
0.0
  0
VERTEX
  5
176
  8
0
 10
2906.7841734
 20
-36.58954961
 30
0.0
  0
VERTEX
  5
177
  8
0
 10
2906.7841734
 20
250.41045039
 30
0.0
  0
VERTEX
  5
178
  8
0
 10
2496.7841734
 20
250.41045039
 30
0.0
  0
SEQEND
  5
179
  8
0
  0
LINE
  5
17A
  8
0
 10
2721.7841734
 20
-36.58954961
 30
0.0
 11
2721.7841734
 21
-41.58954961
 31
0.0
  0
LINE
  5
17B
  8
0
 10
2721.7841734
 20
250.41045039
 30
0.0
 11
2721.7841734
 21
255.41045039
 31
0.0
  0
LINE
  5
17C
  8
0
 10
2511.7841734
 20
-36.58954961
 30
0.0
 11
2511.7841734
 21
-41.58954961
 31
0.0
  0
LINE
  5
17D
  8
0
 10
2511.7841734
 20
250.41045039
 30
0.0
 11
2511.7841734
 21
255.41045039
 31
0.0
  0
TEXT
  5
17E
  8
TXT_ALL
 62
     4
 10
2910.7841734
 20
-40.58954961
 30
0.0
 40
2.5
  1

 50
90.00020741
  0
POLYLINE
  5
17F
  8
0
 66
     1
 10
0.0
 20
0.0
 30
0.0
  0
VERTEX
  5
180
  8
0
 10
2906.7841734
 20
240.41045039
 30
0.0
  0
VERTEX
  5
181
  8
0
 10
2837.7908734
 20
240.41045039
 30
0.0
  0
VERTEX
  5
182
  8
0
 10
2837.7908734
 20
250.41045039
 30
0.0
  0
SEQEND
  5
183
  8
0
  0
LINE
  5
184
  8
0
 10
2839.6941734
 20
-17.08954961
 30
0.0
 11
2699.8041734
 21
-17.08954961
 31
0.0
  0
LINE
  5
185
  8
0
 10
2699.8041734
 20
-26.83954961
 30
0.0
 11
2839.6941734
 21
-26.83954961
 31
0.0
  0
POLYLINE
  5
186
  8
0
 66
     1
 10
0.0
 20
0.0
 30
0.0
  0
VERTEX
  5
187
  8
0
 10
2699.8041734
 20
-17.08954961
 30
0.0
  0
VERTEX
  5
188
  8
0
 10
2699.8041734
 20
-26.83954961
 30
0.0
  0
VERTEX
  5
189
  8
0
 10
2699.8041734
 20
-36.58954961
 30
0.0
  0
SEQEND
  5
18A
  8
0
  0
POLYLINE
  5
18B
  8
0
 66
     1
 10
0.0
 20
0.0
 30
0.0
  0
VERTEX
  5
18C
  8
0
 10
2769.7491734
 20
-17.08954961
 30
0.0
  0
VERTEX
  5
18D
  8
0
 10
2769.7491734
 20
-26.83954961
 30
0.0
  0
VERTEX
  5
18E
  8
0
 10
2769.7491734
 20
-36.58954961
 30
0.0
  0
SEQEND
  5
18F
  8
0
  0
TEXT
  5
190
  8
TXT_ALL
 10
2701.8041734
 20
-23.26454956
 30
0.0
 40
2.5999999
  1
E-mail: verkoop@jonkers-bouwmetaal.nl
  7
ARIAL
  0
TEXT
  5
191
  8
TXT_ALL
 10
2701.8041734
 20
-33.01454956
 30
0.0
 40
2.5999999
  1
Telefoon: 0527-685156
  7
ARIAL
  0
TEXT
  5
192
  8
TXT_ALL
 10
2771.7491734
 20
-33.01454956
 30
0.0
 40
2.5999999
  1
Website: www.jonkers-bouwmetaal.nl
  7
ARIAL
  0
TEXT
  5
193
  8
TXT_ALL
 10
2771.7491734
 20
-23.26454956
 30
0.0
 40
2.5999999
  1
Adres: Hoornse Hop 10, 8321 WX Urk
  7
ARIAL
  0
TEXT
  5
194
  8
TXT_ALL
 10
2500.22613365
 20
244.16045039
 30
0.0
 40
2.5
  1
Art. nr. 91009162
  7
ARIAL
  0
TEXT
  5
195
  8
TXT_ALL
 10
2542.96417047
 20
244.16045039
 30
0.0
 40
2.5
  1
Omschrijving: H1507-anker 150x40, 70x10
  7
ARIAL
  0
LINE
  5
196
  8
0
 10
2906.7841734
 20
240.41045039
 30
0.0
 11
2496.7841734
 21
240.41045039
 31
0.0
  0
LINE
  5
197
  8
0
 10
2539.8041734
 20
240.41045039
 30
0.0
 11
2539.8041734
 21
250.41045039
 31
0.0
  0
LINE
  5
198
  8
0
 10
2699.8041734
 20
240.41045039
 30
0.0
 11
2699.8041734
 21
250.41045039
 31
0.0
  0
TEXT
  5
199
  8
TXT_ALL
 10
2770.7978734
 20
244.16045039
 30
0.0
 40
2.5
  1
Behandeling: Thermisch Verzinkt
  7
ARIAL
  0
LINE
  5
19A
  8
0
 10
2839.6941734
 20
-17.08954961
 30
0.0
 11
2906.7841734
 21
-17.08954961
 31
0.0
  0
LINE
  5
19B
  8
0
 10
2839.6941734
 20
-36.58954961
 30
0.0
 11
2839.6941734
 21
-17.08954961
 31
0.0
  0
LINE
  5
19C
  8
0
 10
2839.6941734
 20
-36.58954961
 30
0.0
 11
2839.6941734
 21
-17.08954961
 31
0.0
  0
TEXT
  5
19D
  8
TXT_ALL
 10
2634.14937149
 20
-35.4350162
 30
0.0
 40
2.5
  1

  0
TEXT
  5
19E
  8
TXT_ALL
 10
2755.28455445
 20
-25.33954961
 30
0.0
 40
2.5
  1

  0
POLYLINE
  5
19F
  8
0
 66
     1
 10
0.0
 20
0.0
 30
0.0
  0
VERTEX
  5
1A0
  8
0
 10
2837.7908734
 20
240.41045039
 30
0.0
  0
VERTEX
  5
1A1
  8
0
 10
2768.7978734
 20
240.41045039
 30
0.0
  0
VERTEX
  5
1A2
  8
0
 10
2768.7978734
 20
250.41045039
 30
0.0
  0
SEQEND
  5
1A3
  8
0
  0
TEXT
  5
1A4
  8
TXT_ALL
 10
2839.7908734
 20
244.16045039
 30
0.0
 40
2.5
  1
Verpakkingshoeveelheid: 1 st.
  7
ARIAL
  0
TEXT
  5
1A5
  8
TXT_ALL
 10
2701.8041734
 20
244.16045039
 30
0.0
 40
2.5
  1
Materiaal: S355
  7
ARIAL
  0
TEXT
  5
1A6
  8
TXT_ALL
 10
2874.09253381
 20
-39.83905946
 30
0.0
 40
1.5
  1
Onderdeel van
  7
ARIAL
  0
POLYLINE
  5
1A7
  8
0
 66
     1
 10
0.0
 20
0.0
 30
0.0
  0
VERTEX
  5
33C
  8
0
 10
2539.10744222
 20
32.61324539
 30
0.0
  0
VERTEX
  5
33D
  8
0
 10
2539.508973611801
 20
32.67885689130116
 30
0.0
  0
VERTEX
  5
33E
  8
0
 10
2539.923896456762
 20
32.97071514193331
 30
0.0
  0
VERTEX
  5
33F
  8
0
 10
2540.336265502677
 20
33.47760419302622
 30
0.0
  0
VERTEX
  5
340
  8
0
 10
2540.730233638409
 20
34.18004458265739
 30
0.0
  0
VERTEX
  5
341
  8
0
 10
2541.090660889474
 20
35.05104192064793
 30
0.0
  0
VERTEX
  5
342
  8
0
 10
2541.403696238776
 20
36.05712426783601
 30
0.0
  0
VERTEX
  5
343
  8
0
 10
2541.657309913422
 20
37.15962844392477
 30
0.0
  0
VERTEX
  5
344
  8
0
 10
2541.841755682144
 20
38.31618583181509
 30
0.0
  0
VERTEX
  5
345
  8
0
 10
2541.949945397506
 20
39.48235057979645
 30
0.0
  0
VERTEX
  5
346
  8
0
 10
2541.977721389428
 20
40.61330763069875
 30
0.0
  0
VERTEX
  5
347
  8
0
 10
2541.924016242122
 20
41.66559493940282
 30
0.0
  0
VERTEX
  5
348
  8
0
 10
2541.790893814273
 20
42.59877369485682
 30
0.0
  0
VERTEX
  5
349
  8
0
 10
2541.583469926119
 20
43.37698236090303
 30
0.0
  0
VERTEX
  5
34A
  8
0
 10
2541.309715761337
 20
43.97031481499783
 30
0.0
  0
VERTEX
  5
34B
  8
0
 10
2540.980151538933
 20
44.35596962372701
 30
0.0
  0
VERTEX
  5
34C
  8
0
 10
2540.607442227123
 20
44.51912628910255
 30
0.0
  0
SEQEND
  5
3E1
  8
0
  0
POLYLINE
  5
1A8
  8
0
 66
     1
 10
0.0
 20
0.0
 30
0.0
  0
VERTEX
  5
34D
  8
0
 10
2540.607442227123
 20
44.51912628910255
 30
0.0
  0
VERTEX
  5
34E
  8
0
 10
2540.205910834402
 20
44.45351479141509
 30
0.0
  0
VERTEX
  5
34F
  8
0
 10
2539.7909879882
 20
44.16165654285653
 30
0.0
  0
VERTEX
  5
350
  8
0
 10
2539.378618940867
 20
43.65476749228863
 30
0.0
  0
VERTEX
  5
351
  8
0
 10
2538.984650803698
 20
42.9523271017373
 30
0.0
  0
VERTEX
  5
352
  8
0
 10
2538.624223551328
 20
42.08132976158811
 30
0.0
  0
VERTEX
  5
353
  8
0
 10
2538.311188200991
 20
41.07524741129822
 30
0.0
  0
VERTEX
  5
354
  8
0
 10
2538.057574525697
 20
39.97274323152906
 30
0.0
  0
VERTEX
  5
355
  8
0
 10
2537.873128756798
 20
38.81618583979004
 30
0.0
  0
VERTEX
  5
356
  8
0
 10
2537.764939041785
 20
37.65002108822162
 30
0.0
  0
VERTEX
  5
357
  8
0
 10
2537.737163050749
 20
36.51906403441615
 30
0.0
  0
VERTEX
  5
358
  8
0
 10
2537.790868199451
 20
35.46677672388014
 30
0.0
  0
VERTEX
  5
359
  8
0
 10
2537.923990629139
 20
34.53359796799246
 30
0.0
  0
VERTEX
  5
35A
  8
0
 10
2538.131414519474
 20
33.75538930315508
 30
0.0
  0
VERTEX
  5
35B
  8
0
 10
2538.405168686642
 20
33.1620568520549
 30
0.0
  0
VERTEX
  5
35C
  8
0
 10
2538.73473291148
 20
32.77640204813577
 30
0.0
  0
VERTEX
  5
35D
  8
0
 10
2539.107442225597
 20
32.6132453892949
 30
0.0
  0
SEQEND
  5
3E2
  8
0
  0
POLYLINE
  5
1A9
  8
0
 66
     1
 10
0.0
 20
0.0
 30
0.0
  0
VERTEX
  5
35E
  8
0
 10
2548.07127698
 20
35.74366743
 30
0.0
  0
VERTEX
  5
35F
  8
0
 10
2548.405886473276
 20
35.79834368111632
 30
0.0
  0
VERTEX
  5
360
  8
0
 10
2548.751655510847
 20
36.0415588900713
 30
0.0
  0
VERTEX
  5
361
  8
0
 10
2549.09529638254
 20
36.46396643280274
 30
0.0
  0
VERTEX
  5
362
  8
0
 10
2549.4236031624
 20
37.04933342436932
 30
0.0
  0
VERTEX
  5
363
  8
0
 10
2549.723959205024
 20
37.77516453961399
 30
0.0
  0
VERTEX
  5
364
  8
0
 10
2549.98482199616
 20
38.6135664958922
 30
0.0
  0
VERTEX
  5
365
  8
0
 10
2550.196166725063
 20
39.53231997627882
 30
0.0
  0
VERTEX
  5
366
  8
0
 10
2550.349871532343
 20
40.4961177998459
 30
0.0
  0
VERTEX
  5
367
  8
0
 10
2550.440029628466
 20
41.4679217568222
 30
0.0
  0
VERTEX
  5
368
  8
0
 10
2550.46317628837
 20
42.4103859662201
 30
0.0
  0
VERTEX
  5
369
  8
0
 10
2550.418421998897
 20
43.28729205709497
 30
0.0
  0
VERTEX
  5
36A
  8
0
 10
2550.307486642288
 20
44.06494102022587
 30
0.0
  0
VERTEX
  5
36B
  8
0
 10
2550.134633402075
 20
44.71344824213831
 30
0.0
  0
VERTEX
  5
36C
  8
0
 10
2549.906504931327
 20
45.20789195403799
 30
0.0
  0
VERTEX
  5
36D
  8
0
 10
2549.631868079219
 20
45.52927096140715
 30
0.0
  0
VERTEX
  5
36E
  8
0
 10
2549.321276985936
 20
45.66523484925213
 30
0.0
  0
SEQEND
  5
3E3
  8
0
  0
POLYLINE
  5
1AA
  8
0
 66
     1
 10
0.0
 20
0.0
 30
0.0
  0
VERTEX
  5
36F
  8
0
 10
2549.321276985936
 20
45.66523484925213
 30
0.0
  0
VERTEX
  5
370
  8
0
 10
2548.986667492201
 20
45.6105586012818
 30
0.0
  0
VERTEX
  5
371
  8
0
 10
2548.64089845391
 20
45.36734339452168
 30
0.0
  0
VERTEX
  5
372
  8
0
 10
2548.297257581324
 20
44.94493585299219
 30
0.0
  0
VERTEX
  5
373
  8
0
 10
2547.968950800492
 20
44.35956886166242
 30
0.0
  0
VERTEX
  5
374
  8
0
 10
2547.668594756913
 20
43.63373774578282
 30
0.0
  0
VERTEX
  5
375
  8
0
 10
2547.407731964926
 20
42.79533578814941
 30
0.0
  0
VERTEX
  5
376
  8
0
 10
2547.196387235357
 20
41.8765823058862
 30
0.0
  0
VERTEX
  5
377
  8
0
 10
2547.042682427658
 20
40.9127844801541
 30
0.0
  0
VERTEX
  5
378
  8
0
 10
2546.952524331404
 20
39.94098052097632
 30
0.0
  0
VERTEX
  5
379
  8
0
 10
2546.92937767168
 20
38.9985163095952
 30
0.0
  0
VERTEX
  5
37A
  8
0
 10
2546.974131961641
 20
38.12161021719662
 30
0.0
  0
VERTEX
  5
37B
  8
0
 10
2547.085067319018
 20
37.34396125321359
 30
0.0
  0
VERTEX
  5
37C
  8
0
 10
2547.257920560231
 20
36.69545403128949
 30
0.0
  0
VERTEX
  5
37D
  8
0
 10
2547.486049032143
 20
36.20101032033264
 30
0.0
  0
VERTEX
  5
37E
  8
0
 10
2547.760685885492
 20
35.87963131491111
 30
0.0
  0
VERTEX
  5
37F
  8
0
 10
2548.07127698
 20
35.74366743
 30
0.0
  0
SEQEND
  5
3E4
  8
0
  0
POLYLINE
  5
1AB
  8
0
 66
     1
 10
0.0
 20
0.0
 30
0.0
  0
VERTEX
  5
380
  8
0
 10
2530.393607454664
 20
20.15342831941241
 30
0.0
  0
VERTEX
  5
381
  8
0
 10
2530.728216947887
 20
20.20810457313504
 30
0.0
  0
VERTEX
  5
382
  8
0
 10
2531.073985985208
 20
20.45131978428131
 30
0.0
  0
VERTEX
  5
383
  8
0
 10
2531.417626856487
 20
20.87372732872153
 30
0.0
  0
VERTEX
  5
384
  8
0
 10
2531.745933635808
 20
21.45909432147779
 30
0.0
  0
VERTEX
  5
385
  8
0
 10
2532.046289677813
 20
22.18492543738756
 30
0.0
  0
VERTEX
  5
386
  8
0
 10
2532.307152468294
 20
23.02332739383067
 30
0.0
  0
VERTEX
  5
387
  8
0
 10
2532.518497196547
 20
23.9420808739333
 30
0.0
  0
VERTEX
  5
388
  8
0
 10
2532.672202003224
 20
24.90587869684162
 30
0.0
  0
VERTEX
  5
389
  8
0
 10
2532.762360098825
 20
25.87768265287597
 30
0.0
  0
VERTEX
  5
38A
  8
0
 10
2532.785506758311
 20
26.82014686115181
 30
0.0
  0
VERTEX
  5
38B
  8
0
 10
2532.740752468545
 20
27.69705295083242
 30
0.0
  0
VERTEX
  5
38C
  8
0
 10
2532.629817111775
 20
28.47470191280308
 30
0.0
  0
VERTEX
  5
38D
  8
0
 10
2532.456963871531
 20
29.12320913368737
 30
0.0
  0
VERTEX
  5
38E
  8
0
 10
2532.228835400873
 20
29.61765284477512
 30
0.0
  0
VERTEX
  5
38F
  8
0
 10
2531.954198548955
 20
29.93903185161376
 30
0.0
  0
VERTEX
  5
390
  8
0
 10
2531.643607455936
 20
30.07499573925213
 30
0.0
  0
SEQEND
  5
3E5
  8
0
  0
POLYLINE
  5
1AC
  8
0
 66
     1
 10
0.0
 20
0.0
 30
0.0
  0
VERTEX
  5
391
  8
0
 10
2531.643607455936
 20
30.07499573925213
 30
0.0
  0
VERTEX
  5
392
  8
0
 10
2531.308997962201
 20
30.02031949128179
 30
0.0
  0
VERTEX
  5
393
  8
0
 10
2530.96322892391
 20
29.77710428452167
 30
0.0
  0
VERTEX
  5
394
  8
0
 10
2530.619588051324
 20
29.35469674299219
 30
0.0
  0
VERTEX
  5
395
  8
0
 10
2530.291281270492
 20
28.76932975166242
 30
0.0
  0
VERTEX
  5
396
  8
0
 10
2529.990925226913
 20
28.04349863578282
 30
0.0
  0
VERTEX
  5
397
  8
0
 10
2529.730062434926
 20
27.20509667814941
 30
0.0
  0
VERTEX
  5
398
  8
0
 10
2529.518717705357
 20
26.28634319588619
 30
0.0
  0
VERTEX
  5
399
  8
0
 10
2529.365012897658
 20
25.3225453701541
 30
0.0
  0
VERTEX
  5
39A
  8
0
 10
2529.274854801404
 20
24.35074141097632
 30
0.0
  0
VERTEX
  5
39B
  8
0
 10
2529.25170814168
 20
23.4082771995952
 30
0.0
  0
VERTEX
  5
39C
  8
0
 10
2529.296462431641
 20
22.53137110719661
 30
0.0
  0
VERTEX
  5
39D
  8
0
 10
2529.407397789018
 20
21.75372214321358
 30
0.0
  0
VERTEX
  5
39E
  8
0
 10
2529.580251030231
 20
21.10521492128949
 30
0.0
  0
VERTEX
  5
39F
  8
0
 10
2529.808379502143
 20
20.61077121033263
 30
0.0
  0
VERTEX
  5
3A0
  8
0
 10
2530.083016355492
 20
20.28939220491111
 30
0.0
  0
VERTEX
  5
3A1
  8
0
 10
2530.39360745
 20
20.15342832
 30
0.0
  0
SEQEND
  5
3E6
  8
0
  0
POLYLINE
  5
1AD
  8
0
 66
     1
 10
0.0
 20
0.0
 30
0.0
  0
VERTEX
  5
1AE
  8
0
 10
2552.23181089
 20
60.79306171
 30
0.0
  0
VERTEX
  5
1AF
  8
0
 10
2527.48307355
 20
38.96672696
 30
0.0
  0
VERTEX
  5
1B0
  8
0
 10
2518.12893008
 20
40.14523826
 30
0.0
  0
SEQEND
  5
1B1
  8
0
  0
LINE
  5
1B2
  8
0
 10
2542.87766742
 20
61.97157302
 30
0.0
 11
2518.12893008
 21
40.14523826
 31
0.0
  0
LINE
  5
1B3
  8
0
 10
2552.23181089
 20
60.79306171
 30
0.0
 11
2542.87766742
 21
61.97157302
 31
0.0
  0
POLYLINE
  5
1B4
  8
0
 66
     1
 10
0.0
 20
0.0
 30
0.0
  0
VERTEX
  5
1B5
  8
0
 10
2552.23181089
 20
60.79306171
 30
0.0
  0
VERTEX
  5
1B6
  8
0
 10
2552.23181089
 20
37.22283567
 30
0.0
  0
VERTEX
  5
1B7
  8
0
 10
2527.48307355
 20
15.39650092
 30
0.0
  0
VERTEX
  5
1B8
  8
0
 10
2527.48307355
 20
38.96672696
 30
0.0
  0
SEQEND
  5
1B9
  8
0
  0
POLYLINE
  5
1BA
  8
0
 66
     1
 10
0.0
 20
0.0
 30
0.0
  0
VERTEX
  5
1BB
  8
0
 10
2527.48307355
 20
15.39650092
 30
0.0
  0
VERTEX
  5
1BC
  8
0
 10
2518.12893008
 20
16.57501222
 30
0.0
  0
VERTEX
  5
1BD
  8
0
 10
2518.12893008
 20
40.14523826
 30
0.0
  0
SEQEND
  5
1BE
  8
0
  0
LINE
  5
1BF
  8
0
  6
STRICHPUNKT2
 62
     1
 10
2519.32592812
 20
26.58735116
 30
0.0
 11
2533.35714332
 21
24.81958421
 31
0.0
  0
LINE
  5
1C0
  8
0
  6
STRICHPUNKT2
 62
     1
 10
2521.66446398
 20
26.29272333
 30
0.0
 11
2524.31611441
 21
28.6312592
 31
0.0
  0
LINE
  5
1C1
  8
0
  6
STRICHPUNKT2
 62
     1
 10
2521.66446398
 20
26.29272333
 30
0.0
 11
2519.01281356
 21
23.95418747
 31
0.0
  0
LINE
  5
1C2
  8
0
  6
STRICHPUNKT2
 62
     1
 10
2521.66446398
 20
26.29272333
 30
0.0
 11
2521.66446398
 21
19.22165552
 31
0.0
  0
LINE
  5
1C3
  8
0
  6
STRICHPUNKT2
 62
     1
 10
2521.66446398
 20
26.29272333
 30
0.0
 11
2521.66446398
 21
33.36379115
 31
0.0
  0
LINE
  5
1C4
  8
0
  6
STRICHPUNKT2
 62
     1
 10
2531.01860745
 20
25.11421203
 30
0.0
 11
2533.67025788
 21
27.4527479
 31
0.0
  0
LINE
  5
1C5
  8
0
  6
STRICHPUNKT2
 62
     1
 10
2531.01860745
 20
25.11421203
 30
0.0
 11
2528.36695702
 21
22.77567617
 31
0.0
  0
LINE
  5
1C6
  8
0
  6
STRICHPUNKT2
 62
     1
 10
2531.01860745
 20
25.11421203
 30
0.0
 11
2531.01860745
 21
18.04314422
 31
0.0
  0
LINE
  5
1C7
  8
0
  6
STRICHPUNKT2
 62
     1
 10
2531.01860745
 20
25.11421203
 30
0.0
 11
2531.01860745
 21
32.18527984
 31
0.0
  0
LINE
  5
1C8
  8
0
  6
STRICHPUNKT2
 62
     1
 10
2537.00359765
 20
42.17759027
 30
0.0
 11
2551.03481285
 21
40.40982332
 31
0.0
  0
LINE
  5
1C9
  8
0
  6
STRICHPUNKT2
 62
     1
 10
2539.34213351
 20
41.88296245
 30
0.0
 11
2541.99378394
 21
44.22149831
 31
0.0
  0
LINE
  5
1CA
  8
0
  6
STRICHPUNKT2
 62
     1
 10
2539.34213351
 20
41.88296245
 30
0.0
 11
2536.69048308
 21
39.54442658
 31
0.0
  0
LINE
  5
1CB
  8
0
  6
STRICHPUNKT2
 62
     1
 10
2539.34213351
 20
41.88296245
 30
0.0
 11
2539.34213351
 21
34.81189463
 31
0.0
  0
LINE
  5
1CC
  8
0
  6
STRICHPUNKT2
 62
     1
 10
2539.34213351
 20
41.88296245
 30
0.0
 11
2539.34213351
 21
48.95403026
 31
0.0
  0
LINE
  5
1CD
  8
0
  6
STRICHPUNKT2
 62
     1
 10
2548.69627698
 20
40.70445114
 30
0.0
 11
2551.34792741
 21
43.04298701
 31
0.0
  0
LINE
  5
1CE
  8
0
  6
STRICHPUNKT2
 62
     1
 10
2548.69627698
 20
40.70445114
 30
0.0
 11
2546.04462655
 21
38.36591528
 31
0.0
  0
LINE
  5
1CF
  8
0
  6
STRICHPUNKT2
 62
     1
 10
2548.69627698
 20
40.70445114
 30
0.0
 11
2548.69627698
 21
33.63338333
 31
0.0
  0
LINE
  5
1D0
  8
0
  6
STRICHPUNKT2
 62
     1
 10
2548.69627698
 20
40.70445114
 30
0.0
 11
2548.69627698
 21
47.77551896
 31
0.0
  0
LINE
  5
1D1
  8
0
  6
STRICHPUNKT2
 62
     1
 10
2542.66368526
 20
38.21263245
 30
0.0
 11
2527.69705571
 21
40.09825053
 31
0.0
  0
LINE
  5
1D2
  8
0
  6
STRICHPUNKT2
 62
     1
 10
2539.85744222
 20
38.56618584
 30
0.0
 11
2543.03942273
 21
41.37242888
 31
0.0
  0
LINE
  5
1D3
  8
0
  6
STRICHPUNKT2
 62
     1
 10
2539.85744222
 20
38.56618584
 30
0.0
 11
2536.6754617
 21
35.7599428
 31
0.0
  0
LINE
  5
1D4
  8
0
  6
STRICHPUNKT2
 62
     1
 10
2539.85744222
 20
38.56618584
 30
0.0
 11
2539.85744222
 21
47.05146721
 31
0.0
  0
LINE
  5
1D5
  8
0
  6
STRICHPUNKT2
 62
     1
 10
2539.85744222
 20
38.56618584
 30
0.0
 11
2539.85744222
 21
30.08090446
 31
0.0
  0
LINE
  5
1D6
  8
0
  6
STRICHPUNKT2
 62
     1
 10
2530.50329875
 20
39.74469714
 30
0.0
 11
2533.68527926
 21
42.55094018
 31
0.0
  0
LINE
  5
1D7
  8
0
  6
STRICHPUNKT2
 62
     1
 10
2530.50329875
 20
39.74469714
 30
0.0
 11
2527.32131823
 21
36.9384541
 31
0.0
  0
LINE
  5
1D8
  8
0
  6
STRICHPUNKT2
 62
     1
 10
2530.50329875
 20
39.74469714
 30
0.0
 11
2530.50329875
 21
48.22997851
 31
0.0
  0
LINE
  5
1D9
  8
0
  6
STRICHPUNKT2
 62
     1
 10
2530.50329875
 20
39.74469714
 30
0.0
 11
2530.50329875
 21
31.25941577
 31
0.0
  0
POLYLINE
  5
1DA
  8
0
 66
     1
 10
0.0
 20
0.0
 30
0.0
  0
VERTEX
  5
1DB
  8
0
 10
2552.23181089
 20
37.22283567
 30
0.0
  0
VERTEX
  5
1DC
  8
0
 10
2527.48307355
 20
15.39650092
 30
0.0
  0
VERTEX
  5
1DD
  8
0
 10
2518.12893008
 20
16.57501222
 30
0.0
  0
SEQEND
  5
1DE
  8
0
  0
POLYLINE
  5
1DF
  8
0
 66
     1
 10
0.0
 20
0.0
 30
0.0
  0
VERTEX
  5
3A2
  8
0
 10
2552.231810895486
 20
37.22283566468233
 30
0.0
  0
VERTEX
  5
3A3
  8
0
 10
2552.321679521249
 20
36.29184869030782
 30
0.0
  0
VERTEX
  5
3A4
  8
0
 10
2552.587831788045
 20
35.37399425917501
 30
0.0
  0
VERTEX
  5
3A5
  8
0
 10
2553.020039613607
 20
34.50454500202942
 30
0.0
  0
VERTEX
  5
3A6
  8
0
 10
2553.601693493727
 20
33.71691336594229
 30
0.0
  0
VERTEX
  5
3A7
  8
0
 10
2554.310440796182
 20
33.04136759271849
 30
0.0
  0
VERTEX
  5
3A8
  8
0
 10
2555.119044759841
 20
32.5038685273487
 30
0.0
  0
VERTEX
  5
3A9
  8
0
 10
2555.996431188121
 20
32.12507195730402
 30
0.0
  0
VERTEX
  5
3AA
  8
0
 10
2556.908882612917
 20
31.91953482221414
 30
0.0
  0
SEQEND
  5
3E7
  8
0
  0
POLYLINE
  5
1E0
  8
0
 66
     1
 10
0.0
 20
0.0
 30
0.0
  0
VERTEX
  5
1E1
  8
0
 10
2556.90888262
 20
31.91953482
 30
0.0
  0
VERTEX
  5
1E2
  8
0
 10
2532.16014528
 20
10.09320006
 30
0.0
  0
SEQEND
  5
1E3
  8
0
  0
POLYLINE
  5
1E4
  8
0
 66
     1
 10
0.0
 20
0.0
 30
0.0
  0
VERTEX
  5
3AB
  8
0
 10
2527.483073555486
 20
15.39650091468233
 30
0.0
  0
VERTEX
  5
3AC
  8
0
 10
2527.572942181249
 20
14.46551394030783
 30
0.0
  0
VERTEX
  5
3AD
  8
0
 10
2527.839094448045
 20
13.54765950917501
 30
0.0
  0
VERTEX
  5
3AE
  8
0
 10
2528.271302273607
 20
12.67821025202943
 30
0.0
  0
VERTEX
  5
3AF
  8
0
 10
2528.852956153728
 20
11.89057861594229
 30
0.0
  0
VERTEX
  5
3B0
  8
0
 10
2529.561703456182
 20
11.21503284271849
 30
0.0
  0
VERTEX
  5
3B1
  8
0
 10
2530.370307419842
 20
10.67753377734871
 30
0.0
  0
VERTEX
  5
3B2
  8
0
 10
2531.247693848121
 20
10.29873720730402
 30
0.0
  0
VERTEX
  5
3B3
  8
0
 10
2532.160145272917
 20
10.09320007221415
 30
0.0
  0
SEQEND
  5
3E8
  8
0
  0
POLYLINE
  5
1E5
  8
0
 66
     1
 10
0.0
 20
0.0
 30
0.0
  0
VERTEX
  5
1E6
  8
0
 10
2532.16014528
 20
10.09320006
 30
0.0
  0
VERTEX
  5
1E7
  8
0
 10
2532.16014528
 20
0.66510964
 30
0.0
  0
SEQEND
  5
1E8
  8
0
  0
POLYLINE
  5
1E9
  8
0
 66
     1
 10
0.0
 20
0.0
 30
0.0
  0
VERTEX
  5
3B4
  8
0
 10
2518.128930106457
 20
16.57501220404698
 30
0.0
  0
VERTEX
  5
3B5
  8
0
 10
2518.398535983748
 20
13.78205128092348
 30
0.0
  0
VERTEX
  5
3B6
  8
0
 10
2519.196992784134
 20
11.02848798752502
 30
0.0
  0
VERTEX
  5
3B7
  8
0
 10
2520.493616260821
 20
8.420140216088283
 30
0.0
  0
VERTEX
  5
3B8
  8
0
 10
2522.238577901183
 20
6.057245307826875
 30
0.0
  0
VERTEX
  5
3B9
  8
0
 10
2524.364819808547
 20
4.030607988155479
 30
0.0
  0
VERTEX
  5
3BA
  8
0
 10
2526.790631699525
 20
2.418110792046123
 30
0.0
  0
VERTEX
  5
3BB
  8
0
 10
2529.422790984365
 20
1.281721081912058
 30
0.0
  0
VERTEX
  5
3BC
  8
0
 10
2532.160145258752
 20
0.66510967664244
 30
0.0
  0
SEQEND
  5
3E9
  8
0
  0
POLYLINE
  5
1EA
  8
0
 66
     1
 10
0.0
 20
0.0
 30
0.0
  0
VERTEX
  5
3BD
  8
0
 10
2595.53020344
 20
13.69959737837618
 30
0.0
  0
VERTEX
  5
3BE
  8
0
 10
2595.671931371549
 20
13.2324423641013
 30
0.0
  0
VERTEX
  5
3BF
  8
0
 10
2596.09137608846
 20
12.7842041826976
 30
0.0
  0
VERTEX
  5
3C0
  8
0
 10
2596.771552723809
 20
12.37303365489273
 30
0.0
  0
VERTEX
  5
3C1
  8
0
 10
2597.684918411584
 20
12.01558059511196
 30
0.0
  0
VERTEX
  5
3C2
  8
0
 10
2598.794487599136
 20
11.72631959895157
 30
0.0
  0
VERTEX
  5
3C3
  8
0
 10
2600.055329728909
 20
11.51696391330269
 30
0.0
  0
SEQEND
  5
3EA
  8
0
  0
POLYLINE
  5
1EB
  8
0
 66
     1
 10
0.0
 20
0.0
 30
0.0
  0
VERTEX
  5
3C4
  8
0
 10
2605.005077193065
 20
15.88223082140916
 30
0.0
  0
VERTEX
  5
3C5
  8
0
 10
2603.701719936805
 20
16.00002119919041
 30
0.0
  0
VERTEX
  5
3C6
  8
0
 10
2602.35476286995
 20
16.03219772218199
 30
0.0
  0
VERTEX
  5
3C7
  8
0
 10
2601.014335097087
 20
15.97756289097877
 30
0.0
  0
VERTEX
  5
3C8
  8
0
 10
2599.730322724963
 20
15.83815002589578
 30
0.0
  0
VERTEX
  5
3C9
  8
0
 10
2598.550512273338
 20
15.61914759378664
 30
0.0
  0
VERTEX
  5
3CA
  8
0
 10
2597.518812225252
 20
15.32870611117064
 30
0.0
  0
VERTEX
  5
3CB
  8
0
 10
2596.673618904452
 20
14.9776348100693
 30
0.0
  0
VERTEX
  5
3CC
  8
0
 10
2596.046387496421
 20
14.57899935560569
 30
0.0
  0
VERTEX
  5
3CD
  8
0
 10
2595.66046139467
 20
14.1476355869323
 30
0.0
  0
VERTEX
  5
3CE
  8
0
 10
2595.53020344
 20
13.69959737837618
 30
0.0
  0
SEQEND
  5
3EB
  8
0
  0
POLYLINE
  5
1EC
  8
0
 66
     1
 10
0.0
 20
0.0
 30
0.0
  0
VERTEX
  5
1ED
  8
0
 10
2605.00507718
 20
15.88223084
 30
0.0
  0
VERTEX
  5
1EE
  8
0
 10
2648.03413713
 20
10.46107885
 30
0.0
  0
SEQEND
  5
1EF
  8
0
  0
POLYLINE
  5
1F0
  8
0
 66
     1
 10
0.0
 20
0.0
 30
0.0
  0
VERTEX
  5
3CF
  8
0
 10
2652.55926339
 20
8.27844538
 30
0.0
  0
VERTEX
  5
3D0
  8
0
 10
2652.417535455756
 20
8.745600390295143
 30
0.0
  0
VERTEX
  5
3D1
  8
0
 10
2651.998090740835
 20
9.193838567852838
 30
0.0
  0
VERTEX
  5
3D2
  8
0
 10
2651.317914111803
 20
9.605009092400303
 30
0.0
  0
VERTEX
  5
3D3
  8
0
 10
2650.404548433961
 20
9.962462149918593
 30
0.0
  0
VERTEX
  5
3D4
  8
0
 10
2649.294979258946
 20
10.25172314514159
 30
0.0
  0
VERTEX
  5
3D5
  8
0
 10
2648.034137143065
 20
10.46107883140916
 30
0.0
  0
SEQEND
  5
3EC
  8
0
  0
POLYLINE
  5
1F1
  8
0
 66
     1
 10
0.0
 20
0.0
 30
0.0
  0
VERTEX
  5
3D6
  8
0
 10
2643.084389678909
 20
6.095811923302687
 30
0.0
  0
VERTEX
  5
3D7
  8
0
 10
2644.387746935487
 20
5.97802154841651
 30
0.0
  0
VERTEX
  5
3D8
  8
0
 10
2645.73470400096
 20
5.94584502815989
 30
0.0
  0
VERTEX
  5
3D9
  8
0
 10
2647.075131770937
 20
6.000479861832702
 30
0.0
  0
VERTEX
  5
3DA
  8
0
 10
2648.359144138925
 20
6.139892729033914
 30
0.0
  0
VERTEX
  5
3DB
  8
0
 10
2649.538954585455
 20
6.358895162846176
 30
0.0
  0
VERTEX
  5
3DC
  8
0
 10
2650.570654627806
 20
6.649336646710542
 30
0.0
  0
VERTEX
  5
3DD
  8
0
 10
2651.415847942556
 20
7.000407948590476
 30
0.0
  0
VERTEX
  5
3DE
  8
0
 10
2652.043079344538
 20
7.399043403371969
 30
0.0
  0
VERTEX
  5
3DF
  8
0
 10
2652.429005440535
 20
7.830407171933864
 30
0.0
  0
VERTEX
  5
3E0
  8
0
 10
2652.55926339
 20
8.27844538
 30
0.0
  0
SEQEND
  5
3ED
  8
0
  0
LINE
  5
1F2
  8
0
 10
2643.08438966
 20
6.0958119
 30
0.0
 11
2600.05532971
 21
11.51696389
 31
0.0
  0
LINE
  5
1F3
  8
0
 10
2658.44108208
 20
-5.81670252
 30
0.0
 11
2532.16014528
 21
10.09320006
 31
0.0
  0
LINE
  5
1F4
  8
0
 10
2556.90888262
 20
31.91953482
 30
0.0
 11
2532.16014528
 21
10.09320006
 31
0.0
  0
POLYLINE
  5
1F5
  8
0
 66
     1
 10
0.0
 20
0.0
 30
0.0
  0
VERTEX
  5
1F6
  8
0
 10
2556.90888262
 20
31.91953482
 30
0.0
  0
VERTEX
  5
1F7
  8
0
 10
2683.18981942
 20
16.00963224
 30
0.0
  0
VERTEX
  5
1F8
  8
0
 10
2658.44108208
 20
-5.81670252
 30
0.0
  0
VERTEX
  5
1F9
  8
0
 10
2658.44108208
 20
-15.24479293
 30
0.0
  0
VERTEX
  5
1FA
  8
0
 10
2532.16014528
 20
0.66510964
 30
0.0
  0
SEQEND
  5
1FB
  8
0
  0
LINE
  5
1FC
  8
0
 10
2532.16014528
 20
10.09320006
 30
0.0
 11
2532.16014528
 21
0.66510964
 31
0.0
  0
LINE
  5
1FD
  8
0
 10
2683.18981942
 20
6.58154182
 30
0.0
 11
2658.44108208
 21
-15.24479293
 31
0.0
  0
LINE
  5
1FE
  8
0
 10
2683.18981942
 20
16.00963224
 30
0.0
 11
2683.18981942
 21
6.58154182
 31
0.0
  0
LINE
  5
1FF
  8
0
  6
STRICHPUNKT2
 62
     1
 10
2602.53020344
 20
16.99942901
 30
0.0
 11
2602.53020344
 21
0.9716753
 31
0.0
  0
LINE
  5
200
  8
0
  6
STRICHPUNKT2
 62
     1
 10
2645.55926339
 20
11.57827702
 30
0.0
 11
2645.55926339
 21
-4.44947668
 31
0.0
  0
LINE
  5
201
  8
0
  6
STRICHPUNKT2
 62
     1
 10
2592.7083528
 20
14.93703423
 30
0.0
 11
2655.38111403
 21
7.04100851
 31
0.0
  0
LINE
  5
202
  8
0
  6
STRICHPUNKT2
 62
     1
 10
2598.81789284
 20
10.42564715
 30
0.0
 11
2606.24251405
 21
16.97354758
 31
0.0
  0
LINE
  5
203
  8
0
  6
STRICHPUNKT2
 62
     1
 10
2641.84695279
 20
5.00449516
 30
0.0
 11
2649.27157399
 21
11.55239559
 31
0.0
  0
LINE
  5
204
  8
0
  6
STRICHPUNKT2
 62
     1
 10
2592.7083528
 20
5.50894382
 30
0.0
 11
2655.38111403
 21
-2.38708191
 31
0.0
  0
LINE
  5
205
  8
0
  6
STRICHPUNKT2
 62
     1
 10
2598.81789284
 20
0.99755674
 30
0.0
 11
2606.24251405
 21
7.54545716
 31
0.0
  0
LINE
  5
206
  8
0
  6
STRICHPUNKT2
 62
     1
 10
2641.84695279
 20
-4.42359525
 30
0.0
 11
2649.27157399
 21
2.12430517
 31
0.0
  0
POLYLINE
  5
207
  8
0
 66
     1
 10
0.0
 20
0.0
 30
0.0
  0
VERTEX
  5
208
  8
0
 10
2708.12893008
 20
167.4328766
 30
0.0
  0
VERTEX
  5
209
  8
0
 10
2708.12893008
 20
192.4328766
 30
0.0
  0
VERTEX
  5
20A
  8
0
 10
2698.12893008
 20
192.4328766
 30
0.0
  0
SEQEND
  5
20B
  8
0
  0
LINE
  5
20C
  8
0
 10
2698.12893008
 20
167.4328766
 30
0.0
 11
2698.12893008
 21
192.4328766
 31
0.0
  0
LINE
  5
20D
  8
0
 10
2708.12893008
 20
167.4328766
 30
0.0
 11
2698.12893008
 21
167.4328766
 31
0.0
  0
LINE
  5
20E
  8
0
  6
STRICHPUNKT2
 62
     1
 10
2695.62893008
 20
174.4328766
 30
0.0
 11
2710.62893008
 21
174.4328766
 31
0.0
  0
LINE
  5
20F
  8
0
  6
STRICHPUNKT2
 62
     1
 10
2711.12893008
 20
180.4328766
 30
0.0
 11
2695.12893008
 21
180.4328766
 31
0.0
  0
LINE
  5
210
  8
0
  6
STRICHPUNKT2
 62
     1
 10
2695.62893008
 20
174.4328766
 30
0.0
 11
2710.62893008
 21
174.4328766
 31
0.0
  0
POLYLINE
  5
211
  8
0
 66
     1
 10
0.0
 20
0.0
 30
0.0
  0
VERTEX
  5
212
  8
0
 10
2713.12893008
 20
162.4328766
 30
0.0
 42
-0.414213562
  0
VERTEX
  5
213
  8
0
 10
2708.12893008
 20
167.4328766
 30
0.0
  0
VERTEX
  5
214
  8
0
 10
2698.12893008
 20
167.4328766
 30
0.0
  0
SEQEND
  5
215
  8
0
  0
ARC
  5
216
  8
0
 10
2713.12893008
 20
167.4328766
 30
0.0
 40
15.0
 50
180.0
 51
-90.0
  0
LINE
  5
217
  8
0
 10
2713.12893008
 20
162.4328766
 30
0.0
 11
2713.12893008
 21
152.4328766
 31
0.0
  0
POLYLINE
  5
218
  8
0
 66
     1
 10
0.0
 20
0.0
 30
0.0
  0
VERTEX
  5
219
  8
0
 10
2848.12893008
 20
162.4328766
 30
0.0
  0
VERTEX
  5
21A
  8
0
 10
2713.12893008
 20
162.4328766
 30
0.0
  0
VERTEX
  5
21B
  8
0
 10
2713.12893008
 20
152.4328766
 30
0.0
  0
SEQEND
  5
21C
  8
0
  0
LINE
  5
21D
  8
0
 10
2848.12893008
 20
152.4328766
 30
0.0
 11
2713.12893008
 21
152.4328766
 31
0.0
  0
LINE
  5
21E
  8
0
 10
2848.12893008
 20
162.4328766
 30
0.0
 11
2848.12893008
 21
152.4328766
 31
0.0
  0
LINE
  5
21F
  8
0
  6
STRICHPUNKT2
 62
     1
 10
2775.12893008
 20
165.9328766
 30
0.0
 11
2775.12893008
 21
148.9328766
 31
0.0
  0
LINE
  5
220
  8
0
  6
STRICHPUNKT2
 62
     1
 10
2821.12893008
 20
165.9328766
 30
0.0
 11
2821.12893008
 21
148.9328766
 31
0.0
  0
CIRCLE
  5
221
  8
0
 10
2630.29515932
 20
180.4328766
 30
0.0
 40
6.0
  0
CIRCLE
  5
222
  8
0
 10
2605.29515932
 20
174.4328766
 30
0.0
 40
5.0
  0
CIRCLE
  5
223
  8
0
 10
2655.29515932
 20
174.4328766
 30
0.0
 40
5.0
  0
LINE
  5
224
  8
0
 10
2595.29515932
 20
192.4328766
 30
0.0
 11
2665.29515932
 21
192.4328766
 31
0.0
  0
LINE
  5
225
  8
0
 10
2665.29515932
 20
167.4328766
 30
0.0
 11
2665.29515932
 21
192.4328766
 31
0.0
  0
LINE
  5
226
  8
0
 10
2595.29515932
 20
167.4328766
 30
0.0
 11
2665.29515932
 21
167.4328766
 31
0.0
  0
LINE
  5
227
  8
0
 10
2595.29515932
 20
192.4328766
 30
0.0
 11
2595.29515932
 21
167.4328766
 31
0.0
  0
LINE
  5
228
  8
0
  6
STRICHPUNKT2
 62
     1
 10
2655.29515932
 20
174.4328766
 30
0.0
 11
2647.79515932
 21
174.4328766
 31
0.0
  0
LINE
  5
229
  8
0
  6
STRICHPUNKT2
 62
     1
 10
2655.29515932
 20
174.4328766
 30
0.0
 11
2662.79515932
 21
174.4328766
 31
0.0
  0
LINE
  5
22A
  8
0
  6
STRICHPUNKT2
 62
     1
 10
2655.29515932
 20
174.4328766
 30
0.0
 11
2655.29515932
 21
166.9328766
 31
0.0
  0
LINE
  5
22B
  8
0
  6
STRICHPUNKT2
 62
     1
 10
2655.29515932
 20
174.4328766
 30
0.0
 11
2655.29515932
 21
181.9328766
 31
0.0
  0
LINE
  5
22C
  8
0
  6
STRICHPUNKT2
 62
     1
 10
2655.29515932
 20
174.4328766
 30
0.0
 11
2647.79515932
 21
174.4328766
 31
0.0
  0
LINE
  5
22D
  8
0
  6
STRICHPUNKT2
 62
     1
 10
2655.29515932
 20
174.4328766
 30
0.0
 11
2662.79515932
 21
174.4328766
 31
0.0
  0
LINE
  5
22E
  8
0
  6
STRICHPUNKT2
 62
     1
 10
2655.29515932
 20
174.4328766
 30
0.0
 11
2655.29515932
 21
166.9328766
 31
0.0
  0
LINE
  5
22F
  8
0
  6
STRICHPUNKT2
 62
     1
 10
2655.29515932
 20
174.4328766
 30
0.0
 11
2655.29515932
 21
181.9328766
 31
0.0
  0
LINE
  5
230
  8
0
  6
STRICHPUNKT2
 62
     1
 10
2605.29515932
 20
174.4328766
 30
0.0
 11
2597.79515932
 21
174.4328766
 31
0.0
  0
LINE
  5
231
  8
0
  6
STRICHPUNKT2
 62
     1
 10
2605.29515932
 20
174.4328766
 30
0.0
 11
2612.79515932
 21
174.4328766
 31
0.0
  0
LINE
  5
232
  8
0
  6
STRICHPUNKT2
 62
     1
 10
2605.29515932
 20
174.4328766
 30
0.0
 11
2605.29515932
 21
166.9328766
 31
0.0
  0
LINE
  5
233
  8
0
  6
STRICHPUNKT2
 62
     1
 10
2605.29515932
 20
174.4328766
 30
0.0
 11
2605.29515932
 21
181.9328766
 31
0.0
  0
LINE
  5
234
  8
0
  6
STRICHPUNKT2
 62
     1
 10
2605.29515932
 20
174.4328766
 30
0.0
 11
2597.79515932
 21
174.4328766
 31
0.0
  0
LINE
  5
235
  8
0
  6
STRICHPUNKT2
 62
     1
 10
2605.29515932
 20
174.4328766
 30
0.0
 11
2612.79515932
 21
174.4328766
 31
0.0
  0
LINE
  5
236
  8
0
  6
STRICHPUNKT2
 62
     1
 10
2605.29515932
 20
174.4328766
 30
0.0
 11
2605.29515932
 21
166.9328766
 31
0.0
  0
LINE
  5
237
  8
0
  6
STRICHPUNKT2
 62
     1
 10
2605.29515932
 20
174.4328766
 30
0.0
 11
2605.29515932
 21
181.9328766
 31
0.0
  0
LINE
  5
238
  8
0
  6
STRICHPUNKT2
 62
     1
 10
2630.29515932
 20
180.4328766
 30
0.0
 11
2621.29515932
 21
180.4328766
 31
0.0
  0
LINE
  5
239
  8
0
  6
STRICHPUNKT2
 62
     1
 10
2630.29515932
 20
180.4328766
 30
0.0
 11
2639.29515932
 21
180.4328766
 31
0.0
  0
LINE
  5
23A
  8
0
  6
STRICHPUNKT2
 62
     1
 10
2630.29515932
 20
180.4328766
 30
0.0
 11
2630.29515932
 21
189.4328766
 31
0.0
  0
LINE
  5
23B
  8
0
  6
STRICHPUNKT2
 62
     1
 10
2630.29515932
 20
180.4328766
 30
0.0
 11
2630.29515932
 21
171.4328766
 31
0.0
  0
LINE
  5
23C
  8
0
  6
STRICHPUNKT2
 62
     1
 10
2630.29515932
 20
180.4328766
 30
0.0
 11
2621.29515932
 21
180.4328766
 31
0.0
  0
LINE
  5
23D
  8
0
  6
STRICHPUNKT2
 62
     1
 10
2630.29515932
 20
180.4328766
 30
0.0
 11
2639.29515932
 21
180.4328766
 31
0.0
  0
LINE
  5
23E
  8
0
  6
STRICHPUNKT2
 62
     1
 10
2630.29515932
 20
180.4328766
 30
0.0
 11
2630.29515932
 21
189.4328766
 31
0.0
  0
LINE
  5
23F
  8
0
  6
STRICHPUNKT2
 62
     1
 10
2630.29515932
 20
180.4328766
 30
0.0
 11
2630.29515932
 21
171.4328766
 31
0.0
  0
LINE
  5
240
  8
0
 10
2595.29515932
 20
167.4328766
 30
0.0
 11
2665.29515932
 21
167.4328766
 31
0.0
  0
LINE
  5
241
  8
0
 10
2665.29515932
 20
152.4328766
 30
0.0
 11
2665.29515932
 21
167.4328766
 31
0.0
  0
LINE
  5
242
  8
0
 10
2595.29515932
 20
152.4328766
 30
0.0
 11
2665.29515932
 21
152.4328766
 31
0.0
  0
LINE
  5
243
  8
0
 10
2595.29515932
 20
167.4328766
 30
0.0
 11
2595.29515932
 21
152.4328766
 31
0.0
  0
LINE
  5
244
  8
0
 10
2595.29515932
 20
152.4328766
 30
0.0
 11
2665.29515932
 21
152.4328766
 31
0.0
  0
LINE
  5
245
  8
0
  6
STRICHPUNKT2
 62
     1
 10
2630.29515932
 20
165.9328766
 30
0.0
 11
2630.29515932
 21
148.9328766
 31
0.0
  0
LINE
  5
246
  8
0
  6
STRICHPUNKT2
 62
     1
 10
2630.29515932
 20
165.9328766
 30
0.0
 11
2630.29515932
 21
148.9328766
 31
0.0
  0
POLYLINE
  5
247
  8
0
 66
     1
 10
0.0
 20
0.0
 30
0.0
  0
VERTEX
  5
248
  8
0
 10
2708.12893008
 20
119.09910583
 30
0.0
  0
VERTEX
  5
249
  8
0
 10
2708.12893008
 20
49.09910583
 30
0.0
  0
VERTEX
  5
24A
  8
0
 10
2698.12893008
 20
49.09910583
 30
0.0
  0
SEQEND
  5
24B
  8
0
  0
LINE
  5
24C
  8
0
 10
2698.12893008
 20
119.09910583
 30
0.0
 11
2698.12893008
 21
49.09910583
 31
0.0
  0
LINE
  5
24D
  8
0
 10
2708.12893008
 20
119.09910583
 30
0.0
 11
2698.12893008
 21
119.09910583
 31
0.0
  0
LINE
  5
24E
  8
0
  6
STRICHPUNKT2
 62
     1
 10
2695.62893008
 20
59.09910583
 30
0.0
 11
2710.62893008
 21
59.09910583
 31
0.0
  0
LINE
  5
24F
  8
0
  6
STRICHPUNKT2
 62
     1
 10
2711.12893008
 20
84.09910583
 30
0.0
 11
2695.12893008
 21
84.09910583
 31
0.0
  0
LINE
  5
250
  8
0
  6
STRICHPUNKT2
 62
     1
 10
2695.62893008
 20
109.09910583
 30
0.0
 11
2710.62893008
 21
109.09910583
 31
0.0
  0
POLYLINE
  5
251
  8
0
 66
     1
 10
0.0
 20
0.0
 30
0.0
  0
VERTEX
  5
252
  8
0
 10
2708.12893008
 20
119.09910583
 30
0.0
  0
VERTEX
  5
253
  8
0
 10
2713.12893008
 20
119.09910583
 30
0.0
  0
VERTEX
  5
254
  8
0
 10
2713.12893008
 20
49.09910583
 30
0.0
  0
VERTEX
  5
255
  8
0
 10
2708.12893008
 20
49.09910583
 30
0.0
  0
SEQEND
  5
256
  8
0
  0
POLYLINE
  5
257
  8
0
 66
     1
 10
0.0
 20
0.0
 30
0.0
 70
     1
  0
VERTEX
  5
258
  8
0
 10
2775.12893008
 20
77.09910583
 30
0.0
 42
-1.0
  0
VERTEX
  5
259
  8
0
 10
2775.12893008
 20
91.09910583
 30
0.0
  0
VERTEX
  5
25A
  8
0
 10
2821.12893008
 20
91.09910583
 30
0.0
 42
-1.0
  0
VERTEX
  5
25B
  8
0
 10
2821.12893008
 20
77.09910583
 30
0.0
  0
SEQEND
  5
25C
  8
0
  0
LINE
  5
25D
  8
0
 10
2848.12893008
 20
49.09910583
 30
0.0
 11
2713.12893008
 21
49.09910583
 31
0.0
  0
LINE
  5
25E
  8
0
 10
2713.12893008
 20
119.09910583
 30
0.0
 11
2713.12893008
 21
49.09910583
 31
0.0
  0
POLYLINE
  5
25F
  8
0
 66
     1
 10
0.0
 20
0.0
 30
0.0
  0
VERTEX
  5
260
  8
0
 10
2713.12893008
 20
119.09910583
 30
0.0
  0
VERTEX
  5
261
  8
0
 10
2848.12893008
 20
119.09910583
 30
0.0
  0
VERTEX
  5
262
  8
0
 10
2848.12893008
 20
49.09910583
 30
0.0
  0
SEQEND
  5
263
  8
0
  0
LINE
  5
264
  8
0
  6
STRICHPUNKT2
 62
     1
 10
2764.62893008
 20
84.09910583
 30
0.0
 11
2831.62893008
 21
84.09910583
 31
0.0
  0
LINE
  5
265
  8
0
  6
STRICHPUNKT2
 62
     1
 10
2775.12893008
 20
73.59910583
 30
0.0
 11
2775.12893008
 21
94.59910583
 31
0.0
  0
LINE
  5
266
  8
0
  6
STRICHPUNKT2
 62
     1
 10
2821.12893008
 20
73.59910583
 30
0.0
 11
2821.12893008
 21
94.59910583
 31
0.0
  0
LINE
  5
267
  8
0
  6
STRICHPUNKT2
 62
     1
 10
2764.62893008
 20
84.09910583
 30
0.0
 11
2831.62893008
 21
84.09910583
 31
0.0
  0
LINE
  5
268
  8
0
  6
STRICHPUNKT2
 62
     1
 10
2775.12893008
 20
73.59910583
 30
0.0
 11
2775.12893008
 21
94.59910583
 31
0.0
  0
LINE
  5
269
  8
0
  6
STRICHPUNKT2
 62
     1
 10
2821.12893008
 20
73.59910583
 30
0.0
 11
2821.12893008
 21
94.59910583
 31
0.0
  0
TEXT
  5
26A
  8
TXT_DIM49
 10
2686.62893008
 20
170.57796598
 30
0.0
 40
2.5
  1
40
 50
90.00020741
  7
ARIAL
  0
LINE
  5
26B
  8
0
 62
     4
 10
2689.12893008
 20
191.4328766
 30
0.0
 11
2687.12893008
 21
193.4328766
 31
0.0
  0
LINE
  5
26C
  8
0
 62
     4
 10
2687.37893008
 20
153.1828766
 30
0.0
 11
2688.87893008
 21
151.6828766
 31
0.0
  0
LINE
  5
26D
  8
0
 62
     4
 10
2688.12893008
 20
192.4328766
 30
0.0
 11
2688.12893008
 21
152.4328766
 31
0.0
  0
LINE
  5
26E
  8
0
 62
     4
 10
2690.12893008
 20
192.4328766
 30
0.0
 11
2686.12893008
 21
192.4328766
 31
0.0
  0
LINE
  5
26F
  8
0
 62
     4
 10
2690.12893008
 20
152.4328766
 30
0.0
 11
2686.12893008
 21
152.4328766
 31
0.0
  0
TEXT
  5
270
  8
TXT_DIM49
 10
2770.34656428
 20
144.11770357
 30
0.0
 40
2.5
  1
150
  7
ARIAL
  0
LINE
  5
271
  8
0
 62
     4
 10
2699.12893008
 20
143.61770357
 30
0.0
 11
2697.12893008
 21
141.61770357
 31
0.0
  0
LINE
  5
272
  8
0
 62
     4
 10
2847.37893008
 20
141.86770357
 30
0.0
 11
2848.87893008
 21
143.36770357
 31
0.0
  0
LINE
  5
273
  8
0
 62
     4
 10
2698.12893008
 20
142.61770357
 30
0.0
 11
2848.12893008
 21
142.61770357
 31
0.0
  0
LINE
  5
274
  8
0
 62
     4
 10
2698.12893008
 20
144.61770357
 30
0.0
 11
2698.12893008
 21
140.61770357
 31
0.0
  0
LINE
  5
275
  8
0
 62
     4
 10
2848.12893008
 20
144.61770357
 30
0.0
 11
2848.12893008
 21
140.61770357
 31
0.0
  0
TEXT
  5
276
  8
TXT_DIM49
 10
2853.81839239
 20
155.57796598
 30
0.0
 40
2.5
  1
10
 50
90.00020741
  7
ARIAL
  0
LINE
  5
277
  8
0
 62
     4
 10
2856.31839239
 20
161.4328766
 30
0.0
 11
2854.31839239
 21
163.4328766
 31
0.0
  0
LINE
  5
278
  8
0
 62
     4
 10
2854.56839239
 20
153.1828766
 30
0.0
 11
2856.06839239
 21
151.6828766
 31
0.0
  0
LINE
  5
279
  8
0
 62
     4
 10
2855.31839239
 20
162.4328766
 30
0.0
 11
2855.31839239
 21
152.4328766
 31
0.0
  0
LINE
  5
27A
  8
0
 62
     4
 10
2853.31839239
 20
162.4328766
 30
0.0
 11
2857.31839239
 21
162.4328766
 31
0.0
  0
LINE
  5
27B
  8
0
 62
     4
 10
2853.31839239
 20
152.4328766
 30
0.0
 11
2857.31839239
 21
152.4328766
 31
0.0
  0
TEXT
  5
27C
  8
TXT_DIM49
 10
2701.27401947
 20
199.4046947
 30
0.0
 40
2.5
  1
10
  7
ARIAL
  0
LINE
  5
27D
  8
0
 62
     4
 10
2699.12893008
 20
198.9046947
 30
0.0
 11
2697.12893008
 21
196.9046947
 31
0.0
  0
LINE
  5
27E
  8
0
 62
     4
 10
2707.37893008
 20
197.1546947
 30
0.0
 11
2708.87893008
 21
198.6546947
 31
0.0
  0
LINE
  5
27F
  8
0
 62
     4
 10
2698.12893008
 20
197.9046947
 30
0.0
 11
2708.12893008
 21
197.9046947
 31
0.0
  0
LINE
  5
280
  8
0
 62
     4
 10
2698.12893008
 20
195.9046947
 30
0.0
 11
2698.12893008
 21
199.9046947
 31
0.0
  0
LINE
  5
281
  8
0
 62
     4
 10
2708.12893008
 20
195.9046947
 30
0.0
 11
2708.12893008
 21
199.9046947
 31
0.0
  0
TEXT
  5
282
  8
TXT_DIM49
 10
2658.4402487
 20
198.14253681
 30
0.0
 40
2.5
  1
10
  7
ARIAL
  0
LINE
  5
283
  8
0
 62
     4
 10
2664.29515932
 20
195.64253681
 30
0.0
 11
2666.29515932
 21
197.64253681
 31
0.0
  0
LINE
  5
284
  8
0
 62
     4
 10
2656.04515932
 20
197.39253681
 30
0.0
 11
2654.54515932
 21
195.89253681
 31
0.0
  0
LINE
  5
285
  8
0
 62
     4
 10
2665.29515932
 20
196.64253681
 30
0.0
 11
2655.29515932
 21
196.64253681
 31
0.0
  0
LINE
  5
286
  8
0
 62
     4
 10
2665.29515932
 20
194.64253681
 30
0.0
 11
2665.29515932
 21
198.64253681
 31
0.0
  0
LINE
  5
287
  8
0
 62
     4
 10
2655.29515932
 20
194.64253681
 30
0.0
 11
2655.29515932
 21
198.64253681
 31
0.0
  0
TEXT
  5
288
  8
TXT_DIM49
 10
2640.9402487
 20
198.14253681
 30
0.0
 40
2.5
  1
25
  7
ARIAL
  0
LINE
  5
289
  8
0
 62
     4
 10
2654.29515932
 20
195.64253681
 30
0.0
 11
2656.29515932
 21
197.64253681
 31
0.0
  0
LINE
  5
28A
  8
0
 62
     4
 10
2631.04515932
 20
197.39253681
 30
0.0
 11
2629.54515932
 21
195.89253681
 31
0.0
  0
LINE
  5
28B
  8
0
 62
     4
 10
2655.29515932
 20
196.64253681
 30
0.0
 11
2630.29515932
 21
196.64253681
 31
0.0
  0
LINE
  5
28C
  8
0
 62
     4
 10
2655.29515932
 20
194.64253681
 30
0.0
 11
2655.29515932
 21
198.64253681
 31
0.0
  0
LINE
  5
28D
  8
0
 62
     4
 10
2630.29515932
 20
194.64253681
 30
0.0
 11
2630.29515932
 21
198.64253681
 31
0.0
  0
TEXT
  5
28E
  8
TXT_DIM49
 10
2615.9402487
 20
198.14253681
 30
0.0
 40
2.5
  1
25
  7
ARIAL
  0
LINE
  5
28F
  8
0
 62
     4
 10
2629.29515932
 20
195.64253681
 30
0.0
 11
2631.29515932
 21
197.64253681
 31
0.0
  0
LINE
  5
290
  8
0
 62
     4
 10
2606.04515932
 20
197.39253681
 30
0.0
 11
2604.54515932
 21
195.89253681
 31
0.0
  0
LINE
  5
291
  8
0
 62
     4
 10
2630.29515932
 20
196.64253681
 30
0.0
 11
2605.29515932
 21
196.64253681
 31
0.0
  0
LINE
  5
292
  8
0
 62
     4
 10
2630.29515932
 20
194.64253681
 30
0.0
 11
2630.29515932
 21
198.64253681
 31
0.0
  0
LINE
  5
293
  8
0
 62
     4
 10
2605.29515932
 20
194.64253681
 30
0.0
 11
2605.29515932
 21
198.64253681
 31
0.0
  0
TEXT
  5
294
  8
TXT_DIM49
 10
2598.4402487
 20
198.14253681
 30
0.0
 40
2.5
  1
10
  7
ARIAL
  0
LINE
  5
295
  8
0
 62
     4
 10
2604.29515932
 20
195.64253681
 30
0.0
 11
2606.29515932
 21
197.64253681
 31
0.0
  0
LINE
  5
296
  8
0
 62
     4
 10
2596.04515932
 20
197.39253681
 30
0.0
 11
2594.54515932
 21
195.89253681
 31
0.0
  0
LINE
  5
297
  8
0
 62
     4
 10
2605.29515932
 20
196.64253681
 30
0.0
 11
2595.29515932
 21
196.64253681
 31
0.0
  0
LINE
  5
298
  8
0
 62
     4
 10
2605.29515932
 20
194.64253681
 30
0.0
 11
2605.29515932
 21
198.64253681
 31
0.0
  0
LINE
  5
299
  8
0
 62
     4
 10
2595.29515932
 20
194.64253681
 30
0.0
 11
2595.29515932
 21
198.64253681
 31
0.0
  0
TEXT
  5
29A
  8
TXT_DIM49
 10
2589.64798267
 20
184.57796598
 30
0.0
 40
2.5
  1
12
 50
90.00020741
  7
ARIAL
  0
LINE
  5
29B
  8
0
 62
     4
 10
2592.14798267
 20
191.4328766
 30
0.0
 11
2590.14798267
 21
193.4328766
 31
0.0
  0
LINE
  5
29C
  8
0
 62
     4
 10
2590.39798267
 20
181.1828766
 30
0.0
 11
2591.89798267
 21
179.6828766
 31
0.0
  0
LINE
  5
29D
  8
0
 62
     4
 10
2591.14798267
 20
192.4328766
 30
0.0
 11
2591.14798267
 21
180.4328766
 31
0.0
  0
LINE
  5
29E
  8
0
 62
     4
 10
2593.14798267
 20
192.4328766
 30
0.0
 11
2589.14798267
 21
192.4328766
 31
0.0
  0
LINE
  5
29F
  8
0
 62
     4
 10
2593.14798267
 20
180.4328766
 30
0.0
 11
2589.14798267
 21
180.4328766
 31
0.0
  0
TEXT
  5
2A0
  8
TXT_DIM49
 10
2589.64798267
 20
176.50542129
 30
0.0
 40
2.5
  1
6
 50
90.00020741
  7
ARIAL
  0
LINE
  5
2A1
  8
0
 62
     4
 10
2592.14798267
 20
179.4328766
 30
0.0
 11
2590.14798267
 21
181.4328766
 31
0.0
  0
LINE
  5
2A2
  8
0
 62
     4
 10
2590.39798267
 20
175.1828766
 30
0.0
 11
2591.89798267
 21
173.6828766
 31
0.0
  0
LINE
  5
2A3
  8
0
 62
     4
 10
2591.14798267
 20
180.4328766
 30
0.0
 11
2591.14798267
 21
174.4328766
 31
0.0
  0
LINE
  5
2A4
  8
0
 62
     4
 10
2593.14798267
 20
180.4328766
 30
0.0
 11
2589.14798267
 21
180.4328766
 31
0.0
  0
LINE
  5
2A5
  8
0
 62
     4
 10
2593.14798267
 20
174.4328766
 30
0.0
 11
2589.14798267
 21
174.4328766
 31
0.0
  0
TEXT
  5
2A6
  8
TXT_DIM49
 10
2589.64798267
 20
161.57796598
 30
0.0
 40
2.5
  1
22
 50
90.00020741
  7
ARIAL
  0
LINE
  5
2A7
  8
0
 62
     4
 10
2592.14798267
 20
173.4328766
 30
0.0
 11
2590.14798267
 21
175.4328766
 31
0.0
  0
LINE
  5
2A8
  8
0
 62
     4
 10
2590.39798267
 20
153.1828766
 30
0.0
 11
2591.89798267
 21
151.6828766
 31
0.0
  0
LINE
  5
2A9
  8
0
 62
     4
 10
2591.14798267
 20
174.4328766
 30
0.0
 11
2591.14798267
 21
152.4328766
 31
0.0
  0
LINE
  5
2AA
  8
0
 62
     4
 10
2593.14798267
 20
174.4328766
 30
0.0
 11
2589.14798267
 21
174.4328766
 31
0.0
  0
LINE
  5
2AB
  8
0
 62
     4
 10
2593.14798267
 20
152.4328766
 30
0.0
 11
2589.14798267
 21
152.4328766
 31
0.0
  0
TEXT
  5
2AC
  8
TXT_DIM49
 10
2628.4402487
 20
144.52592631
 30
0.0
 40
2.5
  1
70
  7
ARIAL
  0
LINE
  5
2AD
  8
0
 62
     4
 10
2596.29515932
 20
144.02592631
 30
0.0
 11
2594.29515932
 21
142.02592631
 31
0.0
  0
LINE
  5
2AE
  8
0
 62
     4
 10
2664.54515932
 20
142.27592631
 30
0.0
 11
2666.04515932
 21
143.77592631
 31
0.0
  0
LINE
  5
2AF
  8
0
 62
     4
 10
2595.29515932
 20
143.02592631
 30
0.0
 11
2665.29515932
 21
143.02592631
 31
0.0
  0
LINE
  5
2B0
  8
0
 62
     4
 10
2595.29515932
 20
145.02592631
 30
0.0
 11
2595.29515932
 21
141.02592631
 31
0.0
  0
LINE
  5
2B1
  8
0
 62
     4
 10
2665.29515932
 20
145.02592631
 30
0.0
 11
2665.29515932
 21
141.02592631
 31
0.0
  0
LINE
  5
2B2
  8
0
 62
     5
 10
2605.29515932
 20
179.4328766
 30
0.0
 11
2607.2707525
 21
184.00129863
 31
0.0
  0
TEXT
  5
2B3
  8
TXT_DIM49
 10
2607.2707525
 20
182.75129863
 30
0.0
 40
2.5
  1
Ø10
  7
ARIAL
  0
LINE
  5
2B4
  8
0
 62
     5
 10
2630.29515932
 20
186.4328766
 30
0.0
 11
2634.44253082
 21
187.88256931
 31
0.0
  0
TEXT
  5
2B5
  8
TXT_DIM49
 10
2634.44253082
 20
186.63256931
 30
0.0
 40
2.5
  1
Ø12
  7
ARIAL
  0
LINE
  5
2B6
  8
0
 62
     5
 10
2655.29515932
 20
179.4328766
 30
0.0
 11
2656.88142731
 21
182.01260397
 31
0.0
  0
TEXT
  5
2B7
  8
TXT_DIM49
 10
2656.88142731
 20
180.76260397
 30
0.0
 40
2.5
  1
Ø10
  7
ARIAL
  0
TEXT
  5
2B8
  8
TXT_DIM49
 10
2832.77401947
 20
126.09937842
 30
0.0
 40
2.5
  1
27
  7
ARIAL
  0
LINE
  5
2B9
  8
0
 62
     4
 10
2847.12893008
 20
123.59937842
 30
0.0
 11
2849.12893008
 21
125.59937842
 31
0.0
  0
LINE
  5
2BA
  8
0
 62
     4
 10
2821.87893008
 20
125.34937842
 30
0.0
 11
2820.37893008
 21
123.84937842
 31
0.0
  0
LINE
  5
2BB
  8
0
 62
     4
 10
2848.12893008
 20
124.59937842
 30
0.0
 11
2821.12893008
 21
124.59937842
 31
0.0
  0
LINE
  5
2BC
  8
0
 62
     4
 10
2848.12893008
 20
122.59937842
 30
0.0
 11
2848.12893008
 21
126.59937842
 31
0.0
  0
LINE
  5
2BD
  8
0
 62
     4
 10
2821.12893008
 20
122.59937842
 30
0.0
 11
2821.12893008
 21
126.59937842
 31
0.0
  0
TEXT
  5
2BE
  8
TXT_DIM49
 10
2796.27401947
 20
126.09937842
 30
0.0
 40
2.5
  1
46
  7
ARIAL
  0
LINE
  5
2BF
  8
0
 62
     4
 10
2820.12893008
 20
123.59937842
 30
0.0
 11
2822.12893008
 21
125.59937842
 31
0.0
  0
LINE
  5
2C0
  8
0
 62
     4
 10
2775.87893008
 20
125.34937842
 30
0.0
 11
2774.37893008
 21
123.84937842
 31
0.0
  0
LINE
  5
2C1
  8
0
 62
     4
 10
2821.12893008
 20
124.59937842
 30
0.0
 11
2775.12893008
 21
124.59937842
 31
0.0
  0
LINE
  5
2C2
  8
0
 62
     4
 10
2821.12893008
 20
122.59937842
 30
0.0
 11
2821.12893008
 21
126.59937842
 31
0.0
  0
LINE
  5
2C3
  8
0
 62
     4
 10
2775.12893008
 20
122.59937842
 30
0.0
 11
2775.12893008
 21
126.59937842
 31
0.0
  0
TEXT
  5
2C4
  8
TXT_DIM49
 10
2734.77401947
 20
126.09937842
 30
0.0
 40
2.5
  1
77
  7
ARIAL
  0
LINE
  5
2C5
  8
0
 62
     4
 10
2774.12893008
 20
123.59937842
 30
0.0
 11
2776.12893008
 21
125.59937842
 31
0.0
  0
LINE
  5
2C6
  8
0
 62
     4
 10
2698.87893008
 20
125.34937842
 30
0.0
 11
2697.37893008
 21
123.84937842
 31
0.0
  0
LINE
  5
2C7
  8
0
 62
     4
 10
2775.12893008
 20
124.59937842
 30
0.0
 11
2698.12893008
 21
124.59937842
 31
0.0
  0
LINE
  5
2C8
  8
0
 62
     4
 10
2775.12893008
 20
122.59937842
 30
0.0
 11
2775.12893008
 21
126.59937842
 31
0.0
  0
LINE
  5
2C9
  8
0
 62
     4
 10
2698.12893008
 20
122.59937842
 30
0.0
 11
2698.12893008
 21
126.59937842
 31
0.0
  0
TEXT
  5
2CA
  8
TXT_DIM49
 10
2853.5772123
 20
99.74419522
 30
0.0
 40
2.5
  1
35
 50
90.00020741
  7
ARIAL
  0
LINE
  5
2CB
  8
0
 62
     4
 10
2856.0772123
 20
118.09910583
 30
0.0
 11
2854.0772123
 21
120.09910583
 31
0.0
  0
LINE
  5
2CC
  8
0
 62
     4
 10
2854.3272123
 20
84.84910583
 30
0.0
 11
2855.8272123
 21
83.34910583
 31
0.0
  0
LINE
  5
2CD
  8
0
 62
     4
 10
2855.0772123
 20
119.09910583
 30
0.0
 11
2855.0772123
 21
84.09910583
 31
0.0
  0
LINE
  5
2CE
  8
0
 62
     4
 10
2853.0772123
 20
119.09910583
 30
0.0
 11
2857.0772123
 21
119.09910583
 31
0.0
  0
LINE
  5
2CF
  8
0
 62
     4
 10
2853.0772123
 20
84.09910583
 30
0.0
 11
2857.0772123
 21
84.09910583
 31
0.0
  0
TEXT
  5
2D0
  8
TXT_DIM49
 10
2853.5772123
 20
64.74419522
 30
0.0
 40
2.5
  1
35
 50
90.00020741
  7
ARIAL
  0
LINE
  5
2D1
  8
0
 62
     4
 10
2856.0772123
 20
83.09910583
 30
0.0
 11
2854.0772123
 21
85.09910583
 31
0.0
  0
LINE
  5
2D2
  8
0
 62
     4
 10
2854.3272123
 20
49.84910583
 30
0.0
 11
2855.8272123
 21
48.34910583
 31
0.0
  0
LINE
  5
2D3
  8
0
 62
     4
 10
2855.0772123
 20
84.09910583
 30
0.0
 11
2855.0772123
 21
49.09910583
 31
0.0
  0
LINE
  5
2D4
  8
0
 62
     4
 10
2853.0772123
 20
84.09910583
 30
0.0
 11
2857.0772123
 21
84.09910583
 31
0.0
  0
LINE
  5
2D5
  8
0
 62
     4
 10
2853.0772123
 20
49.09910583
 30
0.0
 11
2857.0772123
 21
49.09910583
 31
0.0
  0
LINE
  5
2D6
  8
0
 62
     5
 10
2798.12893008
 20
91.09910583
 30
0.0
 11
2793.33188221
 21
99.35032959
 31
0.0
  0
TEXT
  5
2D7
  8
TXT_DIM49
 10
2770.26061253
 20
98.10032959
 30
0.0
 40
2.5
  1
Slobgat 14 x 60
  7
ARIAL
  0
ENDSEC
  0
EOF
