  0
SECTION
  2
HEADER
  9
$ACADVER
  1
AC1006
  9
$DWGCODEPAGE
  3
ansi_1252
  9
$INSBASE
 10
0.0
 20
0.0
 30
0.0
  9
$EXTMIN
 10
2386.17172711
 20
-362.22093092
  9
$EXTMAX
 10
3137.09860153
 20
-16.24310676
  9
$LIMMIN
 10
2386.17172711
 20
-362.22093092
  9
$LIMMAX
 10
3137.09860153
 20
-16.24310676
  9
$ORTHOMODE
 70
     0
  9
$REGENMODE
 70
     1
  9
$FILLMODE
 70
     1
  9
$QTEXTMODE
 70
     0
  9
$MIRRTEXT
 70
     1
  9
$DRAGMODE
 70
     2
  9
$LTSCALE
 40
1.0
  9
$OSMODE
 70
    37
  9
$ATTMODE
 70
     1
  9
$TEXTSIZE
 40
1.0
  9
$TRACEWID
 40
0.05
  9
$TEXTSTYLE
  7
STANDARD
  9
$CLAYER
  8
0
  9
$CELTYPE
  6
BYBLOCK
  9
$CECOLOR
 62
   256
  9
$DIMSCALE
 40
1.0
  9
$DIMASZ
 40
0.18
  9
$DIMEXO
 40
0.0625
  9
$DIMDLI
 40
0.38
  9
$DIMRND
 40
0.0
  9
$DIMDLE
 40
0.0
  9
$DIMEXE
 40
0.18
  9
$DIMTP
 40
0.0
  9
$DIMTM
 40
0.0
  9
$DIMTXT
 40
0.18
  9
$DIMCEN
 40
0.09
  9
$DIMTSZ
 40
0.0
  9
$DIMTOL
 70
     0
  9
$DIMLIM
 70
     0
  9
$DIMTIH
 70
     1
  9
$DIMTOH
 70
     1
  9
$DIMSE1
 70
     0
  9
$DIMSE2
 70
     0
  9
$DIMTAD
 70
     0
  9
$DIMZIN
 70
     0
  9
$DIMBLK
  1

  9
$DIMASO
 70
     1
  9
$DIMSHO
 70
     1
  9
$DIMPOST
  1

  9
$DIMAPOST
  1

  9
$DIMALT
 70
     0
  9
$DIMALTD
 70
     2
  9
$DIMALTF
 40
25.4
  9
$DIMLFAC
 40
1.0
  9
$DIMTOFL
 70
     0
  9
$DIMTVP
 40
0.0
  9
$DIMTIX
 70
     0
  9
$DIMSOXD
 70
     0
  9
$DIMSAH
 70
     0
  9
$DIMBLK1
  1

  9
$DIMBLK2
  1

  9
$LUNITS
 70
     2
  9
$LUPREC
 70
     4
  9
$SKETCHINC
 40
0.1
  9
$FILLETRAD
 40
0.5
  9
$AUNITS
 70
     0
  9
$AUPREC
 70
     0
  9
$MENU
  1
.
  9
$ELEVATION
 40
0.0
  9
$THICKNESS
 40
0.0
  9
$LIMCHECK
 70
     0
  9
$CHAMFERA
 40
0.0
  9
$CHAMFERB
 40
0.0
  9
$SKPOLY
 70
     0
  9
$TDCREATE
 40
2447893.125
  9
$TDUPDATE
 40
2460791.478094641
  9
$TDINDWG
 40
0.0
  9
$TDUSRTIMER
 40
0.0
  9
$USRTIMER
 70
     1
  9
$ANGBASE
 50
0.0
  9
$ANGDIR
 70
     0
  9
$PDMODE
 70
     0
  9
$PDSIZE
 40
0.0
  9
$PLINEWID
 40
0.0
  9
$COORDS
 70
     1
  9
$SPLFRAME
 70
     0
  9
$SPLINETYPE
 70
     6
  9
$SPLINESEGS
 70
     8
  9
$ATTDIA
 70
     0
  9
$ATTREQ
 70
     1
  9
$HANDLING
 70
     1
  9
$HANDSEED
  5
402
  9
$SURFTAB1
 70
     6
  9
$SURFTAB2
 70
     6
  9
$SURFTYPE
 70
     6
  9
$SURFU
 70
     6
  9
$SURFV
 70
     6
  9
$UCSNAME
  2

  9
$UCSORG
 10
0.0
 20
0.0
 30
0.0
  9
$UCSXDIR
 10
1.0
 20
0.0
 30
0.0
  9
$UCSYDIR
 10
0.0
 20
1.0
 30
0.0
  9
$USERI1
 70
     0
  9
$USERI2
 70
     0
  9
$USERI3
 70
     0
  9
$USERI4
 70
     0
  9
$USERI5
 70
     0
  9
$USERR1
 40
0.0
  9
$USERR2
 40
0.0
  9
$USERR3
 40
0.0
  9
$USERR4
 40
0.0
  9
$USERR5
 40
0.0
  9
$WORLDVIEW
 70
     1
  0
ENDSEC
  0
SECTION
  2
TABLES
  0
TABLE
  2
VPORT
 70
     1
  0
VPORT
  2
*ACTIVE
 70
     0
 10
0.0
 20
0.0
 11
1.0
 21
1.0
 12
2761.63516432
 22
-189.23201884
 13
0.0
 23
0.0
 14
1.0
 24
1.0
 15
0.0
 25
0.0
 16
0.0
 26
0.0
 36
1.0
 17
0.0
 27
0.0
 37
0.0
 40
345.977824156
 41
2.170447994
 42
50.0
 43
0.0
 44
0.0
 50
0.0
 51
0.0
 71
     0
 72
   100
 73
     1
 74
     1
 75
     0
 76
     0
 77
     0
 78
     0
  0
ENDTAB
  0
TABLE
  2
LTYPE
 70
    19
  0
LTYPE
  2
CONTINUOUS
 70
     0
  3
Solid line
 72
    65
 73
     0
 40
0.0
  0
LTYPE
  2
DOT
 70
     0
  3
..............
 72
    65
 73
     2
 40
2.0
 49
0.5
 49
-1.5
  0
LTYPE
  2
HIDDEN
 70
     0
  3
-- -- -- -- --
 72
    65
 73
     2
 40
7.0
 49
4.0
 49
-3.0
  0
LTYPE
  2
DASHDOT
 70
     0
  3
--.--.--.--.--
 72
    65
 73
     4
 40
8.5
 49
4.0
 49
-2.0
 49
0.5
 49
-2.0
  0
LTYPE
  2
STRICHPUNKT2
 70
     0
  3
--.--.--.--.--
 72
    65
 73
     4
 40
18.5
 49
10.0
 49
-4.0
 49
0.5
 49
-4.0
  0
LTYPE
  2
STRICHPUNKT3
 70
     0
  3
--.--.--.--.--
 72
    65
 73
     4
 40
35.5
 49
25.0
 49
-5.0
 49
0.5
 49
-5.0
  0
LTYPE
  2
PHANTOM
 70
     0
  3
--..--..--..--
 72
    65
 73
     6
 40
23.0
 49
10.0
 49
-4.0
 49
0.5
 49
-4.0
 49
0.5
 49
-4.0
  0
LTYPE
  2
PHANTOM2
 70
     0
  3
--..--..--..--
 72
    65
 73
     6
 40
33.0
 49
20.0
 49
-4.0
 49
0.5
 49
-4.0
 49
0.5
 49
-4.0
  0
LTYPE
  2
PHANTOM3
 70
     0
  3
--..--..--..--
 72
    65
 73
     6
 40
50.0
 49
37.0
 49
-4.0
 49
0.5
 49
-4.0
 49
0.5
 49
-4.0
  0
LTYPE
  2
STR3PKT
 70
     0
  3
--...--...--...
 72
    65
 73
     8
 40
31.5
 49
20.0
 49
-2.5
 49
0.5
 49
-2.5
 49
0.5
 49
-2.5
 49
0.5
 49
-2.5
  0
LTYPE
  2
2STRPKT
 70
     0
  3
--.--.--.--.--
 72
    65
 73
     6
 40
28.0
 49
10.0
 49
-2.5
 49
10.0
 49
-2.5
 49
0.5
 49
-2.5
  0
LTYPE
  2
GESTRICHELT2
 70
     0
  3
-- -- -- -- --
 72
    65
 73
     2
 40
25.0
 49
10.0
 49
-15.0
  0
LTYPE
  2
2STR2PKT
 70
     0
  3
--..--..--..--
 72
    65
 73
     8
 40
31.0
 49
10.0
 49
-2.5
 49
10.0
 49
-2.5
 49
0.5
 49
-2.5
 49
0.5
 49
-2.5
  0
LTYPE
  2
STR3PKT2
 70
     0
  3
--...--...--...
 72
    65
 73
     8
 40
21.0
 49
10.0
 49
-2.5
 49
0.5
 49
-2.5
 49
0.5
 49
-2.5
 49
0.5
 49
-2.0
  0
LTYPE
  2
2STR3PKT
 70
     0
  3
--...--...--...
 72
    65
 73
    10
 40
34.0
 49
10.0
 49
-2.5
 49
10.0
 49
-2.5
 49
0.5
 49
-2.5
 49
0.5
 49
-2.5
 49
0.5
 49
-2.5
  0
LTYPE
  2
STRKSTR
 70
     0
  3
-- - -- - -- -
 72
    65
 73
     4
 40
30.0
 49
20.0
 49
-2.5
 49
5.0
 49
-2.5
  0
LTYPE
  2
STRKSTR2
 70
     0
  3
-- - -- - -- -
 72
    65
 73
     6
 40
37.5
 49
20.0
 49
-2.5
 49
5.0
 49
-2.5
 49
5.0
 49
-2.5
  0
LTYPE
  2
STRKSTR3
 70
     0
  3
-- - -- - -- -
 72
    65
 73
     8
 40
45.0
 49
20.0
 49
-2.5
 49
5.0
 49
-2.5
 49
5.0
 49
-2.5
 49
5.0
 49
-2.5
  0
LTYPE
  2
PUNKT2
 70
     0
  3
..............
 72
    65
 73
     2
 40
3.5
 49
0.5
 49
-3.0
  0
ENDTAB
  0
TABLE
  2
LAYER
 70
    17
  0
LAYER
  2
0
 70
     0
 62
     7
  6
CONTINUOUS
  0
LAYER
  2
LE_GREEN
 70
     0
 62
     3
  6
CONTINUOUS
  0
LAYER
  2
LE_RED
 70
     0
 62
     1
  6
CONTINUOUS
  0
LAYER
  2
LE_ALL
 70
     0
 62
     7
  6
CONTINUOUS
  0
LAYER
  2
LE_HIDDEN1
 70
     0
 62
     3
  6
HIDDEN
  0
LAYER
  2
LE_HIDDEN
 70
     0
 62
     7
  6
CONTINUOUS
  0
LAYER
  2
LE_MIDDLE
 70
     0
 62
     7
  6
CONTINUOUS
  0
LAYER
  2
TXT_YELLOW
 70
     0
 62
     2
  6
CONTINUOUS
  0
LAYER
  2
TXT_DIM49
 70
     0
 62
     2
  6
CONTINUOUS
  0
LAYER
  2
TXT_ALL
 70
     0
 62
     7
  6
CONTINUOUS
  0
LAYER
  2
DIM49
 70
     0
 62
     4
  6
CONTINUOUS
  0
LAYER
  2
HATCH
 70
     0
 62
     3
  6
CONTINUOUS
  0
LAYER
  2
APPLE
 70
     0
 62
     7
  6
CONTINUOUS
  0
LAYER
  2
10
 70
     0
 62
     7
  6
CONTINUOUS
  0
LAYER
  2
20
 70
     0
 62
     7
  6
CONTINUOUS
  0
LAYER
  2
47
 70
     0
 62
     7
  6
CONTINUOUS
  0
LAYER
  2
49
 70
     0
 62
     7
  6
CONTINUOUS
  0
ENDTAB
  0
TABLE
  2
STYLE
 70
     5
  0
STYLE
  2
MONOTXT
 70
     0
 40
0.0
 41
1.0
 50
0.0
 71
     0
 42
1.0
  3
monotxt.shx
  4

  0
STYLE
  2
STANDARD
 70
     0
 40
0.0
 41
1.0
 50
0.0
 71
     0
 42
1.0
  3
txt
  4

  0
STYLE
  2
ARIAL
 70
     0
 40
0.0
 41
1.0
 50
0.0
 71
     0
 42
1.0
  3
arial.ttf
  4

  0
STYLE
  2
ARIAL_NARROW
 70
     0
 40
0.0
 41
1.0
 50
0.0
 71
     0
 42
1.0
  3
ArialN.ttf
  4

  0
STYLE
  2
ISOCPEUR
 70
     0
 40
0.0
 41
1.0
 50
0.0
 71
     0
 42
1.0
  3
ISOCPEUR.ttf
  4

  0
ENDTAB
  0
TABLE
  2
VIEW
 70
     0
  0
ENDTAB
  0
TABLE
  2
UCS
 70
     0
  0
ENDTAB
  0
ENDSEC
  0
SECTION
  2
BLOCKS
  0
ENDSEC
  0
SECTION
  2
ENTITIES
  0
POLYLINE
  5
16E
  8
0
 66
     1
 10
0.0
 20
0.0
 30
0.0
 70
     1
  0
VERTEX
  5
16F
  8
0
 10
2486.08689583
 20
-340.64201139
 30
0.0
  0
VERTEX
  5
170
  8
0
 10
2906.08689583
 20
-340.64201139
 30
0.0
  0
VERTEX
  5
171
  8
0
 10
2906.08689583
 20
-43.64201139
 30
0.0
  0
VERTEX
  5
172
  8
0
 10
2486.08689583
 20
-43.64201139
 30
0.0
  0
SEQEND
  5
173
  8
0
  0
POLYLINE
  5
174
  8
0
 66
     1
 10
0.0
 20
0.0
 30
0.0
 70
     1
  0
VERTEX
  5
175
  8
0
 10
2491.08689583
 20
-335.64201139
 30
0.0
  0
VERTEX
  5
176
  8
0
 10
2901.08689583
 20
-335.64201139
 30
0.0
  0
VERTEX
  5
177
  8
0
 10
2901.08689583
 20
-48.64201139
 30
0.0
  0
VERTEX
  5
178
  8
0
 10
2491.08689583
 20
-48.64201139
 30
0.0
  0
SEQEND
  5
179
  8
0
  0
LINE
  5
17A
  8
0
 10
2716.08689583
 20
-335.64201139
 30
0.0
 11
2716.08689583
 21
-340.64201139
 31
0.0
  0
LINE
  5
17B
  8
0
 10
2716.08689583
 20
-48.64201139
 30
0.0
 11
2716.08689583
 21
-43.64201139
 31
0.0
  0
LINE
  5
17C
  8
0
 10
2506.08689583
 20
-335.64201139
 30
0.0
 11
2506.08689583
 21
-340.64201139
 31
0.0
  0
LINE
  5
17D
  8
0
 10
2506.08689583
 20
-48.64201139
 30
0.0
 11
2506.08689583
 21
-43.64201139
 31
0.0
  0
TEXT
  5
17E
  8
TXT_ALL
 62
     4
 10
2905.08689583
 20
-339.64201139
 30
0.0
 40
2.5
  1

 50
90.00020741
  0
POLYLINE
  5
17F
  8
0
 66
     1
 10
0.0
 20
0.0
 30
0.0
  0
VERTEX
  5
180
  8
0
 10
2901.08689583
 20
-58.64201139
 30
0.0
  0
VERTEX
  5
181
  8
0
 10
2832.09359583
 20
-58.64201139
 30
0.0
  0
VERTEX
  5
182
  8
0
 10
2832.09359583
 20
-48.64201139
 30
0.0
  0
SEQEND
  5
183
  8
0
  0
LINE
  5
184
  8
0
 10
2833.99689583
 20
-316.14201139
 30
0.0
 11
2694.10689583
 21
-316.14201139
 31
0.0
  0
LINE
  5
185
  8
0
 10
2694.10689583
 20
-325.89201139
 30
0.0
 11
2833.99689583
 21
-325.89201139
 31
0.0
  0
POLYLINE
  5
186
  8
0
 66
     1
 10
0.0
 20
0.0
 30
0.0
  0
VERTEX
  5
187
  8
0
 10
2694.10689583
 20
-316.14201139
 30
0.0
  0
VERTEX
  5
188
  8
0
 10
2694.10689583
 20
-325.89201139
 30
0.0
  0
VERTEX
  5
189
  8
0
 10
2694.10689583
 20
-335.64201139
 30
0.0
  0
SEQEND
  5
18A
  8
0
  0
POLYLINE
  5
18B
  8
0
 66
     1
 10
0.0
 20
0.0
 30
0.0
  0
VERTEX
  5
18C
  8
0
 10
2764.05189583
 20
-316.14201139
 30
0.0
  0
VERTEX
  5
18D
  8
0
 10
2764.05189583
 20
-325.89201139
 30
0.0
  0
VERTEX
  5
18E
  8
0
 10
2764.05189583
 20
-335.64201139
 30
0.0
  0
SEQEND
  5
18F
  8
0
  0
TEXT
  5
190
  8
TXT_ALL
 10
2696.10689583
 20
-322.31701134
 30
0.0
 40
2.5999999
  1
E-mail: verkoop@jonkers-bouwmetaal.nl
  7
ARIAL
  0
TEXT
  5
191
  8
TXT_ALL
 10
2696.10689583
 20
-332.06701134
 30
0.0
 40
2.5999999
  1
Telefoon: 0527-685156
  7
ARIAL
  0
TEXT
  5
192
  8
TXT_ALL
 10
2766.05189583
 20
-332.06701134
 30
0.0
 40
2.5999999
  1
Website: www.jonkers-bouwmetaal.nl
  7
ARIAL
  0
TEXT
  5
193
  8
TXT_ALL
 10
2766.05189583
 20
-322.31701134
 30
0.0
 40
2.5999999
  1
Adres: Hoornse Hop 10, 8321 WX Urk
  7
ARIAL
  0
TEXT
  5
194
  8
TXT_ALL
 10
2494.52885609
 20
-54.89201139
 30
0.0
 40
2.5
  1
Art. nr. 91009162-04
  7
ARIAL
  0
TEXT
  5
195
  8
TXT_ALL
 10
2537.2668929
 20
-54.89201139
 30
0.0
 40
2.5
  1
Omschrijving: H1502-anker 150x40, 70x10
  7
ARIAL
  0
LINE
  5
196
  8
0
 10
2901.08689583
 20
-58.64201139
 30
0.0
 11
2491.08689583
 21
-58.64201139
 31
0.0
  0
LINE
  5
197
  8
0
 10
2534.10689583
 20
-58.64201139
 30
0.0
 11
2534.10689583
 21
-48.64201139
 31
0.0
  0
LINE
  5
198
  8
0
 10
2694.10689583
 20
-58.64201139
 30
0.0
 11
2694.10689583
 21
-48.64201139
 31
0.0
  0
TEXT
  5
199
  8
TXT_ALL
 10
2765.10059583
 20
-54.89201139
 30
0.0
 40
2.5
  1
Behandeling: Thermisch Verzinkt
  7
ARIAL
  0
LINE
  5
19A
  8
0
 10
2833.99689583
 20
-316.14201139
 30
0.0
 11
2901.08689583
 21
-316.14201139
 31
0.0
  0
LINE
  5
19B
  8
0
 10
2833.99689583
 20
-335.64201139
 30
0.0
 11
2833.99689583
 21
-316.14201139
 31
0.0
  0
LINE
  5
19C
  8
0
 10
2833.99689583
 20
-335.64201139
 30
0.0
 11
2833.99689583
 21
-316.14201139
 31
0.0
  0
TEXT
  5
19D
  8
TXT_ALL
 10
2628.45209393
 20
-334.48747797
 30
0.0
 40
2.5
  1

  0
TEXT
  5
19E
  8
TXT_ALL
 10
2749.58727689
 20
-324.39201139
 30
0.0
 40
2.5
  1

  0
POLYLINE
  5
19F
  8
0
 66
     1
 10
0.0
 20
0.0
 30
0.0
  0
VERTEX
  5
1A0
  8
0
 10
2832.09359583
 20
-58.64201139
 30
0.0
  0
VERTEX
  5
1A1
  8
0
 10
2763.10059583
 20
-58.64201139
 30
0.0
  0
VERTEX
  5
1A2
  8
0
 10
2763.10059583
 20
-48.64201139
 30
0.0
  0
SEQEND
  5
1A3
  8
0
  0
TEXT
  5
1A4
  8
TXT_ALL
 10
2834.09359583
 20
-54.89201139
 30
0.0
 40
2.5
  1
Verpakkingshoeveelheid: 1st.
  7
ARIAL
  0
TEXT
  5
1A5
  8
TXT_ALL
 10
2696.10689583
 20
-54.89201139
 30
0.0
 40
2.5
  1
Materiaal: S355
  7
ARIAL
  0
TEXT
  5
1A6
  8
TXT_ALL
 10
2868.57931875
 20
-338.89152124
 30
0.0
 40
1.5
  1
Onderdeel van
  7
ARIAL
  0
POLYLINE
  5
1A7
  8
0
 66
     1
 10
0.0
 20
0.0
 30
0.0
  0
VERTEX
  5
348
  8
0
 10
2550.06688437
 20
-255.61590939
 30
0.0
  0
VERTEX
  5
349
  8
0
 10
2550.401493863276
 20
-255.5612331388837
 30
0.0
  0
VERTEX
  5
34A
  8
0
 10
2550.747262900847
 20
-255.3180179299287
 30
0.0
  0
VERTEX
  5
34B
  8
0
 10
2551.09090377254
 20
-254.8956103871973
 30
0.0
  0
VERTEX
  5
34C
  8
0
 10
2551.4192105524
 20
-254.3102433956307
 30
0.0
  0
VERTEX
  5
34D
  8
0
 10
2551.719566595023
 20
-253.584412280386
 30
0.0
  0
VERTEX
  5
34E
  8
0
 10
2551.98042938616
 20
-252.7460103241078
 30
0.0
  0
VERTEX
  5
34F
  8
0
 10
2552.191774115063
 20
-251.8272568437212
 30
0.0
  0
VERTEX
  5
350
  8
0
 10
2552.345478922342
 20
-250.8634590201541
 30
0.0
  0
VERTEX
  5
351
  8
0
 10
2552.435637018466
 20
-249.8916550631778
 30
0.0
  0
VERTEX
  5
352
  8
0
 10
2552.45878367837
 20
-248.9491908537799
 30
0.0
  0
VERTEX
  5
353
  8
0
 10
2552.414029388896
 20
-248.072284762905
 30
0.0
  0
VERTEX
  5
354
  8
0
 10
2552.303094032287
 20
-247.2946357997741
 30
0.0
  0
VERTEX
  5
355
  8
0
 10
2552.130240792074
 20
-246.6461285778617
 30
0.0
  0
VERTEX
  5
356
  8
0
 10
2551.902112321327
 20
-246.151684865962
 30
0.0
  0
VERTEX
  5
357
  8
0
 10
2551.627475469219
 20
-245.8303058585929
 30
0.0
  0
VERTEX
  5
358
  8
0
 10
2551.316884375936
 20
-245.6943419707479
 30
0.0
  0
SEQEND
  5
3F4
  8
0
  0
POLYLINE
  5
1A8
  8
0
 66
     1
 10
0.0
 20
0.0
 30
0.0
  0
VERTEX
  5
359
  8
0
 10
2551.316884375936
 20
-245.6943419707479
 30
0.0
  0
VERTEX
  5
35A
  8
0
 10
2550.982274882201
 20
-245.7490182187182
 30
0.0
  0
VERTEX
  5
35B
  8
0
 10
2550.63650584391
 20
-245.9922334254783
 30
0.0
  0
VERTEX
  5
35C
  8
0
 10
2550.292864971324
 20
-246.4146409670078
 30
0.0
  0
VERTEX
  5
35D
  8
0
 10
2549.964558190492
 20
-247.0000079583376
 30
0.0
  0
VERTEX
  5
35E
  8
0
 10
2549.664202146912
 20
-247.7258390742172
 30
0.0
  0
VERTEX
  5
35F
  8
0
 10
2549.403339354926
 20
-248.5642410318506
 30
0.0
  0
VERTEX
  5
360
  8
0
 10
2549.191994625357
 20
-249.4829945141138
 30
0.0
  0
VERTEX
  5
361
  8
0
 10
2549.038289817658
 20
-250.4467923398459
 30
0.0
  0
VERTEX
  5
362
  8
0
 10
2548.948131721404
 20
-251.4185962990237
 30
0.0
  0
VERTEX
  5
363
  8
0
 10
2548.92498506168
 20
-252.3610605104048
 30
0.0
  0
VERTEX
  5
364
  8
0
 10
2548.969739351641
 20
-253.2379666028034
 30
0.0
  0
VERTEX
  5
365
  8
0
 10
2549.080674709018
 20
-254.0156155667864
 30
0.0
  0
VERTEX
  5
366
  8
0
 10
2549.253527950231
 20
-254.6641227887105
 30
0.0
  0
VERTEX
  5
367
  8
0
 10
2549.481656422142
 20
-255.1585664996674
 30
0.0
  0
VERTEX
  5
368
  8
0
 10
2549.756293275492
 20
-255.4799455050889
 30
0.0
  0
VERTEX
  5
369
  8
0
 10
2550.06688437
 20
-255.61590939
 30
0.0
  0
SEQEND
  5
3F5
  8
0
  0
POLYLINE
  5
1A9
  8
0
 66
     1
 10
0.0
 20
0.0
 30
0.0
  0
VERTEX
  5
36A
  8
0
 10
2532.38921484
 20
-271.2061485
 30
0.0
  0
VERTEX
  5
36B
  8
0
 10
2532.723824333276
 20
-271.1514722488837
 30
0.0
  0
VERTEX
  5
36C
  8
0
 10
2533.069593370847
 20
-270.9082570399287
 30
0.0
  0
VERTEX
  5
36D
  8
0
 10
2533.41323424254
 20
-270.4858494971973
 30
0.0
  0
VERTEX
  5
36E
  8
0
 10
2533.7415410224
 20
-269.9004825056307
 30
0.0
  0
VERTEX
  5
36F
  8
0
 10
2534.041897065023
 20
-269.174651390386
 30
0.0
  0
VERTEX
  5
370
  8
0
 10
2534.30275985616
 20
-268.3362494341078
 30
0.0
  0
VERTEX
  5
371
  8
0
 10
2534.514104585063
 20
-267.4174959537212
 30
0.0
  0
VERTEX
  5
372
  8
0
 10
2534.667809392342
 20
-266.4536981301541
 30
0.0
  0
VERTEX
  5
373
  8
0
 10
2534.757967488466
 20
-265.4818941731778
 30
0.0
  0
VERTEX
  5
374
  8
0
 10
2534.78111414837
 20
-264.5394299637799
 30
0.0
  0
VERTEX
  5
375
  8
0
 10
2534.736359858896
 20
-263.662523872905
 30
0.0
  0
VERTEX
  5
376
  8
0
 10
2534.625424502287
 20
-262.8848749097741
 30
0.0
  0
VERTEX
  5
377
  8
0
 10
2534.452571262074
 20
-262.2363676878617
 30
0.0
  0
VERTEX
  5
378
  8
0
 10
2534.224442791327
 20
-261.741923975962
 30
0.0
  0
VERTEX
  5
379
  8
0
 10
2533.949805939219
 20
-261.4205449685929
 30
0.0
  0
VERTEX
  5
37A
  8
0
 10
2533.639214845936
 20
-261.2845810807479
 30
0.0
  0
SEQEND
  5
3F6
  8
0
  0
POLYLINE
  5
1AA
  8
0
 66
     1
 10
0.0
 20
0.0
 30
0.0
  0
VERTEX
  5
37B
  8
0
 10
2533.639214845936
 20
-261.2845810807479
 30
0.0
  0
VERTEX
  5
37C
  8
0
 10
2533.304605352201
 20
-261.3392573287182
 30
0.0
  0
VERTEX
  5
37D
  8
0
 10
2532.95883631391
 20
-261.5824725354783
 30
0.0
  0
VERTEX
  5
37E
  8
0
 10
2532.615195441324
 20
-262.0048800770078
 30
0.0
  0
VERTEX
  5
37F
  8
0
 10
2532.286888660492
 20
-262.5902470683376
 30
0.0
  0
VERTEX
  5
380
  8
0
 10
2531.986532616912
 20
-263.3160781842172
 30
0.0
  0
VERTEX
  5
381
  8
0
 10
2531.725669824926
 20
-264.1544801418506
 30
0.0
  0
VERTEX
  5
382
  8
0
 10
2531.514325095357
 20
-265.0732336241138
 30
0.0
  0
VERTEX
  5
383
  8
0
 10
2531.360620287658
 20
-266.0370314498459
 30
0.0
  0
VERTEX
  5
384
  8
0
 10
2531.270462191404
 20
-267.0088354090237
 30
0.0
  0
VERTEX
  5
385
  8
0
 10
2531.24731553168
 20
-267.9512996204048
 30
0.0
  0
VERTEX
  5
386
  8
0
 10
2531.292069821641
 20
-268.8282057128034
 30
0.0
  0
VERTEX
  5
387
  8
0
 10
2531.403005179018
 20
-269.6058546767864
 30
0.0
  0
VERTEX
  5
388
  8
0
 10
2531.575858420231
 20
-270.2543618987105
 30
0.0
  0
VERTEX
  5
389
  8
0
 10
2531.803986892142
 20
-270.7488056096674
 30
0.0
  0
VERTEX
  5
38A
  8
0
 10
2532.078623745492
 20
-271.0701846150889
 30
0.0
  0
VERTEX
  5
38B
  8
0
 10
2532.38921484
 20
-271.2061485
 30
0.0
  0
SEQEND
  5
3F7
  8
0
  0
POLYLINE
  5
1AB
  8
0
 66
     1
 10
0.0
 20
0.0
 30
0.0
  0
VERTEX
  5
38C
  8
0
 10
2541.1030496
 20
-258.74633144
 30
0.0
  0
VERTEX
  5
38D
  8
0
 10
2541.504580991801
 20
-258.6807199386988
 30
0.0
  0
VERTEX
  5
38E
  8
0
 10
2541.919503836762
 20
-258.3888616880667
 30
0.0
  0
VERTEX
  5
38F
  8
0
 10
2542.331872882677
 20
-257.8819726369738
 30
0.0
  0
VERTEX
  5
390
  8
0
 10
2542.725841018409
 20
-257.1795322473426
 30
0.0
  0
VERTEX
  5
391
  8
0
 10
2543.086268269474
 20
-256.3085349093521
 30
0.0
  0
VERTEX
  5
392
  8
0
 10
2543.399303618776
 20
-255.302452562164
 30
0.0
  0
VERTEX
  5
393
  8
0
 10
2543.652917293422
 20
-254.1999483860752
 30
0.0
  0
VERTEX
  5
394
  8
0
 10
2543.837363062144
 20
-253.0433909981849
 30
0.0
  0
VERTEX
  5
395
  8
0
 10
2543.945552777506
 20
-251.8772262502035
 30
0.0
  0
VERTEX
  5
396
  8
0
 10
2543.973328769428
 20
-250.7462691993013
 30
0.0
  0
VERTEX
  5
397
  8
0
 10
2543.919623622121
 20
-249.6939818905972
 30
0.0
  0
VERTEX
  5
398
  8
0
 10
2543.786501194273
 20
-248.7608031351432
 30
0.0
  0
VERTEX
  5
399
  8
0
 10
2543.579077306119
 20
-247.982594469097
 30
0.0
  0
VERTEX
  5
39A
  8
0
 10
2543.305323141337
 20
-247.3892620150022
 30
0.0
  0
VERTEX
  5
39B
  8
0
 10
2542.975758918933
 20
-247.003607206273
 30
0.0
  0
VERTEX
  5
39C
  8
0
 10
2542.603049607123
 20
-246.8404505408975
 30
0.0
  0
SEQEND
  5
3F8
  8
0
  0
POLYLINE
  5
1AC
  8
0
 66
     1
 10
0.0
 20
0.0
 30
0.0
  0
VERTEX
  5
39D
  8
0
 10
2542.603049607123
 20
-246.8404505408975
 30
0.0
  0
VERTEX
  5
39E
  8
0
 10
2542.201518214402
 20
-246.9060620385849
 30
0.0
  0
VERTEX
  5
39F
  8
0
 10
2541.786595368199
 20
-247.1979202871435
 30
0.0
  0
VERTEX
  5
3A0
  8
0
 10
2541.374226320866
 20
-247.7048093377114
 30
0.0
  0
VERTEX
  5
3A1
  8
0
 10
2540.980258183698
 20
-248.4072497282627
 30
0.0
  0
VERTEX
  5
3A2
  8
0
 10
2540.619830931328
 20
-249.2782470684119
 30
0.0
  0
VERTEX
  5
3A3
  8
0
 10
2540.306795580991
 20
-250.2843294187018
 30
0.0
  0
VERTEX
  5
3A4
  8
0
 10
2540.053181905696
 20
-251.3868335984709
 30
0.0
  0
VERTEX
  5
3A5
  8
0
 10
2539.868736136798
 20
-252.54339099021
 30
0.0
  0
VERTEX
  5
3A6
  8
0
 10
2539.760546421785
 20
-253.7095557417784
 30
0.0
  0
VERTEX
  5
3A7
  8
0
 10
2539.732770430749
 20
-254.8405127955839
 30
0.0
  0
VERTEX
  5
3A8
  8
0
 10
2539.786475579451
 20
-255.8928001061199
 30
0.0
  0
VERTEX
  5
3A9
  8
0
 10
2539.919598009139
 20
-256.8259788620076
 30
0.0
  0
VERTEX
  5
3AA
  8
0
 10
2540.127021899474
 20
-257.604187526845
 30
0.0
  0
VERTEX
  5
3AB
  8
0
 10
2540.400776066642
 20
-258.1975199779451
 30
0.0
  0
VERTEX
  5
3AC
  8
0
 10
2540.730340291479
 20
-258.5831747818643
 30
0.0
  0
VERTEX
  5
3AD
  8
0
 10
2541.103049605596
 20
-258.7463314407051
 30
0.0
  0
SEQEND
  5
3F9
  8
0
  0
POLYLINE
  5
1AD
  8
0
 66
     1
 10
0.0
 20
0.0
 30
0.0
  0
VERTEX
  5
1AE
  8
0
 10
2554.22741827
 20
-230.56651511
 30
0.0
  0
VERTEX
  5
1AF
  8
0
 10
2529.47868093
 20
-252.39284987
 30
0.0
  0
VERTEX
  5
1B0
  8
0
 10
2520.12453746
 20
-251.21433856
 30
0.0
  0
SEQEND
  5
1B1
  8
0
  0
LINE
  5
1B2
  8
0
 10
2544.87327481
 20
-229.38800381
 30
0.0
 11
2520.12453746
 21
-251.21433856
 31
0.0
  0
LINE
  5
1B3
  8
0
 10
2554.22741827
 20
-230.56651511
 30
0.0
 11
2544.87327481
 21
-229.38800381
 31
0.0
  0
POLYLINE
  5
1B4
  8
0
 66
     1
 10
0.0
 20
0.0
 30
0.0
  0
VERTEX
  5
1B5
  8
0
 10
2554.22741827
 20
-230.56651511
 30
0.0
  0
VERTEX
  5
1B6
  8
0
 10
2554.22741827
 20
-254.13674115
 30
0.0
  0
VERTEX
  5
1B7
  8
0
 10
2529.47868093
 20
-275.96307591
 30
0.0
  0
VERTEX
  5
1B8
  8
0
 10
2529.47868093
 20
-252.39284987
 30
0.0
  0
SEQEND
  5
1B9
  8
0
  0
POLYLINE
  5
1BA
  8
0
 66
     1
 10
0.0
 20
0.0
 30
0.0
  0
VERTEX
  5
1BB
  8
0
 10
2529.47868093
 20
-275.96307591
 30
0.0
  0
VERTEX
  5
1BC
  8
0
 10
2520.12453746
 20
-274.7845646
 30
0.0
  0
VERTEX
  5
1BD
  8
0
 10
2520.12453746
 20
-251.21433856
 30
0.0
  0
SEQEND
  5
1BE
  8
0
  0
LINE
  5
1BF
  8
0
  6
STRICHPUNKT2
 62
     1
 10
2529.69266309
 20
-251.26132629
 30
0.0
 11
2544.65929264
 21
-253.14694438
 31
0.0
  0
LINE
  5
1C0
  8
0
  6
STRICHPUNKT2
 62
     1
 10
2532.49890613
 20
-251.61487969
 30
0.0
 11
2535.68088665
 21
-248.80863665
 31
0.0
  0
LINE
  5
1C1
  8
0
  6
STRICHPUNKT2
 62
     1
 10
2532.49890613
 20
-251.61487969
 30
0.0
 11
2529.31692562
 21
-254.42112273
 31
0.0
  0
LINE
  5
1C2
  8
0
  6
STRICHPUNKT2
 62
     1
 10
2532.49890613
 20
-251.61487969
 30
0.0
 11
2532.49890613
 21
-260.10016106
 31
0.0
  0
LINE
  5
1C3
  8
0
  6
STRICHPUNKT2
 62
     1
 10
2532.49890613
 20
-251.61487969
 30
0.0
 11
2532.49890613
 21
-243.12959831
 31
0.0
  0
LINE
  5
1C4
  8
0
  6
STRICHPUNKT2
 62
     1
 10
2541.8530496
 20
-252.79339099
 30
0.0
 11
2545.03503012
 21
-249.98714795
 31
0.0
  0
LINE
  5
1C5
  8
0
  6
STRICHPUNKT2
 62
     1
 10
2541.8530496
 20
-252.79339099
 30
0.0
 11
2538.67106909
 21
-255.59963403
 31
0.0
  0
LINE
  5
1C6
  8
0
  6
STRICHPUNKT2
 62
     1
 10
2541.8530496
 20
-252.79339099
 30
0.0
 11
2541.8530496
 21
-261.27867236
 31
0.0
  0
LINE
  5
1C7
  8
0
  6
STRICHPUNKT2
 62
     1
 10
2541.8530496
 20
-252.79339099
 30
0.0
 11
2541.8530496
 21
-244.30810961
 31
0.0
  0
LINE
  5
1C8
  8
0
  6
STRICHPUNKT2
 62
     1
 10
2521.3215355
 20
-264.77222567
 30
0.0
 11
2535.3527507
 21
-266.53999262
 31
0.0
  0
LINE
  5
1C9
  8
0
  6
STRICHPUNKT2
 62
     1
 10
2523.66007137
 20
-265.06685349
 30
0.0
 11
2526.3117218
 21
-262.72831762
 31
0.0
  0
LINE
  5
1CA
  8
0
  6
STRICHPUNKT2
 62
     1
 10
2523.66007137
 20
-265.06685349
 30
0.0
 11
2521.00842094
 21
-267.40538936
 31
0.0
  0
LINE
  5
1CB
  8
0
  6
STRICHPUNKT2
 62
     1
 10
2523.66007137
 20
-265.06685349
 30
0.0
 11
2523.66007137
 21
-272.1379213
 31
0.0
  0
LINE
  5
1CC
  8
0
  6
STRICHPUNKT2
 62
     1
 10
2523.66007137
 20
-265.06685349
 30
0.0
 11
2523.66007137
 21
-257.99578568
 31
0.0
  0
LINE
  5
1CD
  8
0
  6
STRICHPUNKT2
 62
     1
 10
2533.01421484
 20
-266.24536479
 30
0.0
 11
2535.66586527
 21
-263.90682893
 31
0.0
  0
LINE
  5
1CE
  8
0
  6
STRICHPUNKT2
 62
     1
 10
2533.01421484
 20
-266.24536479
 30
0.0
 11
2530.36256441
 21
-268.58390066
 31
0.0
  0
LINE
  5
1CF
  8
0
  6
STRICHPUNKT2
 62
     1
 10
2533.01421484
 20
-266.24536479
 30
0.0
 11
2533.01421484
 21
-273.3164326
 31
0.0
  0
LINE
  5
1D0
  8
0
  6
STRICHPUNKT2
 62
     1
 10
2533.01421484
 20
-266.24536479
 30
0.0
 11
2533.01421484
 21
-259.17429698
 31
0.0
  0
LINE
  5
1D1
  8
0
  6
STRICHPUNKT2
 62
     1
 10
2538.99920503
 20
-249.18198655
 30
0.0
 11
2553.03042023
 21
-250.94975351
 31
0.0
  0
LINE
  5
1D2
  8
0
  6
STRICHPUNKT2
 62
     1
 10
2541.3377409
 20
-249.47661438
 30
0.0
 11
2543.98939133
 21
-247.13807851
 31
0.0
  0
LINE
  5
1D3
  8
0
  6
STRICHPUNKT2
 62
     1
 10
2541.3377409
 20
-249.47661438
 30
0.0
 11
2538.68609047
 21
-251.81515025
 31
0.0
  0
LINE
  5
1D4
  8
0
  6
STRICHPUNKT2
 62
     1
 10
2541.3377409
 20
-249.47661438
 30
0.0
 11
2541.3377409
 21
-256.54768219
 31
0.0
  0
LINE
  5
1D5
  8
0
  6
STRICHPUNKT2
 62
     1
 10
2541.3377409
 20
-249.47661438
 30
0.0
 11
2541.3377409
 21
-242.40554657
 31
0.0
  0
LINE
  5
1D6
  8
0
  6
STRICHPUNKT2
 62
     1
 10
2550.69188437
 20
-250.65512568
 30
0.0
 11
2553.3435348
 21
-248.31658981
 31
0.0
  0
LINE
  5
1D7
  8
0
  6
STRICHPUNKT2
 62
     1
 10
2550.69188437
 20
-250.65512568
 30
0.0
 11
2548.04023394
 21
-252.99366155
 31
0.0
  0
LINE
  5
1D8
  8
0
  6
STRICHPUNKT2
 62
     1
 10
2550.69188437
 20
-250.65512568
 30
0.0
 11
2550.69188437
 21
-257.72619349
 31
0.0
  0
LINE
  5
1D9
  8
0
  6
STRICHPUNKT2
 62
     1
 10
2550.69188437
 20
-250.65512568
 30
0.0
 11
2550.69188437
 21
-243.58405787
 31
0.0
  0
POLYLINE
  5
1DA
  8
0
 66
     1
 10
0.0
 20
0.0
 30
0.0
  0
VERTEX
  5
1DB
  8
0
 10
2554.22741827
 20
-254.13674115
 30
0.0
  0
VERTEX
  5
1DC
  8
0
 10
2529.47868093
 20
-275.96307591
 30
0.0
  0
VERTEX
  5
1DD
  8
0
 10
2520.12453746
 20
-274.7845646
 30
0.0
  0
SEQEND
  5
1DE
  8
0
  0
POLYLINE
  5
1DF
  8
0
 66
     1
 10
0.0
 20
0.0
 30
0.0
  0
VERTEX
  5
3AE
  8
0
 10
2554.227418285485
 20
-254.1367411553177
 30
0.0
  0
VERTEX
  5
3AF
  8
0
 10
2554.317286911249
 20
-255.0677281296922
 30
0.0
  0
VERTEX
  5
3B0
  8
0
 10
2554.583439178045
 20
-255.985582560825
 30
0.0
  0
VERTEX
  5
3B1
  8
0
 10
2555.015647003607
 20
-256.8550318179705
 30
0.0
  0
VERTEX
  5
3B2
  8
0
 10
2555.597300883727
 20
-257.6426634540577
 30
0.0
  0
VERTEX
  5
3B3
  8
0
 10
2556.306048186182
 20
-258.3182092272815
 30
0.0
  0
VERTEX
  5
3B4
  8
0
 10
2557.114652149841
 20
-258.8557082926513
 30
0.0
  0
VERTEX
  5
3B5
  8
0
 10
2557.992038578121
 20
-259.2345048626959
 30
0.0
  0
VERTEX
  5
3B6
  8
0
 10
2558.904490002917
 20
-259.4400419977858
 30
0.0
  0
SEQEND
  5
3FA
  8
0
  0
POLYLINE
  5
1E0
  8
0
 66
     1
 10
0.0
 20
0.0
 30
0.0
  0
VERTEX
  5
1E1
  8
0
 10
2558.90449001
 20
-259.44004201
 30
0.0
  0
VERTEX
  5
1E2
  8
0
 10
2534.15575266
 20
-281.26637676
 30
0.0
  0
SEQEND
  5
1E3
  8
0
  0
POLYLINE
  5
1E4
  8
0
 66
     1
 10
0.0
 20
0.0
 30
0.0
  0
VERTEX
  5
3B7
  8
0
 10
2529.478680935485
 20
-275.9630759153177
 30
0.0
  0
VERTEX
  5
3B8
  8
0
 10
2529.568549561249
 20
-276.8940628896922
 30
0.0
  0
VERTEX
  5
3B9
  8
0
 10
2529.834701828045
 20
-277.811917320825
 30
0.0
  0
VERTEX
  5
3BA
  8
0
 10
2530.266909653607
 20
-278.6813665779706
 30
0.0
  0
VERTEX
  5
3BB
  8
0
 10
2530.848563533727
 20
-279.4689982140578
 30
0.0
  0
VERTEX
  5
3BC
  8
0
 10
2531.557310836182
 20
-280.1445439872816
 30
0.0
  0
VERTEX
  5
3BD
  8
0
 10
2532.365914799841
 20
-280.6820430526514
 30
0.0
  0
VERTEX
  5
3BE
  8
0
 10
2533.243301228121
 20
-281.060839622696
 30
0.0
  0
VERTEX
  5
3BF
  8
0
 10
2534.155752652917
 20
-281.2663767577859
 30
0.0
  0
SEQEND
  5
3FB
  8
0
  0
POLYLINE
  5
1E5
  8
0
 66
     1
 10
0.0
 20
0.0
 30
0.0
  0
VERTEX
  5
1E6
  8
0
 10
2534.15575266
 20
-281.26637676
 30
0.0
  0
VERTEX
  5
1E7
  8
0
 10
2534.15575266
 20
-290.69446718
 30
0.0
  0
SEQEND
  5
1E8
  8
0
  0
POLYLINE
  5
1E9
  8
0
 66
     1
 10
0.0
 20
0.0
 30
0.0
  0
VERTEX
  5
3C0
  8
0
 10
2520.124537486457
 20
-274.7845646259531
 30
0.0
  0
VERTEX
  5
3C1
  8
0
 10
2520.394143363748
 20
-277.5775255490766
 30
0.0
  0
VERTEX
  5
3C2
  8
0
 10
2521.192600164134
 20
-280.331088842475
 30
0.0
  0
VERTEX
  5
3C3
  8
0
 10
2522.489223640821
 20
-282.9394366139118
 30
0.0
  0
VERTEX
  5
3C4
  8
0
 10
2524.234185281183
 20
-285.3023315221731
 30
0.0
  0
VERTEX
  5
3C5
  8
0
 10
2526.360427188547
 20
-287.3289688418446
 30
0.0
  0
VERTEX
  5
3C6
  8
0
 10
2528.786239079525
 20
-288.9414660379539
 30
0.0
  0
VERTEX
  5
3C7
  8
0
 10
2531.418398364365
 20
-290.077855748088
 30
0.0
  0
VERTEX
  5
3C8
  8
0
 10
2534.155752638752
 20
-290.6944671533576
 30
0.0
  0
SEQEND
  5
3FC
  8
0
  0
POLYLINE
  5
1EA
  8
0
 66
     1
 10
0.0
 20
0.0
 30
0.0
  0
VERTEX
  5
3C9
  8
0
 10
2624.48855076
 20
-277.2773206492306
 30
0.0
  0
VERTEX
  5
3CA
  8
0
 10
2624.690071792833
 20
-277.9086127910549
 30
0.0
  0
VERTEX
  5
3CB
  8
0
 10
2625.285610298698
 20
-278.5116341225321
 30
0.0
  0
SEQEND
  5
3FD
  8
0
  0
POLYLINE
  5
1EB
  8
0
 66
     1
 10
0.0
 20
0.0
 30
0.0
  0
VERTEX
  5
3CC
  8
0
 10
2641.69149120801
 20
-276.0430071876522
 30
0.0
  0
VERTEX
  5
3CD
  8
0
 10
2640.823157247209
 20
-275.5387533336673
 30
0.0
  0
VERTEX
  5
3CE
  8
0
 10
2639.679327185292
 20
-275.0998020314645
 30
0.0
  0
VERTEX
  5
3CF
  8
0
 10
2638.302964570875
 20
-274.7426407875718
 30
0.0
  0
VERTEX
  5
3D0
  8
0
 10
2636.745767137798
 20
-274.4806849815782
 30
0.0
  0
VERTEX
  5
3D1
  8
0
 10
2635.066224979869
 20
-274.3237739693294
 30
0.0
  0
VERTEX
  5
3D2
  8
0
 10
2633.3274235969
 20
-274.2778015056126
 30
0.0
  0
VERTEX
  5
3D3
  8
0
 10
2631.594674332104
 20
-274.3444943680724
 30
0.0
  0
VERTEX
  5
3D4
  8
0
 10
2629.933061204305
 20
-274.5213474974922
 30
0.0
  0
VERTEX
  5
3D5
  8
0
 10
2628.404996278697
 20
-274.8017180906473
 30
0.0
  0
VERTEX
  5
3D6
  8
0
 10
2627.067875399216
 20
-275.1750751114942
 30
0.0
  0
VERTEX
  5
3D7
  8
0
 10
2625.971922335828
 20
-275.6273948487748
 30
0.0
  0
VERTEX
  5
3D8
  8
0
 10
2625.15830232303
 20
-276.1416876624456
 30
0.0
  0
VERTEX
  5
3D9
  8
0
 10
2624.657575847153
 20
-276.6986361337405
 30
0.0
  0
VERTEX
  5
3DA
  8
0
 10
2624.48855076
 20
-277.2773206492306
 30
0.0
  0
SEQEND
  5
3FE
  8
0
  0
POLYLINE
  5
1EC
  8
0
 66
     1
 10
0.0
 20
0.0
 30
0.0
  0
VERTEX
  5
1ED
  8
0
 10
2641.69149121
 20
-276.04300718
 30
0.0
  0
VERTEX
  5
1EE
  8
0
 10
2654.8575017
 20
-285.76501067
 30
0.0
  0
SEQEND
  5
1EF
  8
0
  0
POLYLINE
  5
1F0
  8
0
 66
     1
 10
0.0
 20
0.0
 30
0.0
  0
VERTEX
  5
3DB
  8
0
 10
2655.65456125
 20
-286.99932415
 30
0.0
  0
VERTEX
  5
3DC
  8
0
 10
2655.453040210368
 20
-286.3680320084169
 30
0.0
  0
VERTEX
  5
3DD
  8
0
 10
2654.857501698009
 20
-285.7650106776522
 30
0.0
  0
SEQEND
  5
3FF
  8
0
  0
POLYLINE
  5
1F1
  8
0
 66
     1
 10
0.0
 20
0.0
 30
0.0
  0
VERTEX
  5
3DE
  8
0
 10
2638.451620788698
 20
-288.2336376125322
 30
0.0
  0
VERTEX
  5
3DF
  8
0
 10
2639.319954746742
 20
-288.7378914688099
 30
0.0
  0
VERTEX
  5
3E0
  8
0
 10
2640.463784807958
 20
-289.1768427732441
 30
0.0
  0
VERTEX
  5
3E1
  8
0
 10
2641.840147423527
 20
-289.5340040191363
 30
0.0
  0
VERTEX
  5
3E2
  8
0
 10
2643.397344859295
 20
-289.7959598267514
 30
0.0
  0
VERTEX
  5
3E3
  8
0
 10
2645.076887021044
 20
-289.9528708401313
 30
0.0
  0
VERTEX
  5
3E4
  8
0
 10
2646.815688408486
 20
-289.9988433044149
 30
0.0
  0
VERTEX
  5
3E5
  8
0
 10
2648.548437677896
 20
-289.9321504419276
 30
0.0
  0
VERTEX
  5
3E6
  8
0
 10
2650.210050809936
 20
-289.7552973119
 30
0.0
  0
VERTEX
  5
3E7
  8
0
 10
2651.73811573892
 20
-289.4749267176147
 30
0.0
  0
VERTEX
  5
3E8
  8
0
 10
2653.075236620487
 20
-289.1015696952131
 30
0.0
  0
VERTEX
  5
3E9
  8
0
 10
2654.171189684325
 20
-288.6492499560856
 30
0.0
  0
VERTEX
  5
3EA
  8
0
 10
2654.984809695706
 20
-288.1349571404344
 30
0.0
  0
VERTEX
  5
3EB
  8
0
 10
2655.485536168188
 20
-287.578008667202
 30
0.0
  0
VERTEX
  5
3EC
  8
0
 10
2655.65456125
 20
-286.99932415
 30
0.0
  0
SEQEND
  5
400
  8
0
  0
LINE
  5
1F2
  8
0
 10
2638.4516208
 20
-288.23363764
 30
0.0
 11
2625.28561031
 21
-278.51163414
 31
0.0
  0
POLYLINE
  5
1F3
  8
0
 66
     1
 10
0.0
 20
0.0
 30
0.0
  0
VERTEX
  5
1F4
  8
0
 10
2647.79129978
 20
-289.97529879
 30
0.0
  0
VERTEX
  5
1F5
  8
0
 10
2641.69149121
 20
-285.47109759
 30
0.0
  0
SEQEND
  5
1F6
  8
0
  0
POLYLINE
  5
1F7
  8
0
 66
     1
 10
0.0
 20
0.0
 30
0.0
  0
VERTEX
  5
3ED
  8
0
 10
2641.69149120801
 20
-285.4710975976523
 30
0.0
  0
VERTEX
  5
3EE
  8
0
 10
2640.727433288079
 20
-284.9228230895407
 30
0.0
  0
VERTEX
  5
3EF
  8
0
 10
2639.438532556486
 20
-284.4545417142588
 30
0.0
  0
VERTEX
  5
3F0
  8
0
 10
2637.882628070016
 20
-284.08726746644
 30
0.0
  0
VERTEX
  5
3F1
  8
0
 10
2636.129540603645
 20
-283.8374816743624
 30
0.0
  0
VERTEX
  5
3F2
  8
0
 10
2634.257939462952
 20
-283.7163934049913
 30
0.0
  0
VERTEX
  5
3F3
  8
0
 10
2632.351812221226
 20
-283.7294364602608
 30
0.0
  0
SEQEND
  5
401
  8
0
  0
LINE
  5
1F8
  8
0
 10
2660.43668947
 20
-297.17627934
 30
0.0
 11
2534.15575266
 21
-281.26637676
 31
0.0
  0
LINE
  5
1F9
  8
0
 10
2558.90449001
 20
-259.44004201
 30
0.0
 11
2534.15575266
 21
-281.26637676
 31
0.0
  0
POLYLINE
  5
1FA
  8
0
 66
     1
 10
0.0
 20
0.0
 30
0.0
  0
VERTEX
  5
1FB
  8
0
 10
2558.90449001
 20
-259.44004201
 30
0.0
  0
VERTEX
  5
1FC
  8
0
 10
2685.18542681
 20
-275.34994459
 30
0.0
  0
VERTEX
  5
1FD
  8
0
 10
2660.43668947
 20
-297.17627934
 30
0.0
  0
VERTEX
  5
1FE
  8
0
 10
2660.43668947
 20
-306.60436976
 30
0.0
  0
VERTEX
  5
1FF
  8
0
 10
2534.15575266
 20
-290.69446718
 30
0.0
  0
SEQEND
  5
200
  8
0
  0
LINE
  5
201
  8
0
 10
2534.15575266
 20
-281.26637676
 30
0.0
 11
2534.15575266
 21
-290.69446718
 31
0.0
  0
LINE
  5
202
  8
0
 10
2685.18542681
 20
-284.778035
 30
0.0
 11
2660.43668947
 21
-306.60436976
 31
0.0
  0
LINE
  5
203
  8
0
 10
2685.18542681
 20
-275.34994459
 30
0.0
 11
2685.18542681
 21
-284.778035
 31
0.0
  0
LINE
  5
204
  8
0
  6
STRICHPUNKT2
 62
     1
 10
2633.48855076
 20
-273.03467997
 30
0.0
 11
2633.48855076
 21
-290.94805176
 31
0.0
  0
LINE
  5
205
  8
0
  6
STRICHPUNKT2
 62
     1
 10
2646.65456125
 20
-282.75668347
 30
0.0
 11
2646.65456125
 21
-300.67005526
 31
0.0
  0
LINE
  5
206
  8
0
  6
STRICHPUNKT2
 62
     1
 10
2627.93414009
 20
-273.17585043
 30
0.0
 11
2652.20897192
 21
-291.10079438
 31
0.0
  0
LINE
  5
207
  8
0
  6
STRICHPUNKT2
 62
     1
 10
2621.18414009
 20
-279.12879088
 30
0.0
 11
2645.79296144
 21
-275.42585043
 31
0.0
  0
LINE
  5
208
  8
0
  6
STRICHPUNKT2
 62
     1
 10
2634.35015057
 20
-288.85079438
 30
0.0
 11
2658.95897192
 21
-285.14785393
 31
0.0
  0
LINE
  5
209
  8
0
  6
STRICHPUNKT2
 62
     1
 10
2627.93414009
 20
-282.60394085
 30
0.0
 11
2652.20897192
 21
-300.5288848
 31
0.0
  0
LINE
  5
20A
  8
0
  6
STRICHPUNKT2
 62
     1
 10
2621.18414009
 20
-288.5568813
 30
0.0
 11
2645.79296144
 21
-284.85394085
 31
0.0
  0
LINE
  5
20B
  8
0
  6
STRICHPUNKT2
 62
     1
 10
2634.35015057
 20
-298.2788848
 30
0.0
 11
2658.95897192
 21
-294.57594435
 31
0.0
  0
POLYLINE
  5
20C
  8
0
 66
     1
 10
0.0
 20
0.0
 30
0.0
  0
VERTEX
  5
20D
  8
0
 10
2707.42806098
 20
-127.30084624
 30
0.0
  0
VERTEX
  5
20E
  8
0
 10
2707.42806098
 20
-102.30084624
 30
0.0
  0
VERTEX
  5
20F
  8
0
 10
2697.42806098
 20
-102.30084624
 30
0.0
  0
SEQEND
  5
210
  8
0
  0
LINE
  5
211
  8
0
 10
2697.42806098
 20
-127.30084624
 30
0.0
 11
2697.42806098
 21
-102.30084624
 31
0.0
  0
LINE
  5
212
  8
0
 10
2707.42806098
 20
-127.30084624
 30
0.0
 11
2697.42806098
 21
-127.30084624
 31
0.0
  0
LINE
  5
213
  8
0
  6
STRICHPUNKT2
 62
     1
 10
2694.42806098
 20
-114.30084624
 30
0.0
 11
2710.42806098
 21
-114.30084624
 31
0.0
  0
LINE
  5
214
  8
0
  6
STRICHPUNKT2
 62
     1
 10
2694.92806098
 20
-120.30084624
 30
0.0
 11
2709.92806098
 21
-120.30084624
 31
0.0
  0
LINE
  5
215
  8
0
  6
STRICHPUNKT2
 62
     1
 10
2694.92806098
 20
-120.30084624
 30
0.0
 11
2709.92806098
 21
-120.30084624
 31
0.0
  0
POLYLINE
  5
216
  8
0
 66
     1
 10
0.0
 20
0.0
 30
0.0
  0
VERTEX
  5
217
  8
0
 10
2712.42806098
 20
-132.30084624
 30
0.0
 42
-0.414213562
  0
VERTEX
  5
218
  8
0
 10
2707.42806098
 20
-127.30084624
 30
0.0
  0
VERTEX
  5
219
  8
0
 10
2697.42806098
 20
-127.30084624
 30
0.0
  0
SEQEND
  5
21A
  8
0
  0
ARC
  5
21B
  8
0
 10
2712.42806098
 20
-127.30084624
 30
0.0
 40
15.0
 50
180.0
 51
-90.0
  0
LINE
  5
21C
  8
0
 10
2712.42806098
 20
-132.30084624
 30
0.0
 11
2712.42806098
 21
-142.30084624
 31
0.0
  0
POLYLINE
  5
21D
  8
0
 66
     1
 10
0.0
 20
0.0
 30
0.0
  0
VERTEX
  5
21E
  8
0
 10
2847.42806098
 20
-132.30084624
 30
0.0
  0
VERTEX
  5
21F
  8
0
 10
2712.42806098
 20
-132.30084624
 30
0.0
  0
VERTEX
  5
220
  8
0
 10
2712.42806098
 20
-142.30084624
 30
0.0
  0
SEQEND
  5
221
  8
0
  0
LINE
  5
222
  8
0
 10
2847.42806098
 20
-142.30084624
 30
0.0
 11
2712.42806098
 21
-142.30084624
 31
0.0
  0
LINE
  5
223
  8
0
 10
2847.42806098
 20
-132.30084624
 30
0.0
 11
2847.42806098
 21
-142.30084624
 31
0.0
  0
LINE
  5
224
  8
0
  6
STRICHPUNKT2
 62
     1
 10
2801.11435249
 20
-127.80084624
 30
0.0
 11
2801.11435249
 21
-146.80084624
 31
0.0
  0
LINE
  5
225
  8
0
  6
STRICHPUNKT2
 62
     1
 10
2823.74176948
 20
-127.80084624
 30
0.0
 11
2823.74176948
 21
-146.80084624
 31
0.0
  0
CIRCLE
  5
226
  8
0
 10
2593.34761913
 20
-120.30084624
 30
0.0
 40
5.0
  0
CIRCLE
  5
227
  8
0
 10
2643.34761913
 20
-120.30084624
 30
0.0
 40
5.0
  0
CIRCLE
  5
228
  8
0
 10
2618.34761913
 20
-114.30084624
 30
0.0
 40
6.0
  0
LINE
  5
229
  8
0
 10
2583.34761913
 20
-102.30084624
 30
0.0
 11
2653.34761913
 21
-102.30084624
 31
0.0
  0
LINE
  5
22A
  8
0
 10
2653.34761913
 20
-127.30084624
 30
0.0
 11
2653.34761913
 21
-102.30084624
 31
0.0
  0
LINE
  5
22B
  8
0
 10
2583.34761913
 20
-127.30084624
 30
0.0
 11
2653.34761913
 21
-127.30084624
 31
0.0
  0
LINE
  5
22C
  8
0
 10
2583.34761913
 20
-102.30084624
 30
0.0
 11
2583.34761913
 21
-127.30084624
 31
0.0
  0
LINE
  5
22D
  8
0
  6
STRICHPUNKT2
 62
     1
 10
2618.34761913
 20
-114.30084624
 30
0.0
 11
2609.34761913
 21
-114.30084624
 31
0.0
  0
LINE
  5
22E
  8
0
  6
STRICHPUNKT2
 62
     1
 10
2618.34761913
 20
-114.30084624
 30
0.0
 11
2627.34761913
 21
-114.30084624
 31
0.0
  0
LINE
  5
22F
  8
0
  6
STRICHPUNKT2
 62
     1
 10
2618.34761913
 20
-114.30084624
 30
0.0
 11
2618.34761913
 21
-123.30084624
 31
0.0
  0
LINE
  5
230
  8
0
  6
STRICHPUNKT2
 62
     1
 10
2618.34761913
 20
-114.30084624
 30
0.0
 11
2618.34761913
 21
-105.30084624
 31
0.0
  0
LINE
  5
231
  8
0
  6
STRICHPUNKT2
 62
     1
 10
2618.34761913
 20
-114.30084624
 30
0.0
 11
2609.34761913
 21
-114.30084624
 31
0.0
  0
LINE
  5
232
  8
0
  6
STRICHPUNKT2
 62
     1
 10
2618.34761913
 20
-114.30084624
 30
0.0
 11
2627.34761913
 21
-114.30084624
 31
0.0
  0
LINE
  5
233
  8
0
  6
STRICHPUNKT2
 62
     1
 10
2618.34761913
 20
-114.30084624
 30
0.0
 11
2618.34761913
 21
-123.30084624
 31
0.0
  0
LINE
  5
234
  8
0
  6
STRICHPUNKT2
 62
     1
 10
2618.34761913
 20
-114.30084624
 30
0.0
 11
2618.34761913
 21
-105.30084624
 31
0.0
  0
LINE
  5
235
  8
0
  6
STRICHPUNKT2
 62
     1
 10
2643.34761913
 20
-120.30084624
 30
0.0
 11
2635.84761913
 21
-120.30084624
 31
0.0
  0
LINE
  5
236
  8
0
  6
STRICHPUNKT2
 62
     1
 10
2643.34761913
 20
-120.30084624
 30
0.0
 11
2650.84761913
 21
-120.30084624
 31
0.0
  0
LINE
  5
237
  8
0
  6
STRICHPUNKT2
 62
     1
 10
2643.34761913
 20
-120.30084624
 30
0.0
 11
2643.34761913
 21
-127.80084624
 31
0.0
  0
LINE
  5
238
  8
0
  6
STRICHPUNKT2
 62
     1
 10
2643.34761913
 20
-120.30084624
 30
0.0
 11
2643.34761913
 21
-112.80084624
 31
0.0
  0
LINE
  5
239
  8
0
  6
STRICHPUNKT2
 62
     1
 10
2643.34761913
 20
-120.30084624
 30
0.0
 11
2635.84761913
 21
-120.30084624
 31
0.0
  0
LINE
  5
23A
  8
0
  6
STRICHPUNKT2
 62
     1
 10
2643.34761913
 20
-120.30084624
 30
0.0
 11
2650.84761913
 21
-120.30084624
 31
0.0
  0
LINE
  5
23B
  8
0
  6
STRICHPUNKT2
 62
     1
 10
2643.34761913
 20
-120.30084624
 30
0.0
 11
2643.34761913
 21
-127.80084624
 31
0.0
  0
LINE
  5
23C
  8
0
  6
STRICHPUNKT2
 62
     1
 10
2643.34761913
 20
-120.30084624
 30
0.0
 11
2643.34761913
 21
-112.80084624
 31
0.0
  0
LINE
  5
23D
  8
0
  6
STRICHPUNKT2
 62
     1
 10
2593.34761913
 20
-120.30084624
 30
0.0
 11
2585.84761913
 21
-120.30084624
 31
0.0
  0
LINE
  5
23E
  8
0
  6
STRICHPUNKT2
 62
     1
 10
2593.34761913
 20
-120.30084624
 30
0.0
 11
2600.84761913
 21
-120.30084624
 31
0.0
  0
LINE
  5
23F
  8
0
  6
STRICHPUNKT2
 62
     1
 10
2593.34761913
 20
-120.30084624
 30
0.0
 11
2593.34761913
 21
-127.80084624
 31
0.0
  0
LINE
  5
240
  8
0
  6
STRICHPUNKT2
 62
     1
 10
2593.34761913
 20
-120.30084624
 30
0.0
 11
2593.34761913
 21
-112.80084624
 31
0.0
  0
LINE
  5
241
  8
0
  6
STRICHPUNKT2
 62
     1
 10
2593.34761913
 20
-120.30084624
 30
0.0
 11
2585.84761913
 21
-120.30084624
 31
0.0
  0
LINE
  5
242
  8
0
  6
STRICHPUNKT2
 62
     1
 10
2593.34761913
 20
-120.30084624
 30
0.0
 11
2600.84761913
 21
-120.30084624
 31
0.0
  0
LINE
  5
243
  8
0
  6
STRICHPUNKT2
 62
     1
 10
2593.34761913
 20
-120.30084624
 30
0.0
 11
2593.34761913
 21
-127.80084624
 31
0.0
  0
LINE
  5
244
  8
0
  6
STRICHPUNKT2
 62
     1
 10
2593.34761913
 20
-120.30084624
 30
0.0
 11
2593.34761913
 21
-112.80084624
 31
0.0
  0
LINE
  5
245
  8
0
 10
2583.34761913
 20
-127.30084624
 30
0.0
 11
2653.34761913
 21
-127.30084624
 31
0.0
  0
LINE
  5
246
  8
0
 10
2653.34761913
 20
-142.30084624
 30
0.0
 11
2653.34761913
 21
-127.30084624
 31
0.0
  0
LINE
  5
247
  8
0
 10
2583.34761913
 20
-142.30084624
 30
0.0
 11
2653.34761913
 21
-142.30084624
 31
0.0
  0
LINE
  5
248
  8
0
 10
2583.34761913
 20
-127.30084624
 30
0.0
 11
2583.34761913
 21
-142.30084624
 31
0.0
  0
LINE
  5
249
  8
0
 10
2583.34761913
 20
-142.30084624
 30
0.0
 11
2653.34761913
 21
-142.30084624
 31
0.0
  0
LINE
  5
24A
  8
0
  6
STRICHPUNKT2
 62
     1
 10
2607.03391063
 20
-127.80084624
 30
0.0
 11
2607.03391063
 21
-146.80084624
 31
0.0
  0
LINE
  5
24B
  8
0
  6
STRICHPUNKT2
 62
     1
 10
2629.66132763
 20
-127.80084624
 30
0.0
 11
2629.66132763
 21
-146.80084624
 31
0.0
  0
POLYLINE
  5
24C
  8
0
 66
     1
 10
0.0
 20
0.0
 30
0.0
  0
VERTEX
  5
24D
  8
0
 10
2707.42806098
 20
-165.56951935
 30
0.0
  0
VERTEX
  5
24E
  8
0
 10
2707.42806098
 20
-235.56951935
 30
0.0
  0
VERTEX
  5
24F
  8
0
 10
2697.42806098
 20
-235.56951935
 30
0.0
  0
SEQEND
  5
250
  8
0
  0
LINE
  5
251
  8
0
 10
2697.42806098
 20
-165.56951935
 30
0.0
 11
2697.42806098
 21
-235.56951935
 31
0.0
  0
LINE
  5
252
  8
0
 10
2707.42806098
 20
-165.56951935
 30
0.0
 11
2697.42806098
 21
-165.56951935
 31
0.0
  0
LINE
  5
253
  8
0
  6
STRICHPUNKT2
 62
     1
 10
2694.42806098
 20
-200.56951935
 30
0.0
 11
2710.42806098
 21
-200.56951935
 31
0.0
  0
LINE
  5
254
  8
0
  6
STRICHPUNKT2
 62
     1
 10
2694.92806098
 20
-175.56951935
 30
0.0
 11
2709.92806098
 21
-175.56951935
 31
0.0
  0
LINE
  5
255
  8
0
  6
STRICHPUNKT2
 62
     1
 10
2694.92806098
 20
-225.56951935
 30
0.0
 11
2709.92806098
 21
-225.56951935
 31
0.0
  0
POLYLINE
  5
256
  8
0
 66
     1
 10
0.0
 20
0.0
 30
0.0
  0
VERTEX
  5
257
  8
0
 10
2707.42806098
 20
-165.56951935
 30
0.0
  0
VERTEX
  5
258
  8
0
 10
2712.42806098
 20
-165.56951935
 30
0.0
  0
VERTEX
  5
259
  8
0
 10
2712.42806098
 20
-235.56951935
 30
0.0
  0
VERTEX
  5
25A
  8
0
 10
2707.42806098
 20
-235.56951935
 30
0.0
  0
SEQEND
  5
25B
  8
0
  0
POLYLINE
  5
25C
  8
0
 66
     1
 10
0.0
 20
0.0
 30
0.0
 70
     1
  0
VERTEX
  5
25D
  8
0
 10
2794.75039145
 20
-195.61977188
 30
0.0
 42
-1.0
  0
VERTEX
  5
25E
  8
0
 10
2807.47831352
 20
-182.89184982
 30
0.0
  0
VERTEX
  5
25F
  8
0
 10
2830.10573051
 20
-205.51926682
 30
0.0
 42
-1.0
  0
VERTEX
  5
260
  8
0
 10
2817.37780845
 20
-218.24718888
 30
0.0
  0
SEQEND
  5
261
  8
0
  0
LINE
  5
262
  8
0
 10
2847.42806098
 20
-235.56951935
 30
0.0
 11
2712.42806098
 21
-235.56951935
 31
0.0
  0
LINE
  5
263
  8
0
 10
2712.42806098
 20
-165.56951935
 30
0.0
 11
2712.42806098
 21
-235.56951935
 31
0.0
  0
POLYLINE
  5
264
  8
0
 66
     1
 10
0.0
 20
0.0
 30
0.0
  0
VERTEX
  5
265
  8
0
 10
2712.42806098
 20
-165.56951935
 30
0.0
  0
VERTEX
  5
266
  8
0
 10
2847.42806098
 20
-165.56951935
 30
0.0
  0
VERTEX
  5
267
  8
0
 10
2847.42806098
 20
-235.56951935
 30
0.0
  0
SEQEND
  5
268
  8
0
  0
LINE
  5
269
  8
0
  6
STRICHPUNKT2
 62
     1
 10
2791.56841094
 20
-179.70986931
 30
0.0
 11
2833.28771103
 21
-221.4291694
 31
0.0
  0
LINE
  5
26A
  8
0
  6
STRICHPUNKT2
 62
     1
 10
2791.56841094
 20
-198.8017524
 30
0.0
 11
2810.66029403
 21
-179.70986931
 31
0.0
  0
LINE
  5
26B
  8
0
  6
STRICHPUNKT2
 62
     1
 10
2814.19582794
 20
-221.4291694
 30
0.0
 11
2833.28771103
 21
-202.3372863
 31
0.0
  0
LINE
  5
26C
  8
0
  6
STRICHPUNKT2
 62
     1
 10
2791.56841094
 20
-179.70986931
 30
0.0
 11
2833.28771103
 21
-221.4291694
 31
0.0
  0
LINE
  5
26D
  8
0
  6
STRICHPUNKT2
 62
     1
 10
2791.56841094
 20
-198.8017524
 30
0.0
 11
2810.66029403
 21
-179.70986931
 31
0.0
  0
LINE
  5
26E
  8
0
  6
STRICHPUNKT2
 62
     1
 10
2814.19582794
 20
-221.4291694
 30
0.0
 11
2833.28771103
 21
-202.3372863
 31
0.0
  0
TEXT
  5
26F
  8
TXT_DIM49
 10
2685.92806098
 20
-124.15568628
 30
0.0
 40
2.5
  1
40
 50
90.00020741
  7
ARIAL
  0
LINE
  5
270
  8
0
 62
     4
 10
2688.42806098
 20
-103.30084624
 30
0.0
 11
2686.42806098
 21
-101.30084624
 31
0.0
  0
LINE
  5
271
  8
0
 62
     4
 10
2686.67806098
 20
-141.55084624
 30
0.0
 11
2688.17806098
 21
-143.05084624
 31
0.0
  0
LINE
  5
272
  8
0
 62
     4
 10
2687.42806098
 20
-102.30084624
 30
0.0
 11
2687.42806098
 21
-142.30084624
 31
0.0
  0
LINE
  5
273
  8
0
 62
     4
 10
2689.42806098
 20
-102.30084624
 30
0.0
 11
2685.42806098
 21
-102.30084624
 31
0.0
  0
LINE
  5
274
  8
0
 62
     4
 10
2689.42806098
 20
-142.30084624
 30
0.0
 11
2685.42806098
 21
-142.30084624
 31
0.0
  0
TEXT
  5
275
  8
TXT_DIM49
 10
2769.64576576
 20
-149.95327578
 30
0.0
 40
2.5
  1
150
  7
ARIAL
  0
LINE
  5
276
  8
0
 62
     4
 10
2698.42806098
 20
-150.45327578
 30
0.0
 11
2696.42806098
 21
-152.45327578
 31
0.0
  0
LINE
  5
277
  8
0
 62
     4
 10
2846.67806098
 20
-152.20327578
 30
0.0
 11
2848.17806098
 21
-150.70327578
 31
0.0
  0
LINE
  5
278
  8
0
 62
     4
 10
2697.42806098
 20
-151.45327578
 30
0.0
 11
2847.42806098
 21
-151.45327578
 31
0.0
  0
LINE
  5
279
  8
0
 62
     4
 10
2697.42806098
 20
-149.45327578
 30
0.0
 11
2697.42806098
 21
-153.45327578
 31
0.0
  0
LINE
  5
27A
  8
0
 62
     4
 10
2847.42806098
 20
-149.45327578
 30
0.0
 11
2847.42806098
 21
-153.45327578
 31
0.0
  0
TEXT
  5
27B
  8
TXT_DIM49
 10
2855.92806098
 20
-139.15568628
 30
0.0
 40
2.5
  1
10
 50
90.00020741
  7
ARIAL
  0
LINE
  5
27C
  8
0
 62
     4
 10
2858.42806098
 20
-133.30084624
 30
0.0
 11
2856.42806098
 21
-131.30084624
 31
0.0
  0
LINE
  5
27D
  8
0
 62
     4
 10
2856.67806098
 20
-141.55084624
 30
0.0
 11
2858.17806098
 21
-143.05084624
 31
0.0
  0
LINE
  5
27E
  8
0
 62
     4
 10
2857.42806098
 20
-132.30084624
 30
0.0
 11
2857.42806098
 21
-142.30084624
 31
0.0
  0
LINE
  5
27F
  8
0
 62
     4
 10
2855.42806098
 20
-132.30084624
 30
0.0
 11
2859.42806098
 21
-132.30084624
 31
0.0
  0
LINE
  5
280
  8
0
 62
     4
 10
2855.42806098
 20
-142.30084624
 30
0.0
 11
2859.42806098
 21
-142.30084624
 31
0.0
  0
TEXT
  5
281
  8
TXT_DIM49
 10
2700.57322094
 20
-90.83979811
 30
0.0
 40
2.5
  1
10
  7
ARIAL
  0
LINE
  5
282
  8
0
 62
     4
 10
2698.42806098
 20
-91.33979811
 30
0.0
 11
2696.42806098
 21
-93.33979811
 31
0.0
  0
LINE
  5
283
  8
0
 62
     4
 10
2706.67806098
 20
-93.08979811
 30
0.0
 11
2708.17806098
 21
-91.58979811
 31
0.0
  0
LINE
  5
284
  8
0
 62
     4
 10
2697.42806098
 20
-92.33979811
 30
0.0
 11
2707.42806098
 21
-92.33979811
 31
0.0
  0
LINE
  5
285
  8
0
 62
     4
 10
2697.42806098
 20
-94.33979811
 30
0.0
 11
2697.42806098
 21
-90.33979811
 31
0.0
  0
LINE
  5
286
  8
0
 62
     4
 10
2707.42806098
 20
-94.33979811
 30
0.0
 11
2707.42806098
 21
-90.33979811
 31
0.0
  0
TEXT
  5
287
  8
TXT_DIM49
 10
2586.49277909
 20
-96.30114633
 30
0.0
 40
2.5
  1
10
  7
ARIAL
  0
LINE
  5
288
  8
0
 62
     4
 10
2584.34761913
 20
-96.80114633
 30
0.0
 11
2582.34761913
 21
-98.80114633
 31
0.0
  0
LINE
  5
289
  8
0
 62
     4
 10
2592.59761913
 20
-98.55114633
 30
0.0
 11
2594.09761913
 21
-97.05114633
 31
0.0
  0
LINE
  5
28A
  8
0
 62
     4
 10
2583.34761913
 20
-97.80114633
 30
0.0
 11
2593.34761913
 21
-97.80114633
 31
0.0
  0
LINE
  5
28B
  8
0
 62
     4
 10
2583.34761913
 20
-99.80114633
 30
0.0
 11
2583.34761913
 21
-95.80114633
 31
0.0
  0
LINE
  5
28C
  8
0
 62
     4
 10
2593.34761913
 20
-99.80114633
 30
0.0
 11
2593.34761913
 21
-95.80114633
 31
0.0
  0
TEXT
  5
28D
  8
TXT_DIM49
 10
2603.99274381
 20
-96.30114633
 30
0.0
 40
2.5
  1
25
  7
ARIAL
  0
LINE
  5
28E
  8
0
 62
     4
 10
2594.34761913
 20
-96.80114633
 30
0.0
 11
2592.34761913
 21
-98.80114633
 31
0.0
  0
LINE
  5
28F
  8
0
 62
     4
 10
2617.59761913
 20
-98.55114633
 30
0.0
 11
2619.09761913
 21
-97.05114633
 31
0.0
  0
LINE
  5
290
  8
0
 62
     4
 10
2593.34761913
 20
-97.80114633
 30
0.0
 11
2618.34761913
 21
-97.80114633
 31
0.0
  0
LINE
  5
291
  8
0
 62
     4
 10
2593.34761913
 20
-99.80114633
 30
0.0
 11
2593.34761913
 21
-95.80114633
 31
0.0
  0
LINE
  5
292
  8
0
 62
     4
 10
2618.34761913
 20
-99.80114633
 30
0.0
 11
2618.34761913
 21
-95.80114633
 31
0.0
  0
TEXT
  5
293
  8
TXT_DIM49
 10
2628.99274381
 20
-96.30114633
 30
0.0
 40
2.5
  1
25
  7
ARIAL
  0
LINE
  5
294
  8
0
 62
     4
 10
2619.34761913
 20
-96.80114633
 30
0.0
 11
2617.34761913
 21
-98.80114633
 31
0.0
  0
LINE
  5
295
  8
0
 62
     4
 10
2642.59761913
 20
-98.55114633
 30
0.0
 11
2644.09761913
 21
-97.05114633
 31
0.0
  0
LINE
  5
296
  8
0
 62
     4
 10
2618.34761913
 20
-97.80114633
 30
0.0
 11
2643.34761913
 21
-97.80114633
 31
0.0
  0
LINE
  5
297
  8
0
 62
     4
 10
2618.34761913
 20
-99.80114633
 30
0.0
 11
2618.34761913
 21
-95.80114633
 31
0.0
  0
LINE
  5
298
  8
0
 62
     4
 10
2643.34761913
 20
-99.80114633
 30
0.0
 11
2643.34761913
 21
-95.80114633
 31
0.0
  0
TEXT
  5
299
  8
TXT_DIM49
 10
2646.49277909
 20
-96.30114633
 30
0.0
 40
2.5
  1
10
  7
ARIAL
  0
LINE
  5
29A
  8
0
 62
     4
 10
2644.34761913
 20
-96.80114633
 30
0.0
 11
2642.34761913
 21
-98.80114633
 31
0.0
  0
LINE
  5
29B
  8
0
 62
     4
 10
2652.59761913
 20
-98.55114633
 30
0.0
 11
2654.09761913
 21
-97.05114633
 31
0.0
  0
LINE
  5
29C
  8
0
 62
     4
 10
2643.34761913
 20
-97.80114633
 30
0.0
 11
2653.34761913
 21
-97.80114633
 31
0.0
  0
LINE
  5
29D
  8
0
 62
     4
 10
2643.34761913
 20
-99.80114633
 30
0.0
 11
2643.34761913
 21
-95.80114633
 31
0.0
  0
LINE
  5
29E
  8
0
 62
     4
 10
2653.34761913
 20
-99.80114633
 30
0.0
 11
2653.34761913
 21
-95.80114633
 31
0.0
  0
TEXT
  5
29F
  8
TXT_DIM49
 10
2577.6899787
 20
-110.15568628
 30
0.0
 40
2.5
  1
12
 50
90.00020741
  7
ARIAL
  0
LINE
  5
2A0
  8
0
 62
     4
 10
2580.1899787
 20
-103.30084624
 30
0.0
 11
2578.1899787
 21
-101.30084624
 31
0.0
  0
LINE
  5
2A1
  8
0
 62
     4
 10
2578.4399787
 20
-113.55084624
 30
0.0
 11
2579.9399787
 21
-115.05084624
 31
0.0
  0
LINE
  5
2A2
  8
0
 62
     4
 10
2579.1899787
 20
-102.30084624
 30
0.0
 11
2579.1899787
 21
-114.30084624
 31
0.0
  0
LINE
  5
2A3
  8
0
 62
     4
 10
2581.1899787
 20
-102.30084624
 30
0.0
 11
2577.1899787
 21
-102.30084624
 31
0.0
  0
LINE
  5
2A4
  8
0
 62
     4
 10
2581.1899787
 20
-114.30084624
 30
0.0
 11
2577.1899787
 21
-114.30084624
 31
0.0
  0
TEXT
  5
2A5
  8
TXT_DIM49
 10
2577.6899787
 20
-118.22826626
 30
0.0
 40
2.5
  1
6
 50
90.00020741
  7
ARIAL
  0
LINE
  5
2A6
  8
0
 62
     4
 10
2580.1899787
 20
-115.30084624
 30
0.0
 11
2578.1899787
 21
-113.30084624
 31
0.0
  0
LINE
  5
2A7
  8
0
 62
     4
 10
2578.4399787
 20
-119.55084624
 30
0.0
 11
2579.9399787
 21
-121.05084624
 31
0.0
  0
LINE
  5
2A8
  8
0
 62
     4
 10
2579.1899787
 20
-114.30084624
 30
0.0
 11
2579.1899787
 21
-120.30084624
 31
0.0
  0
LINE
  5
2A9
  8
0
 62
     4
 10
2581.1899787
 20
-114.30084624
 30
0.0
 11
2577.1899787
 21
-114.30084624
 31
0.0
  0
LINE
  5
2AA
  8
0
 62
     4
 10
2581.1899787
 20
-120.30084624
 30
0.0
 11
2577.1899787
 21
-120.30084624
 31
0.0
  0
TEXT
  5
2AB
  8
TXT_DIM49
 10
2577.6899787
 20
-133.15568628
 30
0.0
 40
2.5
  1
22
 50
90.00020741
  7
ARIAL
  0
LINE
  5
2AC
  8
0
 62
     4
 10
2580.1899787
 20
-121.30084624
 30
0.0
 11
2578.1899787
 21
-119.30084624
 31
0.0
  0
LINE
  5
2AD
  8
0
 62
     4
 10
2578.4399787
 20
-141.55084624
 30
0.0
 11
2579.9399787
 21
-143.05084624
 31
0.0
  0
LINE
  5
2AE
  8
0
 62
     4
 10
2579.1899787
 20
-120.30084624
 30
0.0
 11
2579.1899787
 21
-142.30084624
 31
0.0
  0
LINE
  5
2AF
  8
0
 62
     4
 10
2581.1899787
 20
-120.30084624
 30
0.0
 11
2577.1899787
 21
-120.30084624
 31
0.0
  0
LINE
  5
2B0
  8
0
 62
     4
 10
2581.1899787
 20
-142.30084624
 30
0.0
 11
2577.1899787
 21
-142.30084624
 31
0.0
  0
TEXT
  5
2B1
  8
TXT_DIM49
 10
2616.49274381
 20
-147.10769546
 30
0.0
 40
2.5
  1
70
  7
ARIAL
  0
LINE
  5
2B2
  8
0
 62
     4
 10
2584.34761913
 20
-147.60769546
 30
0.0
 11
2582.34761913
 21
-149.60769546
 31
0.0
  0
LINE
  5
2B3
  8
0
 62
     4
 10
2652.59761913
 20
-149.35769546
 30
0.0
 11
2654.09761913
 21
-147.85769546
 31
0.0
  0
LINE
  5
2B4
  8
0
 62
     4
 10
2583.34761913
 20
-148.60769546
 30
0.0
 11
2653.34761913
 21
-148.60769546
 31
0.0
  0
LINE
  5
2B5
  8
0
 62
     4
 10
2583.34761913
 20
-146.60769546
 30
0.0
 11
2583.34761913
 21
-150.60769546
 31
0.0
  0
LINE
  5
2B6
  8
0
 62
     4
 10
2653.34761913
 20
-146.60769546
 30
0.0
 11
2653.34761913
 21
-150.60769546
 31
0.0
  0
LINE
  5
2B7
  8
0
 62
     5
 10
2593.34761913
 20
-115.30084624
 30
0.0
 11
2591.04663299
 21
-112.30078185
 31
0.0
  0
TEXT
  5
2B8
  8
TXT_DIM49
 10
2584.76299127
 20
-113.55078185
 30
0.0
 40
2.5
  1
Ø10
  7
ARIAL
  0
LINE
  5
2B9
  8
0
 62
     5
 10
2618.34761913
 20
-108.30084624
 30
0.0
 11
2614.81004434
 21
-106.71532768
 31
0.0
  0
TEXT
  5
2BA
  8
TXT_DIM49
 10
2608.52640262
 20
-107.96532768
 30
0.0
 40
2.5
  1
Ø12
  7
ARIAL
  0
LINE
  5
2BB
  8
0
 62
     5
 10
2643.34761913
 20
-115.30084624
 30
0.0
 11
2639.993128
 21
-112.49013557
 31
0.0
  0
TEXT
  5
2BC
  8
TXT_DIM49
 10
2633.70948628
 20
-113.74013557
 30
0.0
 40
2.5
  1
Ø10
  7
ARIAL
  0
TEXT
  5
2BD
  8
TXT_DIM49
 10
2833.73007519
 20
-159.28260354
 30
0.0
 40
2.5
  1
24
  7
ARIAL
  0
LINE
  5
2BE
  8
0
 62
     4
 10
2846.42806098
 20
-161.78260354
 30
0.0
 11
2848.42806098
 21
-159.78260354
 31
0.0
  0
LINE
  5
2BF
  8
0
 62
     4
 10
2824.49176948
 20
-160.03260354
 30
0.0
 11
2822.99176948
 21
-161.53260354
 31
0.0
  0
LINE
  5
2C0
  8
0
 62
     4
 10
2847.42806098
 20
-160.78260354
 30
0.0
 11
2823.74176948
 21
-160.78260354
 31
0.0
  0
LINE
  5
2C1
  8
0
 62
     4
 10
2847.42806098
 20
-162.78260354
 30
0.0
 11
2847.42806098
 21
-158.78260354
 31
0.0
  0
LINE
  5
2C2
  8
0
 62
     4
 10
2823.74176948
 20
-162.78260354
 30
0.0
 11
2823.74176948
 21
-158.78260354
 31
0.0
  0
TEXT
  5
2C3
  8
TXT_DIM49
 10
2810.57322094
 20
-159.28260354
 30
0.0
 40
2.5
  1
23
  7
ARIAL
  0
LINE
  5
2C4
  8
0
 62
     4
 10
2822.74176948
 20
-161.78260354
 30
0.0
 11
2824.74176948
 21
-159.78260354
 31
0.0
  0
LINE
  5
2C5
  8
0
 62
     4
 10
2801.86435249
 20
-160.03260354
 30
0.0
 11
2800.36435249
 21
-161.53260354
 31
0.0
  0
LINE
  5
2C6
  8
0
 62
     4
 10
2823.74176948
 20
-160.78260354
 30
0.0
 11
2801.11435249
 21
-160.78260354
 31
0.0
  0
LINE
  5
2C7
  8
0
 62
     4
 10
2823.74176948
 20
-162.78260354
 30
0.0
 11
2823.74176948
 21
-158.78260354
 31
0.0
  0
LINE
  5
2C8
  8
0
 62
     4
 10
2801.11435249
 20
-162.78260354
 30
0.0
 11
2801.11435249
 21
-158.78260354
 31
0.0
  0
TEXT
  5
2C9
  8
TXT_DIM49
 10
2746.48894679
 20
-159.28260354
 30
0.0
 40
2.5
  1
104
  7
ARIAL
  0
LINE
  5
2CA
  8
0
 62
     4
 10
2800.11435249
 20
-161.78260354
 30
0.0
 11
2802.11435249
 21
-159.78260354
 31
0.0
  0
LINE
  5
2CB
  8
0
 62
     4
 10
2698.17806098
 20
-160.03260354
 30
0.0
 11
2696.67806098
 21
-161.53260354
 31
0.0
  0
LINE
  5
2CC
  8
0
 62
     4
 10
2801.11435249
 20
-160.78260354
 30
0.0
 11
2697.42806098
 21
-160.78260354
 31
0.0
  0
LINE
  5
2CD
  8
0
 62
     4
 10
2801.11435249
 20
-162.78260354
 30
0.0
 11
2801.11435249
 21
-158.78260354
 31
0.0
  0
LINE
  5
2CE
  8
0
 62
     4
 10
2697.42806098
 20
-162.78260354
 30
0.0
 11
2697.42806098
 21
-158.78260354
 31
0.0
  0
TEXT
  5
2CF
  8
TXT_DIM49
 10
2853.43481102
 20
-179.26750514
 30
0.0
 40
2.5
  1
24
 50
90.00020741
  7
ARIAL
  0
LINE
  5
2D0
  8
0
 62
     4
 10
2855.93481102
 20
-166.56951935
 30
0.0
 11
2853.93481102
 21
-164.56951935
 31
0.0
  0
LINE
  5
2D1
  8
0
 62
     4
 10
2854.18481102
 20
-188.50581085
 30
0.0
 11
2855.68481102
 21
-190.00581085
 31
0.0
  0
LINE
  5
2D2
  8
0
 62
     4
 10
2854.93481102
 20
-165.56951935
 30
0.0
 11
2854.93481102
 21
-189.25581085
 31
0.0
  0
LINE
  5
2D3
  8
0
 62
     4
 10
2852.93481102
 20
-165.56951935
 30
0.0
 11
2856.93481102
 21
-165.56951935
 31
0.0
  0
LINE
  5
2D4
  8
0
 62
     4
 10
2852.93481102
 20
-189.25581085
 30
0.0
 11
2856.93481102
 21
-189.25581085
 31
0.0
  0
TEXT
  5
2D5
  8
TXT_DIM49
 10
2853.43481102
 20
-202.42435939
 30
0.0
 40
2.5
  1
23
 50
90.00020741
  7
ARIAL
  0
LINE
  5
2D6
  8
0
 62
     4
 10
2855.93481102
 20
-190.25581085
 30
0.0
 11
2853.93481102
 21
-188.25581085
 31
0.0
  0
LINE
  5
2D7
  8
0
 62
     4
 10
2854.18481102
 20
-211.13322785
 30
0.0
 11
2855.68481102
 21
-212.63322785
 31
0.0
  0
LINE
  5
2D8
  8
0
 62
     4
 10
2854.93481102
 20
-189.25581085
 30
0.0
 11
2854.93481102
 21
-211.88322785
 31
0.0
  0
LINE
  5
2D9
  8
0
 62
     4
 10
2852.93481102
 20
-189.25581085
 30
0.0
 11
2856.93481102
 21
-189.25581085
 31
0.0
  0
LINE
  5
2DA
  8
0
 62
     4
 10
2852.93481102
 20
-211.88322785
 30
0.0
 11
2856.93481102
 21
-211.88322785
 31
0.0
  0
TEXT
  5
2DB
  8
TXT_DIM49
 10
2853.43481102
 20
-225.58121364
 30
0.0
 40
2.5
  1
24
 50
90.00020741
  7
ARIAL
  0
LINE
  5
2DC
  8
0
 62
     4
 10
2855.93481102
 20
-212.88322785
 30
0.0
 11
2853.93481102
 21
-210.88322785
 31
0.0
  0
LINE
  5
2DD
  8
0
 62
     4
 10
2854.18481102
 20
-234.81951935
 30
0.0
 11
2855.68481102
 21
-236.31951935
 31
0.0
  0
LINE
  5
2DE
  8
0
 62
     4
 10
2854.93481102
 20
-211.88322785
 30
0.0
 11
2854.93481102
 21
-235.56951935
 31
0.0
  0
LINE
  5
2DF
  8
0
 62
     4
 10
2852.93481102
 20
-211.88322785
 30
0.0
 11
2856.93481102
 21
-211.88322785
 31
0.0
  0
LINE
  5
2E0
  8
0
 62
     4
 10
2852.93481102
 20
-235.56951935
 30
0.0
 11
2856.93481102
 21
-235.56951935
 31
0.0
  0
LINE
  5
2E1
  8
0
 62
     5
 10
2806.06409995
 20
-206.93348038
 30
0.0
 11
2796.5629714
 21
-209.59514892
 31
0.0
  0
TEXT
  5
2E2
  8
TXT_DIM49
 10
2773.49170172
 20
-210.84514892
 30
0.0
 40
2.5
  1
Slobgat 18 x 50
  7
ARIAL
  0
ENDSEC
  0
EOF
