  0
SECTION
  2
HEADER
  9
$ACADVER
  1
AC1018
  9
$ACADMAINTVER
 70
     0
  9
$DWGCODEPAGE
  3
ANSI_1252
  9
$LASTSAVEDBY
  1
cloudconvert
  9
$INSBASE
 10
0.0
 20
0.0
 30
0.0
  9
$EXTMIN
 10
-78.49965697
 20
-328.72795978
 30
0.0
  9
$EXTMAX
 10
707.77033622
 20
49.94704022
 30
0.0
  9
$LIMMIN
 10
-78.49965697
 20
-328.72795978
  9
$LIMMAX
 10
707.77033622
 20
49.94704022
  9
$ORTHOMODE
 70
     0
  9
$REGENMODE
 70
     1
  9
$FILLMODE
 70
     1
  9
$QTEXTMODE
 70
     0
  9
$MIRRTEXT
 70
     1
  9
$LTSCALE
 40
1.0
  9
$ATTMODE
 70
     1
  9
$TEXTSIZE
 40
1.0
  9
$TRACEWID
 40
0.05
  9
$TEXTSTYLE
  7
STANDARD
  9
$CLAYER
  8
0
  9
$CELTYPE
  6
ByBlock
  9
$CECOLOR
 62
   256
  9
$CELTSCALE
 40
1.0
  9
$DISPSILH
 70
     0
  9
$DIMSCALE
 40
1.0
  9
$DIMASZ
 40
0.18
  9
$DIMEXO
 40
0.0625
  9
$DIMDLI
 40
0.38
  9
$DIMRND
 40
0.0
  9
$DIMDLE
 40
0.0
  9
$DIMEXE
 40
0.18
  9
$DIMTP
 40
0.0
  9
$DIMTM
 40
0.0
  9
$DIMTXT
 40
0.18
  9
$DIMCEN
 40
0.09
  9
$DIMTSZ
 40
0.0
  9
$DIMTOL
 70
     0
  9
$DIMLIM
 70
     0
  9
$DIMTIH
 70
     1
  9
$DIMTOH
 70
     1
  9
$DIMSE1
 70
     0
  9
$DIMSE2
 70
     0
  9
$DIMTAD
 70
     0
  9
$DIMZIN
 70
     0
  9
$DIMBLK
  1

  9
$DIMASO
 70
     1
  9
$DIMSHO
 70
     1
  9
$DIMPOST
  1

  9
$DIMAPOST
  1

  9
$DIMALT
 70
     0
  9
$DIMALTD
 70
     2
  9
$DIMALTF
 40
25.4
  9
$DIMLFAC
 40
1.0
  9
$DIMTOFL
 70
     0
  9
$DIMTVP
 40
0.0
  9
$DIMTIX
 70
     0
  9
$DIMSOXD
 70
     0
  9
$DIMSAH
 70
     0
  9
$DIMBLK1
  1

  9
$DIMBLK2
  1

  9
$DIMSTYLE
  2
ISO-25
  9
$DIMCLRD
 70
     0
  9
$DIMCLRE
 70
     0
  9
$DIMCLRT
 70
     0
  9
$DIMTFAC
 40
1.0
  9
$DIMGAP
 40
0.09
  9
$DIMJUST
 70
     0
  9
$DIMSD1
 70
     0
  9
$DIMSD2
 70
     0
  9
$DIMTOLJ
 70
     1
  9
$DIMTZIN
 70
     0
  9
$DIMALTZ
 70
     0
  9
$DIMALTTZ
 70
     0
  9
$DIMUPT
 70
     0
  9
$DIMDEC
 70
     4
  9
$DIMTDEC
 70
     4
  9
$DIMALTU
 70
     2
  9
$DIMALTTD
 70
     2
  9
$DIMTXSTY
  7
STANDARD
  9
$DIMAUNIT
 70
     0
  9
$DIMADEC
 70
     0
  9
$DIMALTRND
 40
0.0
  9
$DIMAZIN
 70
     0
  9
$DIMDSEP
 70
    46
  9
$DIMATFIT
 70
     3
  9
$DIMFRAC
 70
     0
  9
$DIMLDRBLK
  1

  9
$DIMLUNIT
 70
     2
  9
$DIMLWD
 70
    -2
  9
$DIMLWE
 70
    -2
  9
$DIMTMOVE
 70
     0
  9
$LUNITS
 70
     2
  9
$LUPREC
 70
     4
  9
$SKETCHINC
 40
0.1
  9
$FILLETRAD
 40
0.0
  9
$AUNITS
 70
     0
  9
$AUPREC
 70
     0
  9
$MENU
  1
.
  9
$ELEVATION
 40
0.0
  9
$PELEVATION
 40
0.0
  9
$THICKNESS
 40
0.0
  9
$LIMCHECK
 70
     0
  9
$CHAMFERA
 40
0.0
  9
$CHAMFERB
 40
0.0
  9
$CHAMFERC
 40
0.0
  9
$CHAMFERD
 40
0.0
  9
$SKPOLY
 70
     0
  9
$TDCREATE
 40
2447893.0
  9
$TDUCREATE
 40
0.0
  9
$TDUPDATE
 40
2460791.333991979
  9
$TDUUPDATE
 40
2460791.333991979
  9
$TDINDWG
 40
0.0
  9
$TDUSRTIMER
 40
0.0
  9
$USRTIMER
 70
     1
  9
$ANGBASE
 50
0.0
  9
$ANGDIR
 70
     0
  9
$PDMODE
 70
     0
  9
$PDSIZE
 40
0.0
  9
$PLINEWID
 40
0.0
  9
$SPLFRAME
 70
     0
  9
$SPLINETYPE
 70
     6
  9
$SPLINESEGS
 70
     8
  9
$HANDSEED
  5
46F
  9
$SURFTAB1
 70
     6
  9
$SURFTAB2
 70
     6
  9
$SURFTYPE
 70
     6
  9
$SURFU
 70
     6
  9
$SURFV
 70
     6
  9
$UCSBASE
  2

  9
$UCSNAME
  2

  9
$UCSORG
 10
0.0
 20
0.0
 30
0.0
  9
$UCSXDIR
 10
1.0
 20
0.0
 30
0.0
  9
$UCSYDIR
 10
0.0
 20
1.0
 30
0.0
  9
$UCSORTHOREF
  2

  9
$UCSORTHOVIEW
 70
     0
  9
$UCSORGTOP
 10
0.0
 20
0.0
 30
0.0
  9
$UCSORGBOTTOM
 10
0.0
 20
0.0
 30
0.0
  9
$UCSORGLEFT
 10
0.0
 20
0.0
 30
0.0
  9
$UCSORGRIGHT
 10
0.0
 20
0.0
 30
0.0
  9
$UCSORGFRONT
 10
0.0
 20
0.0
 30
0.0
  9
$UCSORGBACK
 10
0.0
 20
0.0
 30
0.0
  9
$PUCSBASE
  2

  9
$PUCSNAME
  2

  9
$PUCSORG
 10
0.0
 20
0.0
 30
0.0
  9
$PUCSXDIR
 10
1.0
 20
0.0
 30
0.0
  9
$PUCSYDIR
 10
0.0
 20
1.0
 30
0.0
  9
$PUCSORTHOREF
  2

  9
$PUCSORTHOVIEW
 70
     0
  9
$PUCSORGTOP
 10
0.0
 20
0.0
 30
0.0
  9
$PUCSORGBOTTOM
 10
0.0
 20
0.0
 30
0.0
  9
$PUCSORGLEFT
 10
0.0
 20
0.0
 30
0.0
  9
$PUCSORGRIGHT
 10
0.0
 20
0.0
 30
0.0
  9
$PUCSORGFRONT
 10
0.0
 20
0.0
 30
0.0
  9
$PUCSORGBACK
 10
0.0
 20
0.0
 30
0.0
  9
$USERI1
 70
     0
  9
$USERI2
 70
     0
  9
$USERI3
 70
     0
  9
$USERI4
 70
     0
  9
$USERI5
 70
     0
  9
$USERR1
 40
0.0
  9
$USERR2
 40
0.0
  9
$USERR3
 40
0.0
  9
$USERR4
 40
0.0
  9
$USERR5
 40
0.0
  9
$WORLDVIEW
 70
     1
  9
$SHADEDGE
 70
     3
  9
$SHADEDIF
 70
    70
  9
$TILEMODE
 70
     1
  9
$MAXACTVP
 70
    64
  9
$PINSBASE
 10
0.0
 20
0.0
 30
0.0
  9
$PLIMCHECK
 70
     0
  9
$PEXTMIN
 10
1.000000000000000E+20
 20
1.000000000000000E+20
 30
1.000000000000000E+20
  9
$PEXTMAX
 10
-1.000000000000000E+20
 20
-1.000000000000000E+20
 30
-1.000000000000000E+20
  9
$PLIMMIN
 10
0.0
 20
0.0
  9
$PLIMMAX
 10
12.0
 20
9.0
  9
$UNITMODE
 70
     0
  9
$VISRETAIN
 70
     0
  9
$PLINEGEN
 70
     0
  9
$PSLTSCALE
 70
     1
  9
$TREEDEPTH
 70
  3020
  9
$CMLSTYLE
  2
Standard
  9
$CMLJUST
 70
     0
  9
$CMLSCALE
 40
1.0
  9
$PROXYGRAPHICS
 70
     1
  9
$MEASUREMENT
 70
     1
  9
$CELWEIGHT
370
    -1
  9
$ENDCAPS
280
     0
  9
$JOINSTYLE
280
     0
  9
$LWDISPLAY
290
     0
  9
$INSUNITS
 70
     4
  9
$HYPERLINKBASE
  1

  9
$STYLESHEET
  1

  9
$XEDIT
290
     1
  9
$CEPSNTYPE
380
     0
  9
$PSTYLEMODE
290
     1
  9
$FINGERPRINTGUID
  2
{2d2023cc-6745-4c25-a8da-c6a44a789e13}
  9
$VERSIONGUID
  2
{FAEB1C32-E019-11D5-929B-00C0DF256EC4}
  9
$EXTNAMES
290
     1
  9
$PSVPSCALE
 40
0.0
  9
$OLESTARTUP
290
     0
  9
$SORTENTS
280
   127
  9
$INDEXCTL
280
     0
  9
$HIDETEXT
280
     1
  9
$XCLIPFRAME
290
     0
  9
$HALOGAP
280
     0
  9
$OBSCOLOR
 70
   257
  9
$OBSLTYPE
280
     0
  9
$INTERSECTIONDISPLAY
280
     0
  9
$INTERSECTIONCOLOR
 70
   257
  9
$DIMASSOC
280
     2
  9
$PROJECTNAME
  1

  0
ENDSEC
  0
SECTION
  2
CLASSES
  0
CLASS
  1
DICTIONARYVAR
  2
AcDbDictionaryVar
  3
ObjectDBX Classes
 90
        0
 91
        3
280
     0
281
     0
  0
CLASS
  1
ACDBDICTIONARYWDFLT
  2
AcDbDictionaryWithDefault
  3
ObjectDBX Classes
 90
        0
 91
        3
280
     0
281
     0
  0
CLASS
  1
SCALE
  2
AcDbScale
  3
ObjectDBX Classes
 90
     1153
 91
        3
280
     0
281
     0
  0
CLASS
  1
VISUALSTYLE
  2
AcDbVisualStyle
  3
ObjectDBX Classes
 90
     4095
 91
        3
280
     0
281
     0
  0
CLASS
  1
MATERIAL
  2
AcDbMaterial
  3
ObjectDBX Classes
 90
     1153
 91
        3
280
     0
281
     0
  0
CLASS
  1
TABLESTYLE
  2
AcDbTableStyle
  3
ObjectDBX Classes
 90
     4095
 91
        3
280
     0
281
     0
  0
CLASS
  1
MLEADERSTYLE
  2
AcDbMLeaderStyle
  3
ACDB_MLEADERSTYLE_CLASS
 90
     4095
 91
        3
280
     0
281
     0
  0
CLASS
  1
CELLSTYLEMAP
  2
AcDbCellStyleMap
  3
ObjectDBX Classes
 90
     1152
 91
        3
280
     0
281
     0
  0
ENDSEC
  0
SECTION
  2
TABLES
  0
TABLE
  2
VPORT
  5
1
102
{ACAD_XDICTIONARY
360
428
102
}
330
0
100
AcDbSymbolTable
 70
     1
  0
VPORT
  5
2
330
1
100
AcDbSymbolTableRecord
100
AcDbViewportTableRecord
  2
*Active
 70
     0
 10
0.0
 20
0.0
 11
1.0
 21
1.0
 12
314.63533963
 22
-139.39045978
 13
0.0
 23
0.0
 14
1.0
 24
1.0
 15
0.0
 25
0.0
 16
0.0
 26
0.0
 36
1.0
 17
0.0
 27
0.0
 37
0.0
 40
378.675
 41
2.076371541
 42
50.0
 43
0.0
 44
0.0
 50
0.0
 51
0.0
 71
     0
 72
   100
 73
     1
 74
     1
 75
     0
 76
     0
 77
     0
 78
     0
281
     0
 65
     1
110
0.0
120
0.0
130
0.0
111
1.0
121
0.0
131
0.0
112
0.0
122
1.0
132
0.0
 79
     0
146
0.0
  0
ENDTAB
  0
TABLE
  2
LTYPE
  5
3
330
0
100
AcDbSymbolTable
 70
    19
  0
LTYPE
  5
4
330
3
100
AcDbSymbolTableRecord
100
AcDbLinetypeTableRecord
  2
ByBlock
 70
     0
  3

 72
    65
 73
     0
 40
0.0
  0
LTYPE
  5
5
330
3
100
AcDbSymbolTableRecord
100
AcDbLinetypeTableRecord
  2
ByLayer
 70
     0
  3

 72
    65
 73
     0
 40
0.0
  0
LTYPE
  5
6
330
3
100
AcDbSymbolTableRecord
100
AcDbLinetypeTableRecord
  2
CONTINUOUS
 70
     0
  3
Solid line
 72
    65
 73
     0
 40
0.0
  0
LTYPE
  5
7
330
3
100
AcDbSymbolTableRecord
100
AcDbLinetypeTableRecord
  2
DOT
 70
     0
  3
..............
 72
    65
 73
     2
 40
2.0
 49
0.5
 74
     0
 49
-1.5
 74
     0
  0
LTYPE
  5
8
330
3
100
AcDbSymbolTableRecord
100
AcDbLinetypeTableRecord
  2
HIDDEN
 70
     0
  3
-- -- -- -- --
 72
    65
 73
     2
 40
7.0
 49
4.0
 74
     0
 49
-3.0
 74
     0
  0
LTYPE
  5
9
330
3
100
AcDbSymbolTableRecord
100
AcDbLinetypeTableRecord
  2
DASHDOT
 70
     0
  3
--.--.--.--.--
 72
    65
 73
     4
 40
8.5
 49
4.0
 74
     0
 49
-2.0
 74
     0
 49
0.5
 74
     0
 49
-2.0
 74
     0
  0
LTYPE
  5
A
330
3
100
AcDbSymbolTableRecord
100
AcDbLinetypeTableRecord
  2
STRICHPUNKT2
 70
     0
  3
--.--.--.--.--
 72
    65
 73
     4
 40
18.5
 49
10.0
 74
     0
 49
-4.0
 74
     0
 49
0.5
 74
     0
 49
-4.0
 74
     0
  0
LTYPE
  5
B
330
3
100
AcDbSymbolTableRecord
100
AcDbLinetypeTableRecord
  2
STRICHPUNKT3
 70
     0
  3
--.--.--.--.--
 72
    65
 73
     4
 40
35.5
 49
25.0
 74
     0
 49
-5.0
 74
     0
 49
0.5
 74
     0
 49
-5.0
 74
     0
  0
LTYPE
  5
13F
330
3
100
AcDbSymbolTableRecord
100
AcDbLinetypeTableRecord
  2
PHANTOM
 70
     0
  3
--..--..--..--
 72
    65
 73
     6
 40
23.0
 49
10.0
 74
     0
 49
-4.0
 74
     0
 49
0.5
 74
     0
 49
-4.0
 74
     0
 49
0.5
 74
     0
 49
-4.0
 74
     0
  0
LTYPE
  5
140
330
3
100
AcDbSymbolTableRecord
100
AcDbLinetypeTableRecord
  2
PHANTOM2
 70
     0
  3
--..--..--..--
 72
    65
 73
     6
 40
33.0
 49
20.0
 74
     0
 49
-4.0
 74
     0
 49
0.5
 74
     0
 49
-4.0
 74
     0
 49
0.5
 74
     0
 49
-4.0
 74
     0
  0
LTYPE
  5
141
330
3
100
AcDbSymbolTableRecord
100
AcDbLinetypeTableRecord
  2
PHANTOM3
 70
     0
  3
--..--..--..--
 72
    65
 73
     6
 40
50.0
 49
37.0
 74
     0
 49
-4.0
 74
     0
 49
0.5
 74
     0
 49
-4.0
 74
     0
 49
0.5
 74
     0
 49
-4.0
 74
     0
  0
LTYPE
  5
142
330
3
100
AcDbSymbolTableRecord
100
AcDbLinetypeTableRecord
  2
STR3PKT
 70
     0
  3
--...--...--...
 72
    65
 73
     8
 40
31.5
 49
20.0
 74
     0
 49
-2.5
 74
     0
 49
0.5
 74
     0
 49
-2.5
 74
     0
 49
0.5
 74
     0
 49
-2.5
 74
     0
 49
0.5
 74
     0
 49
-2.5
 74
     0
  0
LTYPE
  5
143
330
3
100
AcDbSymbolTableRecord
100
AcDbLinetypeTableRecord
  2
2STRPKT
 70
     0
  3
--.--.--.--.--
 72
    65
 73
     6
 40
28.0
 49
10.0
 74
     0
 49
-2.5
 74
     0
 49
10.0
 74
     0
 49
-2.5
 74
     0
 49
0.5
 74
     0
 49
-2.5
 74
     0
  0
LTYPE
  5
144
330
3
100
AcDbSymbolTableRecord
100
AcDbLinetypeTableRecord
  2
GESTRICHELT2
 70
     0
  3
-- -- -- -- --
 72
    65
 73
     2
 40
25.0
 49
10.0
 74
     0
 49
-15.0
 74
     0
  0
LTYPE
  5
145
330
3
100
AcDbSymbolTableRecord
100
AcDbLinetypeTableRecord
  2
2STR2PKT
 70
     0
  3
--..--..--..--
 72
    65
 73
     8
 40
31.0
 49
10.0
 74
     0
 49
-2.5
 74
     0
 49
10.0
 74
     0
 49
-2.5
 74
     0
 49
0.5
 74
     0
 49
-2.5
 74
     0
 49
0.5
 74
     0
 49
-2.5
 74
     0
  0
LTYPE
  5
146
330
3
100
AcDbSymbolTableRecord
100
AcDbLinetypeTableRecord
  2
STR3PKT2
 70
     0
  3
--...--...--...
 72
    65
 73
     8
 40
21.0
 49
10.0
 74
     0
 49
-2.5
 74
     0
 49
0.5
 74
     0
 49
-2.5
 74
     0
 49
0.5
 74
     0
 49
-2.5
 74
     0
 49
0.5
 74
     0
 49
-2.0
 74
     0
  0
LTYPE
  5
147
330
3
100
AcDbSymbolTableRecord
100
AcDbLinetypeTableRecord
  2
2STR3PKT
 70
     0
  3
--...--...--...
 72
    65
 73
    10
 40
34.0
 49
10.0
 74
     0
 49
-2.5
 74
     0
 49
10.0
 74
     0
 49
-2.5
 74
     0
 49
0.5
 74
     0
 49
-2.5
 74
     0
 49
0.5
 74
     0
 49
-2.5
 74
     0
 49
0.5
 74
     0
 49
-2.5
 74
     0
  0
LTYPE
  5
148
330
3
100
AcDbSymbolTableRecord
100
AcDbLinetypeTableRecord
  2
STRKSTR
 70
     0
  3
-- - -- - -- -
 72
    65
 73
     4
 40
30.0
 49
20.0
 74
     0
 49
-2.5
 74
     0
 49
5.0
 74
     0
 49
-2.5
 74
     0
  0
LTYPE
  5
149
330
3
100
AcDbSymbolTableRecord
100
AcDbLinetypeTableRecord
  2
STRKSTR2
 70
     0
  3
-- - -- - -- -
 72
    65
 73
     6
 40
37.5
 49
20.0
 74
     0
 49
-2.5
 74
     0
 49
5.0
 74
     0
 49
-2.5
 74
     0
 49
5.0
 74
     0
 49
-2.5
 74
     0
  0
LTYPE
  5
14A
330
3
100
AcDbSymbolTableRecord
100
AcDbLinetypeTableRecord
  2
STRKSTR3
 70
     0
  3
-- - -- - -- -
 72
    65
 73
     8
 40
45.0
 49
20.0
 74
     0
 49
-2.5
 74
     0
 49
5.0
 74
     0
 49
-2.5
 74
     0
 49
5.0
 74
     0
 49
-2.5
 74
     0
 49
5.0
 74
     0
 49
-2.5
 74
     0
  0
LTYPE
  5
14B
330
3
100
AcDbSymbolTableRecord
100
AcDbLinetypeTableRecord
  2
PUNKT2
 70
     0
  3
..............
 72
    65
 73
     2
 40
3.5
 49
0.5
 74
     0
 49
-3.0
 74
     0
  0
ENDTAB
  0
TABLE
  2
LAYER
  5
14C
330
0
100
AcDbSymbolTable
 70
    16
  0
LAYER
  5
14D
330
14C
100
AcDbSymbolTableRecord
100
AcDbLayerTableRecord
  2
0
 70
     0
 62
     7
  6
CONTINUOUS
370
    -3
390
3F4
  0
LAYER
  5
14E
330
14C
100
AcDbSymbolTableRecord
100
AcDbLayerTableRecord
  2
LE_GREEN
 70
     0
 62
     3
  6
CONTINUOUS
370
    -3
390
3F4
  0
LAYER
  5
14F
330
14C
100
AcDbSymbolTableRecord
100
AcDbLayerTableRecord
  2
LE_RED
 70
     0
 62
     1
  6
CONTINUOUS
370
    -3
390
3F4
  0
LAYER
  5
150
330
14C
100
AcDbSymbolTableRecord
100
AcDbLayerTableRecord
  2
LE_ALL
 70
     0
 62
     7
  6
CONTINUOUS
370
    50
390
3F4
  0
LAYER
  5
151
330
14C
100
AcDbSymbolTableRecord
100
AcDbLayerTableRecord
  2
LE_HIDDEN1
 70
     0
 62
     3
  6
HIDDEN
370
    -3
390
3F4
  0
LAYER
  5
152
330
14C
100
AcDbSymbolTableRecord
100
AcDbLayerTableRecord
  2
LE_HIDDEN
 70
     0
 62
     7
  6
CONTINUOUS
370
    -3
390
3F4
  0
LAYER
  5
153
330
14C
100
AcDbSymbolTableRecord
100
AcDbLayerTableRecord
  2
LE_MIDDLE
 70
     0
 62
     7
  6
CONTINUOUS
370
    -3
390
3F4
  0
LAYER
  5
154
330
14C
100
AcDbSymbolTableRecord
100
AcDbLayerTableRecord
  2
TXT_YELLOW
 70
     0
 62
     2
  6
CONTINUOUS
370
    -3
390
3F4
  0
LAYER
  5
155
330
14C
100
AcDbSymbolTableRecord
100
AcDbLayerTableRecord
  2
TXT_DIM49
 70
     0
 62
     2
  6
CONTINUOUS
370
    -3
390
3F4
  0
LAYER
  5
156
330
14C
100
AcDbSymbolTableRecord
100
AcDbLayerTableRecord
  2
TXT_ALL
 70
     0
 62
     7
  6
CONTINUOUS
370
    -3
390
3F4
  0
LAYER
  5
157
330
14C
100
AcDbSymbolTableRecord
100
AcDbLayerTableRecord
  2
DIM49
 70
     0
 62
     4
  6
CONTINUOUS
370
    -3
390
3F4
  0
LAYER
  5
158
330
14C
100
AcDbSymbolTableRecord
100
AcDbLayerTableRecord
  2
HATCH
 70
     0
 62
     3
  6
CONTINUOUS
370
    -3
390
3F4
  0
LAYER
  5
159
330
14C
100
AcDbSymbolTableRecord
100
AcDbLayerTableRecord
  2
APPLE
 70
     0
 62
     7
  6
CONTINUOUS
370
    -3
390
3F4
  0
LAYER
  5
15A
330
14C
100
AcDbSymbolTableRecord
100
AcDbLayerTableRecord
  2
10
 70
     0
 62
     7
  6
CONTINUOUS
370
    -3
390
3F4
  0
LAYER
  5
15B
330
14C
100
AcDbSymbolTableRecord
100
AcDbLayerTableRecord
  2
20
 70
     0
 62
     7
  6
CONTINUOUS
370
    -3
390
3F4
  0
LAYER
  5
15C
330
14C
100
AcDbSymbolTableRecord
100
AcDbLayerTableRecord
  2
49
 70
     0
 62
     7
  6
CONTINUOUS
370
    -3
390
3F4
  0
ENDTAB
  0
TABLE
  2
STYLE
  5
15D
330
0
100
AcDbSymbolTable
 70
     5
  0
STYLE
  5
15E
330
15D
100
AcDbSymbolTableRecord
100
AcDbTextStyleTableRecord
  2
MONOTXT
 70
     0
 40
0.0
 41
1.0
 50
0.0
 71
     0
 42
1.0
  3
monotxt.shx
  4

  0
STYLE
  5
15F
330
15D
100
AcDbSymbolTableRecord
100
AcDbTextStyleTableRecord
  2
STANDARD
 70
     0
 40
0.0
 41
1.0
 50
0.0
 71
     0
 42
1.0
  3
txt
  4

  0
STYLE
  5
160
330
15D
100
AcDbSymbolTableRecord
100
AcDbTextStyleTableRecord
  2
ARIAL
 70
     0
 40
0.0
 41
1.0
 50
0.0
 71
     0
 42
1.0
  3
arial.ttf
  4

  0
STYLE
  5
161
330
15D
100
AcDbSymbolTableRecord
100
AcDbTextStyleTableRecord
  2
ARIAL Narrow
 70
     0
 40
0.0
 41
1.0
 50
0.0
 71
     0
 42
1.0
  3
ArialN.ttf
  4

  0
STYLE
  5
162
330
15D
100
AcDbSymbolTableRecord
100
AcDbTextStyleTableRecord
  2
ISOCPEUR
 70
     0
 40
0.0
 41
1.0
 50
0.0
 71
     0
 42
1.0
  3
ISOCPEUR.ttf
  4

  0
ENDTAB
  0
TABLE
  2
VIEW
  5
163
330
0
100
AcDbSymbolTable
 70
     0
  0
ENDTAB
  0
TABLE
  2
UCS
  5
164
330
0
100
AcDbSymbolTable
 70
     0
  0
ENDTAB
  0
TABLE
  2
APPID
  5
165
330
0
100
AcDbSymbolTable
 70
     2
  0
APPID
  5
166
330
165
100
AcDbSymbolTableRecord
100
AcDbRegAppTableRecord
  2
ACAD
 70
     0
  0
APPID
  5
466
330
165
100
AcDbSymbolTableRecord
100
AcDbRegAppTableRecord
  2
ACAD_MLEADERVER
 70
     0
  0
ENDTAB
  0
TABLE
  2
DIMSTYLE
  5
167
330
0
100
AcDbSymbolTable
 70
     1
100
AcDbDimStyleTable
  0
DIMSTYLE
105
3F1
330
167
100
AcDbSymbolTableRecord
100
AcDbDimStyleTableRecord
  2
ISO-25
 70
     0
 41
2.5
 42
0.625
 43
3.75
 44
1.25
 73
     0
 74
     0
 77
     1
 78
     8
140
2.5
141
2.5
143
0.03937007874016
147
0.625
171
     3
172
     1
178
     0
271
     2
272
     2
274
     3
278
    44
283
     0
284
     8
340
15F
  0
ENDTAB
  0
TABLE
  2
BLOCK_RECORD
  5
168
330
0
100
AcDbSymbolTable
 70
     0
  0
BLOCK_RECORD
  5
1E
330
168
100
AcDbSymbolTableRecord
100
AcDbBlockTableRecord
  2
*Model_Space
340
21
  0
BLOCK_RECORD
  5
1A
330
168
100
AcDbSymbolTableRecord
100
AcDbBlockTableRecord
  2
*Paper_Space
340
1D
  0
ENDTAB
  0
ENDSEC
  0
SECTION
  2
BLOCKS
  0
BLOCK
  5
169
330
1E
100
AcDbEntity
  8
0
100
AcDbBlockBegin
  2
*Model_Space
 70
     0
 10
0.0
 20
0.0
 30
0.0
  3
*Model_Space
  1

  0
ENDBLK
  5
16A
330
1E
100
AcDbEntity
  8
0
100
AcDbBlockEnd
  0
BLOCK
  5
16B
330
1A
100
AcDbEntity
 67
     1
  8
0
100
AcDbBlockBegin
  2
*Paper_Space
 70
     0
 10
0.0
 20
0.0
 30
0.0
  3
*Paper_Space
  1

  0
ENDBLK
  5
16C
330
1A
100
AcDbEntity
 67
     1
  8
0
100
AcDbBlockEnd
  0
ENDSEC
  0
SECTION
  2
ENTITIES
  0
POLYLINE
  5
16D
330
1E
100
AcDbEntity
  8
0
100
AcDb2dPolyline
 66
     1
 10
0.0
 20
0.0
 30
0.0
 70
     1
  0
VERTEX
  5
16E
330
16D
100
AcDbEntity
  8
0
100
AcDbVertex
100
AcDb2dVertex
 10
63.01401468
 20
-294.18983383
 30
0.0
  0
VERTEX
  5
16F
330
16D
100
AcDbEntity
  8
0
100
AcDbVertex
100
AcDb2dVertex
 10
483.01401468
 20
-294.18983383
 30
0.0
  0
VERTEX
  5
170
330
16D
100
AcDbEntity
  8
0
100
AcDbVertex
100
AcDb2dVertex
 10
483.01401468
 20
2.81016617
 30
0.0
  0
VERTEX
  5
171
330
16D
100
AcDbEntity
  8
0
100
AcDbVertex
100
AcDb2dVertex
 10
63.01401468
 20
2.81016617
 30
0.0
  0
SEQEND
  5
172
330
16D
100
AcDbEntity
  8
0
  0
POLYLINE
  5
173
330
1E
100
AcDbEntity
  8
0
100
AcDb2dPolyline
 66
     1
 10
0.0
 20
0.0
 30
0.0
 70
     1
  0
VERTEX
  5
174
330
173
100
AcDbEntity
  8
0
100
AcDbVertex
100
AcDb2dVertex
 10
68.01401468
 20
-289.18983383
 30
0.0
  0
VERTEX
  5
175
330
173
100
AcDbEntity
  8
0
100
AcDbVertex
100
AcDb2dVertex
 10
478.01401468
 20
-289.18983383
 30
0.0
  0
VERTEX
  5
176
330
173
100
AcDbEntity
  8
0
100
AcDbVertex
100
AcDb2dVertex
 10
478.01401468
 20
-2.18983383
 30
0.0
  0
VERTEX
  5
177
330
173
100
AcDbEntity
  8
0
100
AcDbVertex
100
AcDb2dVertex
 10
68.01401468
 20
-2.18983383
 30
0.0
  0
SEQEND
  5
178
330
173
100
AcDbEntity
  8
0
  0
LINE
  5
179
330
1E
100
AcDbEntity
  8
0
100
AcDbLine
 10
293.01401468
 20
-289.18983383
 30
0.0
 11
293.01401468
 21
-294.18983383
 31
0.0
  0
LINE
  5
17A
330
1E
100
AcDbEntity
  8
0
100
AcDbLine
 10
293.01401468
 20
-2.18983383
 30
0.0
 11
293.01401468
 21
2.81016617
 31
0.0
  0
LINE
  5
17B
330
1E
100
AcDbEntity
  8
0
100
AcDbLine
 10
83.01401468
 20
-289.18983383
 30
0.0
 11
83.01401468
 21
-294.18983383
 31
0.0
  0
LINE
  5
17C
330
1E
100
AcDbEntity
  8
0
100
AcDbLine
 10
83.01401468
 20
-2.18983383
 30
0.0
 11
83.01401468
 21
2.81016617
 31
0.0
  0
TEXT
  5
17D
330
1E
100
AcDbEntity
  8
TXT_ALL
 62
     4
100
AcDbText
 10
482.01401468
 20
-293.18983383
 30
0.0
 40
2.5
  1

 50
90.00020741
100
AcDbText
  0
POLYLINE
  5
17E
330
1E
100
AcDbEntity
  8
0
100
AcDb2dPolyline
 66
     1
 10
0.0
 20
0.0
 30
0.0
  0
VERTEX
  5
17F
330
17E
100
AcDbEntity
  8
0
100
AcDbVertex
100
AcDb2dVertex
 10
478.01401468
 20
-12.18983383
 30
0.0
  0
VERTEX
  5
180
330
17E
100
AcDbEntity
  8
0
100
AcDbVertex
100
AcDb2dVertex
 10
409.02071468
 20
-12.18983383
 30
0.0
  0
VERTEX
  5
181
330
17E
100
AcDbEntity
  8
0
100
AcDbVertex
100
AcDb2dVertex
 10
409.02071468
 20
-2.18983383
 30
0.0
  0
SEQEND
  5
182
330
17E
100
AcDbEntity
  8
0
  0
LINE
  5
183
330
1E
100
AcDbEntity
  8
0
100
AcDbLine
 10
410.92401468
 20
-269.68983383
 30
0.0
 11
271.03401468
 21
-269.68983383
 31
0.0
  0
LINE
  5
184
330
1E
100
AcDbEntity
  8
0
100
AcDbLine
 10
271.03401468
 20
-279.43983383
 30
0.0
 11
410.92401468
 21
-279.43983383
 31
0.0
  0
POLYLINE
  5
185
330
1E
100
AcDbEntity
  8
0
100
AcDb2dPolyline
 66
     1
 10
0.0
 20
0.0
 30
0.0
  0
VERTEX
  5
186
330
185
100
AcDbEntity
  8
0
100
AcDbVertex
100
AcDb2dVertex
 10
271.03401468
 20
-269.68983383
 30
0.0
  0
VERTEX
  5
187
330
185
100
AcDbEntity
  8
0
100
AcDbVertex
100
AcDb2dVertex
 10
271.03401468
 20
-279.43983383
 30
0.0
  0
VERTEX
  5
188
330
185
100
AcDbEntity
  8
0
100
AcDbVertex
100
AcDb2dVertex
 10
271.03401468
 20
-289.18983383
 30
0.0
  0
SEQEND
  5
189
330
185
100
AcDbEntity
  8
0
  0
POLYLINE
  5
18A
330
1E
100
AcDbEntity
  8
0
100
AcDb2dPolyline
 66
     1
 10
0.0
 20
0.0
 30
0.0
  0
VERTEX
  5
18B
330
18A
100
AcDbEntity
  8
0
100
AcDbVertex
100
AcDb2dVertex
 10
340.97901468
 20
-269.68983383
 30
0.0
  0
VERTEX
  5
18C
330
18A
100
AcDbEntity
  8
0
100
AcDbVertex
100
AcDb2dVertex
 10
340.97901468
 20
-279.43983383
 30
0.0
  0
VERTEX
  5
18D
330
18A
100
AcDbEntity
  8
0
100
AcDbVertex
100
AcDb2dVertex
 10
340.97901468
 20
-289.18983383
 30
0.0
  0
SEQEND
  5
18E
330
18A
100
AcDbEntity
  8
0
  0
TEXT
  5
18F
330
1E
100
AcDbEntity
  8
TXT_ALL
100
AcDbText
 10
273.03401468
 20
-275.86483378
 30
0.0
 40
2.5999999
  1
E-mail: verkoop@jonkers-bouwmetaal.nl
  7
ARIAL
 11
273.03401468
 21
-274.56483383
 31
0.0
100
AcDbText
 73
     2
  0
TEXT
  5
190
330
1E
100
AcDbEntity
  8
TXT_ALL
100
AcDbText
 10
273.03401468
 20
-285.61483378
 30
0.0
 40
2.5999999
  1
Telefoon: 0527-685156
  7
ARIAL
 11
273.03401468
 21
-284.31483383
 31
0.0
100
AcDbText
 73
     2
  0
TEXT
  5
191
330
1E
100
AcDbEntity
  8
TXT_ALL
100
AcDbText
 10
342.97901468
 20
-285.61483378
 30
0.0
 40
2.5999999
  1
Website: www.jonkers-bouwmetaal.nl
  7
ARIAL
 11
342.97901468
 21
-284.31483383
 31
0.0
100
AcDbText
 73
     2
  0
TEXT
  5
192
330
1E
100
AcDbEntity
  8
TXT_ALL
100
AcDbText
 10
342.97901468
 20
-275.86483378
 30
0.0
 40
2.5999999
  1
Adres: Hoornse Hop 10, 8321 WX Urk
  7
ARIAL
 11
342.97901468
 21
-274.56483383
 31
0.0
100
AcDbText
 73
     2
  0
TEXT
  5
193
330
1E
100
AcDbEntity
  8
TXT_ALL
100
AcDbText
 10
71.45597493
 20
-8.439833830000001
 30
0.0
 40
2.5
  1
Art. nr. 91009032
  7
ARIAL
 11
71.45597493
 21
-7.18983383
 31
0.0
100
AcDbText
 73
     2
  0
TEXT
  5
194
330
1E
100
AcDbEntity
  8
TXT_ALL
100
AcDbText
 10
114.19401175
 20
-8.439833830000001
 30
0.0
 40
2.5
  1
Omschrijving: F14-anker 400x275 80x8
  7
ARIAL
 11
114.19401175
 21
-7.18983383
 31
0.0
100
AcDbText
 73
     2
  0
LINE
  5
195
330
1E
100
AcDbEntity
  8
0
100
AcDbLine
 10
478.01401468
 20
-12.18983383
 30
0.0
 11
68.01401468
 21
-12.18983383
 31
0.0
  0
LINE
  5
196
330
1E
100
AcDbEntity
  8
0
100
AcDbLine
 10
111.03401468
 20
-12.18983383
 30
0.0
 11
111.03401468
 21
-2.18983383
 31
0.0
  0
LINE
  5
197
330
1E
100
AcDbEntity
  8
0
100
AcDbLine
 10
271.03401468
 20
-12.18983383
 30
0.0
 11
271.03401468
 21
-2.18983383
 31
0.0
  0
TEXT
  5
198
330
1E
100
AcDbEntity
  8
TXT_ALL
100
AcDbText
 10
342.02771468
 20
-8.439833830000001
 30
0.0
 40
2.5
  1
Behandeling: Thermisch Verzinkt
  7
ARIAL
 11
342.02771468
 21
-7.18983383
 31
0.0
100
AcDbText
 73
     2
  0
LINE
  5
199
330
1E
100
AcDbEntity
  8
0
100
AcDbLine
 10
410.92401468
 20
-269.68983383
 30
0.0
 11
478.01401468
 21
-269.68983383
 31
0.0
  0
LINE
  5
19A
330
1E
100
AcDbEntity
  8
0
100
AcDbLine
 10
410.92401468
 20
-289.18983383
 30
0.0
 11
410.92401468
 21
-269.68983383
 31
0.0
  0
LINE
  5
19B
330
1E
100
AcDbEntity
  8
0
100
AcDbLine
 10
410.92401468
 20
-289.18983383
 30
0.0
 11
410.92401468
 21
-269.68983383
 31
0.0
  0
TEXT
  5
19C
330
1E
100
AcDbEntity
  8
TXT_ALL
100
AcDbText
 10
205.37921277
 20
-288.03530041
 30
0.0
 40
2.5
  1

 11
205.37921277
 21
-286.78530041
 31
0.0
100
AcDbText
 73
     2
  0
TEXT
  5
19D
330
1E
100
AcDbEntity
  8
TXT_ALL
100
AcDbText
 10
326.51439574
 20
-277.93983383
 30
0.0
 40
2.5
  1

 11
326.51439574
 21
-276.68983383
 31
0.0
100
AcDbText
 73
     2
  0
POLYLINE
  5
19E
330
1E
100
AcDbEntity
  8
0
100
AcDb2dPolyline
 66
     1
 10
0.0
 20
0.0
 30
0.0
  0
VERTEX
  5
19F
330
19E
100
AcDbEntity
  8
0
100
AcDbVertex
100
AcDb2dVertex
 10
409.02071468
 20
-12.18983383
 30
0.0
  0
VERTEX
  5
1A0
330
19E
100
AcDbEntity
  8
0
100
AcDbVertex
100
AcDb2dVertex
 10
340.02771468
 20
-12.18983383
 30
0.0
  0
VERTEX
  5
1A1
330
19E
100
AcDbEntity
  8
0
100
AcDbVertex
100
AcDb2dVertex
 10
340.02771468
 20
-2.18983383
 30
0.0
  0
SEQEND
  5
1A2
330
19E
100
AcDbEntity
  8
0
  0
TEXT
  5
1A3
330
1E
100
AcDbEntity
  8
TXT_ALL
100
AcDbText
 10
411.02071468
 20
-8.439833830000001
 30
0.0
 40
2.5
  1
Verpakkingshoeveelheid: 1 st.
  7
ARIAL
 11
411.02071468
 21
-7.18983383
 31
0.0
100
AcDbText
 73
     2
  0
TEXT
  5
1A4
330
1E
100
AcDbEntity
  8
TXT_ALL
100
AcDbText
 10
273.03401468
 20
-8.439833830000001
 30
0.0
 40
2.5
  1
Materiaal: S355
  7
ARIAL
 11
273.03401468
 21
-7.18983383
 31
0.0
100
AcDbText
 73
     2
  0
TEXT
  5
1A5
330
1E
100
AcDbEntity
  8
TXT_ALL
100
AcDbText
 10
446.1305001
 20
-292.43934368
 30
0.0
 40
1.5
  1
Onderdeel van
  7
ARIAL
 11
446.1305001
 21
-291.68934368
 31
0.0
100
AcDbText
 73
     2
  0
ELLIPSE
  5
1A6
330
1E
100
AcDbEntity
  8
0
100
AcDbEllipse
 10
113.92519609
 20
-258.20025891
 30
0.0
 11
1.75
 21
0.0
 31
0.0
210
0.0
220
0.0
230
1.0
 40
0.33333333
 41
3.14159265
 42
4.35102186
  0
ELLIPSE
  5
1A7
330
1E
100
AcDbEntity
  8
0
100
AcDbEllipse
 10
113.92519609
 20
-258.20025891
 30
0.0
 11
1.75
 21
0.0
 31
0.0
210
0.0
220
0.0
230
1.0
 40
0.33333333
 41
1.2094292
 42
3.14159265
  0
POLYLINE
  5
1A8
330
1E
100
AcDbEntity
  8
0
100
AcDb2dPolyline
 66
     1
 10
0.0
 20
0.0
 30
0.0
  0
VERTEX
  5
1A9
330
1A8
100
AcDbEntity
  8
0
100
AcDbVertex
100
AcDb2dVertex
 10
114.54391452
 20
-257.65460054
 30
0.0
  0
VERTEX
  5
1AA
330
1A8
100
AcDbEntity
  8
0
100
AcDbVertex
100
AcDb2dVertex
 10
120.62410777
 20
-258.42063289
 30
0.0
  0
SEQEND
  5
1AB
330
1A8
100
AcDbEntity
  8
0
  0
ELLIPSE
  5
1AC
330
1E
100
AcDbEntity
  8
0
100
AcDbEllipse
 10
120.00538934
 20
-258.96629126
 30
0.0
 11
1.75
 21
0.0
 31
0.0
210
0.0
220
0.0
230
1.0
 40
0.33333333
 41
0.0
 42
1.2094292
  0
ELLIPSE
  5
1AD
330
1E
100
AcDbEntity
  8
0
100
AcDbEllipse
 10
120.00538934
 20
-258.96629126
 30
0.0
 11
1.75
 21
0.0
 31
0.0
210
0.0
220
0.0
230
1.0
 40
0.33333333
 41
4.35102186
 42
6.283185307179586
  0
LINE
  5
1AE
330
1E
100
AcDbEntity
  8
0
100
AcDbLine
 10
119.38667091
 20
-259.51194963
 30
0.0
 11
113.30647765
 21
-258.74591728
 31
0.0
  0
ELLIPSE
  5
1AF
330
1E
100
AcDbEntity
  8
0
100
AcDbEllipse
 10
175.42868938
 20
-265.94897072
 30
0.0
 11
1.75
 21
0.0
 31
0.0
210
0.0
220
0.0
230
1.0
 40
0.33333333
 41
0.0
 42
3.14159265
  0
ELLIPSE
  5
1B0
330
1E
100
AcDbEntity
  8
0
100
AcDbEllipse
 10
175.42868938
 20
-265.94897072
 30
0.0
 11
1.75
 21
0.0
 31
0.0
210
0.0
220
0.0
230
1.0
 40
0.33333333
 41
3.14159265
 42
6.283185307179586
  0
ELLIPSE
  5
1B1
330
1E
100
AcDbEntity
  8
0
100
AcDbEllipse
 10
152.04333072
 20
-263.00269247
 30
0.0
 11
1.75
 21
0.0
 31
0.0
210
0.0
220
0.0
230
1.0
 40
0.33333333
 41
0.0
 42
3.14159265
  0
ELLIPSE
  5
1B2
330
1E
100
AcDbEntity
  8
0
100
AcDbEllipse
 10
152.04333072
 20
-263.00269247
 30
0.0
 11
1.75
 21
0.0
 31
0.0
210
0.0
220
0.0
230
1.0
 40
0.33333333
 41
3.14159265
 42
6.283185307179586
  0
ELLIPSE
  5
1B3
330
1E
100
AcDbEntity
  8
0
100
AcDbEllipse
 10
99.07549333
 20
-256.32937222
 30
0.0
 11
1.75
 21
0.0
 31
0.0
210
0.0
220
0.0
230
1.0
 40
0.33333333
 41
0.0
 42
3.14159265
  0
ELLIPSE
  5
1B4
330
1E
100
AcDbEntity
  8
0
100
AcDbEllipse
 10
99.07549333
 20
-256.32937222
 30
0.0
 11
1.75
 21
0.0
 31
0.0
210
0.0
220
0.0
230
1.0
 40
0.33333333
 41
3.14159265
 42
6.283185307179586
  0
LINE
  5
1B5
330
1E
100
AcDbEntity
  8
0
100
AcDbLine
 10
178.90876308
 20
-269.95090202
 30
0.0
 11
89.10898579
 21
-258.63719352
 31
0.0
  0
LINE
  5
1B6
330
1E
100
AcDbEntity
  8
0
100
AcDbLine
 10
96.18005361
 20
-252.40109788
 30
0.0
 11
89.10898579
 21
-258.63719352
 31
0.0
  0
LINE
  5
1B7
330
1E
100
AcDbEntity
  8
0
100
AcDbLine
 10
153.97922643
 20
-259.68310918
 30
0.0
 11
185.97983089
 21
-263.71480638
 31
0.0
  0
LINE
  5
1B8
330
1E
100
AcDbEntity
  8
0
100
AcDbLine
 10
96.18005361
 20
-252.40109788
 30
0.0
 11
103.84176175
 21
-253.36638237
 31
0.0
  0
LINE
  5
1B9
330
1E
100
AcDbEntity
  8
0
100
AcDbLine
 10
112.78365826
 20
-254.49295544
 30
0.0
 11
137.97377651
 21
-257.66661203
 31
0.0
  0
POLYLINE
  5
1BA
330
1E
100
AcDbEntity
  8
0
100
AcDb2dPolyline
 66
     1
 10
0.0
 20
0.0
 30
0.0
  0
VERTEX
  5
1BB
330
1BA
100
AcDbEntity
  8
0
100
AcDbVertex
100
AcDb2dVertex
 10
185.97983089
 20
-263.71480638
 30
0.0
  0
VERTEX
  5
1BC
330
1BA
100
AcDbEntity
  8
0
100
AcDbVertex
100
AcDb2dVertex
 10
178.90876308
 20
-269.95090202
 30
0.0
  0
VERTEX
  5
1BD
330
1BA
100
AcDbEntity
  8
0
100
AcDbVertex
100
AcDb2dVertex
 10
178.90876308
 20
-271.8365201
 30
0.0
  0
VERTEX
  5
1BE
330
1BA
100
AcDbEntity
  8
0
100
AcDbVertex
100
AcDb2dVertex
 10
89.10898579
 20
-260.52281161
 30
0.0
  0
SEQEND
  5
1BF
330
1BA
100
AcDbEntity
  8
0
  0
LINE
  5
1C0
330
1E
100
AcDbEntity
  8
0
100
AcDbLine
 10
89.10898579
 20
-258.63719352
 30
0.0
 11
89.10898579
 21
-260.52281161
 31
0.0
  0
LINE
  5
1C1
330
1E
100
AcDbEntity
  8
0
100
AcDbLine
 10
185.97983089
 20
-265.60042446
 30
0.0
 11
178.90876308
 21
-271.8365201
 31
0.0
  0
LINE
  5
1C2
330
1E
100
AcDbEntity
  8
0
100
AcDbLine
 10
185.97983089
 20
-263.71480638
 30
0.0
 11
185.97983089
 21
-265.60042446
 31
0.0
  0
LINE
  5
1C3
330
1E
100
AcDbEntity
  8
0
  6
STRICHPUNKT2
 62
     1
100
AcDbLine
 10
99.07549333
 20
-255.62226544
 30
0.0
 11
99.07549333
 21
-256.91270555
 31
0.0
  0
LINE
  5
1C4
330
1E
100
AcDbEntity
  8
0
  6
STRICHPUNKT2
 62
     1
100
AcDbLine
 10
99.07549333
 20
-256.32937222
 30
0.0
 11
96.73695747
 21
-256.03474439
 31
0.0
  0
LINE
  5
1C5
330
1E
100
AcDbEntity
  8
0
  6
STRICHPUNKT2
 62
     1
100
AcDbLine
 10
99.07549333
 20
-256.32937222
 30
0.0
 11
101.4140292
 21
-256.62400005
 31
0.0
  0
LINE
  5
1C6
330
1E
100
AcDbEntity
  8
0
  6
STRICHPUNKT2
 62
     1
100
AcDbLine
 10
99.07549333
 20
-256.32937222
 30
0.0
 11
98.19160986
 21
-257.10888418
 31
0.0
  0
LINE
  5
1C7
330
1E
100
AcDbEntity
  8
0
  6
STRICHPUNKT2
 62
     1
100
AcDbLine
 10
99.07549333
 20
-256.32937222
 30
0.0
 11
99.95937681
 21
-255.54986026
 31
0.0
  0
LINE
  5
1C8
330
1E
100
AcDbEntity
  8
0
  6
STRICHPUNKT2
 62
     1
100
AcDbLine
 10
152.04333072
 20
-262.29558569
 30
0.0
 11
152.04333072
 21
-263.5860258
 31
0.0
  0
LINE
  5
1C9
330
1E
100
AcDbEntity
  8
0
  6
STRICHPUNKT2
 62
     1
100
AcDbLine
 10
152.04333072
 20
-263.00269247
 30
0.0
 11
149.70479485
 21
-262.70806464
 31
0.0
  0
LINE
  5
1CA
330
1E
100
AcDbEntity
  8
0
  6
STRICHPUNKT2
 62
     1
100
AcDbLine
 10
152.04333072
 20
-263.00269247
 30
0.0
 11
154.38186658
 21
-263.29732029
 31
0.0
  0
LINE
  5
1CB
330
1E
100
AcDbEntity
  8
0
  6
STRICHPUNKT2
 62
     1
100
AcDbLine
 10
152.04333072
 20
-263.00269247
 30
0.0
 11
151.15944724
 21
-263.78220442
 31
0.0
  0
LINE
  5
1CC
330
1E
100
AcDbEntity
  8
0
  6
STRICHPUNKT2
 62
     1
100
AcDbLine
 10
152.04333072
 20
-263.00269247
 30
0.0
 11
152.92721419
 21
-262.22318051
 31
0.0
  0
LINE
  5
1CD
330
1E
100
AcDbEntity
  8
0
  6
STRICHPUNKT2
 62
     1
100
AcDbLine
 10
175.42868938
 20
-265.24186394
 30
0.0
 11
175.42868938
 21
-266.53230406
 31
0.0
  0
LINE
  5
1CE
330
1E
100
AcDbEntity
  8
0
  6
STRICHPUNKT2
 62
     1
100
AcDbLine
 10
175.42868938
 20
-265.94897072
 30
0.0
 11
173.09015352
 21
-265.6543429
 31
0.0
  0
LINE
  5
1CF
330
1E
100
AcDbEntity
  8
0
  6
STRICHPUNKT2
 62
     1
100
AcDbLine
 10
175.42868938
 20
-265.94897072
 30
0.0
 11
177.76722525
 21
-266.24359855
 31
0.0
  0
LINE
  5
1D0
330
1E
100
AcDbEntity
  8
0
  6
STRICHPUNKT2
 62
     1
100
AcDbLine
 10
175.42868938
 20
-265.94897072
 30
0.0
 11
174.54480591
 21
-266.72848268
 31
0.0
  0
LINE
  5
1D1
330
1E
100
AcDbEntity
  8
0
  6
STRICHPUNKT2
 62
     1
100
AcDbLine
 10
175.42868938
 20
-265.94897072
 30
0.0
 11
176.31257286
 21
-265.16945877
 31
0.0
  0
LINE
  5
1D2
330
1E
100
AcDbEntity
  8
0
  6
STRICHPUNKT2
 62
     1
100
AcDbLine
 10
113.92519609
 20
-257.49315213
 30
0.0
 11
113.92519609
 21
-258.82386848
 31
0.0
  0
LINE
  5
1D3
330
1E
100
AcDbEntity
  8
0
  6
STRICHPUNKT2
 62
     1
100
AcDbLine
 10
120.00538934
 20
-258.25918448
 30
0.0
 11
120.00538934
 21
-259.54962459
 31
0.0
  0
LINE
  5
1D4
330
1E
100
AcDbEntity
  8
0
  6
STRICHPUNKT2
 62
     1
100
AcDbLine
 10
111.58666022
 20
-257.90563109
 30
0.0
 11
122.34392521
 21
-259.26091908
 31
0.0
  0
LINE
  5
1D5
330
1E
100
AcDbEntity
  8
0
  6
STRICHPUNKT2
 62
     1
100
AcDbLine
 10
113.04131261
 20
-258.97977087
 30
0.0
 11
114.80907956
 21
-257.42074696
 31
0.0
  0
LINE
  5
1D6
330
1E
100
AcDbEntity
  8
0
  6
STRICHPUNKT2
 62
     1
100
AcDbLine
 10
119.12150586
 20
-259.74580321
 30
0.0
 11
120.88927282
 21
-258.1867793
 31
0.0
  0
ELLIPSE
  5
1D7
330
1E
100
AcDbEntity
  8
0
100
AcDbEllipse
 10
90.77369101
 20
-240.6699033
 30
0.0
 11
-0.1875
 21
-1.48823511
 31
0.0
210
0.0
220
0.0
230
1.0
 40
0.33333333
 41
0.0
 42
3.14159265
  0
ELLIPSE
  5
1D8
330
1E
100
AcDbEntity
  8
0
100
AcDbEllipse
 10
90.77369101
 20
-240.6699033
 30
0.0
 11
-0.1875
 21
-1.48823511
 31
0.0
210
0.0
220
0.0
230
1.0
 40
0.33333333
 41
3.14159265
 42
6.283185307179586
  0
ELLIPSE
  5
1D9
330
1E
100
AcDbEntity
  8
0
100
AcDbEllipse
 10
90.77369101
 20
-202.95754163
 30
0.0
 11
-0.1875
 21
-1.48823511
 31
0.0
210
0.0
220
0.0
230
1.0
 40
0.33333333
 41
0.0
 42
3.14159265
  0
ELLIPSE
  5
1DA
330
1E
100
AcDbEntity
  8
0
100
AcDbEllipse
 10
90.77369101
 20
-202.95754163
 30
0.0
 11
-0.1875
 21
-1.48823511
 31
0.0
210
0.0
220
0.0
230
1.0
 40
0.33333333
 41
3.14159265
 42
6.283185307179586
  0
ELLIPSE
  5
1DB
330
1E
100
AcDbEntity
  8
0
100
AcDbEllipse
 10
92.9833997
 20
-197.47322784
 30
0.0
 11
-0.15625
 21
-1.24019593
 31
0.0
210
0.0
220
0.0
230
1.0
 40
0.33333333
 41
0.0
 42
3.14159265
  0
ELLIPSE
  5
1DC
330
1E
100
AcDbEntity
  8
0
100
AcDbEllipse
 10
92.9833997
 20
-197.47322784
 30
0.0
 11
-0.15625
 21
-1.24019593
 31
0.0
210
0.0
220
0.0
230
1.0
 40
0.33333333
 41
3.14159265
 42
6.28318531
  0
POLYLINE
  5
1DD
330
1E
100
AcDbEntity
  8
0
100
AcDb2dPolyline
 66
     1
 10
0.0
 20
0.0
 30
0.0
  0
VERTEX
  5
1DE
330
1DD
100
AcDbEntity
  8
0
100
AcDbVertex
100
AcDb2dVertex
 10
94.30922491
 20
-189.23289209
 30
0.0
  0
VERTEX
  5
1DF
330
1DD
100
AcDbEntity
  8
0
100
AcDbVertex
100
AcDb2dVertex
 10
87.2381571
 20
-195.46898774
 30
0.0
  0
VERTEX
  5
1E0
330
1DD
100
AcDbEntity
  8
0
100
AcDbVertex
100
AcDb2dVertex
 10
85.36732841
 20
-195.23328548
 30
0.0
  0
SEQEND
  5
1E1
330
1DD
100
AcDbEntity
  8
0
  0
LINE
  5
1E2
330
1E
100
AcDbEntity
  8
0
100
AcDbLine
 10
92.43839622
 20
-188.99718983
 30
0.0
 11
85.36732841
 21
-195.23328548
 31
0.0
  0
LINE
  5
1E3
330
1E
100
AcDbEntity
  8
0
100
AcDbLine
 10
94.30922491
 20
-189.23289209
 30
0.0
 11
92.43839622
 21
-188.99718983
 31
0.0
  0
POLYLINE
  5
1E4
330
1E
100
AcDbEntity
  8
0
100
AcDb2dPolyline
 66
     1
 10
0.0
 20
0.0
 30
0.0
  0
VERTEX
  5
1E5
330
1E4
100
AcDbEntity
  8
0
100
AcDbVertex
100
AcDb2dVertex
 10
94.30922491
 20
-189.23289209
 30
0.0
  0
VERTEX
  5
1E6
330
1E4
100
AcDbEntity
  8
0
100
AcDbVertex
100
AcDb2dVertex
 10
94.30922491
 20
-250.27977753
 30
0.0
  0
VERTEX
  5
1E7
330
1E4
100
AcDbEntity
  8
0
100
AcDbVertex
100
AcDb2dVertex
 10
87.2381571
 20
-256.51587318
 30
0.0
  0
VERTEX
  5
1E8
330
1E4
100
AcDbEntity
  8
0
100
AcDbVertex
100
AcDb2dVertex
 10
87.2381571
 20
-195.46898774
 30
0.0
  0
SEQEND
  5
1E9
330
1E4
100
AcDbEntity
  8
0
  0
POLYLINE
  5
1EA
330
1E
100
AcDbEntity
  8
0
100
AcDb2dPolyline
 66
     1
 10
0.0
 20
0.0
 30
0.0
  0
VERTEX
  5
1EB
330
1EA
100
AcDbEntity
  8
0
100
AcDbVertex
100
AcDb2dVertex
 10
87.2381571
 20
-256.51587318
 30
0.0
  0
VERTEX
  5
1EC
330
1EA
100
AcDbEntity
  8
0
100
AcDbVertex
100
AcDb2dVertex
 10
85.36732841
 20
-256.28017092
 30
0.0
  0
VERTEX
  5
1ED
330
1EA
100
AcDbEntity
  8
0
100
AcDbVertex
100
AcDb2dVertex
 10
85.36732841
 20
-195.23328548
 30
0.0
  0
SEQEND
  5
1EE
330
1EA
100
AcDbEntity
  8
0
  0
LINE
  5
1EF
330
1E
100
AcDbEntity
  8
0
  6
STRICHPUNKT2
 62
     1
100
AcDbLine
 10
93.56803366
 20
-197.54688479
 30
0.0
 11
92.57000106
 21
-197.4211445
 31
0.0
  0
LINE
  5
1F0
330
1E
100
AcDbEntity
  8
0
  6
STRICHPUNKT2
 62
     1
100
AcDbLine
 10
92.9833997
 20
-197.47322784
 30
0.0
 11
93.64631231
 21
-196.88859387
 31
0.0
  0
LINE
  5
1F1
330
1E
100
AcDbEntity
  8
0
  6
STRICHPUNKT2
 62
     1
100
AcDbLine
 10
92.9833997
 20
-197.47322784
 30
0.0
 11
92.32048709
 21
-198.0578618
 31
0.0
  0
LINE
  5
1F2
330
1E
100
AcDbEntity
  8
0
  6
STRICHPUNKT2
 62
     1
100
AcDbLine
 10
92.9833997
 20
-197.47322784
 30
0.0
 11
92.9833997
 21
-195.70546088
 31
0.0
  0
LINE
  5
1F3
330
1E
100
AcDbEntity
  8
0
  6
STRICHPUNKT2
 62
     1
100
AcDbLine
 10
92.9833997
 20
-197.47322784
 30
0.0
 11
92.9833997
 21
-199.24099479
 31
0.0
  0
LINE
  5
1F4
330
1E
100
AcDbEntity
  8
0
  6
STRICHPUNKT2
 62
     1
100
AcDbLine
 10
91.47525177
 20
-203.04592998
 30
0.0
 11
90.27761264
 21
-202.89504163
 31
0.0
  0
LINE
  5
1F5
330
1E
100
AcDbEntity
  8
0
  6
STRICHPUNKT2
 62
     1
100
AcDbLine
 10
90.77369101
 20
-202.95754163
 30
0.0
 11
91.56918614
 21
-202.25598087
 31
0.0
  0
LINE
  5
1F6
330
1E
100
AcDbEntity
  8
0
  6
STRICHPUNKT2
 62
     1
100
AcDbLine
 10
90.77369101
 20
-202.95754163
 30
0.0
 11
89.97819588
 21
-203.65910239
 31
0.0
  0
LINE
  5
1F7
330
1E
100
AcDbEntity
  8
0
  6
STRICHPUNKT2
 62
     1
100
AcDbLine
 10
90.77369101
 20
-202.95754163
 30
0.0
 11
90.77369101
 21
-200.83622129
 31
0.0
  0
LINE
  5
1F8
330
1E
100
AcDbEntity
  8
0
  6
STRICHPUNKT2
 62
     1
100
AcDbLine
 10
90.77369101
 20
-202.95754163
 30
0.0
 11
90.77369101
 21
-205.07886198
 31
0.0
  0
LINE
  5
1F9
330
1E
100
AcDbEntity
  8
0
  6
STRICHPUNKT2
 62
     1
100
AcDbLine
 10
91.47525177
 20
-240.75829164
 30
0.0
 11
90.27761264
 21
-240.6074033
 31
0.0
  0
LINE
  5
1FA
330
1E
100
AcDbEntity
  8
0
  6
STRICHPUNKT2
 62
     1
100
AcDbLine
 10
90.77369101
 20
-240.6699033
 30
0.0
 11
91.56918614
 21
-239.96834254
 31
0.0
  0
LINE
  5
1FB
330
1E
100
AcDbEntity
  8
0
  6
STRICHPUNKT2
 62
     1
100
AcDbLine
 10
90.77369101
 20
-240.6699033
 30
0.0
 11
89.97819588
 21
-241.37146406
 31
0.0
  0
LINE
  5
1FC
330
1E
100
AcDbEntity
  8
0
  6
STRICHPUNKT2
 62
     1
100
AcDbLine
 10
90.77369101
 20
-240.6699033
 30
0.0
 11
90.77369101
 21
-238.54858295
 31
0.0
  0
LINE
  5
1FD
330
1E
100
AcDbEntity
  8
0
  6
STRICHPUNKT2
 62
     1
100
AcDbLine
 10
90.77369101
 20
-240.6699033
 30
0.0
 11
90.77369101
 21
-242.79122364
 31
0.0
  0
POLYLINE
  5
1FE
330
1E
100
AcDbEntity
  8
0
100
AcDb2dPolyline
 66
     1
 10
0.0
 20
0.0
 30
0.0
  0
VERTEX
  5
1FF
330
1FE
100
AcDbEntity
  8
0
100
AcDbVertex
100
AcDb2dVertex
 10
94.30922491
 20
-250.27977753
 30
0.0
  0
VERTEX
  5
200
330
1FE
100
AcDbEntity
  8
0
100
AcDbVertex
100
AcDb2dVertex
 10
87.2381571
 20
-256.51587318
 30
0.0
  0
VERTEX
  5
201
330
1FE
100
AcDbEntity
  8
0
100
AcDbVertex
100
AcDb2dVertex
 10
85.36732841
 20
-256.28017092
 30
0.0
  0
SEQEND
  5
202
330
1FE
100
AcDbEntity
  8
0
  0
ELLIPSE
  5
203
330
1E
100
AcDbEntity
  8
0
100
AcDbEllipse
 10
96.18005361
 20
-250.51547979
 30
0.0
 11
1.32287566
 21
-1.5
 31
0.0
210
0.0
220
0.0
230
1.0
 40
0.8819171
 41
3.92699082
 42
5.49778714
  0
POLYLINE
  5
204
330
1E
100
AcDbEntity
  8
0
100
AcDb2dPolyline
 66
     1
 10
0.0
 20
0.0
 30
0.0
  0
VERTEX
  5
205
330
204
100
AcDbEntity
  8
0
100
AcDbVertex
100
AcDb2dVertex
 10
96.18005361
 20
-252.40109788
 30
0.0
  0
VERTEX
  5
206
330
204
100
AcDbEntity
  8
0
100
AcDbVertex
100
AcDb2dVertex
 10
89.10898579
 20
-258.63719352
 30
0.0
  0
SEQEND
  5
207
330
204
100
AcDbEntity
  8
0
  0
ELLIPSE
  5
208
330
1E
100
AcDbEntity
  8
0
100
AcDbEllipse
 10
89.10898579
 20
-256.75157544
 30
0.0
 11
1.32287566
 21
-1.5
 31
0.0
210
0.0
220
0.0
230
1.0
 40
0.8819171
 41
3.92699082
 42
5.49778714
  0
POLYLINE
  5
209
330
1E
100
AcDbEntity
  8
0
100
AcDb2dPolyline
 66
     1
 10
0.0
 20
0.0
 30
0.0
  0
VERTEX
  5
20A
330
209
100
AcDbEntity
  8
0
100
AcDbVertex
100
AcDb2dVertex
 10
89.10898579
 20
-258.63719352
 30
0.0
  0
VERTEX
  5
20B
330
209
100
AcDbEntity
  8
0
100
AcDbVertex
100
AcDb2dVertex
 10
89.10898579
 20
-260.52281161
 30
0.0
  0
SEQEND
  5
20C
330
209
100
AcDbEntity
  8
0
  0
ELLIPSE
  5
20D
330
1E
100
AcDbEntity
  8
0
100
AcDbEllipse
 10
89.10898579
 20
-256.75157544
 30
0.0
 11
2.64575131
 21
-3.0
 31
0.0
210
0.0
220
0.0
230
1.0
 40
0.8819171
 41
3.92699082
 42
5.49778714
  0
ELLIPSE
  5
20E
330
1E
100
AcDbEntity
  8
0
100
AcDbEllipse
 10
109.24812435
 20
-205.28510145
 30
0.0
 11
-0.1875
 21
-1.48823511
 31
0.0
210
0.0
220
0.0
230
1.0
 40
0.33333333
 41
0.0
 42
3.14159265
  0
ELLIPSE
  5
20F
330
1E
100
AcDbEntity
  8
0
100
AcDbEllipse
 10
109.24812435
 20
-205.28510145
 30
0.0
 11
-0.1875
 21
-1.48823511
 31
0.0
210
0.0
220
0.0
230
1.0
 40
0.33333333
 41
3.14159265
 42
6.283185307179586
  0
ELLIPSE
  5
210
330
1E
100
AcDbEntity
  8
0
100
AcDbEllipse
 10
109.24812435
 20
-242.99746312
 30
0.0
 11
-0.1875
 21
-1.48823511
 31
0.0
210
0.0
220
0.0
230
1.0
 40
0.33333333
 41
0.0
 42
3.14159265
  0
ELLIPSE
  5
211
330
1E
100
AcDbEntity
  8
0
100
AcDbEllipse
 10
109.24812435
 20
-242.99746312
 30
0.0
 11
-0.1875
 21
-1.48823511
 31
0.0
210
0.0
220
0.0
230
1.0
 40
0.33333333
 41
3.14159265
 42
6.283185307179586
  0
ELLIPSE
  5
212
330
1E
100
AcDbEntity
  8
0
100
AcDbEllipse
 10
107.03841566
 20
-201.34132483
 30
0.0
 11
-0.15625
 21
-1.24019593
 31
0.0
210
0.0
220
0.0
230
1.0
 40
0.33333333
 41
0.0
 42
3.14159265
  0
ELLIPSE
  5
213
330
1E
100
AcDbEntity
  8
0
100
AcDbEllipse
 10
107.03841566
 20
-201.34132483
 30
0.0
 11
-0.15625
 21
-1.24019593
 31
0.0
210
0.0
220
0.0
230
1.0
 40
0.33333333
 41
3.14159265
 42
6.283185307179586
  0
POLYLINE
  5
214
330
1E
100
AcDbEntity
  8
0
100
AcDb2dPolyline
 66
     1
 10
0.0
 20
0.0
 30
0.0
  0
VERTEX
  5
215
330
214
100
AcDbEntity
  8
0
100
AcDbVertex
100
AcDb2dVertex
 10
112.78365826
 20
-191.56045191
 30
0.0
  0
VERTEX
  5
216
330
214
100
AcDbEntity
  8
0
100
AcDbVertex
100
AcDb2dVertex
 10
105.71259045
 20
-197.79654756
 30
0.0
  0
VERTEX
  5
217
330
214
100
AcDbEntity
  8
0
100
AcDbVertex
100
AcDb2dVertex
 10
103.84176175
 20
-197.5608453
 30
0.0
  0
SEQEND
  5
218
330
214
100
AcDbEntity
  8
0
  0
LINE
  5
219
330
1E
100
AcDbEntity
  8
0
100
AcDbLine
 10
110.91282957
 20
-191.32474965
 30
0.0
 11
103.84176175
 21
-197.5608453
 31
0.0
  0
LINE
  5
21A
330
1E
100
AcDbEntity
  8
0
100
AcDbLine
 10
112.78365826
 20
-191.56045191
 30
0.0
 11
110.91282957
 21
-191.32474965
 31
0.0
  0
LINE
  5
21B
330
1E
100
AcDbEntity
  8
0
100
AcDbLine
 10
112.78365826
 20
-223.13983945
 30
0.0
 11
112.78365826
 21
-254.49295544
 31
0.0
  0
LINE
  5
21C
330
1E
100
AcDbEntity
  8
0
100
AcDbLine
 10
112.78365826
 20
-191.56045191
 30
0.0
 11
112.78365826
 21
-203.2185061
 31
0.0
  0
POLYLINE
  5
21D
330
1E
100
AcDbEntity
  8
0
100
AcDb2dPolyline
 66
     1
 10
0.0
 20
0.0
 30
0.0
  0
VERTEX
  5
21E
330
21D
100
AcDbEntity
  8
0
100
AcDbVertex
100
AcDb2dVertex
 10
112.78365826
 20
-254.49295544
 30
0.0
  0
VERTEX
  5
21F
330
21D
100
AcDbEntity
  8
0
100
AcDbVertex
100
AcDb2dVertex
 10
105.71259045
 20
-260.72905108
 30
0.0
  0
VERTEX
  5
220
330
21D
100
AcDbEntity
  8
0
100
AcDbVertex
100
AcDb2dVertex
 10
105.71259045
 20
-197.79654756
 30
0.0
  0
SEQEND
  5
221
330
21D
100
AcDbEntity
  8
0
  0
POLYLINE
  5
222
330
1E
100
AcDbEntity
  8
0
100
AcDb2dPolyline
 66
     1
 10
0.0
 20
0.0
 30
0.0
  0
VERTEX
  5
223
330
222
100
AcDbEntity
  8
0
100
AcDbVertex
100
AcDb2dVertex
 10
105.71259045
 20
-260.72905108
 30
0.0
  0
VERTEX
  5
224
330
222
100
AcDbEntity
  8
0
100
AcDbVertex
100
AcDb2dVertex
 10
103.84176175
 20
-260.49334882
 30
0.0
  0
VERTEX
  5
225
330
222
100
AcDbEntity
  8
0
100
AcDbVertex
100
AcDb2dVertex
 10
103.84176175
 20
-197.5608453
 30
0.0
  0
SEQEND
  5
226
330
222
100
AcDbEntity
  8
0
  0
LINE
  5
227
330
1E
100
AcDbEntity
  8
0
  6
STRICHPUNKT2
 62
     1
100
AcDbLine
 10
107.62304963
 20
-201.41498179
 30
0.0
 11
106.62501702
 21
-201.2892415
 31
0.0
  0
LINE
  5
228
330
1E
100
AcDbEntity
  8
0
  6
STRICHPUNKT2
 62
     1
100
AcDbLine
 10
107.03841566
 20
-201.34132483
 30
0.0
 11
107.03841566
 21
-203.10909179
 31
0.0
  0
LINE
  5
229
330
1E
100
AcDbEntity
  8
0
  6
STRICHPUNKT2
 62
     1
100
AcDbLine
 10
107.03841566
 20
-201.34132483
 30
0.0
 11
107.03841566
 21
-199.57355788
 31
0.0
  0
LINE
  5
22A
330
1E
100
AcDbEntity
  8
0
  6
STRICHPUNKT2
 62
     1
100
AcDbLine
 10
107.03841566
 20
-201.34132483
 30
0.0
 11
107.70132827
 21
-200.75669087
 31
0.0
  0
LINE
  5
22B
330
1E
100
AcDbEntity
  8
0
  6
STRICHPUNKT2
 62
     1
100
AcDbLine
 10
107.03841566
 20
-201.34132483
 30
0.0
 11
106.37550306
 21
-201.9259588
 31
0.0
  0
LINE
  5
22C
330
1E
100
AcDbEntity
  8
0
  6
STRICHPUNKT2
 62
     1
100
AcDbLine
 10
109.94968511
 20
-243.08585146
 30
0.0
 11
108.75204598
 21
-242.93496312
 31
0.0
  0
LINE
  5
22D
330
1E
100
AcDbEntity
  8
0
  6
STRICHPUNKT2
 62
     1
100
AcDbLine
 10
109.24812435
 20
-242.99746312
 30
0.0
 11
109.24812435
 21
-245.11878346
 31
0.0
  0
LINE
  5
22E
330
1E
100
AcDbEntity
  8
0
  6
STRICHPUNKT2
 62
     1
100
AcDbLine
 10
109.24812435
 20
-242.99746312
 30
0.0
 11
109.24812435
 21
-240.87614277
 31
0.0
  0
LINE
  5
22F
330
1E
100
AcDbEntity
  8
0
  6
STRICHPUNKT2
 62
     1
100
AcDbLine
 10
109.24812435
 20
-242.99746312
 30
0.0
 11
110.04361948
 21
-242.29590236
 31
0.0
  0
LINE
  5
230
330
1E
100
AcDbEntity
  8
0
  6
STRICHPUNKT2
 62
     1
100
AcDbLine
 10
109.24812435
 20
-242.99746312
 30
0.0
 11
108.45262923
 21
-243.69902388
 31
0.0
  0
LINE
  5
231
330
1E
100
AcDbEntity
  8
0
  6
STRICHPUNKT2
 62
     1
100
AcDbLine
 10
109.94968511
 20
-205.3734898
 30
0.0
 11
108.75204598
 21
-205.22260145
 31
0.0
  0
LINE
  5
232
330
1E
100
AcDbEntity
  8
0
  6
STRICHPUNKT2
 62
     1
100
AcDbLine
 10
109.24812435
 20
-205.28510145
 30
0.0
 11
109.24812435
 21
-207.4064218
 31
0.0
  0
LINE
  5
233
330
1E
100
AcDbEntity
  8
0
  6
STRICHPUNKT2
 62
     1
100
AcDbLine
 10
109.24812435
 20
-205.28510145
 30
0.0
 11
109.24812435
 21
-203.16378111
 31
0.0
  0
LINE
  5
234
330
1E
100
AcDbEntity
  8
0
  6
STRICHPUNKT2
 62
     1
100
AcDbLine
 10
109.24812435
 20
-205.28510145
 30
0.0
 11
110.04361948
 21
-204.58354069
 31
0.0
  0
LINE
  5
235
330
1E
100
AcDbEntity
  8
0
  6
STRICHPUNKT2
 62
     1
100
AcDbLine
 10
109.24812435
 20
-205.28510145
 30
0.0
 11
108.45262923
 21
-205.98666221
 31
0.0
  0
LINE
  5
236
330
1E
100
AcDbEntity
  8
0
100
AcDbLine
 10
154.69498114
 20
-260.6641566
 30
0.0
 11
154.16465106
 21
-261.13186377
 31
0.0
  0
LINE
  5
237
330
1E
100
AcDbEntity
  8
0
100
AcDbLine
 10
111.3694447
 20
-202.47472058
 30
0.0
 11
154.16465106
 21
-261.13186377
 31
0.0
  0
LINE
  5
238
330
1E
100
AcDbEntity
  8
0
100
AcDbLine
 10
111.89977478
 20
-202.00701341
 30
0.0
 11
111.3694447
 21
-202.47472058
 31
0.0
  0
LINE
  5
239
330
1E
100
AcDbEntity
  8
0
100
AcDbLine
 10
154.69498114
 20
-260.6641566
 30
0.0
 11
111.89977478
 21
-202.00701341
 31
0.0
  0
POLYLINE
  5
23A
330
1E
100
AcDbEntity
  8
0
100
AcDb2dPolyline
 66
     1
 10
0.0
 20
0.0
 30
0.0
  0
VERTEX
  5
23B
330
23A
100
AcDbEntity
  8
0
100
AcDbVertex
100
AcDb2dVertex
 10
111.3694447
 20
-202.47472058
 30
0.0
  0
VERTEX
  5
23C
330
23A
100
AcDbEntity
  8
0
100
AcDbVertex
100
AcDb2dVertex
 10
111.3694447
 20
-221.20145117
 30
0.0
  0
VERTEX
  5
23D
330
23A
100
AcDbEntity
  8
0
100
AcDbVertex
100
AcDb2dVertex
 10
139.11898407
 20
-259.23628791
 30
0.0
  0
VERTEX
  5
23E
330
23A
100
AcDbEntity
  8
0
100
AcDbVertex
100
AcDb2dVertex
 10
154.16465106
 20
-261.13186377
 30
0.0
  0
SEQEND
  5
23F
330
23A
100
AcDbEntity
  8
0
  0
POLYLINE
  5
240
330
1E
100
AcDbEntity
  8
0
100
AcDb2dPolyline
 66
     1
 10
0.0
 20
0.0
 30
0.0
  0
VERTEX
  5
241
330
240
100
AcDbEntity
  8
0
100
AcDbVertex
100
AcDb2dVertex
 10
391.82179146
 20
-161.38205705
 30
0.0
  0
VERTEX
  5
242
330
240
100
AcDbEntity
  8
0
100
AcDbVertex
100
AcDb2dVertex
 10
199.82179146
 20
-161.38205705
 30
0.0
  0
VERTEX
  5
243
330
240
100
AcDbEntity
  8
0
100
AcDbVertex
100
AcDb2dVertex
 10
199.82179146
 20
-165.38205705
 30
0.0
  0
SEQEND
  5
244
330
240
100
AcDbEntity
  8
0
  0
LINE
  5
245
330
1E
100
AcDbEntity
  8
0
100
AcDbLine
 10
391.82179146
 20
-165.38205705
 30
0.0
 11
199.82179146
 21
-165.38205705
 31
0.0
  0
LINE
  5
246
330
1E
100
AcDbEntity
  8
0
100
AcDbLine
 10
391.82179146
 20
-161.38205705
 30
0.0
 11
391.82179146
 21
-165.38205705
 31
0.0
  0
LINE
  5
247
330
1E
100
AcDbEntity
  8
0
  6
STRICHPUNKT2
 62
     1
100
AcDbLine
 10
213.57179146
 20
-165.38205705
 30
0.0
 11
213.57179146
 21
-166.88205705
 31
0.0
  0
LINE
  5
248
330
1E
100
AcDbEntity
  8
0
  6
STRICHPUNKT2
 62
     1
100
AcDbLine
 10
213.57179146
 20
-159.88205705
 30
0.0
 11
213.57179146
 21
-161.38205705
 31
0.0
  0
LINE
  5
249
330
1E
100
AcDbEntity
  8
0
  6
STRICHPUNKT2
 62
     1
100
AcDbLine
 10
376.82179146
 20
-165.38205705
 30
0.0
 11
376.82179146
 21
-166.88205705
 31
0.0
  0
LINE
  5
24A
330
1E
100
AcDbEntity
  8
0
  6
STRICHPUNKT2
 62
     1
100
AcDbLine
 10
376.82179146
 20
-159.88205705
 30
0.0
 11
376.82179146
 21
-161.38205705
 31
0.0
  0
LINE
  5
24B
330
1E
100
AcDbEntity
  8
0
  6
STRICHPUNKT2
 62
     1
100
AcDbLine
 10
258.32179146
 20
-165.38205705
 30
0.0
 11
258.32179146
 21
-166.88205705
 31
0.0
  0
LINE
  5
24C
330
1E
100
AcDbEntity
  8
0
  6
STRICHPUNKT2
 62
     1
100
AcDbLine
 10
258.32179146
 20
-159.88205705
 30
0.0
 11
258.32179146
 21
-161.38205705
 31
0.0
  0
LINE
  5
24D
330
1E
100
AcDbEntity
  8
0
  6
STRICHPUNKT2
 62
     1
100
AcDbLine
 10
245.32179146
 20
-165.38205705
 30
0.0
 11
245.32179146
 21
-166.88205705
 31
0.0
  0
LINE
  5
24E
330
1E
100
AcDbEntity
  8
0
  6
STRICHPUNKT2
 62
     1
100
AcDbLine
 10
245.32179146
 20
-159.88205705
 30
0.0
 11
245.32179146
 21
-161.38205705
 31
0.0
  0
LINE
  5
24F
330
1E
100
AcDbEntity
  8
0
  6
STRICHPUNKT2
 62
     1
100
AcDbLine
 10
326.82179146
 20
-165.38205705
 30
0.0
 11
326.82179146
 21
-166.88205705
 31
0.0
  0
LINE
  5
250
330
1E
100
AcDbEntity
  8
0
  6
STRICHPUNKT2
 62
     1
100
AcDbLine
 10
326.82179146
 20
-159.88205705
 30
0.0
 11
326.82179146
 21
-161.38205705
 31
0.0
  0
POLYLINE
  5
251
330
1E
100
AcDbEntity
  8
0
100
AcDb2dPolyline
 66
     1
 10
0.0
 20
0.0
 30
0.0
  0
VERTEX
  5
252
330
251
100
AcDbEntity
  8
0
100
AcDbVertex
100
AcDb2dVertex
 10
195.82179146
 20
-157.38205705
 30
0.0
  0
VERTEX
  5
253
330
251
100
AcDbEntity
  8
0
100
AcDbVertex
100
AcDb2dVertex
 10
195.82179146
 20
-27.88205705
 30
0.0
  0
VERTEX
  5
254
330
251
100
AcDbEntity
  8
0
100
AcDbVertex
100
AcDb2dVertex
 10
191.82179146
 20
-27.88205705
 30
0.0
  0
SEQEND
  5
255
330
251
100
AcDbEntity
  8
0
  0
LINE
  5
256
330
1E
100
AcDbEntity
  8
0
100
AcDbLine
 10
191.82179146
 20
-157.38205705
 30
0.0
 11
191.82179146
 21
-27.88205705
 31
0.0
  0
LINE
  5
257
330
1E
100
AcDbEntity
  8
0
100
AcDbLine
 10
195.82179146
 20
-157.38205705
 30
0.0
 11
191.82179146
 21
-157.38205705
 31
0.0
  0
LINE
  5
258
330
1E
100
AcDbEntity
  8
0
  6
STRICHPUNKT2
 62
     1
100
AcDbLine
 10
191.82179146
 20
-42.88205705
 30
0.0
 11
190.57179146
 21
-42.88205705
 31
0.0
  0
LINE
  5
259
330
1E
100
AcDbEntity
  8
0
  6
STRICHPUNKT2
 62
     1
100
AcDbLine
 10
197.07179146
 20
-42.88205705
 30
0.0
 11
195.82179146
 21
-42.88205705
 31
0.0
  0
LINE
  5
25A
330
1E
100
AcDbEntity
  8
0
  6
STRICHPUNKT2
 62
     1
100
AcDbLine
 10
191.82179146
 20
-130.38205705
 30
0.0
 11
190.32179146
 21
-130.38205705
 31
0.0
  0
LINE
  5
25B
330
1E
100
AcDbEntity
  8
0
  6
STRICHPUNKT2
 62
     1
100
AcDbLine
 10
197.32179146
 20
-130.38205705
 30
0.0
 11
195.82179146
 21
-130.38205705
 31
0.0
  0
LINE
  5
25C
330
1E
100
AcDbEntity
  8
0
  6
STRICHPUNKT2
 62
     1
100
AcDbLine
 10
191.82179146
 20
-50.38205705
 30
0.0
 11
190.32179146
 21
-50.38205705
 31
0.0
  0
LINE
  5
25D
330
1E
100
AcDbEntity
  8
0
  6
STRICHPUNKT2
 62
     1
100
AcDbLine
 10
197.32179146
 20
-50.38205705
 30
0.0
 11
195.82179146
 21
-50.38205705
 31
0.0
  0
POLYLINE
  5
25E
330
1E
100
AcDbEntity
  8
0
100
AcDb2dPolyline
 66
     1
 10
0.0
 20
0.0
 30
0.0
  0
VERTEX
  5
25F
330
25E
100
AcDbEntity
  8
0
100
AcDbVertex
100
AcDb2dVertex
 10
199.82179146
 20
-161.38205705
 30
0.0
 42
-0.414213562
  0
VERTEX
  5
260
330
25E
100
AcDbEntity
  8
0
100
AcDbVertex
100
AcDb2dVertex
 10
195.82179146
 20
-157.38205705
 30
0.0
  0
VERTEX
  5
261
330
25E
100
AcDbEntity
  8
0
100
AcDbVertex
100
AcDb2dVertex
 10
191.82179146
 20
-157.38205705
 30
0.0
  0
SEQEND
  5
262
330
25E
100
AcDbEntity
  8
0
  0
ARC
  5
263
330
1E
100
AcDbEntity
  8
0
100
AcDbCircle
 10
199.82179146
 20
-157.38205705
 30
0.0
 40
8.0
100
AcDbArc
 50
180.0
 51
-90.0
  0
LINE
  5
264
330
1E
100
AcDbEntity
  8
0
100
AcDbLine
 10
199.82179146
 20
-161.38205705
 30
0.0
 11
199.82179146
 21
-165.38205705
 31
0.0
  0
POLYLINE
  5
265
330
1E
100
AcDbEntity
  8
0
100
AcDb2dPolyline
 66
     1
 10
0.0
 20
0.0
 30
0.0
  0
VERTEX
  5
266
330
265
100
AcDbEntity
  8
0
100
AcDbVertex
100
AcDb2dVertex
 10
235.32179146
 20
-161.38205705
 30
0.0
  0
VERTEX
  5
267
330
265
100
AcDbEntity
  8
0
100
AcDbVertex
100
AcDb2dVertex
 10
235.32179146
 20
-27.88205705
 30
0.0
  0
VERTEX
  5
268
330
265
100
AcDbEntity
  8
0
100
AcDbVertex
100
AcDb2dVertex
 10
231.32179146
 20
-27.88205705
 30
0.0
  0
SEQEND
  5
269
330
265
100
AcDbEntity
  8
0
  0
LINE
  5
26A
330
1E
100
AcDbEntity
  8
0
100
AcDbLine
 10
231.32179146
 20
-161.38205705
 30
0.0
 11
231.32179146
 21
-27.88205705
 31
0.0
  0
LINE
  5
26B
330
1E
100
AcDbEntity
  8
0
100
AcDbLine
 10
235.32179146
 20
-161.38205705
 30
0.0
 11
231.32179146
 21
-161.38205705
 31
0.0
  0
LINE
  5
26C
330
1E
100
AcDbEntity
  8
0
  6
STRICHPUNKT2
 62
     1
100
AcDbLine
 10
231.32179146
 20
-37.88205705
 30
0.0
 11
230.07179146
 21
-37.88205705
 31
0.0
  0
LINE
  5
26D
330
1E
100
AcDbEntity
  8
0
  6
STRICHPUNKT2
 62
     1
100
AcDbLine
 10
236.57179146
 20
-37.88205705
 30
0.0
 11
235.32179146
 21
-37.88205705
 31
0.0
  0
LINE
  5
26E
330
1E
100
AcDbEntity
  8
0
  6
STRICHPUNKT2
 62
     1
100
AcDbLine
 10
231.32179146
 20
-50.38205705
 30
0.0
 11
229.82179146
 21
-50.38205705
 31
0.0
  0
LINE
  5
26F
330
1E
100
AcDbEntity
  8
0
  6
STRICHPUNKT2
 62
     1
100
AcDbLine
 10
236.82179146
 20
-50.38205705
 30
0.0
 11
235.32179146
 21
-50.38205705
 31
0.0
  0
LINE
  5
270
330
1E
100
AcDbEntity
  8
0
  6
STRICHPUNKT2
 62
     1
100
AcDbLine
 10
231.32179146
 20
-130.38205705
 30
0.0
 11
229.82179146
 21
-130.38205705
 31
0.0
  0
LINE
  5
271
330
1E
100
AcDbEntity
  8
0
  6
STRICHPUNKT2
 62
     1
100
AcDbLine
 10
236.82179146
 20
-130.38205705
 30
0.0
 11
235.32179146
 21
-130.38205705
 31
0.0
  0
POLYLINE
  5
272
330
1E
100
AcDbEntity
  8
0
100
AcDb2dPolyline
 66
     1
 10
0.0
 20
0.0
 30
0.0
  0
VERTEX
  5
273
330
272
100
AcDbEntity
  8
0
100
AcDbVertex
100
AcDb2dVertex
 10
235.32179146
 20
-48.3889659
 30
0.0
  0
VERTEX
  5
274
330
272
100
AcDbEntity
  8
0
100
AcDbVertex
100
AcDb2dVertex
 10
235.32179146
 20
-88.11436047
 30
0.0
  0
VERTEX
  5
275
330
272
100
AcDbEntity
  8
0
100
AcDbVertex
100
AcDb2dVertex
 10
294.6528023
 20
-161.38205705
 30
0.0
  0
VERTEX
  5
276
330
272
100
AcDbEntity
  8
0
100
AcDbVertex
100
AcDb2dVertex
 10
326.82179146
 20
-161.38205705
 30
0.0
  0
SEQEND
  5
277
330
272
100
AcDbEntity
  8
0
  0
LINE
  5
278
330
1E
100
AcDbEntity
  8
0
100
AcDbLine
 10
235.32179146
 20
-48.3889659
 30
0.0
 11
326.82179146
 21
-161.38205705
 31
0.0
  0
POLYLINE
  5
279
330
1E
100
AcDbEntity
  8
0
100
AcDb2dPolyline
 66
     1
 10
0.0
 20
0.0
 30
0.0
  0
VERTEX
  5
27A
330
279
100
AcDbEntity
  8
0
100
AcDbVertex
100
AcDb2dVertex
 10
453.28456811
 20
-161.38205705
 30
0.0
  0
VERTEX
  5
27B
330
279
100
AcDbEntity
  8
0
100
AcDbVertex
100
AcDb2dVertex
 10
413.28456811
 20
-161.38205705
 30
0.0
  0
VERTEX
  5
27C
330
279
100
AcDbEntity
  8
0
100
AcDbVertex
100
AcDb2dVertex
 10
413.28456811
 20
-165.38205705
 30
0.0
  0
SEQEND
  5
27D
330
279
100
AcDbEntity
  8
0
  0
LINE
  5
27E
330
1E
100
AcDbEntity
  8
0
100
AcDbLine
 10
453.28456811
 20
-165.38205705
 30
0.0
 11
413.28456811
 21
-165.38205705
 31
0.0
  0
LINE
  5
27F
330
1E
100
AcDbEntity
  8
0
100
AcDbLine
 10
453.28456811
 20
-161.38205705
 30
0.0
 11
453.28456811
 21
-165.38205705
 31
0.0
  0
LINE
  5
280
330
1E
100
AcDbEntity
  8
0
  6
STRICHPUNKT2
 62
     1
100
AcDbLine
 10
433.28456811
 20
-165.38205705
 30
0.0
 11
433.28456811
 21
-166.88205705
 31
0.0
  0
LINE
  5
281
330
1E
100
AcDbEntity
  8
0
  6
STRICHPUNKT2
 62
     1
100
AcDbLine
 10
433.28456811
 20
-159.88205705
 30
0.0
 11
433.28456811
 21
-161.38205705
 31
0.0
  0
CIRCLE
  5
282
330
1E
100
AcDbEntity
  8
0
100
AcDbCircle
 10
433.28456811
 20
-50.38205705
 30
0.0
 40
3.0
  0
CIRCLE
  5
283
330
1E
100
AcDbEntity
  8
0
100
AcDbCircle
 10
433.28456811
 20
-130.38205705
 30
0.0
 40
3.0
  0
CIRCLE
  5
284
330
1E
100
AcDbEntity
  8
0
100
AcDbCircle
 10
420.78456811
 20
-37.88205705
 30
0.0
 40
2.5
  0
LINE
  5
285
330
1E
100
AcDbEntity
  8
0
100
AcDbLine
 10
413.28456811
 20
-161.38205705
 30
0.0
 11
413.28456811
 21
-27.88205705
 31
0.0
  0
LINE
  5
286
330
1E
100
AcDbEntity
  8
0
100
AcDbLine
 10
453.28456811
 20
-27.88205705
 30
0.0
 11
413.28456811
 21
-27.88205705
 31
0.0
  0
LINE
  5
287
330
1E
100
AcDbEntity
  8
0
100
AcDbLine
 10
453.28456811
 20
-27.88205705
 30
0.0
 11
453.28456811
 21
-161.38205705
 31
0.0
  0
LINE
  5
288
330
1E
100
AcDbEntity
  8
0
100
AcDbLine
 10
445.28456811
 20
-161.38205705
 30
0.0
 11
413.28456811
 21
-161.38205705
 31
0.0
  0
LINE
  5
289
330
1E
100
AcDbEntity
  8
0
100
AcDbLine
 10
453.28456811
 20
-161.38205705
 30
0.0
 11
448.28456811
 21
-161.38205705
 31
0.0
  0
LINE
  5
28A
330
1E
100
AcDbEntity
  8
0
  6
STRICHPUNKT2
 62
     1
100
AcDbLine
 10
420.78456811
 20
-37.88205705
 30
0.0
 11
420.78456811
 21
-41.63205705
 31
0.0
  0
LINE
  5
28B
330
1E
100
AcDbEntity
  8
0
  6
STRICHPUNKT2
 62
     1
100
AcDbLine
 10
420.78456811
 20
-37.88205705
 30
0.0
 11
420.78456811
 21
-34.13205705
 31
0.0
  0
LINE
  5
28C
330
1E
100
AcDbEntity
  8
0
  6
STRICHPUNKT2
 62
     1
100
AcDbLine
 10
420.78456811
 20
-37.88205705
 30
0.0
 11
424.53456811
 21
-37.88205705
 31
0.0
  0
LINE
  5
28D
330
1E
100
AcDbEntity
  8
0
  6
STRICHPUNKT2
 62
     1
100
AcDbLine
 10
420.78456811
 20
-37.88205705
 30
0.0
 11
417.03456811
 21
-37.88205705
 31
0.0
  0
LINE
  5
28E
330
1E
100
AcDbEntity
  8
0
  6
STRICHPUNKT2
 62
     1
100
AcDbLine
 10
433.28456811
 20
-130.38205705
 30
0.0
 11
433.28456811
 21
-134.88205705
 31
0.0
  0
LINE
  5
28F
330
1E
100
AcDbEntity
  8
0
  6
STRICHPUNKT2
 62
     1
100
AcDbLine
 10
433.28456811
 20
-130.38205705
 30
0.0
 11
433.28456811
 21
-125.88205705
 31
0.0
  0
LINE
  5
290
330
1E
100
AcDbEntity
  8
0
  6
STRICHPUNKT2
 62
     1
100
AcDbLine
 10
433.28456811
 20
-130.38205705
 30
0.0
 11
437.78456811
 21
-130.38205705
 31
0.0
  0
LINE
  5
291
330
1E
100
AcDbEntity
  8
0
  6
STRICHPUNKT2
 62
     1
100
AcDbLine
 10
433.28456811
 20
-130.38205705
 30
0.0
 11
428.78456811
 21
-130.38205705
 31
0.0
  0
LINE
  5
292
330
1E
100
AcDbEntity
  8
0
  6
STRICHPUNKT2
 62
     1
100
AcDbLine
 10
433.28456811
 20
-50.38205705
 30
0.0
 11
433.28456811
 21
-54.88205705
 31
0.0
  0
LINE
  5
293
330
1E
100
AcDbEntity
  8
0
  6
STRICHPUNKT2
 62
     1
100
AcDbLine
 10
433.28456811
 20
-50.38205705
 30
0.0
 11
433.28456811
 21
-45.88205705
 31
0.0
  0
LINE
  5
294
330
1E
100
AcDbEntity
  8
0
  6
STRICHPUNKT2
 62
     1
100
AcDbLine
 10
433.28456811
 20
-50.38205705
 30
0.0
 11
437.78456811
 21
-50.38205705
 31
0.0
  0
LINE
  5
295
330
1E
100
AcDbEntity
  8
0
  6
STRICHPUNKT2
 62
     1
100
AcDbLine
 10
433.28456811
 20
-50.38205705
 30
0.0
 11
428.78456811
 21
-50.38205705
 31
0.0
  0
LINE
  5
296
330
1E
100
AcDbEntity
  8
0
100
AcDbLine
 10
448.28456811
 20
-161.38205705
 30
0.0
 11
445.28456811
 21
-161.38205705
 31
0.0
  0
LINE
  5
297
330
1E
100
AcDbEntity
  8
0
100
AcDbLine
 10
445.28456811
 20
-48.3889659
 30
0.0
 11
445.28456811
 21
-161.38205705
 31
0.0
  0
LINE
  5
298
330
1E
100
AcDbEntity
  8
0
100
AcDbLine
 10
448.28456811
 20
-48.3889659
 30
0.0
 11
445.28456811
 21
-48.3889659
 31
0.0
  0
LINE
  5
299
330
1E
100
AcDbEntity
  8
0
100
AcDbLine
 10
448.28456811
 20
-161.38205705
 30
0.0
 11
448.28456811
 21
-48.3889659
 31
0.0
  0
LINE
  5
29A
330
1E
100
AcDbEntity
  8
0
100
AcDbLine
 10
110.18874754
 20
-165.38205705
 30
0.0
 11
150.18874754
 21
-165.38205705
 31
0.0
  0
LINE
  5
29B
330
1E
100
AcDbEntity
  8
0
  6
STRICHPUNKT2
 62
     1
100
AcDbLine
 10
130.18874754
 20
-165.38205705
 30
0.0
 11
130.18874754
 21
-166.88205705
 31
0.0
  0
CIRCLE
  5
29C
330
1E
100
AcDbEntity
  8
0
100
AcDbCircle
 10
130.18874754
 20
-130.38205705
 30
0.0
 40
3.0
  0
CIRCLE
  5
29D
330
1E
100
AcDbEntity
  8
0
100
AcDbCircle
 10
130.18874754
 20
-50.38205705
 30
0.0
 40
3.0
  0
CIRCLE
  5
29E
330
1E
100
AcDbEntity
  8
0
100
AcDbCircle
 10
117.68874754
 20
-42.88205705
 30
0.0
 40
2.5
  0
LINE
  5
29F
330
1E
100
AcDbEntity
  8
0
100
AcDbLine
 10
110.18874754
 20
-27.88205705
 30
0.0
 11
150.18874754
 21
-27.88205705
 31
0.0
  0
LINE
  5
2A0
330
1E
100
AcDbEntity
  8
0
100
AcDbLine
 10
150.18874754
 20
-157.38205705
 30
0.0
 11
150.18874754
 21
-27.88205705
 31
0.0
  0
LINE
  5
2A1
330
1E
100
AcDbEntity
  8
0
100
AcDbLine
 10
110.18874754
 20
-157.38205705
 30
0.0
 11
150.18874754
 21
-157.38205705
 31
0.0
  0
LINE
  5
2A2
330
1E
100
AcDbEntity
  8
0
100
AcDbLine
 10
110.18874754
 20
-27.88205705
 30
0.0
 11
110.18874754
 21
-157.38205705
 31
0.0
  0
LINE
  5
2A3
330
1E
100
AcDbEntity
  8
0
  6
STRICHPUNKT2
 62
     1
100
AcDbLine
 10
117.68874754
 20
-42.88205705
 30
0.0
 11
113.93874754
 21
-42.88205705
 31
0.0
  0
LINE
  5
2A4
330
1E
100
AcDbEntity
  8
0
  6
STRICHPUNKT2
 62
     1
100
AcDbLine
 10
117.68874754
 20
-42.88205705
 30
0.0
 11
121.43874754
 21
-42.88205705
 31
0.0
  0
LINE
  5
2A5
330
1E
100
AcDbEntity
  8
0
  6
STRICHPUNKT2
 62
     1
100
AcDbLine
 10
117.68874754
 20
-42.88205705
 30
0.0
 11
117.68874754
 21
-39.13205705
 31
0.0
  0
LINE
  5
2A6
330
1E
100
AcDbEntity
  8
0
  6
STRICHPUNKT2
 62
     1
100
AcDbLine
 10
117.68874754
 20
-42.88205705
 30
0.0
 11
117.68874754
 21
-46.63205705
 31
0.0
  0
LINE
  5
2A7
330
1E
100
AcDbEntity
  8
0
  6
STRICHPUNKT2
 62
     1
100
AcDbLine
 10
130.18874754
 20
-50.38205705
 30
0.0
 11
125.68874754
 21
-50.38205705
 31
0.0
  0
LINE
  5
2A8
330
1E
100
AcDbEntity
  8
0
  6
STRICHPUNKT2
 62
     1
100
AcDbLine
 10
130.18874754
 20
-50.38205705
 30
0.0
 11
134.68874754
 21
-50.38205705
 31
0.0
  0
LINE
  5
2A9
330
1E
100
AcDbEntity
  8
0
  6
STRICHPUNKT2
 62
     1
100
AcDbLine
 10
130.18874754
 20
-50.38205705
 30
0.0
 11
130.18874754
 21
-45.88205705
 31
0.0
  0
LINE
  5
2AA
330
1E
100
AcDbEntity
  8
0
  6
STRICHPUNKT2
 62
     1
100
AcDbLine
 10
130.18874754
 20
-50.38205705
 30
0.0
 11
130.18874754
 21
-54.88205705
 31
0.0
  0
LINE
  5
2AB
330
1E
100
AcDbEntity
  8
0
  6
STRICHPUNKT2
 62
     1
100
AcDbLine
 10
130.18874754
 20
-130.38205705
 30
0.0
 11
125.68874754
 21
-130.38205705
 31
0.0
  0
LINE
  5
2AC
330
1E
100
AcDbEntity
  8
0
  6
STRICHPUNKT2
 62
     1
100
AcDbLine
 10
130.18874754
 20
-130.38205705
 30
0.0
 11
134.68874754
 21
-130.38205705
 31
0.0
  0
LINE
  5
2AD
330
1E
100
AcDbEntity
  8
0
  6
STRICHPUNKT2
 62
     1
100
AcDbLine
 10
130.18874754
 20
-130.38205705
 30
0.0
 11
130.18874754
 21
-125.88205705
 31
0.0
  0
LINE
  5
2AE
330
1E
100
AcDbEntity
  8
0
  6
STRICHPUNKT2
 62
     1
100
AcDbLine
 10
130.18874754
 20
-130.38205705
 30
0.0
 11
130.18874754
 21
-134.88205705
 31
0.0
  0
LINE
  5
2AF
330
1E
100
AcDbEntity
  8
0
100
AcDbLine
 10
110.18874754
 20
-157.38205705
 30
0.0
 11
150.18874754
 21
-157.38205705
 31
0.0
  0
LINE
  5
2B0
330
1E
100
AcDbEntity
  8
0
100
AcDbLine
 10
150.18874754
 20
-165.38205705
 30
0.0
 11
150.18874754
 21
-157.38205705
 31
0.0
  0
LINE
  5
2B1
330
1E
100
AcDbEntity
  8
0
100
AcDbLine
 10
110.18874754
 20
-165.38205705
 30
0.0
 11
150.18874754
 21
-165.38205705
 31
0.0
  0
LINE
  5
2B2
330
1E
100
AcDbEntity
  8
0
100
AcDbLine
 10
110.18874754
 20
-157.38205705
 30
0.0
 11
110.18874754
 21
-165.38205705
 31
0.0
  0
POLYLINE
  5
2B3
330
1E
100
AcDbEntity
  8
0
100
AcDb2dPolyline
 66
     1
 10
0.0
 20
0.0
 30
0.0
 70
     1
  0
VERTEX
  5
2B4
330
2B3
100
AcDbEntity
  8
0
100
AcDbVertex
100
AcDb2dVertex
 10
245.32179146
 20
-218.14476954
 30
0.0
 42
-1.0
  0
VERTEX
  5
2B5
330
2B3
100
AcDbEntity
  8
0
100
AcDbVertex
100
AcDb2dVertex
 10
245.32179146
 20
-211.14476954
 30
0.0
  0
VERTEX
  5
2B6
330
2B3
100
AcDbEntity
  8
0
100
AcDbVertex
100
AcDb2dVertex
 10
258.32179146
 20
-211.14476954
 30
0.0
 42
-1.0
  0
VERTEX
  5
2B7
330
2B3
100
AcDbEntity
  8
0
100
AcDbVertex
100
AcDb2dVertex
 10
258.32179146
 20
-218.14476954
 30
0.0
  0
SEQEND
  5
2B8
330
2B3
100
AcDbEntity
  8
0
  0
CIRCLE
  5
2B9
330
1E
100
AcDbEntity
  8
0
100
AcDbCircle
 10
376.82179146
 20
-214.64476954
 30
0.0
 40
3.5
  0
CIRCLE
  5
2BA
330
1E
100
AcDbEntity
  8
0
100
AcDbCircle
 10
326.82179146
 20
-214.64476954
 30
0.0
 40
3.5
  0
CIRCLE
  5
2BB
330
1E
100
AcDbEntity
  8
0
100
AcDbCircle
 10
213.57179146
 20
-214.64476954
 30
0.0
 40
3.5
  0
LINE
  5
2BC
330
1E
100
AcDbEntity
  8
0
100
AcDbLine
 10
231.32179146
 20
-234.64476954
 30
0.0
 11
199.82179146
 21
-234.64476954
 31
0.0
  0
LINE
  5
2BD
330
1E
100
AcDbEntity
  8
0
100
AcDbLine
 10
391.82179146
 20
-234.64476954
 30
0.0
 11
235.32179146
 21
-234.64476954
 31
0.0
  0
LINE
  5
2BE
330
1E
100
AcDbEntity
  8
0
100
AcDbLine
 10
199.82179146
 20
-194.64476954
 30
0.0
 11
199.82179146
 21
-234.64476954
 31
0.0
  0
LINE
  5
2BF
330
1E
100
AcDbEntity
  8
0
100
AcDbLine
 10
235.32179146
 20
-194.64476954
 30
0.0
 11
391.82179146
 21
-194.64476954
 31
0.0
  0
LINE
  5
2C0
330
1E
100
AcDbEntity
  8
0
100
AcDbLine
 10
199.82179146
 20
-194.64476954
 30
0.0
 11
231.32179146
 21
-194.64476954
 31
0.0
  0
LINE
  5
2C1
330
1E
100
AcDbEntity
  8
0
100
AcDbLine
 10
391.82179146
 20
-194.64476954
 30
0.0
 11
391.82179146
 21
-234.64476954
 31
0.0
  0
LINE
  5
2C2
330
1E
100
AcDbEntity
  8
0
  6
STRICHPUNKT2
 62
     1
100
AcDbLine
 10
213.57179146
 20
-214.64476954
 30
0.0
 11
208.57179146
 21
-214.64476954
 31
0.0
  0
LINE
  5
2C3
330
1E
100
AcDbEntity
  8
0
  6
STRICHPUNKT2
 62
     1
100
AcDbLine
 10
213.57179146
 20
-214.64476954
 30
0.0
 11
218.57179146
 21
-214.64476954
 31
0.0
  0
LINE
  5
2C4
330
1E
100
AcDbEntity
  8
0
  6
STRICHPUNKT2
 62
     1
100
AcDbLine
 10
213.57179146
 20
-214.64476954
 30
0.0
 11
213.57179146
 21
-219.64476954
 31
0.0
  0
LINE
  5
2C5
330
1E
100
AcDbEntity
  8
0
  6
STRICHPUNKT2
 62
     1
100
AcDbLine
 10
213.57179146
 20
-214.64476954
 30
0.0
 11
213.57179146
 21
-209.64476954
 31
0.0
  0
LINE
  5
2C6
330
1E
100
AcDbEntity
  8
0
  6
STRICHPUNKT2
 62
     1
100
AcDbLine
 10
326.82179146
 20
-214.64476954
 30
0.0
 11
321.82179146
 21
-214.64476954
 31
0.0
  0
LINE
  5
2C7
330
1E
100
AcDbEntity
  8
0
  6
STRICHPUNKT2
 62
     1
100
AcDbLine
 10
326.82179146
 20
-214.64476954
 30
0.0
 11
331.82179146
 21
-214.64476954
 31
0.0
  0
LINE
  5
2C8
330
1E
100
AcDbEntity
  8
0
  6
STRICHPUNKT2
 62
     1
100
AcDbLine
 10
326.82179146
 20
-214.64476954
 30
0.0
 11
326.82179146
 21
-219.64476954
 31
0.0
  0
LINE
  5
2C9
330
1E
100
AcDbEntity
  8
0
  6
STRICHPUNKT2
 62
     1
100
AcDbLine
 10
326.82179146
 20
-214.64476954
 30
0.0
 11
326.82179146
 21
-209.64476954
 31
0.0
  0
LINE
  5
2CA
330
1E
100
AcDbEntity
  8
0
  6
STRICHPUNKT2
 62
     1
100
AcDbLine
 10
376.82179146
 20
-214.64476954
 30
0.0
 11
371.82179146
 21
-214.64476954
 31
0.0
  0
LINE
  5
2CB
330
1E
100
AcDbEntity
  8
0
  6
STRICHPUNKT2
 62
     1
100
AcDbLine
 10
376.82179146
 20
-214.64476954
 30
0.0
 11
381.82179146
 21
-214.64476954
 31
0.0
  0
LINE
  5
2CC
330
1E
100
AcDbEntity
  8
0
  6
STRICHPUNKT2
 62
     1
100
AcDbLine
 10
376.82179146
 20
-214.64476954
 30
0.0
 11
376.82179146
 21
-219.64476954
 31
0.0
  0
LINE
  5
2CD
330
1E
100
AcDbEntity
  8
0
  6
STRICHPUNKT2
 62
     1
100
AcDbLine
 10
376.82179146
 20
-214.64476954
 30
0.0
 11
376.82179146
 21
-209.64476954
 31
0.0
  0
LINE
  5
2CE
330
1E
100
AcDbEntity
  8
0
  6
STRICHPUNKT2
 62
     1
100
AcDbLine
 10
240.32179146
 20
-214.64476954
 30
0.0
 11
263.32179146
 21
-214.64476954
 31
0.0
  0
LINE
  5
2CF
330
1E
100
AcDbEntity
  8
0
  6
STRICHPUNKT2
 62
     1
100
AcDbLine
 10
245.32179146
 20
-219.64476954
 30
0.0
 11
245.32179146
 21
-209.64476954
 31
0.0
  0
LINE
  5
2D0
330
1E
100
AcDbEntity
  8
0
  6
STRICHPUNKT2
 62
     1
100
AcDbLine
 10
258.32179146
 20
-219.64476954
 30
0.0
 11
258.32179146
 21
-209.64476954
 31
0.0
  0
POLYLINE
  5
2D1
330
1E
100
AcDbEntity
  8
0
100
AcDb2dPolyline
 66
     1
 10
0.0
 20
0.0
 30
0.0
  0
VERTEX
  5
2D2
330
2D1
100
AcDbEntity
  8
0
100
AcDbVertex
100
AcDb2dVertex
 10
195.82179146
 20
-194.64476954
 30
0.0
  0
VERTEX
  5
2D3
330
2D1
100
AcDbEntity
  8
0
100
AcDbVertex
100
AcDb2dVertex
 10
195.82179146
 20
-234.64476954
 30
0.0
  0
VERTEX
  5
2D4
330
2D1
100
AcDbEntity
  8
0
100
AcDbVertex
100
AcDb2dVertex
 10
191.82179146
 20
-234.64476954
 30
0.0
  0
SEQEND
  5
2D5
330
2D1
100
AcDbEntity
  8
0
  0
LINE
  5
2D6
330
1E
100
AcDbEntity
  8
0
100
AcDbLine
 10
191.82179146
 20
-194.64476954
 30
0.0
 11
191.82179146
 21
-234.64476954
 31
0.0
  0
LINE
  5
2D7
330
1E
100
AcDbEntity
  8
0
100
AcDbLine
 10
195.82179146
 20
-194.64476954
 30
0.0
 11
191.82179146
 21
-194.64476954
 31
0.0
  0
LINE
  5
2D8
330
1E
100
AcDbEntity
  8
0
  6
STRICHPUNKT2
 62
     1
100
AcDbLine
 10
191.82179146
 20
-202.14476954
 30
0.0
 11
190.57179146
 21
-202.14476954
 31
0.0
  0
LINE
  5
2D9
330
1E
100
AcDbEntity
  8
0
  6
STRICHPUNKT2
 62
     1
100
AcDbLine
 10
197.07179146
 20
-202.14476954
 30
0.0
 11
195.82179146
 21
-202.14476954
 31
0.0
  0
LINE
  5
2DA
330
1E
100
AcDbEntity
  8
0
  6
STRICHPUNKT2
 62
     1
100
AcDbLine
 10
191.82179146
 20
-214.64476954
 30
0.0
 11
190.32179146
 21
-214.64476954
 31
0.0
  0
LINE
  5
2DB
330
1E
100
AcDbEntity
  8
0
  6
STRICHPUNKT2
 62
     1
100
AcDbLine
 10
197.32179146
 20
-214.64476954
 30
0.0
 11
195.82179146
 21
-214.64476954
 31
0.0
  0
POLYLINE
  5
2DC
330
1E
100
AcDbEntity
  8
0
100
AcDb2dPolyline
 66
     1
 10
0.0
 20
0.0
 30
0.0
  0
VERTEX
  5
2DD
330
2DC
100
AcDbEntity
  8
0
100
AcDbVertex
100
AcDb2dVertex
 10
195.82179146
 20
-194.64476954
 30
0.0
  0
VERTEX
  5
2DE
330
2DC
100
AcDbEntity
  8
0
100
AcDbVertex
100
AcDb2dVertex
 10
199.82179146
 20
-194.64476954
 30
0.0
  0
VERTEX
  5
2DF
330
2DC
100
AcDbEntity
  8
0
100
AcDbVertex
100
AcDb2dVertex
 10
199.82179146
 20
-234.64476954
 30
0.0
  0
VERTEX
  5
2E0
330
2DC
100
AcDbEntity
  8
0
100
AcDbVertex
100
AcDb2dVertex
 10
195.82179146
 20
-234.64476954
 30
0.0
  0
SEQEND
  5
2E1
330
2DC
100
AcDbEntity
  8
0
  0
POLYLINE
  5
2E2
330
1E
100
AcDbEntity
  8
0
100
AcDb2dPolyline
 66
     1
 10
0.0
 20
0.0
 30
0.0
  0
VERTEX
  5
2E3
330
2E2
100
AcDbEntity
  8
0
100
AcDbVertex
100
AcDb2dVertex
 10
235.32179146
 20
-194.64476954
 30
0.0
  0
VERTEX
  5
2E4
330
2E2
100
AcDbEntity
  8
0
100
AcDbVertex
100
AcDb2dVertex
 10
235.32179146
 20
-234.64476954
 30
0.0
  0
VERTEX
  5
2E5
330
2E2
100
AcDbEntity
  8
0
100
AcDbVertex
100
AcDb2dVertex
 10
231.32179146
 20
-234.64476954
 30
0.0
  0
SEQEND
  5
2E6
330
2E2
100
AcDbEntity
  8
0
  0
LINE
  5
2E7
330
1E
100
AcDbEntity
  8
0
100
AcDbLine
 10
231.32179146
 20
-194.64476954
 30
0.0
 11
231.32179146
 21
-234.64476954
 31
0.0
  0
LINE
  5
2E8
330
1E
100
AcDbEntity
  8
0
100
AcDbLine
 10
235.32179146
 20
-194.64476954
 30
0.0
 11
231.32179146
 21
-194.64476954
 31
0.0
  0
LINE
  5
2E9
330
1E
100
AcDbEntity
  8
0
  6
STRICHPUNKT2
 62
     1
100
AcDbLine
 10
231.32179146
 20
-227.14476954
 30
0.0
 11
230.07179146
 21
-227.14476954
 31
0.0
  0
LINE
  5
2EA
330
1E
100
AcDbEntity
  8
0
  6
STRICHPUNKT2
 62
     1
100
AcDbLine
 10
236.57179146
 20
-227.14476954
 30
0.0
 11
235.32179146
 21
-227.14476954
 31
0.0
  0
LINE
  5
2EB
330
1E
100
AcDbEntity
  8
0
  6
STRICHPUNKT2
 62
     1
100
AcDbLine
 10
231.32179146
 20
-214.64476954
 30
0.0
 11
229.82179146
 21
-214.64476954
 31
0.0
  0
LINE
  5
2EC
330
1E
100
AcDbEntity
  8
0
  6
STRICHPUNKT2
 62
     1
100
AcDbLine
 10
236.82179146
 20
-214.64476954
 30
0.0
 11
235.32179146
 21
-214.64476954
 31
0.0
  0
LINE
  5
2ED
330
1E
100
AcDbEntity
  8
0
100
AcDbLine
 10
326.82179146
 20
-199.64476954
 30
0.0
 11
326.82179146
 21
-202.64476954
 31
0.0
  0
LINE
  5
2EE
330
1E
100
AcDbEntity
  8
0
100
AcDbLine
 10
235.32179146
 20
-202.64476954
 30
0.0
 11
326.82179146
 21
-202.64476954
 31
0.0
  0
LINE
  5
2EF
330
1E
100
AcDbEntity
  8
0
100
AcDbLine
 10
235.32179146
 20
-199.64476954
 30
0.0
 11
235.32179146
 21
-202.64476954
 31
0.0
  0
LINE
  5
2F0
330
1E
100
AcDbEntity
  8
0
100
AcDbLine
 10
326.82179146
 20
-199.64476954
 30
0.0
 11
235.32179146
 21
-199.64476954
 31
0.0
  0
TEXT
  5
2F1
330
1E
100
AcDbEntity
  8
TXT_DIM49
100
AcDbText
 10
192.89433931
 20
-21.71350166
 30
0.0
 40
2.5
  1
8
  7
ARIAL
100
AcDbText
  0
LINE
  5
2F2
330
1E
100
AcDbEntity
  8
0
 62
     4
100
AcDbLine
 10
192.82179146
 20
-22.21350166
 30
0.0
 11
190.82179146
 21
-24.21350166
 31
0.0
  0
LINE
  5
2F3
330
1E
100
AcDbEntity
  8
0
 62
     4
100
AcDbLine
 10
195.07179146
 20
-23.96350166
 30
0.0
 11
196.57179146
 21
-22.46350166
 31
0.0
  0
LINE
  5
2F4
330
1E
100
AcDbEntity
  8
0
 62
     4
100
AcDbLine
 10
191.82179146
 20
-23.21350166
 30
0.0
 11
195.82179146
 21
-23.21350166
 31
0.0
  0
LINE
  5
2F5
330
1E
100
AcDbEntity
  8
0
 62
     4
100
AcDbLine
 10
191.82179146
 20
-25.21350166
 30
0.0
 11
191.82179146
 21
-21.21350166
 31
0.0
  0
LINE
  5
2F6
330
1E
100
AcDbEntity
  8
0
 62
     4
100
AcDbLine
 10
195.82179146
 20
-25.21350166
 30
0.0
 11
195.82179146
 21
-21.21350166
 31
0.0
  0
TEXT
  5
2F7
330
1E
100
AcDbEntity
  8
TXT_DIM49
100
AcDbText
 10
211.71688717
 20
-21.71350166
 30
0.0
 40
2.5
  1
71
  7
ARIAL
100
AcDbText
  0
LINE
  5
2F8
330
1E
100
AcDbEntity
  8
0
 62
     4
100
AcDbLine
 10
196.82179146
 20
-22.21350166
 30
0.0
 11
194.82179146
 21
-24.21350166
 31
0.0
  0
LINE
  5
2F9
330
1E
100
AcDbEntity
  8
0
 62
     4
100
AcDbLine
 10
230.57179146
 20
-23.96350166
 30
0.0
 11
232.07179146
 21
-22.46350166
 31
0.0
  0
LINE
  5
2FA
330
1E
100
AcDbEntity
  8
0
 62
     4
100
AcDbLine
 10
195.82179146
 20
-23.21350166
 30
0.0
 11
231.32179146
 21
-23.21350166
 31
0.0
  0
LINE
  5
2FB
330
1E
100
AcDbEntity
  8
0
 62
     4
100
AcDbLine
 10
195.82179146
 20
-25.21350166
 30
0.0
 11
195.82179146
 21
-21.21350166
 31
0.0
  0
LINE
  5
2FC
330
1E
100
AcDbEntity
  8
0
 62
     4
100
AcDbLine
 10
231.32179146
 20
-25.21350166
 30
0.0
 11
231.32179146
 21
-21.21350166
 31
0.0
  0
TEXT
  5
2FD
330
1E
100
AcDbEntity
  8
TXT_DIM49
100
AcDbText
 10
232.39433931
 20
-21.71350166
 30
0.0
 40
2.5
  1
8
  7
ARIAL
100
AcDbText
  0
LINE
  5
2FE
330
1E
100
AcDbEntity
  8
0
 62
     4
100
AcDbLine
 10
232.32179146
 20
-22.21350166
 30
0.0
 11
230.32179146
 21
-24.21350166
 31
0.0
  0
LINE
  5
2FF
330
1E
100
AcDbEntity
  8
0
 62
     4
100
AcDbLine
 10
234.57179146
 20
-23.96350166
 30
0.0
 11
236.07179146
 21
-22.46350166
 31
0.0
  0
LINE
  5
300
330
1E
100
AcDbEntity
  8
0
 62
     4
100
AcDbLine
 10
231.32179146
 20
-23.21350166
 30
0.0
 11
235.32179146
 21
-23.21350166
 31
0.0
  0
LINE
  5
301
330
1E
100
AcDbEntity
  8
0
 62
     4
100
AcDbLine
 10
231.32179146
 20
-25.21350166
 30
0.0
 11
231.32179146
 21
-21.21350166
 31
0.0
  0
LINE
  5
302
330
1E
100
AcDbEntity
  8
0
 62
     4
100
AcDbLine
 10
235.32179146
 20
-25.21350166
 30
0.0
 11
235.32179146
 21
-21.21350166
 31
0.0
  0
TEXT
  5
303
330
1E
100
AcDbEntity
  8
TXT_DIM49
100
AcDbText
 10
310.78943496
 20
-21.71350166
 30
0.0
 40
2.5
  1
313
  7
ARIAL
100
AcDbText
  0
LINE
  5
304
330
1E
100
AcDbEntity
  8
0
 62
     4
100
AcDbLine
 10
236.32179146
 20
-22.21350166
 30
0.0
 11
234.32179146
 21
-24.21350166
 31
0.0
  0
LINE
  5
305
330
1E
100
AcDbEntity
  8
0
 62
     4
100
AcDbLine
 10
391.07179146
 20
-23.96350166
 30
0.0
 11
392.57179146
 21
-22.46350166
 31
0.0
  0
LINE
  5
306
330
1E
100
AcDbEntity
  8
0
 62
     4
100
AcDbLine
 10
235.32179146
 20
-23.21350166
 30
0.0
 11
391.82179146
 21
-23.21350166
 31
0.0
  0
LINE
  5
307
330
1E
100
AcDbEntity
  8
0
 62
     4
100
AcDbLine
 10
235.32179146
 20
-25.21350166
 30
0.0
 11
235.32179146
 21
-21.21350166
 31
0.0
  0
LINE
  5
308
330
1E
100
AcDbEntity
  8
0
 62
     4
100
AcDbLine
 10
391.82179146
 20
-25.21350166
 30
0.0
 11
391.82179146
 21
-21.21350166
 31
0.0
  0
TEXT
  5
309
330
1E
100
AcDbEntity
  8
TXT_DIM49
100
AcDbText
 10
396.99031904
 20
-164.3095092
 30
0.0
 40
2.5
  1
8
 50
90.00020741
  7
ARIAL
100
AcDbText
  0
LINE
  5
30A
330
1E
100
AcDbEntity
  8
0
 62
     4
100
AcDbLine
 10
399.49031904
 20
-162.38205705
 30
0.0
 11
397.49031904
 21
-160.38205705
 31
0.0
  0
LINE
  5
30B
330
1E
100
AcDbEntity
  8
0
 62
     4
100
AcDbLine
 10
397.74031904
 20
-164.63205705
 30
0.0
 11
399.24031904
 21
-166.13205705
 31
0.0
  0
LINE
  5
30C
330
1E
100
AcDbEntity
  8
0
 62
     4
100
AcDbLine
 10
398.49031904
 20
-161.38205705
 30
0.0
 11
398.49031904
 21
-165.38205705
 31
0.0
  0
LINE
  5
30D
330
1E
100
AcDbEntity
  8
0
 62
     4
100
AcDbLine
 10
396.49031904
 20
-161.38205705
 30
0.0
 11
400.49031904
 21
-161.38205705
 31
0.0
  0
LINE
  5
30E
330
1E
100
AcDbEntity
  8
0
 62
     4
100
AcDbLine
 10
396.49031904
 20
-165.38205705
 30
0.0
 11
400.49031904
 21
-165.38205705
 31
0.0
  0
TEXT
  5
30F
330
1E
100
AcDbEntity
  8
TXT_DIM49
100
AcDbText
 10
266.16293473
 20
-109.2847757
 30
0.0
 40
2.5
  1
50
 50
39.00123735
  7
ARIAL
100
AcDbText
  0
LINE
  5
310
330
1E
100
AcDbEntity
  8
0
 62
     4
100
AcDbLine
 10
258.98194753
 20
-115.74320419
 30
0.0
 11
258.68629638
 21
-118.55613689
 31
0.0
  0
LINE
  5
311
330
1E
100
AcDbEntity
  8
0
 62
     4
100
AcDbLine
 10
278.15190225
 20
-102.47151035
 30
0.0
 11
278.37364062
 21
-100.36181083
 31
0.0
  0
LINE
  5
312
330
1E
100
AcDbEntity
  8
0
 62
     4
100
AcDbLine
 10
258.83412195
 20
-117.14967054
 30
0.0
 11
278.26277143
 21
-101.41666059
 31
0.0
  0
TEXT
  5
313
330
1E
100
AcDbEntity
  8
TXT_DIM49
100
AcDbText
 10
285.67298873
 20
-97.57931161
 30
0.0
 40
2.5
  1
291
 50
309.001026524
  7
ARIAL
100
AcDbText
  0
LINE
  5
314
330
1E
100
AcDbEntity
  8
0
 62
     4
100
AcDbLine
 10
241.9147298
 20
-44.33686932
 30
0.0
 11
239.1017971
 21
-44.04121817
 31
0.0
  0
LINE
  5
315
330
1E
100
AcDbEntity
  8
0
 62
     4
100
AcDbLine
 10
330.95341368
 20
-157.07126571
 30
0.0
 11
333.06311321
 21
-157.29300408
 31
0.0
  0
LINE
  5
316
330
1E
100
AcDbEntity
  8
0
 62
     4
100
AcDbLine
 10
240.50826345
 20
-44.18904375
 30
0.0
 11
332.00826345
 21
-157.1821349
 31
0.0
  0
LINE
  5
317
330
1E
100
AcDbEntity
  8
0
 62
     4
100
AcDbLine
 10
238.95397152
 20
-45.44768452
 30
0.0
 11
242.06255538
 21
-42.93040297
 31
0.0
  0
LINE
  5
318
330
1E
100
AcDbEntity
  8
0
 62
     4
100
AcDbLine
 10
330.45397152
 20
-158.44077567
 30
0.0
 11
333.56255538
 21
-155.92349412
 31
0.0
  0
TEXT
  5
319
330
1E
100
AcDbEntity
  8
TXT_DIM49
100
AcDbText
 10
289.03943496
 20
-175.88205705
 30
0.0
 40
2.5
  1
400
  7
ARIAL
100
AcDbText
  0
LINE
  5
31A
330
1E
100
AcDbEntity
  8
0
 62
     4
100
AcDbLine
 10
192.82179146
 20
-176.38205705
 30
0.0
 11
190.82179146
 21
-178.38205705
 31
0.0
  0
LINE
  5
31B
330
1E
100
AcDbEntity
  8
0
 62
     4
100
AcDbLine
 10
391.07179146
 20
-178.13205705
 30
0.0
 11
392.57179146
 21
-176.63205705
 31
0.0
  0
LINE
  5
31C
330
1E
100
AcDbEntity
  8
0
 62
     4
100
AcDbLine
 10
191.82179146
 20
-177.38205705
 30
0.0
 11
391.82179146
 21
-177.38205705
 31
0.0
  0
LINE
  5
31D
330
1E
100
AcDbEntity
  8
0
 62
     4
100
AcDbLine
 10
191.82179146
 20
-175.38205705
 30
0.0
 11
191.82179146
 21
-179.38205705
 31
0.0
  0
LINE
  5
31E
330
1E
100
AcDbEntity
  8
0
 62
     4
100
AcDbLine
 10
391.82179146
 20
-175.38205705
 30
0.0
 11
391.82179146
 21
-179.38205705
 31
0.0
  0
TEXT
  5
31F
330
1E
100
AcDbEntity
  8
TXT_DIM49
100
AcDbText
 10
181.9264565
 20
-99.41441355
 30
0.0
 40
2.5
  1
275
 50
90.00020741
  7
ARIAL
100
AcDbText
  0
LINE
  5
320
330
1E
100
AcDbEntity
  8
0
 62
     4
100
AcDbLine
 10
182.4264565
 20
-164.38205705
 30
0.0
 11
184.4264565
 21
-166.38205705
 31
0.0
  0
LINE
  5
321
330
1E
100
AcDbEntity
  8
0
 62
     4
100
AcDbLine
 10
184.1764565
 20
-28.63205705
 30
0.0
 11
182.6764565
 21
-27.13205705
 31
0.0
  0
LINE
  5
322
330
1E
100
AcDbEntity
  8
0
 62
     4
100
AcDbLine
 10
183.4264565
 20
-165.38205705
 30
0.0
 11
183.4264565
 21
-27.88205705
 31
0.0
  0
LINE
  5
323
330
1E
100
AcDbEntity
  8
0
 62
     4
100
AcDbLine
 10
185.4264565
 20
-165.38205705
 30
0.0
 11
181.4264565
 21
-165.38205705
 31
0.0
  0
LINE
  5
324
330
1E
100
AcDbEntity
  8
0
 62
     4
100
AcDbLine
 10
185.4264565
 20
-27.88205705
 30
0.0
 11
181.4264565
 21
-27.88205705
 31
0.0
  0
TEXT
  5
325
330
1E
100
AcDbEntity
  8
TXT_DIM49
100
AcDbText
 10
415.17966382
 20
-21.74937428
 30
0.0
 40
2.5
  1
15
  7
ARIAL
100
AcDbText
  0
LINE
  5
326
330
1E
100
AcDbEntity
  8
0
 62
     4
100
AcDbLine
 10
414.28456811
 20
-22.24937428
 30
0.0
 11
412.28456811
 21
-24.24937428
 31
0.0
  0
LINE
  5
327
330
1E
100
AcDbEntity
  8
0
 62
     4
100
AcDbLine
 10
420.03456811
 20
-23.99937428
 30
0.0
 11
421.53456811
 21
-22.49937428
 31
0.0
  0
LINE
  5
328
330
1E
100
AcDbEntity
  8
0
 62
     4
100
AcDbLine
 10
413.28456811
 20
-23.24937428
 30
0.0
 11
420.78456811
 21
-23.24937428
 31
0.0
  0
LINE
  5
329
330
1E
100
AcDbEntity
  8
0
 62
     4
100
AcDbLine
 10
413.28456811
 20
-25.24937428
 30
0.0
 11
413.28456811
 21
-21.24937428
 31
0.0
  0
LINE
  5
32A
330
1E
100
AcDbEntity
  8
0
 62
     4
100
AcDbLine
 10
420.78456811
 20
-25.24937428
 30
0.0
 11
420.78456811
 21
-21.24937428
 31
0.0
  0
TEXT
  5
32B
330
1E
100
AcDbEntity
  8
TXT_DIM49
100
AcDbText
 10
425.17966382
 20
-21.74937428
 30
0.0
 40
2.5
  1
25
  7
ARIAL
100
AcDbText
  0
LINE
  5
32C
330
1E
100
AcDbEntity
  8
0
 62
     4
100
AcDbLine
 10
421.78456811
 20
-22.24937428
 30
0.0
 11
419.78456811
 21
-24.24937428
 31
0.0
  0
LINE
  5
32D
330
1E
100
AcDbEntity
  8
0
 62
     4
100
AcDbLine
 10
432.53456811
 20
-23.99937428
 30
0.0
 11
434.03456811
 21
-22.49937428
 31
0.0
  0
LINE
  5
32E
330
1E
100
AcDbEntity
  8
0
 62
     4
100
AcDbLine
 10
420.78456811
 20
-23.24937428
 30
0.0
 11
433.28456811
 21
-23.24937428
 31
0.0
  0
LINE
  5
32F
330
1E
100
AcDbEntity
  8
0
 62
     4
100
AcDbLine
 10
420.78456811
 20
-25.24937428
 30
0.0
 11
420.78456811
 21
-21.24937428
 31
0.0
  0
LINE
  5
330
330
1E
100
AcDbEntity
  8
0
 62
     4
100
AcDbLine
 10
433.28456811
 20
-25.24937428
 30
0.0
 11
433.28456811
 21
-21.24937428
 31
0.0
  0
TEXT
  5
331
330
1E
100
AcDbEntity
  8
TXT_DIM49
100
AcDbText
 10
441.42966382
 20
-21.74937428
 30
0.0
 40
2.5
  1
40
  7
ARIAL
100
AcDbText
  0
LINE
  5
332
330
1E
100
AcDbEntity
  8
0
 62
     4
100
AcDbLine
 10
434.28456811
 20
-22.24937428
 30
0.0
 11
432.28456811
 21
-24.24937428
 31
0.0
  0
LINE
  5
333
330
1E
100
AcDbEntity
  8
0
 62
     4
100
AcDbLine
 10
452.53456811
 20
-23.99937428
 30
0.0
 11
454.03456811
 21
-22.49937428
 31
0.0
  0
LINE
  5
334
330
1E
100
AcDbEntity
  8
0
 62
     4
100
AcDbLine
 10
433.28456811
 20
-23.24937428
 30
0.0
 11
453.28456811
 21
-23.24937428
 31
0.0
  0
LINE
  5
335
330
1E
100
AcDbEntity
  8
0
 62
     4
100
AcDbLine
 10
433.28456811
 20
-25.24937428
 30
0.0
 11
433.28456811
 21
-21.24937428
 31
0.0
  0
LINE
  5
336
330
1E
100
AcDbEntity
  8
0
 62
     4
100
AcDbLine
 10
453.28456811
 20
-25.24937428
 30
0.0
 11
453.28456811
 21
-21.24937428
 31
0.0
  0
TEXT
  5
337
330
1E
100
AcDbEntity
  8
TXT_DIM49
100
AcDbText
 10
459.03894847
 20
-149.73696135
 30
0.0
 40
2.5
  1
70
 50
90.00020741
  7
ARIAL
100
AcDbText
  0
LINE
  5
338
330
1E
100
AcDbEntity
  8
0
 62
     4
100
AcDbLine
 10
459.53894847
 20
-164.38205705
 30
0.0
 11
461.53894847
 21
-166.38205705
 31
0.0
  0
LINE
  5
339
330
1E
100
AcDbEntity
  8
0
 62
     4
100
AcDbLine
 10
461.28894847
 20
-131.13205705
 30
0.0
 11
459.78894847
 21
-129.63205705
 31
0.0
  0
LINE
  5
33A
330
1E
100
AcDbEntity
  8
0
 62
     4
100
AcDbLine
 10
460.53894847
 20
-165.38205705
 30
0.0
 11
460.53894847
 21
-130.38205705
 31
0.0
  0
LINE
  5
33B
330
1E
100
AcDbEntity
  8
0
 62
     4
100
AcDbLine
 10
458.53894847
 20
-165.38205705
 30
0.0
 11
462.53894847
 21
-165.38205705
 31
0.0
  0
LINE
  5
33C
330
1E
100
AcDbEntity
  8
0
 62
     4
100
AcDbLine
 10
458.53894847
 20
-130.38205705
 30
0.0
 11
462.53894847
 21
-130.38205705
 31
0.0
  0
TEXT
  5
33D
330
1E
100
AcDbEntity
  8
TXT_DIM49
100
AcDbText
 10
459.03894847
 20
-93.16441355
 30
0.0
 40
2.5
  1
160
 50
90.00020741
  7
ARIAL
100
AcDbText
  0
LINE
  5
33E
330
1E
100
AcDbEntity
  8
0
 62
     4
100
AcDbLine
 10
459.53894847
 20
-129.38205705
 30
0.0
 11
461.53894847
 21
-131.38205705
 31
0.0
  0
LINE
  5
33F
330
1E
100
AcDbEntity
  8
0
 62
     4
100
AcDbLine
 10
461.28894847
 20
-51.13205705
 30
0.0
 11
459.78894847
 21
-49.63205705
 31
0.0
  0
LINE
  5
340
330
1E
100
AcDbEntity
  8
0
 62
     4
100
AcDbLine
 10
460.53894847
 20
-130.38205705
 30
0.0
 11
460.53894847
 21
-50.38205705
 31
0.0
  0
LINE
  5
341
330
1E
100
AcDbEntity
  8
0
 62
     4
100
AcDbLine
 10
458.53894847
 20
-130.38205705
 30
0.0
 11
462.53894847
 21
-130.38205705
 31
0.0
  0
LINE
  5
342
330
1E
100
AcDbEntity
  8
0
 62
     4
100
AcDbLine
 10
458.53894847
 20
-50.38205705
 30
0.0
 11
462.53894847
 21
-50.38205705
 31
0.0
  0
TEXT
  5
343
330
1E
100
AcDbEntity
  8
TXT_DIM49
100
AcDbText
 10
459.03894847
 20
-40.98696135
 30
0.0
 40
2.5
  1
45
 50
90.00020741
  7
ARIAL
100
AcDbText
  0
LINE
  5
344
330
1E
100
AcDbEntity
  8
0
 62
     4
100
AcDbLine
 10
459.53894847
 20
-49.38205705
 30
0.0
 11
461.53894847
 21
-51.38205705
 31
0.0
  0
LINE
  5
345
330
1E
100
AcDbEntity
  8
0
 62
     4
100
AcDbLine
 10
461.28894847
 20
-28.63205705
 30
0.0
 11
459.78894847
 21
-27.13205705
 31
0.0
  0
LINE
  5
346
330
1E
100
AcDbEntity
  8
0
 62
     4
100
AcDbLine
 10
460.53894847
 20
-50.38205705
 30
0.0
 11
460.53894847
 21
-27.88205705
 31
0.0
  0
LINE
  5
347
330
1E
100
AcDbEntity
  8
0
 62
     4
100
AcDbLine
 10
458.53894847
 20
-50.38205705
 30
0.0
 11
462.53894847
 21
-50.38205705
 31
0.0
  0
LINE
  5
348
330
1E
100
AcDbEntity
  8
0
 62
     4
100
AcDbLine
 10
458.53894847
 20
-27.88205705
 30
0.0
 11
462.53894847
 21
-27.88205705
 31
0.0
  0
TEXT
  5
349
330
1E
100
AcDbEntity
  8
TXT_DIM49
100
AcDbText
 10
404.81627448
 20
-34.73696135
 30
0.0
 40
2.5
  1
20
 50
90.00020741
  7
ARIAL
100
AcDbText
  0
LINE
  5
34A
330
1E
100
AcDbEntity
  8
0
 62
     4
100
AcDbLine
 10
407.31627448
 20
-28.88205705
 30
0.0
 11
405.31627448
 21
-26.88205705
 31
0.0
  0
LINE
  5
34B
330
1E
100
AcDbEntity
  8
0
 62
     4
100
AcDbLine
 10
405.56627448
 20
-37.13205705
 30
0.0
 11
407.06627448
 21
-38.63205705
 31
0.0
  0
LINE
  5
34C
330
1E
100
AcDbEntity
  8
0
 62
     4
100
AcDbLine
 10
406.31627448
 20
-27.88205705
 30
0.0
 11
406.31627448
 21
-37.88205705
 31
0.0
  0
LINE
  5
34D
330
1E
100
AcDbEntity
  8
0
 62
     4
100
AcDbLine
 10
408.31627448
 20
-27.88205705
 30
0.0
 11
404.31627448
 21
-27.88205705
 31
0.0
  0
LINE
  5
34E
330
1E
100
AcDbEntity
  8
0
 62
     4
100
AcDbLine
 10
408.31627448
 20
-37.88205705
 30
0.0
 11
404.31627448
 21
-37.88205705
 31
0.0
  0
TEXT
  5
34F
330
1E
100
AcDbEntity
  8
TXT_DIM49
100
AcDbText
 10
404.81627448
 20
-104.41441355
 30
0.0
 40
2.5
  1
255
 50
90.00020741
  7
ARIAL
100
AcDbText
  0
LINE
  5
350
330
1E
100
AcDbEntity
  8
0
 62
     4
100
AcDbLine
 10
407.31627448
 20
-38.88205705
 30
0.0
 11
405.31627448
 21
-36.88205705
 31
0.0
  0
LINE
  5
351
330
1E
100
AcDbEntity
  8
0
 62
     4
100
AcDbLine
 10
405.56627448
 20
-164.63205705
 30
0.0
 11
407.06627448
 21
-166.13205705
 31
0.0
  0
LINE
  5
352
330
1E
100
AcDbEntity
  8
0
 62
     4
100
AcDbLine
 10
406.31627448
 20
-37.88205705
 30
0.0
 11
406.31627448
 21
-165.38205705
 31
0.0
  0
LINE
  5
353
330
1E
100
AcDbEntity
  8
0
 62
     4
100
AcDbLine
 10
408.31627448
 20
-37.88205705
 30
0.0
 11
404.31627448
 21
-37.88205705
 31
0.0
  0
LINE
  5
354
330
1E
100
AcDbEntity
  8
0
 62
     4
100
AcDbLine
 10
408.31627448
 20
-165.38205705
 30
0.0
 11
404.31627448
 21
-165.38205705
 31
0.0
  0
LINE
  5
355
330
1E
100
AcDbEntity
  8
0
 62
     5
100
AcDbLine
 10
433.28456811
 20
-130.38205705
 30
0.0
 11
429.94312945
 21
-137.9529819
 31
0.0
  0
TEXT
  5
356
330
1E
100
AcDbEntity
  8
TXT_DIM49
100
AcDbText
 10
423.65937738
 20
-139.2029819
 30
0.0
 40
2.5
  1
Ø12
  7
ARIAL
 11
423.65937738
 21
-137.9529819
 31
0.0
100
AcDbText
 73
     2
  0
LINE
  5
357
330
1E
100
AcDbEntity
  8
0
 62
     5
100
AcDbLine
 10
433.28456811
 20
-50.38205705
 30
0.0
 11
428.68176761
 21
-58.03440045
 31
0.0
  0
TEXT
  5
358
330
1E
100
AcDbEntity
  8
TXT_DIM49
100
AcDbText
 10
422.39801554
 20
-59.28440045
 30
0.0
 40
2.5
  1
Ø12
  7
ARIAL
 11
422.39801554
 21
-58.03440045
 31
0.0
100
AcDbText
 73
     2
  0
LINE
  5
359
330
1E
100
AcDbEntity
  8
0
 62
     5
100
AcDbLine
 10
420.78456811
 20
-37.88205705
 30
0.0
 11
424.17801308
 21
-44.04193965
 31
0.0
  0
TEXT
  5
35A
330
1E
100
AcDbEntity
  8
TXT_DIM49
100
AcDbText
 10
424.17801308
 20
-45.29193965
 30
0.0
 40
2.5
  1
Ø10
  7
ARIAL
 11
424.17801308
 21
-44.04193965
 31
0.0
100
AcDbText
 73
     2
  0
TEXT
  5
35B
330
1E
100
AcDbEntity
  8
TXT_DIM49
100
AcDbText
 10
157.00543786
 20
-149.73696135
 30
0.0
 40
2.5
  1
70
 50
90.00020741
  7
ARIAL
100
AcDbText
  0
LINE
  5
35C
330
1E
100
AcDbEntity
  8
0
 62
     4
100
AcDbLine
 10
157.50543786
 20
-164.38205705
 30
0.0
 11
159.50543786
 21
-166.38205705
 31
0.0
  0
LINE
  5
35D
330
1E
100
AcDbEntity
  8
0
 62
     4
100
AcDbLine
 10
159.25543786
 20
-131.13205705
 30
0.0
 11
157.75543786
 21
-129.63205705
 31
0.0
  0
LINE
  5
35E
330
1E
100
AcDbEntity
  8
0
 62
     4
100
AcDbLine
 10
158.50543786
 20
-165.38205705
 30
0.0
 11
158.50543786
 21
-130.38205705
 31
0.0
  0
LINE
  5
35F
330
1E
100
AcDbEntity
  8
0
 62
     4
100
AcDbLine
 10
156.50543786
 20
-165.38205705
 30
0.0
 11
160.50543786
 21
-165.38205705
 31
0.0
  0
LINE
  5
360
330
1E
100
AcDbEntity
  8
0
 62
     4
100
AcDbLine
 10
156.50543786
 20
-130.38205705
 30
0.0
 11
160.50543786
 21
-130.38205705
 31
0.0
  0
TEXT
  5
361
330
1E
100
AcDbEntity
  8
TXT_DIM49
100
AcDbText
 10
157.00543786
 20
-93.16441355
 30
0.0
 40
2.5
  1
160
 50
90.00020741
  7
ARIAL
100
AcDbText
  0
LINE
  5
362
330
1E
100
AcDbEntity
  8
0
 62
     4
100
AcDbLine
 10
157.50543786
 20
-129.38205705
 30
0.0
 11
159.50543786
 21
-131.38205705
 31
0.0
  0
LINE
  5
363
330
1E
100
AcDbEntity
  8
0
 62
     4
100
AcDbLine
 10
159.25543786
 20
-51.13205705
 30
0.0
 11
157.75543786
 21
-49.63205705
 31
0.0
  0
LINE
  5
364
330
1E
100
AcDbEntity
  8
0
 62
     4
100
AcDbLine
 10
158.50543786
 20
-130.38205705
 30
0.0
 11
158.50543786
 21
-50.38205705
 31
0.0
  0
LINE
  5
365
330
1E
100
AcDbEntity
  8
0
 62
     4
100
AcDbLine
 10
156.50543786
 20
-130.38205705
 30
0.0
 11
160.50543786
 21
-130.38205705
 31
0.0
  0
LINE
  5
366
330
1E
100
AcDbEntity
  8
0
 62
     4
100
AcDbLine
 10
156.50543786
 20
-50.38205705
 30
0.0
 11
160.50543786
 21
-50.38205705
 31
0.0
  0
TEXT
  5
367
330
1E
100
AcDbEntity
  8
TXT_DIM49
100
AcDbText
 10
157.00543786
 20
-40.98696135
 30
0.0
 40
2.5
  1
45
 50
90.00020741
  7
ARIAL
100
AcDbText
  0
LINE
  5
368
330
1E
100
AcDbEntity
  8
0
 62
     4
100
AcDbLine
 10
157.50543786
 20
-49.38205705
 30
0.0
 11
159.50543786
 21
-51.38205705
 31
0.0
  0
LINE
  5
369
330
1E
100
AcDbEntity
  8
0
 62
     4
100
AcDbLine
 10
159.25543786
 20
-28.63205705
 30
0.0
 11
157.75543786
 21
-27.13205705
 31
0.0
  0
LINE
  5
36A
330
1E
100
AcDbEntity
  8
0
 62
     4
100
AcDbLine
 10
158.50543786
 20
-50.38205705
 30
0.0
 11
158.50543786
 21
-27.88205705
 31
0.0
  0
LINE
  5
36B
330
1E
100
AcDbEntity
  8
0
 62
     4
100
AcDbLine
 10
156.50543786
 20
-50.38205705
 30
0.0
 11
160.50543786
 21
-50.38205705
 31
0.0
  0
LINE
  5
36C
330
1E
100
AcDbEntity
  8
0
 62
     4
100
AcDbLine
 10
156.50543786
 20
-27.88205705
 30
0.0
 11
160.50543786
 21
-27.88205705
 31
0.0
  0
TEXT
  5
36D
330
1E
100
AcDbEntity
  8
TXT_DIM49
100
AcDbText
 10
101.58730081
 20
-37.23696135
 30
0.0
 40
2.5
  1
30
 50
90.00020741
  7
ARIAL
100
AcDbText
  0
LINE
  5
36E
330
1E
100
AcDbEntity
  8
0
 62
     4
100
AcDbLine
 10
104.08730081
 20
-28.88205705
 30
0.0
 11
102.08730081
 21
-26.88205705
 31
0.0
  0
LINE
  5
36F
330
1E
100
AcDbEntity
  8
0
 62
     4
100
AcDbLine
 10
102.33730081
 20
-42.13205705
 30
0.0
 11
103.83730081
 21
-43.63205705
 31
0.0
  0
LINE
  5
370
330
1E
100
AcDbEntity
  8
0
 62
     4
100
AcDbLine
 10
103.08730081
 20
-27.88205705
 30
0.0
 11
103.08730081
 21
-42.88205705
 31
0.0
  0
LINE
  5
371
330
1E
100
AcDbEntity
  8
0
 62
     4
100
AcDbLine
 10
105.08730081
 20
-27.88205705
 30
0.0
 11
101.08730081
 21
-27.88205705
 31
0.0
  0
LINE
  5
372
330
1E
100
AcDbEntity
  8
0
 62
     4
100
AcDbLine
 10
105.08730081
 20
-42.88205705
 30
0.0
 11
101.08730081
 21
-42.88205705
 31
0.0
  0
TEXT
  5
373
330
1E
100
AcDbEntity
  8
TXT_DIM49
100
AcDbText
 10
101.58730081
 20
-106.91441355
 30
0.0
 40
2.5
  1
245
 50
90.00020741
  7
ARIAL
100
AcDbText
  0
LINE
  5
374
330
1E
100
AcDbEntity
  8
0
 62
     4
100
AcDbLine
 10
104.08730081
 20
-43.88205705
 30
0.0
 11
102.08730081
 21
-41.88205705
 31
0.0
  0
LINE
  5
375
330
1E
100
AcDbEntity
  8
0
 62
     4
100
AcDbLine
 10
102.33730081
 20
-164.63205705
 30
0.0
 11
103.83730081
 21
-166.13205705
 31
0.0
  0
LINE
  5
376
330
1E
100
AcDbEntity
  8
0
 62
     4
100
AcDbLine
 10
103.08730081
 20
-42.88205705
 30
0.0
 11
103.08730081
 21
-165.38205705
 31
0.0
  0
LINE
  5
377
330
1E
100
AcDbEntity
  8
0
 62
     4
100
AcDbLine
 10
105.08730081
 20
-42.88205705
 30
0.0
 11
101.08730081
 21
-42.88205705
 31
0.0
  0
LINE
  5
378
330
1E
100
AcDbEntity
  8
0
 62
     4
100
AcDbLine
 10
105.08730081
 20
-165.38205705
 30
0.0
 11
101.08730081
 21
-165.38205705
 31
0.0
  0
TEXT
  5
379
330
1E
100
AcDbEntity
  8
TXT_DIM49
100
AcDbText
 10
112.08384324
 20
-20.60628005
 30
0.0
 40
2.5
  1
15
  7
ARIAL
100
AcDbText
  0
LINE
  5
37A
330
1E
100
AcDbEntity
  8
0
 62
     4
100
AcDbLine
 10
111.18874754
 20
-21.10628005
 30
0.0
 11
109.18874754
 21
-23.10628005
 31
0.0
  0
LINE
  5
37B
330
1E
100
AcDbEntity
  8
0
 62
     4
100
AcDbLine
 10
116.93874754
 20
-22.85628005
 30
0.0
 11
118.43874754
 21
-21.35628005
 31
0.0
  0
LINE
  5
37C
330
1E
100
AcDbEntity
  8
0
 62
     4
100
AcDbLine
 10
110.18874754
 20
-22.10628005
 30
0.0
 11
117.68874754
 21
-22.10628005
 31
0.0
  0
LINE
  5
37D
330
1E
100
AcDbEntity
  8
0
 62
     4
100
AcDbLine
 10
110.18874754
 20
-24.10628005
 30
0.0
 11
110.18874754
 21
-20.10628005
 31
0.0
  0
LINE
  5
37E
330
1E
100
AcDbEntity
  8
0
 62
     4
100
AcDbLine
 10
117.68874754
 20
-24.10628005
 30
0.0
 11
117.68874754
 21
-20.10628005
 31
0.0
  0
TEXT
  5
37F
330
1E
100
AcDbEntity
  8
TXT_DIM49
100
AcDbText
 10
122.08384324
 20
-20.60628005
 30
0.0
 40
2.5
  1
25
  7
ARIAL
100
AcDbText
  0
LINE
  5
380
330
1E
100
AcDbEntity
  8
0
 62
     4
100
AcDbLine
 10
118.68874754
 20
-21.10628005
 30
0.0
 11
116.68874754
 21
-23.10628005
 31
0.0
  0
LINE
  5
381
330
1E
100
AcDbEntity
  8
0
 62
     4
100
AcDbLine
 10
129.43874754
 20
-22.85628005
 30
0.0
 11
130.93874754
 21
-21.35628005
 31
0.0
  0
LINE
  5
382
330
1E
100
AcDbEntity
  8
0
 62
     4
100
AcDbLine
 10
117.68874754
 20
-22.10628005
 30
0.0
 11
130.18874754
 21
-22.10628005
 31
0.0
  0
LINE
  5
383
330
1E
100
AcDbEntity
  8
0
 62
     4
100
AcDbLine
 10
117.68874754
 20
-24.10628005
 30
0.0
 11
117.68874754
 21
-20.10628005
 31
0.0
  0
LINE
  5
384
330
1E
100
AcDbEntity
  8
0
 62
     4
100
AcDbLine
 10
130.18874754
 20
-24.10628005
 30
0.0
 11
130.18874754
 21
-20.10628005
 31
0.0
  0
TEXT
  5
385
330
1E
100
AcDbEntity
  8
TXT_DIM49
100
AcDbText
 10
138.33384324
 20
-20.60628005
 30
0.0
 40
2.5
  1
40
  7
ARIAL
100
AcDbText
  0
LINE
  5
386
330
1E
100
AcDbEntity
  8
0
 62
     4
100
AcDbLine
 10
131.18874754
 20
-21.10628005
 30
0.0
 11
129.18874754
 21
-23.10628005
 31
0.0
  0
LINE
  5
387
330
1E
100
AcDbEntity
  8
0
 62
     4
100
AcDbLine
 10
149.43874754
 20
-22.85628005
 30
0.0
 11
150.93874754
 21
-21.35628005
 31
0.0
  0
LINE
  5
388
330
1E
100
AcDbEntity
  8
0
 62
     4
100
AcDbLine
 10
130.18874754
 20
-22.10628005
 30
0.0
 11
150.18874754
 21
-22.10628005
 31
0.0
  0
LINE
  5
389
330
1E
100
AcDbEntity
  8
0
 62
     4
100
AcDbLine
 10
130.18874754
 20
-24.10628005
 30
0.0
 11
130.18874754
 21
-20.10628005
 31
0.0
  0
LINE
  5
38A
330
1E
100
AcDbEntity
  8
0
 62
     4
100
AcDbLine
 10
150.18874754
 20
-24.10628005
 30
0.0
 11
150.18874754
 21
-20.10628005
 31
0.0
  0
LINE
  5
38B
330
1E
100
AcDbEntity
  8
0
 62
     5
100
AcDbLine
 10
117.68874754
 20
-42.88205705
 30
0.0
 11
119.64114631
 21
-49.35945244
 31
0.0
  0
TEXT
  5
38C
330
1E
100
AcDbEntity
  8
TXT_DIM49
100
AcDbText
 10
119.64114631
 20
-50.60945244
 30
0.0
 40
2.5
  1
Ø10
  7
ARIAL
 11
119.64114631
 21
-49.35945244
 31
0.0
100
AcDbText
 73
     2
  0
LINE
  5
38D
330
1E
100
AcDbEntity
  8
0
 62
     5
100
AcDbLine
 10
130.18874754
 20
-50.38205705
 30
0.0
 11
134.05235564
 21
-60.64108075
 31
0.0
  0
TEXT
  5
38E
330
1E
100
AcDbEntity
  8
TXT_DIM49
100
AcDbText
 10
134.05235564
 20
-61.89108075
 30
0.0
 40
2.5
  1
Ø12
  7
ARIAL
 11
134.05235564
 21
-60.64108075
 31
0.0
100
AcDbText
 73
     2
  0
LINE
  5
38F
330
1E
100
AcDbEntity
  8
0
 62
     5
100
AcDbLine
 10
130.18874754
 20
-130.38205705
 30
0.0
 11
134.54918502
 21
-139.47439535
 31
0.0
  0
TEXT
  5
390
330
1E
100
AcDbEntity
  8
TXT_DIM49
100
AcDbText
 10
134.54918502
 20
-140.72439535
 30
0.0
 40
2.5
  1
Ø12
  7
ARIAL
 11
134.54918502
 21
-139.47439535
 31
0.0
100
AcDbText
 73
     2
  0
TEXT
  5
391
330
1E
100
AcDbEntity
  8
TXT_DIM49
100
AcDbText
 10
178.32179146
 20
-216.49967384
 30
0.0
 40
2.5
  1
80
 50
90.00020741
  7
ARIAL
100
AcDbText
  0
LINE
  5
392
330
1E
100
AcDbEntity
  8
0
 62
     4
100
AcDbLine
 10
180.82179146
 20
-195.64476954
 30
0.0
 11
178.82179146
 21
-193.64476954
 31
0.0
  0
LINE
  5
393
330
1E
100
AcDbEntity
  8
0
 62
     4
100
AcDbLine
 10
179.07179146
 20
-233.89476954
 30
0.0
 11
180.57179146
 21
-235.39476954
 31
0.0
  0
LINE
  5
394
330
1E
100
AcDbEntity
  8
0
 62
     4
100
AcDbLine
 10
179.82179146
 20
-194.64476954
 30
0.0
 11
179.82179146
 21
-234.64476954
 31
0.0
  0
LINE
  5
395
330
1E
100
AcDbEntity
  8
0
 62
     4
100
AcDbLine
 10
181.82179146
 20
-194.64476954
 30
0.0
 11
177.82179146
 21
-194.64476954
 31
0.0
  0
LINE
  5
396
330
1E
100
AcDbEntity
  8
0
 62
     4
100
AcDbLine
 10
181.82179146
 20
-234.64476954
 30
0.0
 11
177.82179146
 21
-234.64476954
 31
0.0
  0
TEXT
  5
397
330
1E
100
AcDbEntity
  8
TXT_DIM49
100
AcDbText
 10
398.12261522
 20
-206.49967384
 30
0.0
 40
2.5
  1
40
 50
90.00020741
  7
ARIAL
100
AcDbText
  0
LINE
  5
398
330
1E
100
AcDbEntity
  8
0
 62
     4
100
AcDbLine
 10
400.62261522
 20
-195.64476954
 30
0.0
 11
398.62261522
 21
-193.64476954
 31
0.0
  0
LINE
  5
399
330
1E
100
AcDbEntity
  8
0
 62
     4
100
AcDbLine
 10
398.87261522
 20
-213.89476954
 30
0.0
 11
400.37261522
 21
-215.39476954
 31
0.0
  0
LINE
  5
39A
330
1E
100
AcDbEntity
  8
0
 62
     4
100
AcDbLine
 10
399.62261522
 20
-194.64476954
 30
0.0
 11
399.62261522
 21
-214.64476954
 31
0.0
  0
LINE
  5
39B
330
1E
100
AcDbEntity
  8
0
 62
     4
100
AcDbLine
 10
397.62261522
 20
-194.64476954
 30
0.0
 11
401.62261522
 21
-194.64476954
 31
0.0
  0
LINE
  5
39C
330
1E
100
AcDbEntity
  8
0
 62
     4
100
AcDbLine
 10
397.62261522
 20
-214.64476954
 30
0.0
 11
401.62261522
 21
-214.64476954
 31
0.0
  0
TEXT
  5
39D
330
1E
100
AcDbEntity
  8
TXT_DIM49
100
AcDbText
 10
398.12261522
 20
-226.49967384
 30
0.0
 40
2.5
  1
40
 50
90.00020741
  7
ARIAL
100
AcDbText
  0
LINE
  5
39E
330
1E
100
AcDbEntity
  8
0
 62
     4
100
AcDbLine
 10
400.62261522
 20
-215.64476954
 30
0.0
 11
398.62261522
 21
-213.64476954
 31
0.0
  0
LINE
  5
39F
330
1E
100
AcDbEntity
  8
0
 62
     4
100
AcDbLine
 10
398.87261522
 20
-233.89476954
 30
0.0
 11
400.37261522
 21
-235.39476954
 31
0.0
  0
LINE
  5
3A0
330
1E
100
AcDbEntity
  8
0
 62
     4
100
AcDbLine
 10
399.62261522
 20
-214.64476954
 30
0.0
 11
399.62261522
 21
-234.64476954
 31
0.0
  0
LINE
  5
3A1
330
1E
100
AcDbEntity
  8
0
 62
     4
100
AcDbLine
 10
397.62261522
 20
-214.64476954
 30
0.0
 11
401.62261522
 21
-214.64476954
 31
0.0
  0
LINE
  5
3A2
330
1E
100
AcDbEntity
  8
0
 62
     4
100
AcDbLine
 10
397.62261522
 20
-234.64476954
 30
0.0
 11
401.62261522
 21
-234.64476954
 31
0.0
  0
TEXT
  5
3A3
330
1E
100
AcDbEntity
  8
TXT_DIM49
100
AcDbText
 10
313.76076459
 20
-198.99967384
 30
0.0
 40
2.5
  1
10
 50
90.00020741
  7
ARIAL
100
AcDbText
  0
LINE
  5
3A4
330
1E
100
AcDbEntity
  8
0
 62
     4
100
AcDbLine
 10
316.26076459
 20
-195.64476954
 30
0.0
 11
314.26076459
 21
-193.64476954
 31
0.0
  0
LINE
  5
3A5
330
1E
100
AcDbEntity
  8
0
 62
     4
100
AcDbLine
 10
314.51076459
 20
-198.89476954
 30
0.0
 11
316.01076459
 21
-200.39476954
 31
0.0
  0
LINE
  5
3A6
330
1E
100
AcDbEntity
  8
0
 62
     4
100
AcDbLine
 10
315.26076459
 20
-194.64476954
 30
0.0
 11
315.26076459
 21
-199.64476954
 31
0.0
  0
LINE
  5
3A7
330
1E
100
AcDbEntity
  8
0
 62
     4
100
AcDbLine
 10
315.26076459
 20
-197.14476954
 30
0.0
 11
314.76076398
 21
-197.14476948
 31
0.0
  0
LINE
  5
3A8
330
1E
100
AcDbEntity
  8
0
 62
     4
100
AcDbLine
 10
317.26076459
 20
-194.64476954
 30
0.0
 11
313.26076459
 21
-194.64476954
 31
0.0
  0
LINE
  5
3A9
330
1E
100
AcDbEntity
  8
0
 62
     4
100
AcDbLine
 10
315.32677196
 20
-199.64476954
 30
0.0
 11
313.26076459
 21
-199.64476954
 31
0.0
  0
TEXT
  5
3AA
330
1E
100
AcDbEntity
  8
TXT_DIM49
100
AcDbText
 10
313.76076459
 20
-204.20457798
 30
0.0
 40
2.5
  1
6
 50
90.00020741
  7
ARIAL
100
AcDbText
  0
LINE
  5
3AB
330
1E
100
AcDbEntity
  8
0
 62
     4
100
AcDbLine
 10
316.26076459
 20
-200.64476954
 30
0.0
 11
314.26076459
 21
-198.64476954
 31
0.0
  0
LINE
  5
3AC
330
1E
100
AcDbEntity
  8
0
 62
     4
100
AcDbLine
 10
314.51076459
 20
-201.89476954
 30
0.0
 11
316.01076459
 21
-203.39476954
 31
0.0
  0
LINE
  5
3AD
330
1E
100
AcDbEntity
  8
0
 62
     4
100
AcDbLine
 10
315.26076459
 20
-199.64476954
 30
0.0
 11
315.26076459
 21
-205.20457827
 31
0.0
  0
LINE
  5
3AE
330
1E
100
AcDbEntity
  8
0
 62
     4
100
AcDbLine
 10
315.26076459
 20
-201.14476954
 30
0.0
 11
314.76076398
 21
-201.73516409
 31
0.0
  0
LINE
  5
3AF
330
1E
100
AcDbEntity
  8
0
 62
     4
100
AcDbLine
 10
315.32677196
 20
-199.64476954
 30
0.0
 11
313.26076459
 21
-199.64476954
 31
0.0
  0
LINE
  5
3B0
330
1E
100
AcDbEntity
  8
0
 62
     4
100
AcDbLine
 10
314.57490128
 20
-202.64476954
 30
0.0
 11
317.26076459
 21
-202.64476954
 31
0.0
  0
TEXT
  5
3B1
330
1E
100
AcDbEntity
  8
TXT_DIM49
100
AcDbText
 10
313.76076459
 20
-220.49967384
 30
0.0
 40
2.5
  1
64
 50
90.00020741
  7
ARIAL
100
AcDbText
  0
LINE
  5
3B2
330
1E
100
AcDbEntity
  8
0
 62
     4
100
AcDbLine
 10
316.26076459
 20
-203.64476954
 30
0.0
 11
314.26076459
 21
-201.64476954
 31
0.0
  0
LINE
  5
3B3
330
1E
100
AcDbEntity
  8
0
 62
     4
100
AcDbLine
 10
314.51076459
 20
-233.89476954
 30
0.0
 11
316.01076459
 21
-235.39476954
 31
0.0
  0
LINE
  5
3B4
330
1E
100
AcDbEntity
  8
0
 62
     4
100
AcDbLine
 10
315.26076459
 20
-202.64476954
 30
0.0
 11
315.26076459
 21
-234.64476954
 31
0.0
  0
LINE
  5
3B5
330
1E
100
AcDbEntity
  8
0
 62
     4
100
AcDbLine
 10
314.57490128
 20
-202.64476954
 30
0.0
 11
317.26076459
 21
-202.64476954
 31
0.0
  0
LINE
  5
3B6
330
1E
100
AcDbEntity
  8
0
 62
     4
100
AcDbLine
 10
317.26076459
 20
-234.64476954
 30
0.0
 11
313.26076459
 21
-234.64476954
 31
0.0
  0
LINE
  5
3B7
330
1E
100
AcDbEntity
  8
0
 62
     5
100
AcDbLine
 10
213.57179146
 20
-214.64476954
 30
0.0
 11
217.9595241
 21
-222.36447054
 31
0.0
  0
TEXT
  5
3B8
330
1E
100
AcDbEntity
  8
TXT_DIM49
100
AcDbText
 10
217.9595241
 20
-223.61447054
 30
0.0
 40
2.5
  1
Ø14
  7
ARIAL
 11
217.9595241
 21
-222.36447054
 31
0.0
100
AcDbText
 73
     2
  0
LINE
  5
3B9
330
1E
100
AcDbEntity
  8
0
 62
     5
100
AcDbLine
 10
251.82179146
 20
-214.64476954
 30
0.0
 11
254.5018309
 21
-224.0109828
 31
0.0
  0
TEXT
  5
3BA
330
1E
100
AcDbEntity
  8
TXT_DIM49
100
AcDbText
 10
254.5018309
 20
-225.2609828
 30
0.0
 40
2.5
  1
Slobgat 14 x 40
  7
ARIAL
 11
254.5018309
 21
-224.0109828
 31
0.0
100
AcDbText
 73
     2
  0
LINE
  5
3BB
330
1E
100
AcDbEntity
  8
0
 62
     5
100
AcDbLine
 10
326.82179146
 20
-214.64476954
 30
0.0
 11
330.7031008
 21
-222.94713985
 31
0.0
  0
TEXT
  5
3BC
330
1E
100
AcDbEntity
  8
TXT_DIM49
100
AcDbText
 10
330.7031008
 20
-224.19713985
 30
0.0
 40
2.5
  1
Ø14
  7
ARIAL
 11
330.7031008
 21
-222.94713985
 31
0.0
100
AcDbText
 73
     2
  0
LINE
  5
3BD
330
1E
100
AcDbEntity
  8
0
 62
     5
100
AcDbLine
 10
376.82179146
 20
-214.64476954
 30
0.0
 11
380.52217399
 21
-222.94713985
 31
0.0
  0
TEXT
  5
3BE
330
1E
100
AcDbEntity
  8
TXT_DIM49
100
AcDbText
 10
380.52217399
 20
-224.19713985
 30
0.0
 40
2.5
  1
Ø14
  7
ARIAL
 11
380.52217399
 21
-222.94713985
 31
0.0
100
AcDbText
 73
     2
  0
POINT
  5
3BF
330
1E
100
AcDbEntity
  8
0
100
AcDbPoint
 10
273.01401468
 20
-118.05983383
 30
0.0
  0
POINT
  5
3C0
330
1E
100
AcDbEntity
  8
0
 62
     3
100
AcDbPoint
 10
411.683382
 20
-288.39715177
 30
0.0
  0
POINT
  5
3C1
330
1E
100
AcDbEntity
  8
0
 62
     3
100
AcDbPoint
 10
477.5477957
 20
-270.47815687
 30
0.0
  0
POINT
  5
3C2
330
1E
100
AcDbEntity
  8
0
 62
     3
100
AcDbPoint
 10
411.683382
 20
-270.47815687
 30
0.0
  0
POINT
  5
3C3
330
1E
100
AcDbEntity
  8
0
 62
     3
100
AcDbPoint
 10
477.5477957
 20
-288.39715177
 30
0.0
  0
POINT
  5
3C4
330
1E
100
AcDbEntity
  8
0
 62
     3
100
AcDbPoint
 10
459.85644076
 20
-294.07983383
 30
0.0
  0
POINT
  5
3C5
330
1E
100
AcDbEntity
  8
0
 62
     3
100
AcDbPoint
 10
477.54847273
 20
-289.26656043
 30
0.0
  0
POINT
  5
3C6
330
1E
100
AcDbEntity
  8
0
 62
     3
100
AcDbPoint
 10
459.85644076
 20
-289.26656043
 30
0.0
  0
POINT
  5
3C7
330
1E
100
AcDbEntity
  8
0
 62
     3
100
AcDbPoint
 10
477.54847273
 20
-294.07983383
 30
0.0
  0
ENDSEC
  0
SECTION
  2
OBJECTS
  0
DICTIONARY
  5
C
330
0
100
AcDbDictionary
281
     1
  3
ACAD_DETAILVIEWSTYLE
350
46D
  3
ACAD_GROUP
350
D
  3
ACAD_LAYOUT
350
19
  3
ACAD_MATERIAL
350
420
  3
ACAD_MLEADERSTYLE
350
426
  3
ACAD_MLINESTYLE
350
16
  3
ACAD_PLOTSETTINGS
350
3F2
  3
ACAD_PLOTSTYLENAME
350
3F3
  3
ACAD_SCALELIST
350
3F5
  3
ACAD_SECTIONVIEWSTYLE
350
46E
  3
ACAD_TABLESTYLE
350
424
  3
ACAD_VISUALSTYLE
350
407
  3
ACDB_RECOMPOSE_DATA
350
469
  3
AcDbVariableDictionary
350
42A
  0
DICTIONARY
  5
428
330
1
100
AcDbDictionary
280
     1
281
     1
  3
ACAD_XREC_ROUNDTRIP
360
429
  0
DICTIONARY
  5
46D
102
{ACAD_REACTORS
330
C
102
}
330
C
100
AcDbDictionary
281
     1
  0
DICTIONARY
  5
D
330
C
100
AcDbDictionary
281
     1
  0
DICTIONARY
  5
19
330
C
100
AcDbDictionary
281
     1
  3
Layout1
350
1D
  3
Model
350
21
  0
DICTIONARY
  5
420
102
{ACAD_REACTORS
330
C
102
}
330
C
100
AcDbDictionary
281
     1
  3
ByBlock
350
422
  3
ByLayer
350
421
  3
Global
350
423
  0
DICTIONARY
  5
426
102
{ACAD_REACTORS
330
C
102
}
330
C
100
AcDbDictionary
281
     1
  3
Standard
350
427
  0
DICTIONARY
  5
16
330
C
100
AcDbDictionary
281
     1
  3
Standard
350
17
  0
DICTIONARY
  5
3F2
102
{ACAD_REACTORS
330
C
102
}
330
C
100
AcDbDictionary
281
     1
  0
ACDBDICTIONARYWDFLT
  5
3F3
102
{ACAD_REACTORS
330
C
102
}
330
C
100
AcDbDictionary
281
     1
  3
Normal
350
3F4
100
AcDbDictionaryWithDefault
340
3F4
  0
DICTIONARY
  5
3F5
102
{ACAD_REACTORS
330
C
102
}
330
C
100
AcDbDictionary
281
     1
  3
A0
350
3F6
  3
A1
350
3F7
  3
A2
350
3F8
  3
A3
350
3F9
  3
A4
350
3FA
  3
A5
350
3FB
  3
A6
350
3FC
  3
A7
350
3FD
  3
A8
350
3FE
  3
A9
350
3FF
  3
B0
350
400
  3
B1
350
401
  3
B2
350
402
  3
B3
350
403
  3
B4
350
404
  3
B5
350
405
  3
B6
350
406
  0
DICTIONARY
  5
46E
102
{ACAD_REACTORS
330
C
102
}
330
C
100
AcDbDictionary
281
     1
  0
DICTIONARY
  5
424
102
{ACAD_REACTORS
330
C
102
}
330
C
100
AcDbDictionary
281
     1
  3
Standard
350
425
  0
DICTIONARY
  5
407
102
{ACAD_REACTORS
330
C
102
}
330
C
100
AcDbDictionary
281
     1
  3
2dWireframe
350
40C
  3
Basic
350
40F
  3
Brighten
350
413
  3
ColorChange
350
417
  3
Conceptual
350
411
  3
Dim
350
412
  3
EdgeColorOff
350
41A
  3
Facepattern
350
416
  3
Flat
350
408
  3
FlatWithEdges
350
409
  3
Gouraud
350
40A
  3
GouraudWithEdges
350
40B
  3
Hidden
350
40E
  3
JitterOff
350
418
  3
Linepattern
350
415
  3
OverhangOff
350
419
  3
Realistic
350
410
  3
Shaded
350
41F
  3
Shaded with edges
350
41E
  3
Shades of Gray
350
41B
  3
Sketchy
350
41C
  3
Thicken
350
414
  3
Wireframe
350
40D
  3
X-Ray
350
41D
  0
XRECORD
  5
469
102
{ACAD_REACTORS
330
C
102
}
330
C
100
AcDbXrecord
280
     1
 90
        1
330
425
  0
DICTIONARY
  5
42A
102
{ACAD_REACTORS
330
C
102
}
330
C
100
AcDbDictionary
281
     1
  3
CANNOSCALE
350
42B
  3
CMLEADERSTYLE
350
46B
  3
CTABLESTYLE
350
46A
  3
MSLTSCALE
350
46C
  3
XCLIPFRAME
350
42C
  0
XRECORD
  5
429
102
{ACAD_REACTORS
330
428
102
}
330
428
100
AcDbXrecord
280
     1
102
VTR_0.000_0.000_1.000_1.000_VISUALSTYLE
340
40C
102
VTR_0.000_0.000_1.000_1.000_GRIDDISPLAY
 70
     3
102
VTR_0.000_0.000_1.000_1.000_GRIDMAJOR
 70
     5
102
VTR_0.000_0.000_1.000_1.000_DEFAULTLIGHTING
280
     1
102
VTR_0.000_0.000_1.000_1.000_DEFAULTLIGHTINGTYPE
 70
     1
102
VTR_0.000_0.000_1.000_1.000_BRIGHTNESS
141
0.0
102
VTR_0.000_0.000_1.000_1.000_CONTRAST
142
0.0
  0
LAYOUT
  5
1D
330
19
100
AcDbPlotSettings
  1

  2
C:\Programme\MDT\plotters\DWF Classic.pc3
  4

  6

 40
0.0
 41
0.0
 42
0.0
 43
0.0
 44
0.0
 45
0.0
 46
0.0
 47
0.0
 48
0.0
 49
0.0
140
0.0
141
0.0
142
1.0
143
1.0
 70
   688
 72
     0
 73
     0
 74
     5
  7

 75
    16
 76
     0
 77
     2
 78
   300
147
1.0
148
0.0
149
0.0
100
AcDbLayout
  1
Layout1
 70
     1
 71
     1
 10
0.0
 20
0.0
 11
12.0
 21
9.0
 12
0.0
 22
0.0
 32
0.0
 14
1.000000000000000E+20
 24
1.000000000000000E+20
 34
1.000000000000000E+20
 15
-1.000000000000000E+20
 25
-1.000000000000000E+20
 35
-1.000000000000000E+20
146
0.0
 13
0.0
 23
0.0
 33
0.0
 16
1.0
 26
0.0
 36
0.0
 17
0.0
 27
1.0
 37
0.0
 76
     0
330
1A
  0
LAYOUT
  5
21
330
19
100
AcDbPlotSettings
  1

  2
C:\Programme\MDT\plotters\DWF Classic.pc3
  4

  6

 40
0.0
 41
0.0
 42
0.0
 43
0.0
 44
0.0
 45
0.0
 46
0.0
 47
0.0
 48
0.0
 49
0.0
140
0.0
141
0.0
142
1.0
143
1.0
 70
  1712
 72
     0
 73
     0
 74
     0
  7

 75
     0
 76
     0
 77
     2
 78
   300
147
1.0
148
0.0
149
0.0
100
AcDbLayout
  1
Model
 70
     1
 71
     0
 10
0.0
 20
0.0
 11
12.0
 21
9.0
 12
0.0
 22
0.0
 32
0.0
 14
0.0
 24
0.0
 34
0.0
 15
0.0
 25
0.0
 35
0.0
146
0.0
 13
0.0
 23
0.0
 33
0.0
 16
1.0
 26
0.0
 36
0.0
 17
0.0
 27
1.0
 37
0.0
 76
     0
330
1E
331
2
  0
MATERIAL
  5
422
102
{ACAD_REACTORS
330
420
102
}
102
{ACAD_XDICTIONARY
360
45F
102
}
330
420
100
AcDbMaterial
  1
ByBlock
  0
MATERIAL
  5
421
102
{ACAD_REACTORS
330
420
102
}
102
{ACAD_XDICTIONARY
360
45D
102
}
330
420
100
AcDbMaterial
  1
ByLayer
  0
MATERIAL
  5
423
102
{ACAD_REACTORS
330
420
102
}
102
{ACAD_XDICTIONARY
360
461
102
}
330
420
100
AcDbMaterial
  1
Global
  0
MLEADERSTYLE
  5
427
102
{ACAD_REACTORS
330
426
102
}
102
{ACAD_XDICTIONARY
360
467
102
}
330
426
100
AcDbMLeaderStyle
170
     2
171
     1
172
     0
 90
        2
 40
0.0
 41
0.0
173
     1
 91
-1056964608
340
4
 92
       -2
290
     1
 42
2.0
291
     1
 43
8.0
  3
Standard
341
0
 44
4.0
300

342
15E
174
     1
178
     6
175
     1
176
     0
 93
-1056964608
 45
4.0
292
     0
297
     0
 46
4.0
343
0
 94
-1056964608
 47
1.0
 49
1.0
140
1.0
293
     1
141
0.0
294
     1
177
     0
142
1.0
295
     0
296
     0
143
3.75
1001
ACAD_MLEADERVER
1070
     2
  0
MLINESTYLE
  5
17
330
16
100
AcDbMlineStyle
  2
STANDARD
 70
     0
  3

 62
   256
 51
90.0
 52
90.0
 71
     2
 49
0.5
 62
   256
  6
BYLAYER
 49
-0.5
 62
   256
  6
BYLAYER
  0
ACDBPLACEHOLDER
  5
3F4
102
{ACAD_REACTORS
330
3F3
102
}
330
3F3
  0
SCALE
  5
3F6
102
{ACAD_REACTORS
330
3F5
102
}
330
3F5
100
AcDbScale
 70
     0
300
1:1
140
1.0
141
1.0
290
     1
  0
SCALE
  5
3F7
102
{ACAD_REACTORS
330
3F5
102
}
330
3F5
100
AcDbScale
 70
     0
300
1:2
140
1.0
141
2.0
290
     0
  0
SCALE
  5
3F8
102
{ACAD_REACTORS
330
3F5
102
}
330
3F5
100
AcDbScale
 70
     0
300
1:4
140
1.0
141
4.0
290
     0
  0
SCALE
  5
3F9
102
{ACAD_REACTORS
330
3F5
102
}
330
3F5
100
AcDbScale
 70
     0
300
1:5
140
1.0
141
5.0
290
     0
  0
SCALE
  5
3FA
102
{ACAD_REACTORS
330
3F5
102
}
330
3F5
100
AcDbScale
 70
     0
300
1:8
140
1.0
141
8.0
290
     0
  0
SCALE
  5
3FB
102
{ACAD_REACTORS
330
3F5
102
}
330
3F5
100
AcDbScale
 70
     0
300
1:10
140
1.0
141
10.0
290
     0
  0
SCALE
  5
3FC
102
{ACAD_REACTORS
330
3F5
102
}
330
3F5
100
AcDbScale
 70
     0
300
1:16
140
1.0
141
16.0
290
     0
  0
SCALE
  5
3FD
102
{ACAD_REACTORS
330
3F5
102
}
330
3F5
100
AcDbScale
 70
     0
300
1:20
140
1.0
141
20.0
290
     0
  0
SCALE
  5
3FE
102
{ACAD_REACTORS
330
3F5
102
}
330
3F5
100
AcDbScale
 70
     0
300
1:30
140
1.0
141
30.0
290
     0
  0
SCALE
  5
3FF
102
{ACAD_REACTORS
330
3F5
102
}
330
3F5
100
AcDbScale
 70
     0
300
1:40
140
1.0
141
40.0
290
     0
  0
SCALE
  5
400
102
{ACAD_REACTORS
330
3F5
102
}
330
3F5
100
AcDbScale
 70
     0
300
1:50
140
1.0
141
50.0
290
     0
  0
SCALE
  5
401
102
{ACAD_REACTORS
330
3F5
102
}
330
3F5
100
AcDbScale
 70
     0
300
1:100
140
1.0
141
100.0
290
     0
  0
SCALE
  5
402
102
{ACAD_REACTORS
330
3F5
102
}
330
3F5
100
AcDbScale
 70
     0
300
2:1
140
2.0
141
1.0
290
     0
  0
SCALE
  5
403
102
{ACAD_REACTORS
330
3F5
102
}
330
3F5
100
AcDbScale
 70
     0
300
4:1
140
4.0
141
1.0
290
     0
  0
SCALE
  5
404
102
{ACAD_REACTORS
330
3F5
102
}
330
3F5
100
AcDbScale
 70
     0
300
8:1
140
8.0
141
1.0
290
     0
  0
SCALE
  5
405
102
{ACAD_REACTORS
330
3F5
102
}
330
3F5
100
AcDbScale
 70
     0
300
10:1
140
10.0
141
1.0
290
     0
  0
SCALE
  5
406
102
{ACAD_REACTORS
330
3F5
102
}
330
3F5
100
AcDbScale
 70
     0
300
100:1
140
100.0
141
1.0
290
     0
  0
TABLESTYLE
  5
425
102
{ACAD_REACTORS
330
424
102
}
102
{ACAD_XDICTIONARY
360
463
102
}
330
424
100
AcDbTableStyle
  3
Standard
 70
     0
 71
     0
 40
0.06
 41
0.06
280
     0
281
     0
  7
MONOTXT
140
4.5
170
     2
 62
     0
 63
   257
283
     0
274
    -2
284
     1
 64
     0
275
    -2
285
     1
 65
     0
276
    -2
286
     1
 66
     0
277
    -2
287
     1
 67
     0
278
    -2
288
     1
 68
     0
279
    -2
289
     1
 69
     0
  7
MONOTXT
140
6.0
170
     5
 62
     0
 63
   257
283
     0
274
    -2
284
     1
 64
     0
275
    -2
285
     1
 65
     0
276
    -2
286
     1
 66
     0
277
    -2
287
     1
 67
     0
278
    -2
288
     1
 68
     0
279
    -2
289
     1
 69
     0
  7
MONOTXT
140
4.5
170
     5
 62
     0
 63
   257
283
     0
274
    -2
284
     1
 64
     0
275
    -2
285
     1
 65
     0
276
    -2
286
     1
 66
     0
277
    -2
287
     1
 67
     0
278
    -2
288
     1
 68
     0
279
    -2
289
     1
 69
     0
  0
VISUALSTYLE
  5
40C
102
{ACAD_REACTORS
330
407
102
}
102
{ACAD_XDICTIONARY
360
435
102
}
330
407
100
AcDbVisualStyle
  2
2dWireframe
 70
     4
 71
     0
 72
     2
 73
     0
 90
        0
 40
0.6
 41
30.0
 62
     5
 63
     7
421
 16777215
 74
     1
 91
        4
 64
     7
 65
   257
 75
     1
175
     1
 42
1.0
 92
        0
 66
   257
 43
1.0
 76
     1
 77
     6
 78
     2
 67
     7
 79
     5
170
     0
171
     0
290
     0
174
     0
 93
        1
 44
0.0
173
     0
291
     0
 45
0.0
1001
ACAD
1000
AcDbSavedByObjectVersion
1070
     0
  0
VISUALSTYLE
  5
40F
102
{ACAD_REACTORS
330
407
102
}
102
{ACAD_XDICTIONARY
360
43B
102
}
330
407
100
AcDbVisualStyle
  2
Basic
 70
     7
 71
     1
 72
     0
 73
     1
 90
        0
 40
0.6
 41
30.0
 62
     5
 63
     7
421
 16777215
 74
     0
 91
        4
 64
     7
 65
   257
 75
     1
175
     1
 42
1.0
 92
        8
 66
     7
 43
1.0
 76
     1
 77
     6
 78
     2
 67
     7
 79
     5
170
     0
171
     0
290
     0
174
     0
 93
        1
 44
0.0
173
     0
291
     1
 45
0.0
1001
ACAD
1000
AcDbSavedByObjectVersion
1070
     0
  0
VISUALSTYLE
  5
413
102
{ACAD_REACTORS
330
407
102
}
102
{ACAD_XDICTIONARY
360
443
102
}
330
407
100
AcDbVisualStyle
  2
Brighten
 70
    12
 71
     2
 72
     2
 73
     0
 90
        0
 40
0.6
 41
30.0
 62
     5
 63
     7
421
 16777215
 74
     1
 91
        4
 64
     7
 65
   257
 75
     1
175
     1
 42
1.0
 92
        8
 66
     7
 43
1.0
 76
     1
 77
     6
 78
     2
 67
     7
 79
     5
170
     0
171
     0
290
     0
174
     0
 93
        1
 44
50.0
173
     0
291
     1
 45
0.0
1001
ACAD
1000
AcDbSavedByObjectVersion
1070
     0
  0
VISUALSTYLE
  5
417
102
{ACAD_REACTORS
330
407
102
}
102
{ACAD_XDICTIONARY
360
44B
102
}
330
407
100
AcDbVisualStyle
  2
ColorChange
 70
    16
 71
     2
 72
     2
 73
     3
 90
        0
 40
0.6
 41
30.0
 62
     5
 63
     8
421
  8421504
 74
     1
 91
        4
 64
     7
 65
   257
 75
     1
175
     1
 42
1.0
 92
        8
 66
     8
424
  8421504
 43
1.0
 76
     1
 77
     6
 78
     2
 67
     7
 79
     5
170
     0
171
     0
290
     0
174
     0
 93
        1
 44
0.0
173
     0
291
     1
 45
0.0
1001
ACAD
1000
AcDbSavedByObjectVersion
1070
     0
  0
VISUALSTYLE
  5
411
102
{ACAD_REACTORS
330
407
102
}
102
{ACAD_XDICTIONARY
360
43F
102
}
330
407
100
AcDbVisualStyle
  2
Conceptual
 70
     9
 71
     3
 72
     2
 73
     0
 90
        0
 40
0.6
 41
30.0
 62
     5
 63
     7
421
 16777215
 74
     2
 91
        2
 64
     7
 65
   257
 75
     1
175
     1
 42
179.0
 92
        8
 66
     7
 43
1.0
 76
     1
 77
     6
 78
     2
 67
     7
 79
     3
170
     0
171
     0
290
     0
174
     0
 93
        1
 44
0.0
173
     0
291
     0
 45
0.0
1001
ACAD
1000
AcDbSavedByObjectVersion
1070
     0
  0
VISUALSTYLE
  5
412
102
{ACAD_REACTORS
330
407
102
}
102
{ACAD_XDICTIONARY
360
441
102
}
330
407
100
AcDbVisualStyle
  2
Dim
 70
    11
 71
     2
 72
     2
 73
     0
 90
        0
 40
0.6
 41
30.0
 62
     5
 63
     7
421
 16777215
 74
     1
 91
        4
 64
     7
 65
   257
 75
     1
175
     1
 42
1.0
 92
        8
 66
     7
 43
1.0
 76
     1
 77
     6
 78
     2
 67
     7
 79
     5
170
     0
171
     0
290
     0
174
     0
 93
        1
 44
-50.0
173
     0
291
     1
 45
0.0
1001
ACAD
1000
AcDbSavedByObjectVersion
1070
     0
  0
VISUALSTYLE
  5
41A
102
{ACAD_REACTORS
330
407
102
}
102
{ACAD_XDICTIONARY
360
451
102
}
330
407
100
AcDbVisualStyle
  2
EdgeColorOff
 70
    22
 71
     2
 72
     2
 73
     0
 90
        0
 40
0.6
 41
30.0
 62
     5
 63
     7
421
 16777215
 74
     1
 91
        4
 64
     7
 65
   257
 75
     1
175
     1
 42
1.0
 92
        8
 66
     7
 43
1.0
 76
     1
 77
     6
 78
     2
 67
     7
 79
     5
170
     0
171
     0
290
     0
174
     0
 93
        1
 44
0.0
173
     0
291
     1
 45
0.0
1001
ACAD
1000
AcDbSavedByObjectVersion
1070
     0
  0
VISUALSTYLE
  5
416
102
{ACAD_REACTORS
330
407
102
}
102
{ACAD_XDICTIONARY
360
449
102
}
330
407
100
AcDbVisualStyle
  2
Facepattern
 70
    15
 71
     2
 72
     2
 73
     0
 90
        0
 40
0.6
 41
30.0
 62
     5
 63
     7
421
 16777215
 74
     1
 91
        4
 64
     7
 65
   257
 75
     1
175
     1
 42
1.0
 92
        8
 66
     7
 43
1.0
 76
     1
 77
     6
 78
     2
 67
     7
 79
     5
170
     0
171
     0
290
     0
174
     0
 93
        1
 44
0.0
173
     0
291
     1
 45
0.0
1001
ACAD
1000
AcDbSavedByObjectVersion
1070
     0
  0
VISUALSTYLE
  5
408
102
{ACAD_REACTORS
330
407
102
}
102
{ACAD_XDICTIONARY
360
42D
102
}
330
407
100
AcDbVisualStyle
  2
Flat
 70
     0
 71
     2
 72
     1
 73
     1
 90
        2
 40
0.6
 41
30.0
 62
     5
 63
     7
421
 16777215
 74
     0
 91
        0
 64
     7
 65
   257
 75
     1
175
     1
 42
1.0
 92
        8
 66
     7
 43
1.0
 76
     1
 77
     6
 78
     2
 67
     7
 79
     5
170
     0
171
     0
290
     0
174
     0
 93
       13
 44
0.0
173
     0
291
     1
 45
0.0
1001
ACAD
1000
AcDbSavedByObjectVersion
1070
     0
  0
VISUALSTYLE
  5
409
102
{ACAD_REACTORS
330
407
102
}
102
{ACAD_XDICTIONARY
360
42F
102
}
330
407
100
AcDbVisualStyle
  2
FlatWithEdges
 70
     1
 71
     2
 72
     1
 73
     1
 90
        2
 40
0.6
 41
30.0
 62
     5
 63
     7
421
 16777215
 74
     1
 91
        0
 64
     7
 65
   257
 75
     1
175
     1
 42
1.0
 92
        0
 66
   257
 43
1.0
 76
     1
 77
     6
 78
     2
 67
     7
 79
     5
170
     0
171
     0
290
     0
174
     0
 93
       13
 44
0.0
173
     0
291
     1
 45
0.0
1001
ACAD
1000
AcDbSavedByObjectVersion
1070
     0
  0
VISUALSTYLE
  5
40A
102
{ACAD_REACTORS
330
407
102
}
102
{ACAD_XDICTIONARY
360
431
102
}
330
407
100
AcDbVisualStyle
  2
Gouraud
 70
     2
 71
     2
 72
     2
 73
     1
 90
        2
 40
0.6
 41
30.0
 62
     5
 63
     7
421
 16777215
 74
     0
 91
        0
 64
     7
 65
   257
 75
     1
175
     1
 42
1.0
 92
        0
 66
     7
 43
1.0
 76
     1
 77
     6
 78
     2
 67
     7
 79
     5
170
     0
171
     0
290
     0
174
     0
 93
       13
 44
0.0
173
     0
291
     1
 45
0.0
1001
ACAD
1000
AcDbSavedByObjectVersion
1070
     0
  0
VISUALSTYLE
  5
40B
102
{ACAD_REACTORS
330
407
102
}
102
{ACAD_XDICTIONARY
360
433
102
}
330
407
100
AcDbVisualStyle
  2
GouraudWithEdges
 70
     3
 71
     2
 72
     2
 73
     1
 90
        2
 40
0.6
 41
30.0
 62
     5
 63
     7
421
 16777215
 74
     1
 91
        0
 64
     7
 65
   257
 75
     1
175
     1
 42
1.0
 92
        0
 66
   257
 43
1.0
 76
     1
 77
     6
 78
     2
 67
     7
 79
     5
170
     0
171
     0
290
     0
174
     0
 93
       13
 44
0.0
173
     0
291
     1
 45
0.0
1001
ACAD
1000
AcDbSavedByObjectVersion
1070
     0
  0
VISUALSTYLE
  5
40E
102
{ACAD_REACTORS
330
407
102
}
102
{ACAD_XDICTIONARY
360
439
102
}
330
407
100
AcDbVisualStyle
  2
Hidden
 70
     6
 71
     1
 72
     2
 73
     2
 90
        0
 40
0.6
 41
30.0
 62
     5
 63
     7
421
 16777215
 74
     2
 91
        2
 64
     7
 65
   257
 75
     2
175
     1
 42
40.0
 92
        0
 66
   257
 43
1.0
 76
     1
 77
     6
 78
     2
 67
     7
 79
     3
170
     0
171
     0
290
     0
174
     0
 93
        1
 44
0.0
173
     0
291
     0
 45
0.0
1001
ACAD
1000
AcDbSavedByObjectVersion
1070
     0
  0
VISUALSTYLE
  5
418
102
{ACAD_REACTORS
330
407
102
}
102
{ACAD_XDICTIONARY
360
44D
102
}
330
407
100
AcDbVisualStyle
  2
JitterOff
 70
    20
 71
     2
 72
     2
 73
     0
 90
        0
 40
0.6
 41
30.0
 62
     5
 63
     7
421
 16777215
 74
     1
 91
        4
 64
     7
 65
   257
 75
     1
175
     1
 42
1.0
 92
       10
 66
     7
 43
1.0
 76
     1
 77
     6
 78
     2
 67
     7
 79
     5
170
     0
171
     0
290
     0
174
     0
 93
        1
 44
0.0
173
     0
291
     1
 45
0.0
1001
ACAD
1000
AcDbSavedByObjectVersion
1070
     0
  0
VISUALSTYLE
  5
415
102
{ACAD_REACTORS
330
407
102
}
102
{ACAD_XDICTIONARY
360
447
102
}
330
407
100
AcDbVisualStyle
  2
Linepattern
 70
    14
 71
     2
 72
     2
 73
     0
 90
        0
 40
0.6
 41
30.0
 62
     5
 63
     7
421
 16777215
 74
     1
 91
        4
 64
     7
 65
   257
 75
     7
175
     7
 42
1.0
 92
        8
 66
     7
 43
1.0
 76
     1
 77
     6
 78
     2
 67
     7
 79
     5
170
     0
171
     0
290
     0
174
     0
 93
        1
 44
0.0
173
     0
291
     1
 45
0.0
1001
ACAD
1000
AcDbSavedByObjectVersion
1070
     0
  0
VISUALSTYLE
  5
419
102
{ACAD_REACTORS
330
407
102
}
102
{ACAD_XDICTIONARY
360
44F
102
}
330
407
100
AcDbVisualStyle
  2
OverhangOff
 70
    21
 71
     2
 72
     2
 73
     0
 90
        0
 40
0.6
 41
30.0
 62
     5
 63
     7
421
 16777215
 74
     1
 91
        4
 64
     7
 65
   257
 75
     1
175
     1
 42
1.0
 92
        9
 66
     7
 43
1.0
 76
     1
 77
     6
 78
     2
 67
     7
 79
     5
170
     0
171
     0
290
     0
174
     0
 93
        1
 44
0.0
173
     0
291
     1
 45
0.0
1001
ACAD
1000
AcDbSavedByObjectVersion
1070
     0
  0
VISUALSTYLE
  5
410
102
{ACAD_REACTORS
330
407
102
}
102
{ACAD_XDICTIONARY
360
43D
102
}
330
407
100
AcDbVisualStyle
  2
Realistic
 70
     8
 71
     2
 72
     3
 73
     0
 90
        2
 40
0.6
 41
30.0
 62
     5
 63
     7
421
 16777215
 74
     0
 91
        0
 64
     7
 65
   257
 75
     1
175
     1
 42
1.0
 92
        8
 66
   257
 43
1.0
 76
     1
 77
     6
 78
     2
 67
     7
 79
     3
170
     0
171
     0
290
     0
174
     0
 93
       13
 44
0.0
173
     0
291
     0
 45
0.0
1001
ACAD
1000
AcDbSavedByObjectVersion
1070
     0
  0
VISUALSTYLE
  5
41F
102
{ACAD_REACTORS
330
407
102
}
102
{ACAD_XDICTIONARY
360
45B
102
}
330
407
100
AcDbVisualStyle
  2
Shaded
 70
    27
 71
     2
 72
     2
 73
     1
 90
        2
 40
0.6
 41
30.0
 62
     5
 63
     7
421
 16777215
 74
     0
 91
        4
 64
     7
 65
   257
 75
     1
175
     1
 42
1.0
 92
        8
 66
   257
 43
1.0
 76
     1
 77
     6
 78
     2
 67
     8
425
  7895160
 79
     3
170
     0
171
     0
290
     0
174
     0
 93
        5
 44
0.0
173
     0
291
     0
 45
0.0
1001
ACAD
1000
AcDbSavedByObjectVersion
1070
     0
  0
VISUALSTYLE
  5
41E
102
{ACAD_REACTORS
330
407
102
}
102
{ACAD_XDICTIONARY
360
459
102
}
330
407
100
AcDbVisualStyle
  2
Shaded with edges
 70
    26
 71
     2
 72
     2
 73
     1
 90
        2
 40
0.6
 41
30.0
 62
     5
 63
     7
421
 16777215
 74
     1
 91
       10
 64
     7
 65
   257
 75
     2
175
     1
 42
1.0
 92
        8
 66
   257
 43
1.0
 76
     1
 77
     6
 78
     2
 67
     7
 79
     3
170
     0
171
     0
290
     0
174
     0
 93
        5
 44
0.0
173
     0
291
     0
 45
0.0
1001
ACAD
1000
AcDbSavedByObjectVersion
1070
     0
  0
VISUALSTYLE
  5
41B
102
{ACAD_REACTORS
330
407
102
}
102
{ACAD_XDICTIONARY
360
453
102
}
330
407
100
AcDbVisualStyle
  2
Shades of Gray
 70
    23
 71
     2
 72
     2
 73
     3
 90
        0
 40
0.6
 41
30.0
 62
     5
 63
     7
421
 16777215
 74
     2
 91
        2
 64
     7
 65
     7
 75
     1
175
     1
 42
40.0
 92
        8
 66
     7
 43
1.0
 76
     1
 77
     6
 78
     2
 67
     7
 79
     3
170
     0
171
     0
290
     0
174
     0
 93
        1
 44
0.0
173
     0
291
     0
 45
0.0
1001
ACAD
1000
AcDbSavedByObjectVersion
1070
     0
  0
VISUALSTYLE
  5
41C
102
{ACAD_REACTORS
330
407
102
}
102
{ACAD_XDICTIONARY
360
455
102
}
330
407
100
AcDbVisualStyle
  2
Sketchy
 70
    24
 71
     1
 72
     2
 73
     2
 90
        0
 40
0.6
 41
30.0
 62
     5
 63
     7
421
 16777215
 74
     2
 91
        2
 64
     7
 65
     7
 75
     1
175
     1
 42
40.0
 92
       11
 66
     7
 43
1.0
 76
     1
 77
     6
 78
     2
 67
     7
 79
     6
170
     0
171
     0
290
     0
174
     0
 93
        1
 44
0.0
173
     0
291
     0
 45
0.0
1001
ACAD
1000
AcDbSavedByObjectVersion
1070
     0
  0
VISUALSTYLE
  5
414
102
{ACAD_REACTORS
330
407
102
}
102
{ACAD_XDICTIONARY
360
445
102
}
330
407
100
AcDbVisualStyle
  2
Thicken
 70
    13
 71
     2
 72
     2
 73
     0
 90
        0
 40
0.6
 41
30.0
 62
     5
 63
     7
421
 16777215
 74
     1
 91
        4
 64
     7
 65
   257
 75
     1
175
     1
 42
1.0
 92
       12
 66
     7
 43
1.0
 76
     1
 77
     6
 78
     2
 67
     7
 79
     5
170
     0
171
     0
290
     0
174
     0
 93
        1
 44
0.0
173
     0
291
     1
 45
0.0
1001
ACAD
1000
AcDbSavedByObjectVersion
1070
     0
  0
VISUALSTYLE
  5
40D
102
{ACAD_REACTORS
330
407
102
}
102
{ACAD_XDICTIONARY
360
437
102
}
330
407
100
AcDbVisualStyle
  2
Wireframe
 70
     5
 71
     0
 72
     2
 73
     0
 90
        0
 40
0.6
 41
30.0
 62
     5
 63
     7
421
 16777215
 74
     1
 91
        4
 64
     7
 65
   257
 75
     1
175
     1
 42
1.0
 92
        0
 66
   257
 43
1.0
 76
     1
 77
     6
 78
     2
 67
     7
 79
     3
170
     0
171
     0
290
     0
174
     0
 93
        1
 44
0.0
173
     0
291
     0
 45
0.0
1001
ACAD
1000
AcDbSavedByObjectVersion
1070
     0
  0
VISUALSTYLE
  5
41D
102
{ACAD_REACTORS
330
407
102
}
102
{ACAD_XDICTIONARY
360
457
102
}
330
407
100
AcDbVisualStyle
  2
X-Ray
 70
    25
 71
     2
 72
     2
 73
     1
 90
        1
 40
0.5
 41
30.0
 62
     5
 63
     7
421
 16777215
 74
     1
 91
        0
 64
     7
 65
   257
 75
     1
175
     1
 42
1.0
 92
        8
 66
     7
 43
1.0
 76
     1
 77
     6
 78
     2
 67
     7
 79
     3
170
     0
171
     0
290
     0
174
     0
 93
       13
 44
0.0
173
     0
291
     0
 45
0.0
1001
ACAD
1000
AcDbSavedByObjectVersion
1070
     0
  0
DICTIONARYVAR
  5
42B
102
{ACAD_REACTORS
330
42A
102
}
330
42A
100
DictionaryVariables
280
     0
  1
1:1
  0
DICTIONARYVAR
  5
46B
102
{ACAD_REACTORS
330
42A
102
}
330
42A
100
DictionaryVariables
280
     0
  1
Standard
  0
DICTIONARYVAR
  5
46A
102
{ACAD_REACTORS
330
42A
102
}
330
42A
100
DictionaryVariables
280
     0
  1
Standard
  0
DICTIONARYVAR
  5
46C
102
{ACAD_REACTORS
330
42A
102
}
330
42A
100
DictionaryVariables
280
     0
  1
0
  0
DICTIONARYVAR
  5
42C
102
{ACAD_REACTORS
330
42A
102
}
330
42A
100
DictionaryVariables
280
     0
  1
2
  0
DICTIONARY
  5
45F
330
422
100
AcDbDictionary
280
     1
281
     1
  3
ACAD_XREC_ROUNDTRIP
360
460
  0
DICTIONARY
  5
45D
330
421
100
AcDbDictionary
280
     1
281
     1
  3
ACAD_XREC_ROUNDTRIP
360
45E
  0
DICTIONARY
  5
461
330
423
100
AcDbDictionary
280
     1
281
     1
  3
ACAD_XREC_ROUNDTRIP
360
462
  0
DICTIONARY
  5
467
330
427
100
AcDbDictionary
280
     1
281
     1
  3
ACAD_XREC_ROUNDTRIP
360
468
  0
DICTIONARY
  5
463
330
425
100
AcDbDictionary
280
     1
281
     1
  3
ACAD_ROUNDTRIP_2008_TABLESTYLE_CELLSTYLEMAP
360
465
  3
ACAD_XREC_ROUNDTRIP
360
464
  0
DICTIONARY
  5
435
330
40C
100
AcDbDictionary
280
     1
281
     1
  3
ACAD_XREC_ROUNDTRIP
360
436
  0
DICTIONARY
  5
43B
330
40F
100
AcDbDictionary
280
     1
281
     1
  3
ACAD_XREC_ROUNDTRIP
360
43C
  0
DICTIONARY
  5
443
330
413
100
AcDbDictionary
280
     1
281
     1
  3
ACAD_XREC_ROUNDTRIP
360
444
  0
DICTIONARY
  5
44B
330
417
100
AcDbDictionary
280
     1
281
     1
  3
ACAD_XREC_ROUNDTRIP
360
44C
  0
DICTIONARY
  5
43F
330
411
100
AcDbDictionary
280
     1
281
     1
  3
ACAD_XREC_ROUNDTRIP
360
440
  0
DICTIONARY
  5
441
330
412
100
AcDbDictionary
280
     1
281
     1
  3
ACAD_XREC_ROUNDTRIP
360
442
  0
DICTIONARY
  5
451
330
41A
100
AcDbDictionary
280
     1
281
     1
  3
ACAD_XREC_ROUNDTRIP
360
452
  0
DICTIONARY
  5
449
330
416
100
AcDbDictionary
280
     1
281
     1
  3
ACAD_XREC_ROUNDTRIP
360
44A
  0
DICTIONARY
  5
42D
330
408
100
AcDbDictionary
280
     1
281
     1
  3
ACAD_XREC_ROUNDTRIP
360
42E
  0
DICTIONARY
  5
42F
330
409
100
AcDbDictionary
280
     1
281
     1
  3
ACAD_XREC_ROUNDTRIP
360
430
  0
DICTIONARY
  5
431
330
40A
100
AcDbDictionary
280
     1
281
     1
  3
ACAD_XREC_ROUNDTRIP
360
432
  0
DICTIONARY
  5
433
330
40B
100
AcDbDictionary
280
     1
281
     1
  3
ACAD_XREC_ROUNDTRIP
360
434
  0
DICTIONARY
  5
439
330
40E
100
AcDbDictionary
280
     1
281
     1
  3
ACAD_XREC_ROUNDTRIP
360
43A
  0
DICTIONARY
  5
44D
330
418
100
AcDbDictionary
280
     1
281
     1
  3
ACAD_XREC_ROUNDTRIP
360
44E
  0
DICTIONARY
  5
447
330
415
100
AcDbDictionary
280
     1
281
     1
  3
ACAD_XREC_ROUNDTRIP
360
448
  0
DICTIONARY
  5
44F
330
419
100
AcDbDictionary
280
     1
281
     1
  3
ACAD_XREC_ROUNDTRIP
360
450
  0
DICTIONARY
  5
43D
330
410
100
AcDbDictionary
280
     1
281
     1
  3
ACAD_XREC_ROUNDTRIP
360
43E
  0
DICTIONARY
  5
45B
330
41F
100
AcDbDictionary
280
     1
281
     1
  3
ACAD_XREC_ROUNDTRIP
360
45C
  0
DICTIONARY
  5
459
330
41E
100
AcDbDictionary
280
     1
281
     1
  3
ACAD_XREC_ROUNDTRIP
360
45A
  0
DICTIONARY
  5
453
330
41B
100
AcDbDictionary
280
     1
281
     1
  3
ACAD_XREC_ROUNDTRIP
360
454
  0
DICTIONARY
  5
455
330
41C
100
AcDbDictionary
280
     1
281
     1
  3
ACAD_XREC_ROUNDTRIP
360
456
  0
DICTIONARY
  5
445
330
414
100
AcDbDictionary
280
     1
281
     1
  3
ACAD_XREC_ROUNDTRIP
360
446
  0
DICTIONARY
  5
437
330
40D
100
AcDbDictionary
280
     1
281
     1
  3
ACAD_XREC_ROUNDTRIP
360
438
  0
DICTIONARY
  5
457
330
41D
100
AcDbDictionary
280
     1
281
     1
  3
ACAD_XREC_ROUNDTRIP
360
458
  0
XRECORD
  5
460
102
{ACAD_REACTORS
330
45F
102
}
330
45F
100
AcDbXrecord
280
     1
102
MATERIAL
148
0.0
149
0.0
149
0.0
 93
        0
 94
      127
282
     0
 72
     1
 77
     1
171
     1
175
     1
179
     1
273
     0
  0
XRECORD
  5
45E
102
{ACAD_REACTORS
330
45D
102
}
330
45D
100
AcDbXrecord
280
     1
102
MATERIAL
148
0.0
149
0.0
149
0.0
 93
        0
 94
      127
282
     0
 72
     1
 77
     1
171
     1
175
     1
179
     1
273
     0
  0
XRECORD
  5
462
102
{ACAD_REACTORS
330
461
102
}
330
461
100
AcDbXrecord
280
     1
102
MATERIAL
148
0.0
149
0.0
149
0.0
 93
        0
 94
      127
282
     0
 72
     1
 77
     1
171
     1
175
     1
179
     1
273
     0
  0
XRECORD
  5
468
102
{ACAD_REACTORS
330
467
102
}
330
467
100
AcDbXrecord
280
     1
102
ACAD_ROUNDTRIP_2010_MLEADER_STYLE
  0
CELLSTYLEMAP
  5
465
102
{ACAD_REACTORS
330
463
102
}
330
463
100
AcDbCellStyleMap
 90
        3
300
CELLSTYLE
  1
TABLEFORMAT_BEGIN
 90
        5
170
     1
 91
        0
 92
    32768
 62
   257
 93
        1
300
CONTENTFORMAT
  1
CONTENTFORMAT_BEGIN
 90
        0
 91
        0
 92
        4
 93
        0
300

 40
0.0
140
1.0
 94
        5
 62
     0
340
15E
144
6.0
309
CONTENTFORMAT_END
171
     1
301
MARGIN
  1
CELLMARGIN_BEGIN
 40
1.5
 40
1.5
 40
1.5
 40
1.5
 40
1.5
 40
1.5
309
CELLMARGIN_END
 94
        6
 95
        1
302
GRIDFORMAT
  1
GRIDFORMAT_BEGIN
 90
        0
 91
        1
 62
     0
 92
       -2
340
4
 93
        0
 40
0.045
309
GRIDFORMAT_END
 95
        2
302
GRIDFORMAT
  1
GRIDFORMAT_BEGIN
 90
        0
 91
        1
 62
     0
 92
       -2
340
4
 93
        0
 40
0.045
309
GRIDFORMAT_END
 95
        4
302
GRIDFORMAT
  1
GRIDFORMAT_BEGIN
 90
        0
 91
        1
 62
     0
 92
       -2
340
4
 93
        0
 40
0.045
309
GRIDFORMAT_END
 95
        8
302
GRIDFORMAT
  1
GRIDFORMAT_BEGIN
 90
        0
 91
        1
 62
     0
 92
       -2
340
4
 93
        0
 40
0.045
309
GRIDFORMAT_END
 95
       16
302
GRIDFORMAT
  1
GRIDFORMAT_BEGIN
 90
        0
 91
        1
 62
     0
 92
       -2
340
4
 93
        0
 40
0.045
309
GRIDFORMAT_END
 95
       32
302
GRIDFORMAT
  1
GRIDFORMAT_BEGIN
 90
        0
 91
        1
 62
     0
 92
       -2
340
4
 93
        0
 40
0.045
309
GRIDFORMAT_END
309
TABLEFORMAT_END
  1
CELLSTYLE_BEGIN
 90
        1
 91
        1
300
_TITLE
309
CELLSTYLE_END
300
CELLSTYLE
  1
TABLEFORMAT_BEGIN
 90
        5
170
     1
 91
        0
 92
        0
 62
   257
 93
        1
300
CONTENTFORMAT
  1
CONTENTFORMAT_BEGIN
 90
        0
 91
        0
 92
        4
 93
        0
300

 40
0.0
140
1.0
 94
        5
 62
     0
340
15E
144
4.5
309
CONTENTFORMAT_END
171
     1
301
MARGIN
  1
CELLMARGIN_BEGIN
 40
1.5
 40
1.5
 40
1.5
 40
1.5
 40
1.5
 40
1.5
309
CELLMARGIN_END
 94
        6
 95
        1
302
GRIDFORMAT
  1
GRIDFORMAT_BEGIN
 90
        0
 91
        1
 62
     0
 92
       -2
340
4
 93
        0
 40
0.045
309
GRIDFORMAT_END
 95
        2
302
GRIDFORMAT
  1
GRIDFORMAT_BEGIN
 90
        0
 91
        1
 62
     0
 92
       -2
340
4
 93
        0
 40
0.045
309
GRIDFORMAT_END
 95
        4
302
GRIDFORMAT
  1
GRIDFORMAT_BEGIN
 90
        0
 91
        1
 62
     0
 92
       -2
340
4
 93
        0
 40
0.045
309
GRIDFORMAT_END
 95
        8
302
GRIDFORMAT
  1
GRIDFORMAT_BEGIN
 90
        0
 91
        1
 62
     0
 92
       -2
340
4
 93
        0
 40
0.045
309
GRIDFORMAT_END
 95
       16
302
GRIDFORMAT
  1
GRIDFORMAT_BEGIN
 90
        0
 91
        1
 62
     0
 92
       -2
340
4
 93
        0
 40
0.045
309
GRIDFORMAT_END
 95
       32
302
GRIDFORMAT
  1
GRIDFORMAT_BEGIN
 90
        0
 91
        1
 62
     0
 92
       -2
340
4
 93
        0
 40
0.045
309
GRIDFORMAT_END
309
TABLEFORMAT_END
  1
CELLSTYLE_BEGIN
 90
        2
 91
        1
300
_HEADER
309
CELLSTYLE_END
300
CELLSTYLE
  1
TABLEFORMAT_BEGIN
 90
        5
170
     1
 91
        0
 92
        0
 62
   257
 93
        1
300
CONTENTFORMAT
  1
CONTENTFORMAT_BEGIN
 90
        0
 91
        0
 92
        4
 93
        0
300

 40
0.0
140
1.0
 94
        2
 62
     0
340
15E
144
4.5
309
CONTENTFORMAT_END
171
     1
301
MARGIN
  1
CELLMARGIN_BEGIN
 40
1.5
 40
1.5
 40
1.5
 40
1.5
 40
1.5
 40
1.5
309
CELLMARGIN_END
 94
        6
 95
        1
302
GRIDFORMAT
  1
GRIDFORMAT_BEGIN
 90
        0
 91
        1
 62
     0
 92
       -2
340
4
 93
        0
 40
0.045
309
GRIDFORMAT_END
 95
        2
302
GRIDFORMAT
  1
GRIDFORMAT_BEGIN
 90
        0
 91
        1
 62
     0
 92
       -2
340
4
 93
        0
 40
0.045
309
GRIDFORMAT_END
 95
        4
302
GRIDFORMAT
  1
GRIDFORMAT_BEGIN
 90
        0
 91
        1
 62
     0
 92
       -2
340
4
 93
        0
 40
0.045
309
GRIDFORMAT_END
 95
        8
302
GRIDFORMAT
  1
GRIDFORMAT_BEGIN
 90
        0
 91
        1
 62
     0
 92
       -2
340
4
 93
        0
 40
0.045
309
GRIDFORMAT_END
 95
       16
302
GRIDFORMAT
  1
GRIDFORMAT_BEGIN
 90
        0
 91
        1
 62
     0
 92
       -2
340
4
 93
        0
 40
0.045
309
GRIDFORMAT_END
 95
       32
302
GRIDFORMAT
  1
GRIDFORMAT_BEGIN
 90
        0
 91
        1
 62
     0
 92
       -2
340
4
 93
        0
 40
0.045
309
GRIDFORMAT_END
309
TABLEFORMAT_END
  1
CELLSTYLE_BEGIN
 90
        3
 91
        2
300
_DATA
309
CELLSTYLE_END
  0
XRECORD
  5
464
102
{ACAD_REACTORS
330
463
102
}
330
463
100
AcDbXrecord
280
     1
102
ACAD_ROUNDTRIP_PRE2007_TABLESTYLE
 90
        4
 91
        0
  1

 92
        4
 93
        0
  2

 94
        4
 95
        0
  3

  0
XRECORD
  5
436
102
{ACAD_REACTORS
330
435
102
}
330
435
100
AcDbXrecord
280
     1
102
RTVSPropertyOp0
 70
     1
102
RTVSPropertyOp1
 70
     1
102
RTVSPropertyOp2
 70
     1
102
RTVSPropertyOp3
 70
     1
102
RTVSPropertyOp4
 70
     1
102
RTVSPropertyOp5
 70
     1
102
RTVSPropertyOp6
 70
     1
102
RTVSPropertyOp7
 70
     1
102
RTVSPropertyOp8
 70
     1
102
RTVSPropertyOp9
 70
     1
102
RTVSPropertyOp10
 70
     1
102
RTVSPropertyOp11
 70
     1
102
RTVSPropertyOp12
 70
     1
102
RTVSPropertyOp13
 70
     1
102
RTVSPropertyOp14
 70
     1
102
RTVSPropertyOp15
 70
     1
102
RTVSPropertyOp16
 70
     1
102
RTVSPropertyOp17
 70
     1
102
RTVSPropertyOp18
 70
     1
102
RTVSPropertyOp19
 70
     1
102
RTVSPropertyOp20
 70
     1
102
RTVSPropertyOp21
 70
     1
102
RTVSPropertyOp22
 70
     1
102
RTVSPropertyOp23
 70
     1
102
RTVSPropertyOp24
 70
     1
102
RTVSPropertyOp25
 70
     1
102
RTVSPropertyOp26
 70
     1
102
RTVSPropertyOp27
 70
     1
102
RTVSPropertyOp28
 70
     1
102
RTVSPropertyOp29
 70
     1
102
RTVSPropertyOp30
 70
     1
102
RTVSPropertyOp31
 70
     1
102
RTVSPropertyOp32
 70
     1
102
RTVSPropertyOp33
 70
     1
102
RTVSPropertyOp34
 70
     1
102
RTVSPropertyOp35
 70
     1
102
RTVSPropertyOp36
 70
     1
102
RTVSPropertyOp37
 70
     1
102
RTVSPropertyOp38
 70
     1
102
RTVSPropertyOp39
 70
     1
102
RTVSPropertyOp40
 70
     1
102
RTVSPropertyOp41
 70
     1
102
RTVSPropertyOp42
 70
     1
102
RTVSPropertyOp43
 70
     1
102
RTVSPropertyOp44
 70
     1
102
RTVSPropertyOp45
 70
     1
102
RTVSPropertyOp46
 70
     1
102
RTVSPropertyOp47
 70
     1
102
RTVSPropertyOp48
 70
     1
102
RTVSPropertyOp49
 70
     1
102
RTVSPropertyOp50
 70
     1
102
RTVSPropertyOp51
 70
     0
102
RTVSPropertyOp52
 70
     0
102
RTVSPropertyOp53
 70
     1
102
RTVSPropertyOp54
 70
     1
102
RTVSPropertyOp55
 70
     1
102
RTVSPropertyOp56
 70
     1
102
RTVSPropertyOp57
 70
     1
102
RTVSPost2010Prop28
280
     1
102
RTVSPost2010PropOp28
 70
     1
102
RTVSPost2010Prop29
280
     1
102
RTVSPost2010PropOp29
 70
     1
102
RTVSPost2010Prop30
280
     0
102
RTVSPost2010PropOp30
 70
     1
102
RTVSPost2010Prop31
280
     0
102
RTVSPost2010PropOp31
 70
     1
102
RTVSPost2010Prop32
280
     0
102
RTVSPost2010PropOp32
 70
     1
102
RTVSPost2010Prop33
280
     0
102
RTVSPost2010PropOp33
 70
     1
102
RTVSPost2010Prop34
280
     0
102
RTVSPost2010PropOp34
 70
     1
102
RTVSPost2010Prop35
280
     0
102
RTVSPost2010PropOp35
 70
     1
102
RTVSPost2010Prop36
280
     0
102
RTVSPost2010PropOp36
 70
     1
102
RTVSPost2010Prop37
 90
       50
102
RTVSPost2010PropOp37
 70
     1
102
RTVSPost2010Prop38
140
0.0
102
RTVSPost2010PropOp38
 70
     1
102
RTVSPost2010Prop39
140
1.0
102
RTVSPost2010PropOp39
 70
     1
102
RTVSPost2010Prop40
 90
        0
102
RTVSPost2010PropOp40
 70
     1
102
RTVSPost2010Prop41ColorIndex
 90
       18
102
RTVSPost2010Prop41ColorRGB
 90
        0
102
RTVSPost2010PropOp41
 70
     1
102
RTVSPost2010Prop42
 90
       50
102
RTVSPost2010PropOp42
 70
     1
102
RTVSPost2010Prop43
 90
        3
102
RTVSPost2010PropOp43
 70
     1
102
RTVSPost2010Prop44ColorIndex
 90
        5
102
RTVSPost2010Prop44ColorRGB
 90
      255
102
RTVSPost2010PropOp44
 70
     1
102
RTVSPost2010Prop45
280
     0
102
RTVSPost2010PropOp45
 70
     1
102
RTVSPost2010Prop46
 90
       50
102
RTVSPost2010PropOp46
 70
     1
102
RTVSPost2010Prop47
 90
       50
102
RTVSPost2010PropOp47
 70
     1
102
RTVSPost2010Prop48
 90
       50
102
RTVSPost2010PropOp48
 70
     1
102
RTVSPost2010Prop49
280
     0
102
RTVSPost2010PropOp49
 70
     1
102
RTVSPost2010Prop50
 90
       50
102
RTVSPost2010PropOp50
 70
     1
102
RTVSPost2010Prop51ColorIndex
 90
      256
102
RTVSPost2010Prop51ColorRGB
 90
-16777216
102
RTVSPost2010PropOp51
 70
     0
102
RTVSPost2010Prop52
140
1.0
102
RTVSPost2010PropOp52
 70
     0
102
RTVSPost2010Prop53
 90
        2
102
RTVSPost2010PropOp53
 70
     1
102
RTVSPost2010Prop54
  1
strokes_ogs.tif
102
RTVSPost2010PropOp54
 70
     1
102
RTVSPost2010Prop55
280
     0
102
RTVSPost2010PropOp55
 70
     1
102
RTVSPost2010Prop56
140
1.0
102
RTVSPost2010PropOp56
 70
     1
102
RTVSPost2010Prop57
140
1.0
102
RTVSPost2010PropOp57
 70
     1
  0
XRECORD
  5
43C
102
{ACAD_REACTORS
330
43B
102
}
330
43B
100
AcDbXrecord
280
     1
102
RTVSPropertyOp0
 70
     1
102
RTVSPropertyOp1
 70
     1
102
RTVSPropertyOp2
 70
     1
102
RTVSPropertyOp3
 70
     1
102
RTVSPropertyOp4
 70
     1
102
RTVSPropertyOp5
 70
     1
102
RTVSPropertyOp6
 70
     1
102
RTVSPropertyOp7
 70
     1
102
RTVSPropertyOp8
 70
     1
102
RTVSPropertyOp9
 70
     1
102
RTVSPropertyOp10
 70
     1
102
RTVSPropertyOp11
 70
     1
102
RTVSPropertyOp12
 70
     1
102
RTVSPropertyOp13
 70
     1
102
RTVSPropertyOp14
 70
     1
102
RTVSPropertyOp15
 70
     1
102
RTVSPropertyOp16
 70
     1
102
RTVSPropertyOp17
 70
     1
102
RTVSPropertyOp18
 70
     1
102
RTVSPropertyOp19
 70
     1
102
RTVSPropertyOp20
 70
     1
102
RTVSPropertyOp21
 70
     1
102
RTVSPropertyOp22
 70
     1
102
RTVSPropertyOp23
 70
     1
102
RTVSPropertyOp24
 70
     1
102
RTVSPropertyOp25
 70
     1
102
RTVSPropertyOp26
 70
     1
102
RTVSPropertyOp27
 70
     1
102
RTVSPropertyOp28
 70
     1
102
RTVSPropertyOp29
 70
     1
102
RTVSPropertyOp30
 70
     1
102
RTVSPropertyOp31
 70
     1
102
RTVSPropertyOp32
 70
     1
102
RTVSPropertyOp33
 70
     1
102
RTVSPropertyOp34
 70
     1
102
RTVSPropertyOp35
 70
     1
102
RTVSPropertyOp36
 70
     1
102
RTVSPropertyOp37
 70
     1
102
RTVSPropertyOp38
 70
     1
102
RTVSPropertyOp39
 70
     1
102
RTVSPropertyOp40
 70
     1
102
RTVSPropertyOp41
 70
     1
102
RTVSPropertyOp42
 70
     1
102
RTVSPropertyOp43
 70
     1
102
RTVSPropertyOp44
 70
     1
102
RTVSPropertyOp45
 70
     1
102
RTVSPropertyOp46
 70
     1
102
RTVSPropertyOp47
 70
     1
102
RTVSPropertyOp48
 70
     1
102
RTVSPropertyOp49
 70
     1
102
RTVSPropertyOp50
 70
     1
102
RTVSPropertyOp51
 70
     0
102
RTVSPropertyOp52
 70
     0
102
RTVSPropertyOp53
 70
     1
102
RTVSPropertyOp54
 70
     1
102
RTVSPropertyOp55
 70
     1
102
RTVSPropertyOp56
 70
     1
102
RTVSPropertyOp57
 70
     1
102
RTVSPost2010Prop28
280
     0
102
RTVSPost2010PropOp28
 70
     1
102
RTVSPost2010Prop29
280
     1
102
RTVSPost2010PropOp29
 70
     1
102
RTVSPost2010Prop30
280
     1
102
RTVSPost2010PropOp30
 70
     1
102
RTVSPost2010Prop31
280
     0
102
RTVSPost2010PropOp31
 70
     1
102
RTVSPost2010Prop32
280
     0
102
RTVSPost2010PropOp32
 70
     1
102
RTVSPost2010Prop33
280
     0
102
RTVSPost2010PropOp33
 70
     1
102
RTVSPost2010Prop34
280
     0
102
RTVSPost2010PropOp34
 70
     1
102
RTVSPost2010Prop35
280
     0
102
RTVSPost2010PropOp35
 70
     1
102
RTVSPost2010Prop36
280
     0
102
RTVSPost2010PropOp36
 70
     1
102
RTVSPost2010Prop37
 90
       50
102
RTVSPost2010PropOp37
 70
     1
102
RTVSPost2010Prop38
140
0.0
102
RTVSPost2010PropOp38
 70
     1
102
RTVSPost2010Prop39
140
1.0
102
RTVSPost2010PropOp39
 70
     1
102
RTVSPost2010Prop40
 90
        0
102
RTVSPost2010PropOp40
 70
     1
102
RTVSPost2010Prop41ColorIndex
 90
       18
102
RTVSPost2010Prop41ColorRGB
 90
        0
102
RTVSPost2010PropOp41
 70
     1
102
RTVSPost2010Prop42
 90
       50
102
RTVSPost2010PropOp42
 70
     1
102
RTVSPost2010Prop43
 90
        3
102
RTVSPost2010PropOp43
 70
     1
102
RTVSPost2010Prop44ColorIndex
 90
        5
102
RTVSPost2010Prop44ColorRGB
 90
      255
102
RTVSPost2010PropOp44
 70
     1
102
RTVSPost2010Prop45
280
     0
102
RTVSPost2010PropOp45
 70
     1
102
RTVSPost2010Prop46
 90
       50
102
RTVSPost2010PropOp46
 70
     1
102
RTVSPost2010Prop47
 90
       50
102
RTVSPost2010PropOp47
 70
     1
102
RTVSPost2010Prop48
 90
       50
102
RTVSPost2010PropOp48
 70
     1
102
RTVSPost2010Prop49
280
     0
102
RTVSPost2010PropOp49
 70
     1
102
RTVSPost2010Prop50
 90
       50
102
RTVSPost2010PropOp50
 70
     1
102
RTVSPost2010Prop51ColorIndex
 90
      256
102
RTVSPost2010Prop51ColorRGB
 90
-16777216
102
RTVSPost2010PropOp51
 70
     0
102
RTVSPost2010Prop52
140
1.0
102
RTVSPost2010PropOp52
 70
     0
102
RTVSPost2010Prop53
 90
        2
102
RTVSPost2010PropOp53
 70
     1
102
RTVSPost2010Prop54
  1
strokes_ogs.tif
102
RTVSPost2010PropOp54
 70
     1
102
RTVSPost2010Prop55
280
     0
102
RTVSPost2010PropOp55
 70
     1
102
RTVSPost2010Prop56
140
1.0
102
RTVSPost2010PropOp56
 70
     1
102
RTVSPost2010Prop57
140
1.0
102
RTVSPost2010PropOp57
 70
     1
  0
XRECORD
  5
444
102
{ACAD_REACTORS
330
443
102
}
330
443
100
AcDbXrecord
280
     1
102
RTVSPropertyOp0
 70
     1
102
RTVSPropertyOp1
 70
     1
102
RTVSPropertyOp2
 70
     1
102
RTVSPropertyOp3
 70
     1
102
RTVSPropertyOp4
 70
     1
102
RTVSPropertyOp5
 70
     1
102
RTVSPropertyOp6
 70
     1
102
RTVSPropertyOp7
 70
     1
102
RTVSPropertyOp8
 70
     1
102
RTVSPropertyOp9
 70
     1
102
RTVSPropertyOp10
 70
     1
102
RTVSPropertyOp11
 70
     1
102
RTVSPropertyOp12
 70
     1
102
RTVSPropertyOp13
 70
     1
102
RTVSPropertyOp14
 70
     1
102
RTVSPropertyOp15
 70
     1
102
RTVSPropertyOp16
 70
     1
102
RTVSPropertyOp17
 70
     1
102
RTVSPropertyOp18
 70
     1
102
RTVSPropertyOp19
 70
     1
102
RTVSPropertyOp20
 70
     1
102
RTVSPropertyOp21
 70
     1
102
RTVSPropertyOp22
 70
     1
102
RTVSPropertyOp23
 70
     1
102
RTVSPropertyOp24
 70
     1
102
RTVSPropertyOp25
 70
     1
102
RTVSPropertyOp26
 70
     1
102
RTVSPropertyOp27
 70
     1
102
RTVSPropertyOp28
 70
     1
102
RTVSPropertyOp29
 70
     1
102
RTVSPropertyOp30
 70
     1
102
RTVSPropertyOp31
 70
     1
102
RTVSPropertyOp32
 70
     1
102
RTVSPropertyOp33
 70
     1
102
RTVSPropertyOp34
 70
     1
102
RTVSPropertyOp35
 70
     1
102
RTVSPropertyOp36
 70
     1
102
RTVSPropertyOp37
 70
     1
102
RTVSPropertyOp38
 70
     1
102
RTVSPropertyOp39
 70
     1
102
RTVSPropertyOp40
 70
     1
102
RTVSPropertyOp41
 70
     1
102
RTVSPropertyOp42
 70
     1
102
RTVSPropertyOp43
 70
     1
102
RTVSPropertyOp44
 70
     1
102
RTVSPropertyOp45
 70
     1
102
RTVSPropertyOp46
 70
     1
102
RTVSPropertyOp47
 70
     1
102
RTVSPropertyOp48
 70
     1
102
RTVSPropertyOp49
 70
     1
102
RTVSPropertyOp50
 70
     1
102
RTVSPropertyOp51
 70
     0
102
RTVSPropertyOp52
 70
     0
102
RTVSPropertyOp53
 70
     1
102
RTVSPropertyOp54
 70
     1
102
RTVSPropertyOp55
 70
     1
102
RTVSPropertyOp56
 70
     1
102
RTVSPropertyOp57
 70
     1
102
RTVSPost2010Prop28
280
     0
102
RTVSPost2010PropOp28
 70
     1
102
RTVSPost2010Prop29
280
     1
102
RTVSPost2010PropOp29
 70
     1
102
RTVSPost2010Prop30
280
     1
102
RTVSPost2010PropOp30
 70
     1
102
RTVSPost2010Prop31
280
     0
102
RTVSPost2010PropOp31
 70
     1
102
RTVSPost2010Prop32
280
     0
102
RTVSPost2010PropOp32
 70
     1
102
RTVSPost2010Prop33
280
     0
102
RTVSPost2010PropOp33
 70
     1
102
RTVSPost2010Prop34
280
     0
102
RTVSPost2010PropOp34
 70
     1
102
RTVSPost2010Prop35
280
     0
102
RTVSPost2010PropOp35
 70
     1
102
RTVSPost2010Prop36
280
     0
102
RTVSPost2010PropOp36
 70
     1
102
RTVSPost2010Prop37
 90
       50
102
RTVSPost2010PropOp37
 70
     1
102
RTVSPost2010Prop38
140
0.0
102
RTVSPost2010PropOp38
 70
     1
102
RTVSPost2010Prop39
140
1.0
102
RTVSPost2010PropOp39
 70
     1
102
RTVSPost2010Prop40
 90
        0
102
RTVSPost2010PropOp40
 70
     1
102
RTVSPost2010Prop41ColorIndex
 90
       18
102
RTVSPost2010Prop41ColorRGB
 90
        0
102
RTVSPost2010PropOp41
 70
     1
102
RTVSPost2010Prop42
 90
       50
102
RTVSPost2010PropOp42
 70
     1
102
RTVSPost2010Prop43
 90
        3
102
RTVSPost2010PropOp43
 70
     1
102
RTVSPost2010Prop44ColorIndex
 90
        5
102
RTVSPost2010Prop44ColorRGB
 90
      255
102
RTVSPost2010PropOp44
 70
     1
102
RTVSPost2010Prop45
280
     0
102
RTVSPost2010PropOp45
 70
     1
102
RTVSPost2010Prop46
 90
       50
102
RTVSPost2010PropOp46
 70
     1
102
RTVSPost2010Prop47
 90
       50
102
RTVSPost2010PropOp47
 70
     1
102
RTVSPost2010Prop48
 90
       50
102
RTVSPost2010PropOp48
 70
     1
102
RTVSPost2010Prop49
280
     0
102
RTVSPost2010PropOp49
 70
     1
102
RTVSPost2010Prop50
 90
       50
102
RTVSPost2010PropOp50
 70
     1
102
RTVSPost2010Prop51ColorIndex
 90
      256
102
RTVSPost2010Prop51ColorRGB
 90
-16777216
102
RTVSPost2010PropOp51
 70
     0
102
RTVSPost2010Prop52
140
1.0
102
RTVSPost2010PropOp52
 70
     0
102
RTVSPost2010Prop53
 90
        2
102
RTVSPost2010PropOp53
 70
     1
102
RTVSPost2010Prop54
  1
strokes_ogs.tif
102
RTVSPost2010PropOp54
 70
     1
102
RTVSPost2010Prop55
280
     0
102
RTVSPost2010PropOp55
 70
     1
102
RTVSPost2010Prop56
140
1.0
102
RTVSPost2010PropOp56
 70
     1
102
RTVSPost2010Prop57
140
1.0
102
RTVSPost2010PropOp57
 70
     1
  0
XRECORD
  5
44C
102
{ACAD_REACTORS
330
44B
102
}
330
44B
100
AcDbXrecord
280
     1
102
RTVSPropertyOp0
 70
     1
102
RTVSPropertyOp1
 70
     1
102
RTVSPropertyOp2
 70
     1
102
RTVSPropertyOp3
 70
     1
102
RTVSPropertyOp4
 70
     1
102
RTVSPropertyOp5
 70
     1
102
RTVSPropertyOp6
 70
     1
102
RTVSPropertyOp7
 70
     1
102
RTVSPropertyOp8
 70
     1
102
RTVSPropertyOp9
 70
     1
102
RTVSPropertyOp10
 70
     1
102
RTVSPropertyOp11
 70
     1
102
RTVSPropertyOp12
 70
     1
102
RTVSPropertyOp13
 70
     1
102
RTVSPropertyOp14
 70
     1
102
RTVSPropertyOp15
 70
     1
102
RTVSPropertyOp16
 70
     1
102
RTVSPropertyOp17
 70
     1
102
RTVSPropertyOp18
 70
     1
102
RTVSPropertyOp19
 70
     1
102
RTVSPropertyOp20
 70
     1
102
RTVSPropertyOp21
 70
     1
102
RTVSPropertyOp22
 70
     1
102
RTVSPropertyOp23
 70
     1
102
RTVSPropertyOp24
 70
     1
102
RTVSPropertyOp25
 70
     1
102
RTVSPropertyOp26
 70
     1
102
RTVSPropertyOp27
 70
     1
102
RTVSPropertyOp28
 70
     1
102
RTVSPropertyOp29
 70
     1
102
RTVSPropertyOp30
 70
     1
102
RTVSPropertyOp31
 70
     1
102
RTVSPropertyOp32
 70
     1
102
RTVSPropertyOp33
 70
     1
102
RTVSPropertyOp34
 70
     1
102
RTVSPropertyOp35
 70
     1
102
RTVSPropertyOp36
 70
     1
102
RTVSPropertyOp37
 70
     1
102
RTVSPropertyOp38
 70
     1
102
RTVSPropertyOp39
 70
     1
102
RTVSPropertyOp40
 70
     1
102
RTVSPropertyOp41
 70
     1
102
RTVSPropertyOp42
 70
     1
102
RTVSPropertyOp43
 70
     1
102
RTVSPropertyOp44
 70
     1
102
RTVSPropertyOp45
 70
     1
102
RTVSPropertyOp46
 70
     1
102
RTVSPropertyOp47
 70
     1
102
RTVSPropertyOp48
 70
     1
102
RTVSPropertyOp49
 70
     1
102
RTVSPropertyOp50
 70
     1
102
RTVSPropertyOp51
 70
     0
102
RTVSPropertyOp52
 70
     0
102
RTVSPropertyOp53
 70
     1
102
RTVSPropertyOp54
 70
     1
102
RTVSPropertyOp55
 70
     1
102
RTVSPropertyOp56
 70
     1
102
RTVSPropertyOp57
 70
     1
102
RTVSPost2010Prop28
280
     0
102
RTVSPost2010PropOp28
 70
     1
102
RTVSPost2010Prop29
280
     1
102
RTVSPost2010PropOp29
 70
     1
102
RTVSPost2010Prop30
280
     1
102
RTVSPost2010PropOp30
 70
     1
102
RTVSPost2010Prop31
280
     0
102
RTVSPost2010PropOp31
 70
     1
102
RTVSPost2010Prop32
280
     0
102
RTVSPost2010PropOp32
 70
     1
102
RTVSPost2010Prop33
280
     0
102
RTVSPost2010PropOp33
 70
     1
102
RTVSPost2010Prop34
280
     0
102
RTVSPost2010PropOp34
 70
     1
102
RTVSPost2010Prop35
280
     0
102
RTVSPost2010PropOp35
 70
     1
102
RTVSPost2010Prop36
280
     0
102
RTVSPost2010PropOp36
 70
     1
102
RTVSPost2010Prop37
 90
       50
102
RTVSPost2010PropOp37
 70
     1
102
RTVSPost2010Prop38
140
0.0
102
RTVSPost2010PropOp38
 70
     1
102
RTVSPost2010Prop39
140
1.0
102
RTVSPost2010PropOp39
 70
     1
102
RTVSPost2010Prop40
 90
        0
102
RTVSPost2010PropOp40
 70
     1
102
RTVSPost2010Prop41ColorIndex
 90
       18
102
RTVSPost2010Prop41ColorRGB
 90
        0
102
RTVSPost2010PropOp41
 70
     1
102
RTVSPost2010Prop42
 90
       50
102
RTVSPost2010PropOp42
 70
     1
102
RTVSPost2010Prop43
 90
        3
102
RTVSPost2010PropOp43
 70
     1
102
RTVSPost2010Prop44ColorIndex
 90
        5
102
RTVSPost2010Prop44ColorRGB
 90
      255
102
RTVSPost2010PropOp44
 70
     1
102
RTVSPost2010Prop45
280
     0
102
RTVSPost2010PropOp45
 70
     1
102
RTVSPost2010Prop46
 90
       50
102
RTVSPost2010PropOp46
 70
     1
102
RTVSPost2010Prop47
 90
       50
102
RTVSPost2010PropOp47
 70
     1
102
RTVSPost2010Prop48
 90
       50
102
RTVSPost2010PropOp48
 70
     1
102
RTVSPost2010Prop49
280
     0
102
RTVSPost2010PropOp49
 70
     1
102
RTVSPost2010Prop50
 90
       50
102
RTVSPost2010PropOp50
 70
     1
102
RTVSPost2010Prop51ColorIndex
 90
      256
102
RTVSPost2010Prop51ColorRGB
 90
-16777216
102
RTVSPost2010PropOp51
 70
     0
102
RTVSPost2010Prop52
140
1.0
102
RTVSPost2010PropOp52
 70
     0
102
RTVSPost2010Prop53
 90
        2
102
RTVSPost2010PropOp53
 70
     1
102
RTVSPost2010Prop54
  1
strokes_ogs.tif
102
RTVSPost2010PropOp54
 70
     1
102
RTVSPost2010Prop55
280
     0
102
RTVSPost2010PropOp55
 70
     1
102
RTVSPost2010Prop56
140
1.0
102
RTVSPost2010PropOp56
 70
     1
102
RTVSPost2010Prop57
140
1.0
102
RTVSPost2010PropOp57
 70
     1
  0
XRECORD
  5
440
102
{ACAD_REACTORS
330
43F
102
}
330
43F
100
AcDbXrecord
280
     1
102
RTVSPropertyOp0
 70
     1
102
RTVSPropertyOp1
 70
     1
102
RTVSPropertyOp2
 70
     1
102
RTVSPropertyOp3
 70
     1
102
RTVSPropertyOp4
 70
     1
102
RTVSPropertyOp5
 70
     1
102
RTVSPropertyOp6
 70
     1
102
RTVSPropertyOp7
 70
     1
102
RTVSPropertyOp8
 70
     1
102
RTVSPropertyOp9
 70
     1
102
RTVSPropertyOp10
 70
     1
102
RTVSPropertyOp11
 70
     1
102
RTVSPropertyOp12
 70
     1
102
RTVSPropertyOp13
 70
     1
102
RTVSPropertyOp14
 70
     1
102
RTVSPropertyOp15
 70
     1
102
RTVSPropertyOp16
 70
     1
102
RTVSPropertyOp17
 70
     1
102
RTVSPropertyOp18
 70
     1
102
RTVSPropertyOp19
 70
     1
102
RTVSPropertyOp20
 70
     1
102
RTVSPropertyOp21
 70
     1
102
RTVSPropertyOp22
 70
     1
102
RTVSPropertyOp23
 70
     1
102
RTVSPropertyOp24
 70
     1
102
RTVSPropertyOp25
 70
     1
102
RTVSPropertyOp26
 70
     1
102
RTVSPropertyOp27
 70
     1
102
RTVSPropertyOp28
 70
     1
102
RTVSPropertyOp29
 70
     1
102
RTVSPropertyOp30
 70
     1
102
RTVSPropertyOp31
 70
     1
102
RTVSPropertyOp32
 70
     1
102
RTVSPropertyOp33
 70
     1
102
RTVSPropertyOp34
 70
     1
102
RTVSPropertyOp35
 70
     1
102
RTVSPropertyOp36
 70
     1
102
RTVSPropertyOp37
 70
     1
102
RTVSPropertyOp38
 70
     1
102
RTVSPropertyOp39
 70
     1
102
RTVSPropertyOp40
 70
     1
102
RTVSPropertyOp41
 70
     1
102
RTVSPropertyOp42
 70
     1
102
RTVSPropertyOp43
 70
     1
102
RTVSPropertyOp44
 70
     1
102
RTVSPropertyOp45
 70
     1
102
RTVSPropertyOp46
 70
     1
102
RTVSPropertyOp47
 70
     1
102
RTVSPropertyOp48
 70
     1
102
RTVSPropertyOp49
 70
     1
102
RTVSPropertyOp50
 70
     1
102
RTVSPropertyOp51
 70
     0
102
RTVSPropertyOp52
 70
     0
102
RTVSPropertyOp53
 70
     1
102
RTVSPropertyOp54
 70
     1
102
RTVSPropertyOp55
 70
     1
102
RTVSPropertyOp56
 70
     1
102
RTVSPropertyOp57
 70
     1
102
RTVSPost2010Prop28
280
     0
102
RTVSPost2010PropOp28
 70
     1
102
RTVSPost2010Prop29
280
     1
102
RTVSPost2010PropOp29
 70
     1
102
RTVSPost2010Prop30
280
     1
102
RTVSPost2010PropOp30
 70
     1
102
RTVSPost2010Prop31
280
     0
102
RTVSPost2010PropOp31
 70
     1
102
RTVSPost2010Prop32
280
     0
102
RTVSPost2010PropOp32
 70
     1
102
RTVSPost2010Prop33
280
     0
102
RTVSPost2010PropOp33
 70
     1
102
RTVSPost2010Prop34
280
     0
102
RTVSPost2010PropOp34
 70
     1
102
RTVSPost2010Prop35
280
     0
102
RTVSPost2010PropOp35
 70
     1
102
RTVSPost2010Prop36
280
     0
102
RTVSPost2010PropOp36
 70
     1
102
RTVSPost2010Prop37
 90
       50
102
RTVSPost2010PropOp37
 70
     1
102
RTVSPost2010Prop38
140
0.0
102
RTVSPost2010PropOp38
 70
     1
102
RTVSPost2010Prop39
140
1.0
102
RTVSPost2010PropOp39
 70
     1
102
RTVSPost2010Prop40
 90
        0
102
RTVSPost2010PropOp40
 70
     1
102
RTVSPost2010Prop41ColorIndex
 90
       18
102
RTVSPost2010Prop41ColorRGB
 90
        0
102
RTVSPost2010PropOp41
 70
     1
102
RTVSPost2010Prop42
 90
       50
102
RTVSPost2010PropOp42
 70
     1
102
RTVSPost2010Prop43
 90
        3
102
RTVSPost2010PropOp43
 70
     1
102
RTVSPost2010Prop44ColorIndex
 90
        5
102
RTVSPost2010Prop44ColorRGB
 90
      255
102
RTVSPost2010PropOp44
 70
     1
102
RTVSPost2010Prop45
280
     0
102
RTVSPost2010PropOp45
 70
     1
102
RTVSPost2010Prop46
 90
       50
102
RTVSPost2010PropOp46
 70
     1
102
RTVSPost2010Prop47
 90
       50
102
RTVSPost2010PropOp47
 70
     1
102
RTVSPost2010Prop48
 90
       50
102
RTVSPost2010PropOp48
 70
     1
102
RTVSPost2010Prop49
280
     0
102
RTVSPost2010PropOp49
 70
     1
102
RTVSPost2010Prop50
 90
       50
102
RTVSPost2010PropOp50
 70
     1
102
RTVSPost2010Prop51ColorIndex
 90
      256
102
RTVSPost2010Prop51ColorRGB
 90
-16777216
102
RTVSPost2010PropOp51
 70
     0
102
RTVSPost2010Prop52
140
1.0
102
RTVSPost2010PropOp52
 70
     0
102
RTVSPost2010Prop53
 90
        2
102
RTVSPost2010PropOp53
 70
     1
102
RTVSPost2010Prop54
  1
strokes_ogs.tif
102
RTVSPost2010PropOp54
 70
     1
102
RTVSPost2010Prop55
280
     0
102
RTVSPost2010PropOp55
 70
     1
102
RTVSPost2010Prop56
140
1.0
102
RTVSPost2010PropOp56
 70
     1
102
RTVSPost2010Prop57
140
1.0
102
RTVSPost2010PropOp57
 70
     1
  0
XRECORD
  5
442
102
{ACAD_REACTORS
330
441
102
}
330
441
100
AcDbXrecord
280
     1
102
RTVSPropertyOp0
 70
     1
102
RTVSPropertyOp1
 70
     1
102
RTVSPropertyOp2
 70
     1
102
RTVSPropertyOp3
 70
     1
102
RTVSPropertyOp4
 70
     1
102
RTVSPropertyOp5
 70
     1
102
RTVSPropertyOp6
 70
     1
102
RTVSPropertyOp7
 70
     1
102
RTVSPropertyOp8
 70
     1
102
RTVSPropertyOp9
 70
     1
102
RTVSPropertyOp10
 70
     1
102
RTVSPropertyOp11
 70
     1
102
RTVSPropertyOp12
 70
     1
102
RTVSPropertyOp13
 70
     1
102
RTVSPropertyOp14
 70
     1
102
RTVSPropertyOp15
 70
     1
102
RTVSPropertyOp16
 70
     1
102
RTVSPropertyOp17
 70
     1
102
RTVSPropertyOp18
 70
     1
102
RTVSPropertyOp19
 70
     1
102
RTVSPropertyOp20
 70
     1
102
RTVSPropertyOp21
 70
     1
102
RTVSPropertyOp22
 70
     1
102
RTVSPropertyOp23
 70
     1
102
RTVSPropertyOp24
 70
     1
102
RTVSPropertyOp25
 70
     1
102
RTVSPropertyOp26
 70
     1
102
RTVSPropertyOp27
 70
     1
102
RTVSPropertyOp28
 70
     1
102
RTVSPropertyOp29
 70
     1
102
RTVSPropertyOp30
 70
     1
102
RTVSPropertyOp31
 70
     1
102
RTVSPropertyOp32
 70
     1
102
RTVSPropertyOp33
 70
     1
102
RTVSPropertyOp34
 70
     1
102
RTVSPropertyOp35
 70
     1
102
RTVSPropertyOp36
 70
     1
102
RTVSPropertyOp37
 70
     1
102
RTVSPropertyOp38
 70
     1
102
RTVSPropertyOp39
 70
     1
102
RTVSPropertyOp40
 70
     1
102
RTVSPropertyOp41
 70
     1
102
RTVSPropertyOp42
 70
     1
102
RTVSPropertyOp43
 70
     1
102
RTVSPropertyOp44
 70
     1
102
RTVSPropertyOp45
 70
     1
102
RTVSPropertyOp46
 70
     1
102
RTVSPropertyOp47
 70
     1
102
RTVSPropertyOp48
 70
     1
102
RTVSPropertyOp49
 70
     1
102
RTVSPropertyOp50
 70
     1
102
RTVSPropertyOp51
 70
     0
102
RTVSPropertyOp52
 70
     0
102
RTVSPropertyOp53
 70
     1
102
RTVSPropertyOp54
 70
     1
102
RTVSPropertyOp55
 70
     1
102
RTVSPropertyOp56
 70
     1
102
RTVSPropertyOp57
 70
     1
102
RTVSPost2010Prop28
280
     0
102
RTVSPost2010PropOp28
 70
     1
102
RTVSPost2010Prop29
280
     1
102
RTVSPost2010PropOp29
 70
     1
102
RTVSPost2010Prop30
280
     1
102
RTVSPost2010PropOp30
 70
     1
102
RTVSPost2010Prop31
280
     0
102
RTVSPost2010PropOp31
 70
     1
102
RTVSPost2010Prop32
280
     0
102
RTVSPost2010PropOp32
 70
     1
102
RTVSPost2010Prop33
280
     0
102
RTVSPost2010PropOp33
 70
     1
102
RTVSPost2010Prop34
280
     0
102
RTVSPost2010PropOp34
 70
     1
102
RTVSPost2010Prop35
280
     0
102
RTVSPost2010PropOp35
 70
     1
102
RTVSPost2010Prop36
280
     0
102
RTVSPost2010PropOp36
 70
     1
102
RTVSPost2010Prop37
 90
       50
102
RTVSPost2010PropOp37
 70
     1
102
RTVSPost2010Prop38
140
0.0
102
RTVSPost2010PropOp38
 70
     1
102
RTVSPost2010Prop39
140
1.0
102
RTVSPost2010PropOp39
 70
     1
102
RTVSPost2010Prop40
 90
        0
102
RTVSPost2010PropOp40
 70
     1
102
RTVSPost2010Prop41ColorIndex
 90
       18
102
RTVSPost2010Prop41ColorRGB
 90
        0
102
RTVSPost2010PropOp41
 70
     1
102
RTVSPost2010Prop42
 90
       50
102
RTVSPost2010PropOp42
 70
     1
102
RTVSPost2010Prop43
 90
        3
102
RTVSPost2010PropOp43
 70
     1
102
RTVSPost2010Prop44ColorIndex
 90
        5
102
RTVSPost2010Prop44ColorRGB
 90
      255
102
RTVSPost2010PropOp44
 70
     1
102
RTVSPost2010Prop45
280
     0
102
RTVSPost2010PropOp45
 70
     1
102
RTVSPost2010Prop46
 90
       50
102
RTVSPost2010PropOp46
 70
     1
102
RTVSPost2010Prop47
 90
       50
102
RTVSPost2010PropOp47
 70
     1
102
RTVSPost2010Prop48
 90
       50
102
RTVSPost2010PropOp48
 70
     1
102
RTVSPost2010Prop49
280
     0
102
RTVSPost2010PropOp49
 70
     1
102
RTVSPost2010Prop50
 90
       50
102
RTVSPost2010PropOp50
 70
     1
102
RTVSPost2010Prop51ColorIndex
 90
      256
102
RTVSPost2010Prop51ColorRGB
 90
-16777216
102
RTVSPost2010PropOp51
 70
     0
102
RTVSPost2010Prop52
140
1.0
102
RTVSPost2010PropOp52
 70
     0
102
RTVSPost2010Prop53
 90
        2
102
RTVSPost2010PropOp53
 70
     1
102
RTVSPost2010Prop54
  1
strokes_ogs.tif
102
RTVSPost2010PropOp54
 70
     1
102
RTVSPost2010Prop55
280
     0
102
RTVSPost2010PropOp55
 70
     1
102
RTVSPost2010Prop56
140
1.0
102
RTVSPost2010PropOp56
 70
     1
102
RTVSPost2010Prop57
140
1.0
102
RTVSPost2010PropOp57
 70
     1
  0
XRECORD
  5
452
102
{ACAD_REACTORS
330
451
102
}
330
451
100
AcDbXrecord
280
     1
102
RTVSPropertyOp0
 70
     0
102
RTVSPropertyOp1
 70
     0
102
RTVSPropertyOp2
 70
     0
102
RTVSPropertyOp3
 70
     0
102
RTVSPropertyOp4
 70
     0
102
RTVSPropertyOp5
 70
     0
102
RTVSPropertyOp6
 70
     0
102
RTVSPropertyOp7
 70
     0
102
RTVSPropertyOp8
 70
     0
102
RTVSPropertyOp9
 70
     0
102
RTVSPropertyOp10
 70
     0
102
RTVSPropertyOp11
 70
     0
102
RTVSPropertyOp12
 70
     0
102
RTVSPropertyOp13
 70
     0
102
RTVSPropertyOp14
 70
     2
102
RTVSPropertyOp15
 70
     0
102
RTVSPropertyOp16
 70
     0
102
RTVSPropertyOp17
 70
     0
102
RTVSPropertyOp18
 70
     0
102
RTVSPropertyOp19
 70
     0
102
RTVSPropertyOp20
 70
     0
102
RTVSPropertyOp21
 70
     0
102
RTVSPropertyOp22
 70
     0
102
RTVSPropertyOp23
 70
     0
102
RTVSPropertyOp24
 70
     0
102
RTVSPropertyOp25
 70
     0
102
RTVSPropertyOp26
 70
     0
102
RTVSPropertyOp27
 70
     0
102
RTVSPropertyOp28
 70
     0
102
RTVSPropertyOp29
 70
     0
102
RTVSPropertyOp30
 70
     0
102
RTVSPropertyOp31
 70
     0
102
RTVSPropertyOp32
 70
     0
102
RTVSPropertyOp33
 70
     0
102
RTVSPropertyOp34
 70
     0
102
RTVSPropertyOp35
 70
     0
102
RTVSPropertyOp36
 70
     0
102
RTVSPropertyOp37
 70
     0
102
RTVSPropertyOp38
 70
     0
102
RTVSPropertyOp39
 70
     0
102
RTVSPropertyOp40
 70
     0
102
RTVSPropertyOp41
 70
     0
102
RTVSPropertyOp42
 70
     0
102
RTVSPropertyOp43
 70
     0
102
RTVSPropertyOp44
 70
     0
102
RTVSPropertyOp45
 70
     0
102
RTVSPropertyOp46
 70
     0
102
RTVSPropertyOp47
 70
     0
102
RTVSPropertyOp48
 70
     0
102
RTVSPropertyOp49
 70
     0
102
RTVSPropertyOp50
 70
     0
102
RTVSPropertyOp51
 70
     0
102
RTVSPropertyOp52
 70
     0
102
RTVSPropertyOp53
 70
     0
102
RTVSPropertyOp54
 70
     0
102
RTVSPropertyOp55
 70
     0
102
RTVSPropertyOp56
 70
     0
102
RTVSPropertyOp57
 70
     0
102
RTVSPost2010Prop28
280
     0
102
RTVSPost2010PropOp28
 70
     0
102
RTVSPost2010Prop29
280
     1
102
RTVSPost2010PropOp29
 70
     0
102
RTVSPost2010Prop30
280
     1
102
RTVSPost2010PropOp30
 70
     0
102
RTVSPost2010Prop31
280
     0
102
RTVSPost2010PropOp31
 70
     0
102
RTVSPost2010Prop32
280
     0
102
RTVSPost2010PropOp32
 70
     0
102
RTVSPost2010Prop33
280
     0
102
RTVSPost2010PropOp33
 70
     0
102
RTVSPost2010Prop34
280
     0
102
RTVSPost2010PropOp34
 70
     0
102
RTVSPost2010Prop35
280
     0
102
RTVSPost2010PropOp35
 70
     0
102
RTVSPost2010Prop36
280
     0
102
RTVSPost2010PropOp36
 70
     0
102
RTVSPost2010Prop37
 90
       50
102
RTVSPost2010PropOp37
 70
     0
102
RTVSPost2010Prop38
140
0.0
102
RTVSPost2010PropOp38
 70
     0
102
RTVSPost2010Prop39
140
1.0
102
RTVSPost2010PropOp39
 70
     0
102
RTVSPost2010Prop40
 90
        0
102
RTVSPost2010PropOp40
 70
     0
102
RTVSPost2010Prop41ColorIndex
 90
       18
102
RTVSPost2010Prop41ColorRGB
 90
        0
102
RTVSPost2010PropOp41
 70
     0
102
RTVSPost2010Prop42
 90
       50
102
RTVSPost2010PropOp42
 70
     0
102
RTVSPost2010Prop43
 90
        3
102
RTVSPost2010PropOp43
 70
     0
102
RTVSPost2010Prop44ColorIndex
 90
        5
102
RTVSPost2010Prop44ColorRGB
 90
      255
102
RTVSPost2010PropOp44
 70
     0
102
RTVSPost2010Prop45
280
     0
102
RTVSPost2010PropOp45
 70
     0
102
RTVSPost2010Prop46
 90
       50
102
RTVSPost2010PropOp46
 70
     0
102
RTVSPost2010Prop47
 90
       50
102
RTVSPost2010PropOp47
 70
     0
102
RTVSPost2010Prop48
 90
       50
102
RTVSPost2010PropOp48
 70
     0
102
RTVSPost2010Prop49
280
     0
102
RTVSPost2010PropOp49
 70
     0
102
RTVSPost2010Prop50
 90
       50
102
RTVSPost2010PropOp50
 70
     0
102
RTVSPost2010Prop51ColorIndex
 90
      256
102
RTVSPost2010Prop51ColorRGB
 90
-16777216
102
RTVSPost2010PropOp51
 70
     0
102
RTVSPost2010Prop52
140
1.0
102
RTVSPost2010PropOp52
 70
     0
102
RTVSPost2010Prop53
 90
        2
102
RTVSPost2010PropOp53
 70
     0
102
RTVSPost2010Prop54
  1
strokes_ogs.tif
102
RTVSPost2010PropOp54
 70
     0
102
RTVSPost2010Prop55
280
     0
102
RTVSPost2010PropOp55
 70
     0
102
RTVSPost2010Prop56
140
1.0
102
RTVSPost2010PropOp56
 70
     0
102
RTVSPost2010Prop57
140
1.0
102
RTVSPost2010PropOp57
 70
     0
  0
XRECORD
  5
44A
102
{ACAD_REACTORS
330
449
102
}
330
449
100
AcDbXrecord
280
     1
102
RTVSPropertyOp0
 70
     1
102
RTVSPropertyOp1
 70
     1
102
RTVSPropertyOp2
 70
     1
102
RTVSPropertyOp3
 70
     1
102
RTVSPropertyOp4
 70
     1
102
RTVSPropertyOp5
 70
     1
102
RTVSPropertyOp6
 70
     1
102
RTVSPropertyOp7
 70
     1
102
RTVSPropertyOp8
 70
     1
102
RTVSPropertyOp9
 70
     1
102
RTVSPropertyOp10
 70
     1
102
RTVSPropertyOp11
 70
     1
102
RTVSPropertyOp12
 70
     1
102
RTVSPropertyOp13
 70
     1
102
RTVSPropertyOp14
 70
     1
102
RTVSPropertyOp15
 70
     1
102
RTVSPropertyOp16
 70
     1
102
RTVSPropertyOp17
 70
     1
102
RTVSPropertyOp18
 70
     1
102
RTVSPropertyOp19
 70
     1
102
RTVSPropertyOp20
 70
     1
102
RTVSPropertyOp21
 70
     1
102
RTVSPropertyOp22
 70
     1
102
RTVSPropertyOp23
 70
     1
102
RTVSPropertyOp24
 70
     1
102
RTVSPropertyOp25
 70
     1
102
RTVSPropertyOp26
 70
     1
102
RTVSPropertyOp27
 70
     1
102
RTVSPropertyOp28
 70
     1
102
RTVSPropertyOp29
 70
     1
102
RTVSPropertyOp30
 70
     1
102
RTVSPropertyOp31
 70
     1
102
RTVSPropertyOp32
 70
     1
102
RTVSPropertyOp33
 70
     1
102
RTVSPropertyOp34
 70
     1
102
RTVSPropertyOp35
 70
     1
102
RTVSPropertyOp36
 70
     1
102
RTVSPropertyOp37
 70
     1
102
RTVSPropertyOp38
 70
     1
102
RTVSPropertyOp39
 70
     1
102
RTVSPropertyOp40
 70
     1
102
RTVSPropertyOp41
 70
     1
102
RTVSPropertyOp42
 70
     1
102
RTVSPropertyOp43
 70
     1
102
RTVSPropertyOp44
 70
     1
102
RTVSPropertyOp45
 70
     1
102
RTVSPropertyOp46
 70
     1
102
RTVSPropertyOp47
 70
     1
102
RTVSPropertyOp48
 70
     1
102
RTVSPropertyOp49
 70
     1
102
RTVSPropertyOp50
 70
     1
102
RTVSPropertyOp51
 70
     0
102
RTVSPropertyOp52
 70
     0
102
RTVSPropertyOp53
 70
     1
102
RTVSPropertyOp54
 70
     1
102
RTVSPropertyOp55
 70
     1
102
RTVSPropertyOp56
 70
     1
102
RTVSPropertyOp57
 70
     1
102
RTVSPost2010Prop28
280
     0
102
RTVSPost2010PropOp28
 70
     1
102
RTVSPost2010Prop29
280
     1
102
RTVSPost2010PropOp29
 70
     1
102
RTVSPost2010Prop30
280
     1
102
RTVSPost2010PropOp30
 70
     1
102
RTVSPost2010Prop31
280
     0
102
RTVSPost2010PropOp31
 70
     1
102
RTVSPost2010Prop32
280
     0
102
RTVSPost2010PropOp32
 70
     1
102
RTVSPost2010Prop33
280
     0
102
RTVSPost2010PropOp33
 70
     1
102
RTVSPost2010Prop34
280
     0
102
RTVSPost2010PropOp34
 70
     1
102
RTVSPost2010Prop35
280
     0
102
RTVSPost2010PropOp35
 70
     1
102
RTVSPost2010Prop36
280
     0
102
RTVSPost2010PropOp36
 70
     1
102
RTVSPost2010Prop37
 90
       50
102
RTVSPost2010PropOp37
 70
     1
102
RTVSPost2010Prop38
140
0.0
102
RTVSPost2010PropOp38
 70
     1
102
RTVSPost2010Prop39
140
1.0
102
RTVSPost2010PropOp39
 70
     1
102
RTVSPost2010Prop40
 90
        0
102
RTVSPost2010PropOp40
 70
     1
102
RTVSPost2010Prop41ColorIndex
 90
       18
102
RTVSPost2010Prop41ColorRGB
 90
        0
102
RTVSPost2010PropOp41
 70
     1
102
RTVSPost2010Prop42
 90
       50
102
RTVSPost2010PropOp42
 70
     1
102
RTVSPost2010Prop43
 90
        3
102
RTVSPost2010PropOp43
 70
     1
102
RTVSPost2010Prop44ColorIndex
 90
        5
102
RTVSPost2010Prop44ColorRGB
 90
      255
102
RTVSPost2010PropOp44
 70
     1
102
RTVSPost2010Prop45
280
     0
102
RTVSPost2010PropOp45
 70
     1
102
RTVSPost2010Prop46
 90
       50
102
RTVSPost2010PropOp46
 70
     1
102
RTVSPost2010Prop47
 90
       50
102
RTVSPost2010PropOp47
 70
     1
102
RTVSPost2010Prop48
 90
       50
102
RTVSPost2010PropOp48
 70
     1
102
RTVSPost2010Prop49
280
     0
102
RTVSPost2010PropOp49
 70
     1
102
RTVSPost2010Prop50
 90
       50
102
RTVSPost2010PropOp50
 70
     1
102
RTVSPost2010Prop51ColorIndex
 90
      256
102
RTVSPost2010Prop51ColorRGB
 90
-16777216
102
RTVSPost2010PropOp51
 70
     0
102
RTVSPost2010Prop52
140
1.0
102
RTVSPost2010PropOp52
 70
     0
102
RTVSPost2010Prop53
 90
        2
102
RTVSPost2010PropOp53
 70
     1
102
RTVSPost2010Prop54
  1
strokes_ogs.tif
102
RTVSPost2010PropOp54
 70
     1
102
RTVSPost2010Prop55
280
     0
102
RTVSPost2010PropOp55
 70
     1
102
RTVSPost2010Prop56
140
1.0
102
RTVSPost2010PropOp56
 70
     1
102
RTVSPost2010Prop57
140
1.0
102
RTVSPost2010PropOp57
 70
     1
  0
XRECORD
  5
42E
102
{ACAD_REACTORS
330
42D
102
}
330
42D
100
AcDbXrecord
280
     1
102
RTVSPropertyOp0
 70
     1
102
RTVSPropertyOp1
 70
     1
102
RTVSPropertyOp2
 70
     1
102
RTVSPropertyOp3
 70
     1
102
RTVSPropertyOp4
 70
     1
102
RTVSPropertyOp5
 70
     1
102
RTVSPropertyOp6
 70
     1
102
RTVSPropertyOp7
 70
     1
102
RTVSPropertyOp8
 70
     1
102
RTVSPropertyOp9
 70
     1
102
RTVSPropertyOp10
 70
     1
102
RTVSPropertyOp11
 70
     1
102
RTVSPropertyOp12
 70
     1
102
RTVSPropertyOp13
 70
     1
102
RTVSPropertyOp14
 70
     1
102
RTVSPropertyOp15
 70
     1
102
RTVSPropertyOp16
 70
     1
102
RTVSPropertyOp17
 70
     1
102
RTVSPropertyOp18
 70
     1
102
RTVSPropertyOp19
 70
     1
102
RTVSPropertyOp20
 70
     1
102
RTVSPropertyOp21
 70
     1
102
RTVSPropertyOp22
 70
     1
102
RTVSPropertyOp23
 70
     1
102
RTVSPropertyOp24
 70
     1
102
RTVSPropertyOp25
 70
     1
102
RTVSPropertyOp26
 70
     1
102
RTVSPropertyOp27
 70
     1
102
RTVSPropertyOp28
 70
     1
102
RTVSPropertyOp29
 70
     1
102
RTVSPropertyOp30
 70
     1
102
RTVSPropertyOp31
 70
     1
102
RTVSPropertyOp32
 70
     1
102
RTVSPropertyOp33
 70
     1
102
RTVSPropertyOp34
 70
     1
102
RTVSPropertyOp35
 70
     1
102
RTVSPropertyOp36
 70
     1
102
RTVSPropertyOp37
 70
     1
102
RTVSPropertyOp38
 70
     1
102
RTVSPropertyOp39
 70
     1
102
RTVSPropertyOp40
 70
     1
102
RTVSPropertyOp41
 70
     1
102
RTVSPropertyOp42
 70
     1
102
RTVSPropertyOp43
 70
     1
102
RTVSPropertyOp44
 70
     1
102
RTVSPropertyOp45
 70
     1
102
RTVSPropertyOp46
 70
     1
102
RTVSPropertyOp47
 70
     1
102
RTVSPropertyOp48
 70
     1
102
RTVSPropertyOp49
 70
     1
102
RTVSPropertyOp50
 70
     1
102
RTVSPropertyOp51
 70
     0
102
RTVSPropertyOp52
 70
     0
102
RTVSPropertyOp53
 70
     1
102
RTVSPropertyOp54
 70
     1
102
RTVSPropertyOp55
 70
     1
102
RTVSPropertyOp56
 70
     1
102
RTVSPropertyOp57
 70
     1
102
RTVSPost2010Prop28
280
     0
102
RTVSPost2010PropOp28
 70
     1
102
RTVSPost2010Prop29
280
     1
102
RTVSPost2010PropOp29
 70
     1
102
RTVSPost2010Prop30
280
     1
102
RTVSPost2010PropOp30
 70
     1
102
RTVSPost2010Prop31
280
     0
102
RTVSPost2010PropOp31
 70
     1
102
RTVSPost2010Prop32
280
     0
102
RTVSPost2010PropOp32
 70
     1
102
RTVSPost2010Prop33
280
     0
102
RTVSPost2010PropOp33
 70
     1
102
RTVSPost2010Prop34
280
     0
102
RTVSPost2010PropOp34
 70
     1
102
RTVSPost2010Prop35
280
     0
102
RTVSPost2010PropOp35
 70
     1
102
RTVSPost2010Prop36
280
     0
102
RTVSPost2010PropOp36
 70
     1
102
RTVSPost2010Prop37
 90
       50
102
RTVSPost2010PropOp37
 70
     1
102
RTVSPost2010Prop38
140
0.0
102
RTVSPost2010PropOp38
 70
     1
102
RTVSPost2010Prop39
140
1.0
102
RTVSPost2010PropOp39
 70
     1
102
RTVSPost2010Prop40
 90
        0
102
RTVSPost2010PropOp40
 70
     1
102
RTVSPost2010Prop41ColorIndex
 90
       18
102
RTVSPost2010Prop41ColorRGB
 90
        0
102
RTVSPost2010PropOp41
 70
     1
102
RTVSPost2010Prop42
 90
       50
102
RTVSPost2010PropOp42
 70
     1
102
RTVSPost2010Prop43
 90
        3
102
RTVSPost2010PropOp43
 70
     1
102
RTVSPost2010Prop44ColorIndex
 90
        5
102
RTVSPost2010Prop44ColorRGB
 90
      255
102
RTVSPost2010PropOp44
 70
     1
102
RTVSPost2010Prop45
280
     0
102
RTVSPost2010PropOp45
 70
     1
102
RTVSPost2010Prop46
 90
       50
102
RTVSPost2010PropOp46
 70
     1
102
RTVSPost2010Prop47
 90
       50
102
RTVSPost2010PropOp47
 70
     1
102
RTVSPost2010Prop48
 90
       50
102
RTVSPost2010PropOp48
 70
     1
102
RTVSPost2010Prop49
280
     0
102
RTVSPost2010PropOp49
 70
     1
102
RTVSPost2010Prop50
 90
       50
102
RTVSPost2010PropOp50
 70
     1
102
RTVSPost2010Prop51ColorIndex
 90
      256
102
RTVSPost2010Prop51ColorRGB
 90
-16777216
102
RTVSPost2010PropOp51
 70
     0
102
RTVSPost2010Prop52
140
1.0
102
RTVSPost2010PropOp52
 70
     0
102
RTVSPost2010Prop53
 90
        2
102
RTVSPost2010PropOp53
 70
     1
102
RTVSPost2010Prop54
  1
strokes_ogs.tif
102
RTVSPost2010PropOp54
 70
     1
102
RTVSPost2010Prop55
280
     0
102
RTVSPost2010PropOp55
 70
     1
102
RTVSPost2010Prop56
140
1.0
102
RTVSPost2010PropOp56
 70
     1
102
RTVSPost2010Prop57
140
1.0
102
RTVSPost2010PropOp57
 70
     1
  0
XRECORD
  5
430
102
{ACAD_REACTORS
330
42F
102
}
330
42F
100
AcDbXrecord
280
     1
102
RTVSPropertyOp0
 70
     1
102
RTVSPropertyOp1
 70
     1
102
RTVSPropertyOp2
 70
     1
102
RTVSPropertyOp3
 70
     1
102
RTVSPropertyOp4
 70
     1
102
RTVSPropertyOp5
 70
     1
102
RTVSPropertyOp6
 70
     1
102
RTVSPropertyOp7
 70
     1
102
RTVSPropertyOp8
 70
     1
102
RTVSPropertyOp9
 70
     1
102
RTVSPropertyOp10
 70
     1
102
RTVSPropertyOp11
 70
     1
102
RTVSPropertyOp12
 70
     1
102
RTVSPropertyOp13
 70
     1
102
RTVSPropertyOp14
 70
     1
102
RTVSPropertyOp15
 70
     1
102
RTVSPropertyOp16
 70
     1
102
RTVSPropertyOp17
 70
     1
102
RTVSPropertyOp18
 70
     1
102
RTVSPropertyOp19
 70
     1
102
RTVSPropertyOp20
 70
     1
102
RTVSPropertyOp21
 70
     1
102
RTVSPropertyOp22
 70
     1
102
RTVSPropertyOp23
 70
     1
102
RTVSPropertyOp24
 70
     1
102
RTVSPropertyOp25
 70
     1
102
RTVSPropertyOp26
 70
     1
102
RTVSPropertyOp27
 70
     1
102
RTVSPropertyOp28
 70
     1
102
RTVSPropertyOp29
 70
     1
102
RTVSPropertyOp30
 70
     1
102
RTVSPropertyOp31
 70
     1
102
RTVSPropertyOp32
 70
     1
102
RTVSPropertyOp33
 70
     1
102
RTVSPropertyOp34
 70
     1
102
RTVSPropertyOp35
 70
     1
102
RTVSPropertyOp36
 70
     1
102
RTVSPropertyOp37
 70
     1
102
RTVSPropertyOp38
 70
     1
102
RTVSPropertyOp39
 70
     1
102
RTVSPropertyOp40
 70
     1
102
RTVSPropertyOp41
 70
     1
102
RTVSPropertyOp42
 70
     1
102
RTVSPropertyOp43
 70
     1
102
RTVSPropertyOp44
 70
     1
102
RTVSPropertyOp45
 70
     1
102
RTVSPropertyOp46
 70
     1
102
RTVSPropertyOp47
 70
     1
102
RTVSPropertyOp48
 70
     1
102
RTVSPropertyOp49
 70
     1
102
RTVSPropertyOp50
 70
     1
102
RTVSPropertyOp51
 70
     0
102
RTVSPropertyOp52
 70
     0
102
RTVSPropertyOp53
 70
     1
102
RTVSPropertyOp54
 70
     1
102
RTVSPropertyOp55
 70
     1
102
RTVSPropertyOp56
 70
     1
102
RTVSPropertyOp57
 70
     1
102
RTVSPost2010Prop28
280
     0
102
RTVSPost2010PropOp28
 70
     1
102
RTVSPost2010Prop29
280
     1
102
RTVSPost2010PropOp29
 70
     1
102
RTVSPost2010Prop30
280
     1
102
RTVSPost2010PropOp30
 70
     1
102
RTVSPost2010Prop31
280
     0
102
RTVSPost2010PropOp31
 70
     1
102
RTVSPost2010Prop32
280
     0
102
RTVSPost2010PropOp32
 70
     1
102
RTVSPost2010Prop33
280
     0
102
RTVSPost2010PropOp33
 70
     1
102
RTVSPost2010Prop34
280
     0
102
RTVSPost2010PropOp34
 70
     1
102
RTVSPost2010Prop35
280
     0
102
RTVSPost2010PropOp35
 70
     1
102
RTVSPost2010Prop36
280
     0
102
RTVSPost2010PropOp36
 70
     1
102
RTVSPost2010Prop37
 90
       50
102
RTVSPost2010PropOp37
 70
     1
102
RTVSPost2010Prop38
140
0.0
102
RTVSPost2010PropOp38
 70
     1
102
RTVSPost2010Prop39
140
1.0
102
RTVSPost2010PropOp39
 70
     1
102
RTVSPost2010Prop40
 90
        0
102
RTVSPost2010PropOp40
 70
     1
102
RTVSPost2010Prop41ColorIndex
 90
       18
102
RTVSPost2010Prop41ColorRGB
 90
        0
102
RTVSPost2010PropOp41
 70
     1
102
RTVSPost2010Prop42
 90
       50
102
RTVSPost2010PropOp42
 70
     1
102
RTVSPost2010Prop43
 90
        3
102
RTVSPost2010PropOp43
 70
     1
102
RTVSPost2010Prop44ColorIndex
 90
        5
102
RTVSPost2010Prop44ColorRGB
 90
      255
102
RTVSPost2010PropOp44
 70
     1
102
RTVSPost2010Prop45
280
     0
102
RTVSPost2010PropOp45
 70
     1
102
RTVSPost2010Prop46
 90
       50
102
RTVSPost2010PropOp46
 70
     1
102
RTVSPost2010Prop47
 90
       50
102
RTVSPost2010PropOp47
 70
     1
102
RTVSPost2010Prop48
 90
       50
102
RTVSPost2010PropOp48
 70
     1
102
RTVSPost2010Prop49
280
     0
102
RTVSPost2010PropOp49
 70
     1
102
RTVSPost2010Prop50
 90
       50
102
RTVSPost2010PropOp50
 70
     1
102
RTVSPost2010Prop51ColorIndex
 90
      256
102
RTVSPost2010Prop51ColorRGB
 90
-16777216
102
RTVSPost2010PropOp51
 70
     0
102
RTVSPost2010Prop52
140
1.0
102
RTVSPost2010PropOp52
 70
     0
102
RTVSPost2010Prop53
 90
        2
102
RTVSPost2010PropOp53
 70
     1
102
RTVSPost2010Prop54
  1
strokes_ogs.tif
102
RTVSPost2010PropOp54
 70
     1
102
RTVSPost2010Prop55
280
     0
102
RTVSPost2010PropOp55
 70
     1
102
RTVSPost2010Prop56
140
1.0
102
RTVSPost2010PropOp56
 70
     1
102
RTVSPost2010Prop57
140
1.0
102
RTVSPost2010PropOp57
 70
     1
  0
XRECORD
  5
432
102
{ACAD_REACTORS
330
431
102
}
330
431
100
AcDbXrecord
280
     1
102
RTVSPropertyOp0
 70
     1
102
RTVSPropertyOp1
 70
     1
102
RTVSPropertyOp2
 70
     1
102
RTVSPropertyOp3
 70
     1
102
RTVSPropertyOp4
 70
     1
102
RTVSPropertyOp5
 70
     1
102
RTVSPropertyOp6
 70
     1
102
RTVSPropertyOp7
 70
     1
102
RTVSPropertyOp8
 70
     1
102
RTVSPropertyOp9
 70
     1
102
RTVSPropertyOp10
 70
     1
102
RTVSPropertyOp11
 70
     1
102
RTVSPropertyOp12
 70
     1
102
RTVSPropertyOp13
 70
     1
102
RTVSPropertyOp14
 70
     1
102
RTVSPropertyOp15
 70
     1
102
RTVSPropertyOp16
 70
     1
102
RTVSPropertyOp17
 70
     1
102
RTVSPropertyOp18
 70
     1
102
RTVSPropertyOp19
 70
     1
102
RTVSPropertyOp20
 70
     1
102
RTVSPropertyOp21
 70
     1
102
RTVSPropertyOp22
 70
     1
102
RTVSPropertyOp23
 70
     1
102
RTVSPropertyOp24
 70
     1
102
RTVSPropertyOp25
 70
     1
102
RTVSPropertyOp26
 70
     1
102
RTVSPropertyOp27
 70
     1
102
RTVSPropertyOp28
 70
     1
102
RTVSPropertyOp29
 70
     1
102
RTVSPropertyOp30
 70
     1
102
RTVSPropertyOp31
 70
     1
102
RTVSPropertyOp32
 70
     1
102
RTVSPropertyOp33
 70
     1
102
RTVSPropertyOp34
 70
     1
102
RTVSPropertyOp35
 70
     1
102
RTVSPropertyOp36
 70
     1
102
RTVSPropertyOp37
 70
     1
102
RTVSPropertyOp38
 70
     1
102
RTVSPropertyOp39
 70
     1
102
RTVSPropertyOp40
 70
     1
102
RTVSPropertyOp41
 70
     1
102
RTVSPropertyOp42
 70
     1
102
RTVSPropertyOp43
 70
     1
102
RTVSPropertyOp44
 70
     1
102
RTVSPropertyOp45
 70
     1
102
RTVSPropertyOp46
 70
     1
102
RTVSPropertyOp47
 70
     1
102
RTVSPropertyOp48
 70
     1
102
RTVSPropertyOp49
 70
     1
102
RTVSPropertyOp50
 70
     1
102
RTVSPropertyOp51
 70
     0
102
RTVSPropertyOp52
 70
     0
102
RTVSPropertyOp53
 70
     1
102
RTVSPropertyOp54
 70
     1
102
RTVSPropertyOp55
 70
     1
102
RTVSPropertyOp56
 70
     1
102
RTVSPropertyOp57
 70
     1
102
RTVSPost2010Prop28
280
     0
102
RTVSPost2010PropOp28
 70
     1
102
RTVSPost2010Prop29
280
     1
102
RTVSPost2010PropOp29
 70
     1
102
RTVSPost2010Prop30
280
     1
102
RTVSPost2010PropOp30
 70
     1
102
RTVSPost2010Prop31
280
     0
102
RTVSPost2010PropOp31
 70
     1
102
RTVSPost2010Prop32
280
     0
102
RTVSPost2010PropOp32
 70
     1
102
RTVSPost2010Prop33
280
     0
102
RTVSPost2010PropOp33
 70
     1
102
RTVSPost2010Prop34
280
     0
102
RTVSPost2010PropOp34
 70
     1
102
RTVSPost2010Prop35
280
     0
102
RTVSPost2010PropOp35
 70
     1
102
RTVSPost2010Prop36
280
     0
102
RTVSPost2010PropOp36
 70
     1
102
RTVSPost2010Prop37
 90
       50
102
RTVSPost2010PropOp37
 70
     1
102
RTVSPost2010Prop38
140
0.0
102
RTVSPost2010PropOp38
 70
     1
102
RTVSPost2010Prop39
140
1.0
102
RTVSPost2010PropOp39
 70
     1
102
RTVSPost2010Prop40
 90
        0
102
RTVSPost2010PropOp40
 70
     1
102
RTVSPost2010Prop41ColorIndex
 90
       18
102
RTVSPost2010Prop41ColorRGB
 90
        0
102
RTVSPost2010PropOp41
 70
     1
102
RTVSPost2010Prop42
 90
       50
102
RTVSPost2010PropOp42
 70
     1
102
RTVSPost2010Prop43
 90
        3
102
RTVSPost2010PropOp43
 70
     1
102
RTVSPost2010Prop44ColorIndex
 90
        5
102
RTVSPost2010Prop44ColorRGB
 90
      255
102
RTVSPost2010PropOp44
 70
     1
102
RTVSPost2010Prop45
280
     0
102
RTVSPost2010PropOp45
 70
     1
102
RTVSPost2010Prop46
 90
       50
102
RTVSPost2010PropOp46
 70
     1
102
RTVSPost2010Prop47
 90
       50
102
RTVSPost2010PropOp47
 70
     1
102
RTVSPost2010Prop48
 90
       50
102
RTVSPost2010PropOp48
 70
     1
102
RTVSPost2010Prop49
280
     0
102
RTVSPost2010PropOp49
 70
     1
102
RTVSPost2010Prop50
 90
       50
102
RTVSPost2010PropOp50
 70
     1
102
RTVSPost2010Prop51ColorIndex
 90
      256
102
RTVSPost2010Prop51ColorRGB
 90
-16777216
102
RTVSPost2010PropOp51
 70
     0
102
RTVSPost2010Prop52
140
1.0
102
RTVSPost2010PropOp52
 70
     0
102
RTVSPost2010Prop53
 90
        2
102
RTVSPost2010PropOp53
 70
     1
102
RTVSPost2010Prop54
  1
strokes_ogs.tif
102
RTVSPost2010PropOp54
 70
     1
102
RTVSPost2010Prop55
280
     0
102
RTVSPost2010PropOp55
 70
     1
102
RTVSPost2010Prop56
140
1.0
102
RTVSPost2010PropOp56
 70
     1
102
RTVSPost2010Prop57
140
1.0
102
RTVSPost2010PropOp57
 70
     1
  0
XRECORD
  5
434
102
{ACAD_REACTORS
330
433
102
}
330
433
100
AcDbXrecord
280
     1
102
RTVSPropertyOp0
 70
     1
102
RTVSPropertyOp1
 70
     1
102
RTVSPropertyOp2
 70
     1
102
RTVSPropertyOp3
 70
     1
102
RTVSPropertyOp4
 70
     1
102
RTVSPropertyOp5
 70
     1
102
RTVSPropertyOp6
 70
     1
102
RTVSPropertyOp7
 70
     1
102
RTVSPropertyOp8
 70
     1
102
RTVSPropertyOp9
 70
     1
102
RTVSPropertyOp10
 70
     1
102
RTVSPropertyOp11
 70
     1
102
RTVSPropertyOp12
 70
     1
102
RTVSPropertyOp13
 70
     1
102
RTVSPropertyOp14
 70
     1
102
RTVSPropertyOp15
 70
     1
102
RTVSPropertyOp16
 70
     1
102
RTVSPropertyOp17
 70
     1
102
RTVSPropertyOp18
 70
     1
102
RTVSPropertyOp19
 70
     1
102
RTVSPropertyOp20
 70
     1
102
RTVSPropertyOp21
 70
     1
102
RTVSPropertyOp22
 70
     1
102
RTVSPropertyOp23
 70
     1
102
RTVSPropertyOp24
 70
     1
102
RTVSPropertyOp25
 70
     1
102
RTVSPropertyOp26
 70
     1
102
RTVSPropertyOp27
 70
     1
102
RTVSPropertyOp28
 70
     1
102
RTVSPropertyOp29
 70
     1
102
RTVSPropertyOp30
 70
     1
102
RTVSPropertyOp31
 70
     1
102
RTVSPropertyOp32
 70
     1
102
RTVSPropertyOp33
 70
     1
102
RTVSPropertyOp34
 70
     1
102
RTVSPropertyOp35
 70
     1
102
RTVSPropertyOp36
 70
     1
102
RTVSPropertyOp37
 70
     1
102
RTVSPropertyOp38
 70
     1
102
RTVSPropertyOp39
 70
     1
102
RTVSPropertyOp40
 70
     1
102
RTVSPropertyOp41
 70
     1
102
RTVSPropertyOp42
 70
     1
102
RTVSPropertyOp43
 70
     1
102
RTVSPropertyOp44
 70
     1
102
RTVSPropertyOp45
 70
     1
102
RTVSPropertyOp46
 70
     1
102
RTVSPropertyOp47
 70
     1
102
RTVSPropertyOp48
 70
     1
102
RTVSPropertyOp49
 70
     1
102
RTVSPropertyOp50
 70
     1
102
RTVSPropertyOp51
 70
     0
102
RTVSPropertyOp52
 70
     0
102
RTVSPropertyOp53
 70
     1
102
RTVSPropertyOp54
 70
     1
102
RTVSPropertyOp55
 70
     1
102
RTVSPropertyOp56
 70
     1
102
RTVSPropertyOp57
 70
     1
102
RTVSPost2010Prop28
280
     0
102
RTVSPost2010PropOp28
 70
     1
102
RTVSPost2010Prop29
280
     1
102
RTVSPost2010PropOp29
 70
     1
102
RTVSPost2010Prop30
280
     1
102
RTVSPost2010PropOp30
 70
     1
102
RTVSPost2010Prop31
280
     0
102
RTVSPost2010PropOp31
 70
     1
102
RTVSPost2010Prop32
280
     0
102
RTVSPost2010PropOp32
 70
     1
102
RTVSPost2010Prop33
280
     0
102
RTVSPost2010PropOp33
 70
     1
102
RTVSPost2010Prop34
280
     0
102
RTVSPost2010PropOp34
 70
     1
102
RTVSPost2010Prop35
280
     0
102
RTVSPost2010PropOp35
 70
     1
102
RTVSPost2010Prop36
280
     0
102
RTVSPost2010PropOp36
 70
     1
102
RTVSPost2010Prop37
 90
       50
102
RTVSPost2010PropOp37
 70
     1
102
RTVSPost2010Prop38
140
0.0
102
RTVSPost2010PropOp38
 70
     1
102
RTVSPost2010Prop39
140
1.0
102
RTVSPost2010PropOp39
 70
     1
102
RTVSPost2010Prop40
 90
        0
102
RTVSPost2010PropOp40
 70
     1
102
RTVSPost2010Prop41ColorIndex
 90
       18
102
RTVSPost2010Prop41ColorRGB
 90
        0
102
RTVSPost2010PropOp41
 70
     1
102
RTVSPost2010Prop42
 90
       50
102
RTVSPost2010PropOp42
 70
     1
102
RTVSPost2010Prop43
 90
        3
102
RTVSPost2010PropOp43
 70
     1
102
RTVSPost2010Prop44ColorIndex
 90
        5
102
RTVSPost2010Prop44ColorRGB
 90
      255
102
RTVSPost2010PropOp44
 70
     1
102
RTVSPost2010Prop45
280
     0
102
RTVSPost2010PropOp45
 70
     1
102
RTVSPost2010Prop46
 90
       50
102
RTVSPost2010PropOp46
 70
     1
102
RTVSPost2010Prop47
 90
       50
102
RTVSPost2010PropOp47
 70
     1
102
RTVSPost2010Prop48
 90
       50
102
RTVSPost2010PropOp48
 70
     1
102
RTVSPost2010Prop49
280
     0
102
RTVSPost2010PropOp49
 70
     1
102
RTVSPost2010Prop50
 90
       50
102
RTVSPost2010PropOp50
 70
     1
102
RTVSPost2010Prop51ColorIndex
 90
      256
102
RTVSPost2010Prop51ColorRGB
 90
-16777216
102
RTVSPost2010PropOp51
 70
     0
102
RTVSPost2010Prop52
140
1.0
102
RTVSPost2010PropOp52
 70
     0
102
RTVSPost2010Prop53
 90
        2
102
RTVSPost2010PropOp53
 70
     1
102
RTVSPost2010Prop54
  1
strokes_ogs.tif
102
RTVSPost2010PropOp54
 70
     1
102
RTVSPost2010Prop55
280
     0
102
RTVSPost2010PropOp55
 70
     1
102
RTVSPost2010Prop56
140
1.0
102
RTVSPost2010PropOp56
 70
     1
102
RTVSPost2010Prop57
140
1.0
102
RTVSPost2010PropOp57
 70
     1
  0
XRECORD
  5
43A
102
{ACAD_REACTORS
330
439
102
}
330
439
100
AcDbXrecord
280
     1
102
RTVSPropertyOp0
 70
     1
102
RTVSPropertyOp1
 70
     1
102
RTVSPropertyOp2
 70
     1
102
RTVSPropertyOp3
 70
     1
102
RTVSPropertyOp4
 70
     1
102
RTVSPropertyOp5
 70
     1
102
RTVSPropertyOp6
 70
     1
102
RTVSPropertyOp7
 70
     1
102
RTVSPropertyOp8
 70
     1
102
RTVSPropertyOp9
 70
     1
102
RTVSPropertyOp10
 70
     1
102
RTVSPropertyOp11
 70
     1
102
RTVSPropertyOp12
 70
     1
102
RTVSPropertyOp13
 70
     1
102
RTVSPropertyOp14
 70
     1
102
RTVSPropertyOp15
 70
     1
102
RTVSPropertyOp16
 70
     1
102
RTVSPropertyOp17
 70
     1
102
RTVSPropertyOp18
 70
     1
102
RTVSPropertyOp19
 70
     1
102
RTVSPropertyOp20
 70
     1
102
RTVSPropertyOp21
 70
     1
102
RTVSPropertyOp22
 70
     1
102
RTVSPropertyOp23
 70
     1
102
RTVSPropertyOp24
 70
     1
102
RTVSPropertyOp25
 70
     1
102
RTVSPropertyOp26
 70
     1
102
RTVSPropertyOp27
 70
     1
102
RTVSPropertyOp28
 70
     1
102
RTVSPropertyOp29
 70
     1
102
RTVSPropertyOp30
 70
     1
102
RTVSPropertyOp31
 70
     1
102
RTVSPropertyOp32
 70
     1
102
RTVSPropertyOp33
 70
     1
102
RTVSPropertyOp34
 70
     1
102
RTVSPropertyOp35
 70
     1
102
RTVSPropertyOp36
 70
     1
102
RTVSPropertyOp37
 70
     1
102
RTVSPropertyOp38
 70
     1
102
RTVSPropertyOp39
 70
     1
102
RTVSPropertyOp40
 70
     1
102
RTVSPropertyOp41
 70
     1
102
RTVSPropertyOp42
 70
     1
102
RTVSPropertyOp43
 70
     1
102
RTVSPropertyOp44
 70
     1
102
RTVSPropertyOp45
 70
     1
102
RTVSPropertyOp46
 70
     1
102
RTVSPropertyOp47
 70
     1
102
RTVSPropertyOp48
 70
     1
102
RTVSPropertyOp49
 70
     1
102
RTVSPropertyOp50
 70
     1
102
RTVSPropertyOp51
 70
     0
102
RTVSPropertyOp52
 70
     0
102
RTVSPropertyOp53
 70
     1
102
RTVSPropertyOp54
 70
     1
102
RTVSPropertyOp55
 70
     1
102
RTVSPropertyOp56
 70
     1
102
RTVSPropertyOp57
 70
     1
102
RTVSPost2010Prop28
280
     0
102
RTVSPost2010PropOp28
 70
     1
102
RTVSPost2010Prop29
280
     1
102
RTVSPost2010PropOp29
 70
     1
102
RTVSPost2010Prop30
280
     1
102
RTVSPost2010PropOp30
 70
     1
102
RTVSPost2010Prop31
280
     0
102
RTVSPost2010PropOp31
 70
     1
102
RTVSPost2010Prop32
280
     0
102
RTVSPost2010PropOp32
 70
     1
102
RTVSPost2010Prop33
280
     0
102
RTVSPost2010PropOp33
 70
     1
102
RTVSPost2010Prop34
280
     0
102
RTVSPost2010PropOp34
 70
     1
102
RTVSPost2010Prop35
280
     0
102
RTVSPost2010PropOp35
 70
     1
102
RTVSPost2010Prop36
280
     0
102
RTVSPost2010PropOp36
 70
     1
102
RTVSPost2010Prop37
 90
       50
102
RTVSPost2010PropOp37
 70
     1
102
RTVSPost2010Prop38
140
0.0
102
RTVSPost2010PropOp38
 70
     1
102
RTVSPost2010Prop39
140
1.0
102
RTVSPost2010PropOp39
 70
     1
102
RTVSPost2010Prop40
 90
        0
102
RTVSPost2010PropOp40
 70
     1
102
RTVSPost2010Prop41ColorIndex
 90
       18
102
RTVSPost2010Prop41ColorRGB
 90
        0
102
RTVSPost2010PropOp41
 70
     1
102
RTVSPost2010Prop42
 90
       50
102
RTVSPost2010PropOp42
 70
     1
102
RTVSPost2010Prop43
 90
        3
102
RTVSPost2010PropOp43
 70
     1
102
RTVSPost2010Prop44ColorIndex
 90
        5
102
RTVSPost2010Prop44ColorRGB
 90
      255
102
RTVSPost2010PropOp44
 70
     1
102
RTVSPost2010Prop45
280
     0
102
RTVSPost2010PropOp45
 70
     1
102
RTVSPost2010Prop46
 90
       50
102
RTVSPost2010PropOp46
 70
     1
102
RTVSPost2010Prop47
 90
       50
102
RTVSPost2010PropOp47
 70
     1
102
RTVSPost2010Prop48
 90
       50
102
RTVSPost2010PropOp48
 70
     1
102
RTVSPost2010Prop49
280
     0
102
RTVSPost2010PropOp49
 70
     1
102
RTVSPost2010Prop50
 90
       50
102
RTVSPost2010PropOp50
 70
     1
102
RTVSPost2010Prop51ColorIndex
 90
      256
102
RTVSPost2010Prop51ColorRGB
 90
-16777216
102
RTVSPost2010PropOp51
 70
     0
102
RTVSPost2010Prop52
140
1.0
102
RTVSPost2010PropOp52
 70
     0
102
RTVSPost2010Prop53
 90
        2
102
RTVSPost2010PropOp53
 70
     1
102
RTVSPost2010Prop54
  1
strokes_ogs.tif
102
RTVSPost2010PropOp54
 70
     1
102
RTVSPost2010Prop55
280
     0
102
RTVSPost2010PropOp55
 70
     1
102
RTVSPost2010Prop56
140
1.0
102
RTVSPost2010PropOp56
 70
     1
102
RTVSPost2010Prop57
140
1.0
102
RTVSPost2010PropOp57
 70
     1
  0
XRECORD
  5
44E
102
{ACAD_REACTORS
330
44D
102
}
330
44D
100
AcDbXrecord
280
     1
102
RTVSPropertyOp0
 70
     0
102
RTVSPropertyOp1
 70
     0
102
RTVSPropertyOp2
 70
     0
102
RTVSPropertyOp3
 70
     0
102
RTVSPropertyOp4
 70
     0
102
RTVSPropertyOp5
 70
     0
102
RTVSPropertyOp6
 70
     0
102
RTVSPropertyOp7
 70
     0
102
RTVSPropertyOp8
 70
     0
102
RTVSPropertyOp9
 70
     0
102
RTVSPropertyOp10
 70
     0
102
RTVSPropertyOp11
 70
     0
102
RTVSPropertyOp12
 70
     0
102
RTVSPropertyOp13
 70
     0
102
RTVSPropertyOp14
 70
     2
102
RTVSPropertyOp15
 70
     0
102
RTVSPropertyOp16
 70
     0
102
RTVSPropertyOp17
 70
     0
102
RTVSPropertyOp18
 70
     0
102
RTVSPropertyOp19
 70
     0
102
RTVSPropertyOp20
 70
     0
102
RTVSPropertyOp21
 70
     0
102
RTVSPropertyOp22
 70
     0
102
RTVSPropertyOp23
 70
     0
102
RTVSPropertyOp24
 70
     0
102
RTVSPropertyOp25
 70
     0
102
RTVSPropertyOp26
 70
     0
102
RTVSPropertyOp27
 70
     0
102
RTVSPropertyOp28
 70
     0
102
RTVSPropertyOp29
 70
     0
102
RTVSPropertyOp30
 70
     0
102
RTVSPropertyOp31
 70
     0
102
RTVSPropertyOp32
 70
     0
102
RTVSPropertyOp33
 70
     0
102
RTVSPropertyOp34
 70
     0
102
RTVSPropertyOp35
 70
     0
102
RTVSPropertyOp36
 70
     0
102
RTVSPropertyOp37
 70
     0
102
RTVSPropertyOp38
 70
     0
102
RTVSPropertyOp39
 70
     0
102
RTVSPropertyOp40
 70
     0
102
RTVSPropertyOp41
 70
     0
102
RTVSPropertyOp42
 70
     0
102
RTVSPropertyOp43
 70
     0
102
RTVSPropertyOp44
 70
     0
102
RTVSPropertyOp45
 70
     0
102
RTVSPropertyOp46
 70
     0
102
RTVSPropertyOp47
 70
     0
102
RTVSPropertyOp48
 70
     0
102
RTVSPropertyOp49
 70
     0
102
RTVSPropertyOp50
 70
     0
102
RTVSPropertyOp51
 70
     0
102
RTVSPropertyOp52
 70
     0
102
RTVSPropertyOp53
 70
     0
102
RTVSPropertyOp54
 70
     0
102
RTVSPropertyOp55
 70
     0
102
RTVSPropertyOp56
 70
     0
102
RTVSPropertyOp57
 70
     0
102
RTVSPost2010Prop28
280
     0
102
RTVSPost2010PropOp28
 70
     0
102
RTVSPost2010Prop29
280
     1
102
RTVSPost2010PropOp29
 70
     0
102
RTVSPost2010Prop30
280
     1
102
RTVSPost2010PropOp30
 70
     0
102
RTVSPost2010Prop31
280
     0
102
RTVSPost2010PropOp31
 70
     0
102
RTVSPost2010Prop32
280
     0
102
RTVSPost2010PropOp32
 70
     0
102
RTVSPost2010Prop33
280
     0
102
RTVSPost2010PropOp33
 70
     0
102
RTVSPost2010Prop34
280
     0
102
RTVSPost2010PropOp34
 70
     0
102
RTVSPost2010Prop35
280
     0
102
RTVSPost2010PropOp35
 70
     0
102
RTVSPost2010Prop36
280
     0
102
RTVSPost2010PropOp36
 70
     0
102
RTVSPost2010Prop37
 90
       50
102
RTVSPost2010PropOp37
 70
     0
102
RTVSPost2010Prop38
140
0.0
102
RTVSPost2010PropOp38
 70
     0
102
RTVSPost2010Prop39
140
1.0
102
RTVSPost2010PropOp39
 70
     0
102
RTVSPost2010Prop40
 90
        0
102
RTVSPost2010PropOp40
 70
     0
102
RTVSPost2010Prop41ColorIndex
 90
       18
102
RTVSPost2010Prop41ColorRGB
 90
        0
102
RTVSPost2010PropOp41
 70
     0
102
RTVSPost2010Prop42
 90
       50
102
RTVSPost2010PropOp42
 70
     0
102
RTVSPost2010Prop43
 90
        3
102
RTVSPost2010PropOp43
 70
     0
102
RTVSPost2010Prop44ColorIndex
 90
        5
102
RTVSPost2010Prop44ColorRGB
 90
      255
102
RTVSPost2010PropOp44
 70
     0
102
RTVSPost2010Prop45
280
     0
102
RTVSPost2010PropOp45
 70
     0
102
RTVSPost2010Prop46
 90
       50
102
RTVSPost2010PropOp46
 70
     0
102
RTVSPost2010Prop47
 90
       50
102
RTVSPost2010PropOp47
 70
     0
102
RTVSPost2010Prop48
 90
       50
102
RTVSPost2010PropOp48
 70
     0
102
RTVSPost2010Prop49
280
     0
102
RTVSPost2010PropOp49
 70
     0
102
RTVSPost2010Prop50
 90
       50
102
RTVSPost2010PropOp50
 70
     0
102
RTVSPost2010Prop51ColorIndex
 90
      256
102
RTVSPost2010Prop51ColorRGB
 90
-16777216
102
RTVSPost2010PropOp51
 70
     0
102
RTVSPost2010Prop52
140
1.0
102
RTVSPost2010PropOp52
 70
     0
102
RTVSPost2010Prop53
 90
        2
102
RTVSPost2010PropOp53
 70
     0
102
RTVSPost2010Prop54
  1
strokes_ogs.tif
102
RTVSPost2010PropOp54
 70
     0
102
RTVSPost2010Prop55
280
     0
102
RTVSPost2010PropOp55
 70
     0
102
RTVSPost2010Prop56
140
1.0
102
RTVSPost2010PropOp56
 70
     0
102
RTVSPost2010Prop57
140
1.0
102
RTVSPost2010PropOp57
 70
     0
  0
XRECORD
  5
448
102
{ACAD_REACTORS
330
447
102
}
330
447
100
AcDbXrecord
280
     1
102
RTVSPropertyOp0
 70
     1
102
RTVSPropertyOp1
 70
     1
102
RTVSPropertyOp2
 70
     1
102
RTVSPropertyOp3
 70
     1
102
RTVSPropertyOp4
 70
     1
102
RTVSPropertyOp5
 70
     1
102
RTVSPropertyOp6
 70
     1
102
RTVSPropertyOp7
 70
     1
102
RTVSPropertyOp8
 70
     1
102
RTVSPropertyOp9
 70
     1
102
RTVSPropertyOp10
 70
     1
102
RTVSPropertyOp11
 70
     1
102
RTVSPropertyOp12
 70
     1
102
RTVSPropertyOp13
 70
     1
102
RTVSPropertyOp14
 70
     1
102
RTVSPropertyOp15
 70
     1
102
RTVSPropertyOp16
 70
     1
102
RTVSPropertyOp17
 70
     1
102
RTVSPropertyOp18
 70
     1
102
RTVSPropertyOp19
 70
     1
102
RTVSPropertyOp20
 70
     1
102
RTVSPropertyOp21
 70
     1
102
RTVSPropertyOp22
 70
     1
102
RTVSPropertyOp23
 70
     1
102
RTVSPropertyOp24
 70
     1
102
RTVSPropertyOp25
 70
     1
102
RTVSPropertyOp26
 70
     1
102
RTVSPropertyOp27
 70
     1
102
RTVSPropertyOp28
 70
     1
102
RTVSPropertyOp29
 70
     1
102
RTVSPropertyOp30
 70
     1
102
RTVSPropertyOp31
 70
     1
102
RTVSPropertyOp32
 70
     1
102
RTVSPropertyOp33
 70
     1
102
RTVSPropertyOp34
 70
     1
102
RTVSPropertyOp35
 70
     1
102
RTVSPropertyOp36
 70
     1
102
RTVSPropertyOp37
 70
     1
102
RTVSPropertyOp38
 70
     1
102
RTVSPropertyOp39
 70
     1
102
RTVSPropertyOp40
 70
     1
102
RTVSPropertyOp41
 70
     1
102
RTVSPropertyOp42
 70
     1
102
RTVSPropertyOp43
 70
     1
102
RTVSPropertyOp44
 70
     1
102
RTVSPropertyOp45
 70
     1
102
RTVSPropertyOp46
 70
     1
102
RTVSPropertyOp47
 70
     1
102
RTVSPropertyOp48
 70
     1
102
RTVSPropertyOp49
 70
     1
102
RTVSPropertyOp50
 70
     1
102
RTVSPropertyOp51
 70
     0
102
RTVSPropertyOp52
 70
     0
102
RTVSPropertyOp53
 70
     1
102
RTVSPropertyOp54
 70
     1
102
RTVSPropertyOp55
 70
     1
102
RTVSPropertyOp56
 70
     1
102
RTVSPropertyOp57
 70
     1
102
RTVSPost2010Prop28
280
     0
102
RTVSPost2010PropOp28
 70
     1
102
RTVSPost2010Prop29
280
     1
102
RTVSPost2010PropOp29
 70
     1
102
RTVSPost2010Prop30
280
     1
102
RTVSPost2010PropOp30
 70
     1
102
RTVSPost2010Prop31
280
     0
102
RTVSPost2010PropOp31
 70
     1
102
RTVSPost2010Prop32
280
     0
102
RTVSPost2010PropOp32
 70
     1
102
RTVSPost2010Prop33
280
     0
102
RTVSPost2010PropOp33
 70
     1
102
RTVSPost2010Prop34
280
     0
102
RTVSPost2010PropOp34
 70
     1
102
RTVSPost2010Prop35
280
     0
102
RTVSPost2010PropOp35
 70
     1
102
RTVSPost2010Prop36
280
     0
102
RTVSPost2010PropOp36
 70
     1
102
RTVSPost2010Prop37
 90
       50
102
RTVSPost2010PropOp37
 70
     1
102
RTVSPost2010Prop38
140
0.0
102
RTVSPost2010PropOp38
 70
     1
102
RTVSPost2010Prop39
140
1.0
102
RTVSPost2010PropOp39
 70
     1
102
RTVSPost2010Prop40
 90
        0
102
RTVSPost2010PropOp40
 70
     1
102
RTVSPost2010Prop41ColorIndex
 90
       18
102
RTVSPost2010Prop41ColorRGB
 90
        0
102
RTVSPost2010PropOp41
 70
     1
102
RTVSPost2010Prop42
 90
       50
102
RTVSPost2010PropOp42
 70
     1
102
RTVSPost2010Prop43
 90
        3
102
RTVSPost2010PropOp43
 70
     1
102
RTVSPost2010Prop44ColorIndex
 90
        5
102
RTVSPost2010Prop44ColorRGB
 90
      255
102
RTVSPost2010PropOp44
 70
     1
102
RTVSPost2010Prop45
280
     0
102
RTVSPost2010PropOp45
 70
     1
102
RTVSPost2010Prop46
 90
       50
102
RTVSPost2010PropOp46
 70
     1
102
RTVSPost2010Prop47
 90
       50
102
RTVSPost2010PropOp47
 70
     1
102
RTVSPost2010Prop48
 90
       50
102
RTVSPost2010PropOp48
 70
     1
102
RTVSPost2010Prop49
280
     0
102
RTVSPost2010PropOp49
 70
     1
102
RTVSPost2010Prop50
 90
       50
102
RTVSPost2010PropOp50
 70
     1
102
RTVSPost2010Prop51ColorIndex
 90
      256
102
RTVSPost2010Prop51ColorRGB
 90
-16777216
102
RTVSPost2010PropOp51
 70
     0
102
RTVSPost2010Prop52
140
1.0
102
RTVSPost2010PropOp52
 70
     0
102
RTVSPost2010Prop53
 90
        2
102
RTVSPost2010PropOp53
 70
     1
102
RTVSPost2010Prop54
  1
strokes_ogs.tif
102
RTVSPost2010PropOp54
 70
     1
102
RTVSPost2010Prop55
280
     0
102
RTVSPost2010PropOp55
 70
     1
102
RTVSPost2010Prop56
140
1.0
102
RTVSPost2010PropOp56
 70
     1
102
RTVSPost2010Prop57
140
1.0
102
RTVSPost2010PropOp57
 70
     1
  0
XRECORD
  5
450
102
{ACAD_REACTORS
330
44F
102
}
330
44F
100
AcDbXrecord
280
     1
102
RTVSPropertyOp0
 70
     0
102
RTVSPropertyOp1
 70
     0
102
RTVSPropertyOp2
 70
     0
102
RTVSPropertyOp3
 70
     0
102
RTVSPropertyOp4
 70
     0
102
RTVSPropertyOp5
 70
     0
102
RTVSPropertyOp6
 70
     0
102
RTVSPropertyOp7
 70
     0
102
RTVSPropertyOp8
 70
     0
102
RTVSPropertyOp9
 70
     0
102
RTVSPropertyOp10
 70
     0
102
RTVSPropertyOp11
 70
     0
102
RTVSPropertyOp12
 70
     0
102
RTVSPropertyOp13
 70
     0
102
RTVSPropertyOp14
 70
     2
102
RTVSPropertyOp15
 70
     0
102
RTVSPropertyOp16
 70
     0
102
RTVSPropertyOp17
 70
     0
102
RTVSPropertyOp18
 70
     0
102
RTVSPropertyOp19
 70
     0
102
RTVSPropertyOp20
 70
     0
102
RTVSPropertyOp21
 70
     0
102
RTVSPropertyOp22
 70
     0
102
RTVSPropertyOp23
 70
     0
102
RTVSPropertyOp24
 70
     0
102
RTVSPropertyOp25
 70
     0
102
RTVSPropertyOp26
 70
     0
102
RTVSPropertyOp27
 70
     0
102
RTVSPropertyOp28
 70
     0
102
RTVSPropertyOp29
 70
     0
102
RTVSPropertyOp30
 70
     0
102
RTVSPropertyOp31
 70
     0
102
RTVSPropertyOp32
 70
     0
102
RTVSPropertyOp33
 70
     0
102
RTVSPropertyOp34
 70
     0
102
RTVSPropertyOp35
 70
     0
102
RTVSPropertyOp36
 70
     0
102
RTVSPropertyOp37
 70
     0
102
RTVSPropertyOp38
 70
     0
102
RTVSPropertyOp39
 70
     0
102
RTVSPropertyOp40
 70
     0
102
RTVSPropertyOp41
 70
     0
102
RTVSPropertyOp42
 70
     0
102
RTVSPropertyOp43
 70
     0
102
RTVSPropertyOp44
 70
     0
102
RTVSPropertyOp45
 70
     0
102
RTVSPropertyOp46
 70
     0
102
RTVSPropertyOp47
 70
     0
102
RTVSPropertyOp48
 70
     0
102
RTVSPropertyOp49
 70
     0
102
RTVSPropertyOp50
 70
     0
102
RTVSPropertyOp51
 70
     0
102
RTVSPropertyOp52
 70
     0
102
RTVSPropertyOp53
 70
     0
102
RTVSPropertyOp54
 70
     0
102
RTVSPropertyOp55
 70
     0
102
RTVSPropertyOp56
 70
     0
102
RTVSPropertyOp57
 70
     0
102
RTVSPost2010Prop28
280
     0
102
RTVSPost2010PropOp28
 70
     0
102
RTVSPost2010Prop29
280
     1
102
RTVSPost2010PropOp29
 70
     0
102
RTVSPost2010Prop30
280
     1
102
RTVSPost2010PropOp30
 70
     0
102
RTVSPost2010Prop31
280
     0
102
RTVSPost2010PropOp31
 70
     0
102
RTVSPost2010Prop32
280
     0
102
RTVSPost2010PropOp32
 70
     0
102
RTVSPost2010Prop33
280
     0
102
RTVSPost2010PropOp33
 70
     0
102
RTVSPost2010Prop34
280
     0
102
RTVSPost2010PropOp34
 70
     0
102
RTVSPost2010Prop35
280
     0
102
RTVSPost2010PropOp35
 70
     0
102
RTVSPost2010Prop36
280
     0
102
RTVSPost2010PropOp36
 70
     0
102
RTVSPost2010Prop37
 90
       50
102
RTVSPost2010PropOp37
 70
     0
102
RTVSPost2010Prop38
140
0.0
102
RTVSPost2010PropOp38
 70
     0
102
RTVSPost2010Prop39
140
1.0
102
RTVSPost2010PropOp39
 70
     0
102
RTVSPost2010Prop40
 90
        0
102
RTVSPost2010PropOp40
 70
     0
102
RTVSPost2010Prop41ColorIndex
 90
       18
102
RTVSPost2010Prop41ColorRGB
 90
        0
102
RTVSPost2010PropOp41
 70
     0
102
RTVSPost2010Prop42
 90
       50
102
RTVSPost2010PropOp42
 70
     0
102
RTVSPost2010Prop43
 90
        3
102
RTVSPost2010PropOp43
 70
     0
102
RTVSPost2010Prop44ColorIndex
 90
        5
102
RTVSPost2010Prop44ColorRGB
 90
      255
102
RTVSPost2010PropOp44
 70
     0
102
RTVSPost2010Prop45
280
     0
102
RTVSPost2010PropOp45
 70
     0
102
RTVSPost2010Prop46
 90
       50
102
RTVSPost2010PropOp46
 70
     0
102
RTVSPost2010Prop47
 90
       50
102
RTVSPost2010PropOp47
 70
     0
102
RTVSPost2010Prop48
 90
       50
102
RTVSPost2010PropOp48
 70
     0
102
RTVSPost2010Prop49
280
     0
102
RTVSPost2010PropOp49
 70
     0
102
RTVSPost2010Prop50
 90
       50
102
RTVSPost2010PropOp50
 70
     0
102
RTVSPost2010Prop51ColorIndex
 90
      256
102
RTVSPost2010Prop51ColorRGB
 90
-16777216
102
RTVSPost2010PropOp51
 70
     0
102
RTVSPost2010Prop52
140
1.0
102
RTVSPost2010PropOp52
 70
     0
102
RTVSPost2010Prop53
 90
        2
102
RTVSPost2010PropOp53
 70
     0
102
RTVSPost2010Prop54
  1
strokes_ogs.tif
102
RTVSPost2010PropOp54
 70
     0
102
RTVSPost2010Prop55
280
     0
102
RTVSPost2010PropOp55
 70
     0
102
RTVSPost2010Prop56
140
1.0
102
RTVSPost2010PropOp56
 70
     0
102
RTVSPost2010Prop57
140
1.0
102
RTVSPost2010PropOp57
 70
     0
  0
XRECORD
  5
43E
102
{ACAD_REACTORS
330
43D
102
}
330
43D
100
AcDbXrecord
280
     1
102
RTVSPropertyOp0
 70
     1
102
RTVSPropertyOp1
 70
     1
102
RTVSPropertyOp2
 70
     1
102
RTVSPropertyOp3
 70
     1
102
RTVSPropertyOp4
 70
     1
102
RTVSPropertyOp5
 70
     1
102
RTVSPropertyOp6
 70
     1
102
RTVSPropertyOp7
 70
     1
102
RTVSPropertyOp8
 70
     1
102
RTVSPropertyOp9
 70
     1
102
RTVSPropertyOp10
 70
     1
102
RTVSPropertyOp11
 70
     1
102
RTVSPropertyOp12
 70
     1
102
RTVSPropertyOp13
 70
     1
102
RTVSPropertyOp14
 70
     1
102
RTVSPropertyOp15
 70
     1
102
RTVSPropertyOp16
 70
     1
102
RTVSPropertyOp17
 70
     1
102
RTVSPropertyOp18
 70
     1
102
RTVSPropertyOp19
 70
     1
102
RTVSPropertyOp20
 70
     1
102
RTVSPropertyOp21
 70
     1
102
RTVSPropertyOp22
 70
     1
102
RTVSPropertyOp23
 70
     1
102
RTVSPropertyOp24
 70
     1
102
RTVSPropertyOp25
 70
     1
102
RTVSPropertyOp26
 70
     1
102
RTVSPropertyOp27
 70
     1
102
RTVSPropertyOp28
 70
     1
102
RTVSPropertyOp29
 70
     1
102
RTVSPropertyOp30
 70
     1
102
RTVSPropertyOp31
 70
     1
102
RTVSPropertyOp32
 70
     1
102
RTVSPropertyOp33
 70
     1
102
RTVSPropertyOp34
 70
     1
102
RTVSPropertyOp35
 70
     1
102
RTVSPropertyOp36
 70
     1
102
RTVSPropertyOp37
 70
     1
102
RTVSPropertyOp38
 70
     1
102
RTVSPropertyOp39
 70
     1
102
RTVSPropertyOp40
 70
     1
102
RTVSPropertyOp41
 70
     1
102
RTVSPropertyOp42
 70
     1
102
RTVSPropertyOp43
 70
     1
102
RTVSPropertyOp44
 70
     1
102
RTVSPropertyOp45
 70
     1
102
RTVSPropertyOp46
 70
     1
102
RTVSPropertyOp47
 70
     1
102
RTVSPropertyOp48
 70
     1
102
RTVSPropertyOp49
 70
     1
102
RTVSPropertyOp50
 70
     1
102
RTVSPropertyOp51
 70
     0
102
RTVSPropertyOp52
 70
     0
102
RTVSPropertyOp53
 70
     1
102
RTVSPropertyOp54
 70
     1
102
RTVSPropertyOp55
 70
     1
102
RTVSPropertyOp56
 70
     1
102
RTVSPropertyOp57
 70
     1
102
RTVSPost2010Prop28
280
     0
102
RTVSPost2010PropOp28
 70
     1
102
RTVSPost2010Prop29
280
     1
102
RTVSPost2010PropOp29
 70
     1
102
RTVSPost2010Prop30
280
     1
102
RTVSPost2010PropOp30
 70
     1
102
RTVSPost2010Prop31
280
     0
102
RTVSPost2010PropOp31
 70
     1
102
RTVSPost2010Prop32
280
     0
102
RTVSPost2010PropOp32
 70
     1
102
RTVSPost2010Prop33
280
     0
102
RTVSPost2010PropOp33
 70
     1
102
RTVSPost2010Prop34
280
     0
102
RTVSPost2010PropOp34
 70
     1
102
RTVSPost2010Prop35
280
     0
102
RTVSPost2010PropOp35
 70
     1
102
RTVSPost2010Prop36
280
     0
102
RTVSPost2010PropOp36
 70
     1
102
RTVSPost2010Prop37
 90
       50
102
RTVSPost2010PropOp37
 70
     1
102
RTVSPost2010Prop38
140
0.0
102
RTVSPost2010PropOp38
 70
     1
102
RTVSPost2010Prop39
140
1.0
102
RTVSPost2010PropOp39
 70
     1
102
RTVSPost2010Prop40
 90
        0
102
RTVSPost2010PropOp40
 70
     1
102
RTVSPost2010Prop41ColorIndex
 90
       18
102
RTVSPost2010Prop41ColorRGB
 90
        0
102
RTVSPost2010PropOp41
 70
     1
102
RTVSPost2010Prop42
 90
       50
102
RTVSPost2010PropOp42
 70
     1
102
RTVSPost2010Prop43
 90
        3
102
RTVSPost2010PropOp43
 70
     1
102
RTVSPost2010Prop44ColorIndex
 90
        5
102
RTVSPost2010Prop44ColorRGB
 90
      255
102
RTVSPost2010PropOp44
 70
     1
102
RTVSPost2010Prop45
280
     0
102
RTVSPost2010PropOp45
 70
     1
102
RTVSPost2010Prop46
 90
       50
102
RTVSPost2010PropOp46
 70
     1
102
RTVSPost2010Prop47
 90
       50
102
RTVSPost2010PropOp47
 70
     1
102
RTVSPost2010Prop48
 90
       50
102
RTVSPost2010PropOp48
 70
     1
102
RTVSPost2010Prop49
280
     0
102
RTVSPost2010PropOp49
 70
     1
102
RTVSPost2010Prop50
 90
       50
102
RTVSPost2010PropOp50
 70
     1
102
RTVSPost2010Prop51ColorIndex
 90
      256
102
RTVSPost2010Prop51ColorRGB
 90
-16777216
102
RTVSPost2010PropOp51
 70
     0
102
RTVSPost2010Prop52
140
1.0
102
RTVSPost2010PropOp52
 70
     0
102
RTVSPost2010Prop53
 90
        2
102
RTVSPost2010PropOp53
 70
     1
102
RTVSPost2010Prop54
  1
strokes_ogs.tif
102
RTVSPost2010PropOp54
 70
     1
102
RTVSPost2010Prop55
280
     0
102
RTVSPost2010PropOp55
 70
     1
102
RTVSPost2010Prop56
140
1.0
102
RTVSPost2010PropOp56
 70
     1
102
RTVSPost2010Prop57
140
1.0
102
RTVSPost2010PropOp57
 70
     1
  0
XRECORD
  5
45C
102
{ACAD_REACTORS
330
45B
102
}
330
45B
100
AcDbXrecord
280
     1
102
RTVSPropertyOp0
 70
     1
102
RTVSPropertyOp1
 70
     1
102
RTVSPropertyOp2
 70
     1
102
RTVSPropertyOp3
 70
     1
102
RTVSPropertyOp4
 70
     1
102
RTVSPropertyOp5
 70
     1
102
RTVSPropertyOp6
 70
     1
102
RTVSPropertyOp7
 70
     1
102
RTVSPropertyOp8
 70
     1
102
RTVSPropertyOp9
 70
     1
102
RTVSPropertyOp10
 70
     1
102
RTVSPropertyOp11
 70
     1
102
RTVSPropertyOp12
 70
     1
102
RTVSPropertyOp13
 70
     1
102
RTVSPropertyOp14
 70
     1
102
RTVSPropertyOp15
 70
     1
102
RTVSPropertyOp16
 70
     1
102
RTVSPropertyOp17
 70
     1
102
RTVSPropertyOp18
 70
     1
102
RTVSPropertyOp19
 70
     1
102
RTVSPropertyOp20
 70
     1
102
RTVSPropertyOp21
 70
     1
102
RTVSPropertyOp22
 70
     1
102
RTVSPropertyOp23
 70
     1
102
RTVSPropertyOp24
 70
     1
102
RTVSPropertyOp25
 70
     1
102
RTVSPropertyOp26
 70
     1
102
RTVSPropertyOp27
 70
     1
102
RTVSPropertyOp28
 70
     1
102
RTVSPropertyOp29
 70
     1
102
RTVSPropertyOp30
 70
     1
102
RTVSPropertyOp31
 70
     1
102
RTVSPropertyOp32
 70
     1
102
RTVSPropertyOp33
 70
     1
102
RTVSPropertyOp34
 70
     1
102
RTVSPropertyOp35
 70
     1
102
RTVSPropertyOp36
 70
     1
102
RTVSPropertyOp37
 70
     1
102
RTVSPropertyOp38
 70
     1
102
RTVSPropertyOp39
 70
     1
102
RTVSPropertyOp40
 70
     1
102
RTVSPropertyOp41
 70
     1
102
RTVSPropertyOp42
 70
     1
102
RTVSPropertyOp43
 70
     1
102
RTVSPropertyOp44
 70
     1
102
RTVSPropertyOp45
 70
     1
102
RTVSPropertyOp46
 70
     1
102
RTVSPropertyOp47
 70
     1
102
RTVSPropertyOp48
 70
     1
102
RTVSPropertyOp49
 70
     1
102
RTVSPropertyOp50
 70
     1
102
RTVSPropertyOp51
 70
     0
102
RTVSPropertyOp52
 70
     0
102
RTVSPropertyOp53
 70
     1
102
RTVSPropertyOp54
 70
     1
102
RTVSPropertyOp55
 70
     1
102
RTVSPropertyOp56
 70
     1
102
RTVSPropertyOp57
 70
     1
102
RTVSPost2010Prop28
280
     0
102
RTVSPost2010PropOp28
 70
     1
102
RTVSPost2010Prop29
280
     1
102
RTVSPost2010PropOp29
 70
     1
102
RTVSPost2010Prop30
280
     1
102
RTVSPost2010PropOp30
 70
     1
102
RTVSPost2010Prop31
280
     0
102
RTVSPost2010PropOp31
 70
     1
102
RTVSPost2010Prop32
280
     0
102
RTVSPost2010PropOp32
 70
     1
102
RTVSPost2010Prop33
280
     0
102
RTVSPost2010PropOp33
 70
     1
102
RTVSPost2010Prop34
280
     0
102
RTVSPost2010PropOp34
 70
     1
102
RTVSPost2010Prop35
280
     0
102
RTVSPost2010PropOp35
 70
     1
102
RTVSPost2010Prop36
280
     0
102
RTVSPost2010PropOp36
 70
     1
102
RTVSPost2010Prop37
 90
       50
102
RTVSPost2010PropOp37
 70
     1
102
RTVSPost2010Prop38
140
0.0
102
RTVSPost2010PropOp38
 70
     1
102
RTVSPost2010Prop39
140
1.0
102
RTVSPost2010PropOp39
 70
     1
102
RTVSPost2010Prop40
 90
        0
102
RTVSPost2010PropOp40
 70
     1
102
RTVSPost2010Prop41ColorIndex
 90
       18
102
RTVSPost2010Prop41ColorRGB
 90
        0
102
RTVSPost2010PropOp41
 70
     1
102
RTVSPost2010Prop42
 90
       50
102
RTVSPost2010PropOp42
 70
     1
102
RTVSPost2010Prop43
 90
        3
102
RTVSPost2010PropOp43
 70
     1
102
RTVSPost2010Prop44ColorIndex
 90
        5
102
RTVSPost2010Prop44ColorRGB
 90
      255
102
RTVSPost2010PropOp44
 70
     1
102
RTVSPost2010Prop45
280
     0
102
RTVSPost2010PropOp45
 70
     1
102
RTVSPost2010Prop46
 90
       50
102
RTVSPost2010PropOp46
 70
     1
102
RTVSPost2010Prop47
 90
       50
102
RTVSPost2010PropOp47
 70
     1
102
RTVSPost2010Prop48
 90
       50
102
RTVSPost2010PropOp48
 70
     1
102
RTVSPost2010Prop49
280
     0
102
RTVSPost2010PropOp49
 70
     1
102
RTVSPost2010Prop50
 90
       50
102
RTVSPost2010PropOp50
 70
     1
102
RTVSPost2010Prop51ColorIndex
 90
      256
102
RTVSPost2010Prop51ColorRGB
 90
-16777216
102
RTVSPost2010PropOp51
 70
     0
102
RTVSPost2010Prop52
140
1.0
102
RTVSPost2010PropOp52
 70
     0
102
RTVSPost2010Prop53
 90
        2
102
RTVSPost2010PropOp53
 70
     1
102
RTVSPost2010Prop54
  1
strokes_ogs.tif
102
RTVSPost2010PropOp54
 70
     1
102
RTVSPost2010Prop55
280
     0
102
RTVSPost2010PropOp55
 70
     1
102
RTVSPost2010Prop56
140
1.0
102
RTVSPost2010PropOp56
 70
     1
102
RTVSPost2010Prop57
140
1.0
102
RTVSPost2010PropOp57
 70
     1
  0
XRECORD
  5
45A
102
{ACAD_REACTORS
330
459
102
}
330
459
100
AcDbXrecord
280
     1
102
RTVSPropertyOp0
 70
     1
102
RTVSPropertyOp1
 70
     1
102
RTVSPropertyOp2
 70
     1
102
RTVSPropertyOp3
 70
     1
102
RTVSPropertyOp4
 70
     1
102
RTVSPropertyOp5
 70
     1
102
RTVSPropertyOp6
 70
     1
102
RTVSPropertyOp7
 70
     1
102
RTVSPropertyOp8
 70
     1
102
RTVSPropertyOp9
 70
     1
102
RTVSPropertyOp10
 70
     1
102
RTVSPropertyOp11
 70
     1
102
RTVSPropertyOp12
 70
     1
102
RTVSPropertyOp13
 70
     1
102
RTVSPropertyOp14
 70
     1
102
RTVSPropertyOp15
 70
     1
102
RTVSPropertyOp16
 70
     1
102
RTVSPropertyOp17
 70
     1
102
RTVSPropertyOp18
 70
     1
102
RTVSPropertyOp19
 70
     1
102
RTVSPropertyOp20
 70
     1
102
RTVSPropertyOp21
 70
     1
102
RTVSPropertyOp22
 70
     1
102
RTVSPropertyOp23
 70
     1
102
RTVSPropertyOp24
 70
     1
102
RTVSPropertyOp25
 70
     1
102
RTVSPropertyOp26
 70
     1
102
RTVSPropertyOp27
 70
     1
102
RTVSPropertyOp28
 70
     1
102
RTVSPropertyOp29
 70
     1
102
RTVSPropertyOp30
 70
     1
102
RTVSPropertyOp31
 70
     1
102
RTVSPropertyOp32
 70
     1
102
RTVSPropertyOp33
 70
     1
102
RTVSPropertyOp34
 70
     1
102
RTVSPropertyOp35
 70
     1
102
RTVSPropertyOp36
 70
     1
102
RTVSPropertyOp37
 70
     1
102
RTVSPropertyOp38
 70
     1
102
RTVSPropertyOp39
 70
     1
102
RTVSPropertyOp40
 70
     1
102
RTVSPropertyOp41
 70
     1
102
RTVSPropertyOp42
 70
     1
102
RTVSPropertyOp43
 70
     1
102
RTVSPropertyOp44
 70
     1
102
RTVSPropertyOp45
 70
     1
102
RTVSPropertyOp46
 70
     1
102
RTVSPropertyOp47
 70
     1
102
RTVSPropertyOp48
 70
     1
102
RTVSPropertyOp49
 70
     1
102
RTVSPropertyOp50
 70
     1
102
RTVSPropertyOp51
 70
     0
102
RTVSPropertyOp52
 70
     0
102
RTVSPropertyOp53
 70
     1
102
RTVSPropertyOp54
 70
     1
102
RTVSPropertyOp55
 70
     1
102
RTVSPropertyOp56
 70
     1
102
RTVSPropertyOp57
 70
     1
102
RTVSPost2010Prop28
280
     0
102
RTVSPost2010PropOp28
 70
     1
102
RTVSPost2010Prop29
280
     1
102
RTVSPost2010PropOp29
 70
     1
102
RTVSPost2010Prop30
280
     1
102
RTVSPost2010PropOp30
 70
     1
102
RTVSPost2010Prop31
280
     0
102
RTVSPost2010PropOp31
 70
     1
102
RTVSPost2010Prop32
280
     0
102
RTVSPost2010PropOp32
 70
     1
102
RTVSPost2010Prop33
280
     0
102
RTVSPost2010PropOp33
 70
     1
102
RTVSPost2010Prop34
280
     0
102
RTVSPost2010PropOp34
 70
     1
102
RTVSPost2010Prop35
280
     0
102
RTVSPost2010PropOp35
 70
     1
102
RTVSPost2010Prop36
280
     0
102
RTVSPost2010PropOp36
 70
     1
102
RTVSPost2010Prop37
 90
       50
102
RTVSPost2010PropOp37
 70
     1
102
RTVSPost2010Prop38
140
0.0
102
RTVSPost2010PropOp38
 70
     1
102
RTVSPost2010Prop39
140
1.0
102
RTVSPost2010PropOp39
 70
     1
102
RTVSPost2010Prop40
 90
        0
102
RTVSPost2010PropOp40
 70
     1
102
RTVSPost2010Prop41ColorIndex
 90
       18
102
RTVSPost2010Prop41ColorRGB
 90
        0
102
RTVSPost2010PropOp41
 70
     1
102
RTVSPost2010Prop42
 90
       50
102
RTVSPost2010PropOp42
 70
     1
102
RTVSPost2010Prop43
 90
        3
102
RTVSPost2010PropOp43
 70
     1
102
RTVSPost2010Prop44ColorIndex
 90
        5
102
RTVSPost2010Prop44ColorRGB
 90
      255
102
RTVSPost2010PropOp44
 70
     1
102
RTVSPost2010Prop45
280
     0
102
RTVSPost2010PropOp45
 70
     1
102
RTVSPost2010Prop46
 90
       50
102
RTVSPost2010PropOp46
 70
     1
102
RTVSPost2010Prop47
 90
       50
102
RTVSPost2010PropOp47
 70
     1
102
RTVSPost2010Prop48
 90
       50
102
RTVSPost2010PropOp48
 70
     1
102
RTVSPost2010Prop49
280
     0
102
RTVSPost2010PropOp49
 70
     1
102
RTVSPost2010Prop50
 90
       50
102
RTVSPost2010PropOp50
 70
     1
102
RTVSPost2010Prop51ColorIndex
 90
      256
102
RTVSPost2010Prop51ColorRGB
 90
-16777216
102
RTVSPost2010PropOp51
 70
     0
102
RTVSPost2010Prop52
140
1.0
102
RTVSPost2010PropOp52
 70
     0
102
RTVSPost2010Prop53
 90
        2
102
RTVSPost2010PropOp53
 70
     1
102
RTVSPost2010Prop54
  1
strokes_ogs.tif
102
RTVSPost2010PropOp54
 70
     1
102
RTVSPost2010Prop55
280
     0
102
RTVSPost2010PropOp55
 70
     1
102
RTVSPost2010Prop56
140
1.0
102
RTVSPost2010PropOp56
 70
     1
102
RTVSPost2010Prop57
140
1.0
102
RTVSPost2010PropOp57
 70
     1
  0
XRECORD
  5
454
102
{ACAD_REACTORS
330
453
102
}
330
453
100
AcDbXrecord
280
     1
102
RTVSPropertyOp0
 70
     1
102
RTVSPropertyOp1
 70
     1
102
RTVSPropertyOp2
 70
     1
102
RTVSPropertyOp3
 70
     1
102
RTVSPropertyOp4
 70
     1
102
RTVSPropertyOp5
 70
     1
102
RTVSPropertyOp6
 70
     1
102
RTVSPropertyOp7
 70
     1
102
RTVSPropertyOp8
 70
     1
102
RTVSPropertyOp9
 70
     1
102
RTVSPropertyOp10
 70
     1
102
RTVSPropertyOp11
 70
     1
102
RTVSPropertyOp12
 70
     1
102
RTVSPropertyOp13
 70
     1
102
RTVSPropertyOp14
 70
     1
102
RTVSPropertyOp15
 70
     1
102
RTVSPropertyOp16
 70
     1
102
RTVSPropertyOp17
 70
     1
102
RTVSPropertyOp18
 70
     1
102
RTVSPropertyOp19
 70
     1
102
RTVSPropertyOp20
 70
     1
102
RTVSPropertyOp21
 70
     1
102
RTVSPropertyOp22
 70
     1
102
RTVSPropertyOp23
 70
     1
102
RTVSPropertyOp24
 70
     1
102
RTVSPropertyOp25
 70
     1
102
RTVSPropertyOp26
 70
     1
102
RTVSPropertyOp27
 70
     1
102
RTVSPropertyOp28
 70
     1
102
RTVSPropertyOp29
 70
     1
102
RTVSPropertyOp30
 70
     1
102
RTVSPropertyOp31
 70
     1
102
RTVSPropertyOp32
 70
     1
102
RTVSPropertyOp33
 70
     1
102
RTVSPropertyOp34
 70
     1
102
RTVSPropertyOp35
 70
     1
102
RTVSPropertyOp36
 70
     1
102
RTVSPropertyOp37
 70
     1
102
RTVSPropertyOp38
 70
     1
102
RTVSPropertyOp39
 70
     1
102
RTVSPropertyOp40
 70
     1
102
RTVSPropertyOp41
 70
     1
102
RTVSPropertyOp42
 70
     1
102
RTVSPropertyOp43
 70
     1
102
RTVSPropertyOp44
 70
     1
102
RTVSPropertyOp45
 70
     1
102
RTVSPropertyOp46
 70
     1
102
RTVSPropertyOp47
 70
     1
102
RTVSPropertyOp48
 70
     1
102
RTVSPropertyOp49
 70
     1
102
RTVSPropertyOp50
 70
     1
102
RTVSPropertyOp51
 70
     0
102
RTVSPropertyOp52
 70
     0
102
RTVSPropertyOp53
 70
     1
102
RTVSPropertyOp54
 70
     1
102
RTVSPropertyOp55
 70
     1
102
RTVSPropertyOp56
 70
     1
102
RTVSPropertyOp57
 70
     1
102
RTVSPost2010Prop28
280
     0
102
RTVSPost2010PropOp28
 70
     1
102
RTVSPost2010Prop29
280
     1
102
RTVSPost2010PropOp29
 70
     1
102
RTVSPost2010Prop30
280
     1
102
RTVSPost2010PropOp30
 70
     1
102
RTVSPost2010Prop31
280
     0
102
RTVSPost2010PropOp31
 70
     1
102
RTVSPost2010Prop32
280
     0
102
RTVSPost2010PropOp32
 70
     1
102
RTVSPost2010Prop33
280
     0
102
RTVSPost2010PropOp33
 70
     1
102
RTVSPost2010Prop34
280
     0
102
RTVSPost2010PropOp34
 70
     1
102
RTVSPost2010Prop35
280
     0
102
RTVSPost2010PropOp35
 70
     1
102
RTVSPost2010Prop36
280
     0
102
RTVSPost2010PropOp36
 70
     1
102
RTVSPost2010Prop37
 90
       50
102
RTVSPost2010PropOp37
 70
     1
102
RTVSPost2010Prop38
140
0.0
102
RTVSPost2010PropOp38
 70
     1
102
RTVSPost2010Prop39
140
1.0
102
RTVSPost2010PropOp39
 70
     1
102
RTVSPost2010Prop40
 90
        0
102
RTVSPost2010PropOp40
 70
     1
102
RTVSPost2010Prop41ColorIndex
 90
       18
102
RTVSPost2010Prop41ColorRGB
 90
        0
102
RTVSPost2010PropOp41
 70
     1
102
RTVSPost2010Prop42
 90
       50
102
RTVSPost2010PropOp42
 70
     1
102
RTVSPost2010Prop43
 90
        3
102
RTVSPost2010PropOp43
 70
     1
102
RTVSPost2010Prop44ColorIndex
 90
        5
102
RTVSPost2010Prop44ColorRGB
 90
      255
102
RTVSPost2010PropOp44
 70
     1
102
RTVSPost2010Prop45
280
     0
102
RTVSPost2010PropOp45
 70
     1
102
RTVSPost2010Prop46
 90
       50
102
RTVSPost2010PropOp46
 70
     1
102
RTVSPost2010Prop47
 90
       50
102
RTVSPost2010PropOp47
 70
     1
102
RTVSPost2010Prop48
 90
       50
102
RTVSPost2010PropOp48
 70
     1
102
RTVSPost2010Prop49
280
     0
102
RTVSPost2010PropOp49
 70
     1
102
RTVSPost2010Prop50
 90
       50
102
RTVSPost2010PropOp50
 70
     1
102
RTVSPost2010Prop51ColorIndex
 90
      256
102
RTVSPost2010Prop51ColorRGB
 90
-16777216
102
RTVSPost2010PropOp51
 70
     0
102
RTVSPost2010Prop52
140
1.0
102
RTVSPost2010PropOp52
 70
     0
102
RTVSPost2010Prop53
 90
        2
102
RTVSPost2010PropOp53
 70
     1
102
RTVSPost2010Prop54
  1
strokes_ogs.tif
102
RTVSPost2010PropOp54
 70
     1
102
RTVSPost2010Prop55
280
     0
102
RTVSPost2010PropOp55
 70
     1
102
RTVSPost2010Prop56
140
1.0
102
RTVSPost2010PropOp56
 70
     1
102
RTVSPost2010Prop57
140
1.0
102
RTVSPost2010PropOp57
 70
     1
  0
XRECORD
  5
456
102
{ACAD_REACTORS
330
455
102
}
330
455
100
AcDbXrecord
280
     1
102
RTVSPropertyOp0
 70
     1
102
RTVSPropertyOp1
 70
     1
102
RTVSPropertyOp2
 70
     1
102
RTVSPropertyOp3
 70
     1
102
RTVSPropertyOp4
 70
     1
102
RTVSPropertyOp5
 70
     1
102
RTVSPropertyOp6
 70
     1
102
RTVSPropertyOp7
 70
     1
102
RTVSPropertyOp8
 70
     1
102
RTVSPropertyOp9
 70
     1
102
RTVSPropertyOp10
 70
     1
102
RTVSPropertyOp11
 70
     1
102
RTVSPropertyOp12
 70
     1
102
RTVSPropertyOp13
 70
     1
102
RTVSPropertyOp14
 70
     1
102
RTVSPropertyOp15
 70
     1
102
RTVSPropertyOp16
 70
     1
102
RTVSPropertyOp17
 70
     1
102
RTVSPropertyOp18
 70
     1
102
RTVSPropertyOp19
 70
     1
102
RTVSPropertyOp20
 70
     1
102
RTVSPropertyOp21
 70
     1
102
RTVSPropertyOp22
 70
     1
102
RTVSPropertyOp23
 70
     1
102
RTVSPropertyOp24
 70
     1
102
RTVSPropertyOp25
 70
     1
102
RTVSPropertyOp26
 70
     1
102
RTVSPropertyOp27
 70
     1
102
RTVSPropertyOp28
 70
     1
102
RTVSPropertyOp29
 70
     1
102
RTVSPropertyOp30
 70
     1
102
RTVSPropertyOp31
 70
     1
102
RTVSPropertyOp32
 70
     1
102
RTVSPropertyOp33
 70
     1
102
RTVSPropertyOp34
 70
     1
102
RTVSPropertyOp35
 70
     1
102
RTVSPropertyOp36
 70
     1
102
RTVSPropertyOp37
 70
     1
102
RTVSPropertyOp38
 70
     1
102
RTVSPropertyOp39
 70
     1
102
RTVSPropertyOp40
 70
     1
102
RTVSPropertyOp41
 70
     1
102
RTVSPropertyOp42
 70
     1
102
RTVSPropertyOp43
 70
     1
102
RTVSPropertyOp44
 70
     1
102
RTVSPropertyOp45
 70
     1
102
RTVSPropertyOp46
 70
     1
102
RTVSPropertyOp47
 70
     1
102
RTVSPropertyOp48
 70
     1
102
RTVSPropertyOp49
 70
     1
102
RTVSPropertyOp50
 70
     1
102
RTVSPropertyOp51
 70
     0
102
RTVSPropertyOp52
 70
     0
102
RTVSPropertyOp53
 70
     1
102
RTVSPropertyOp54
 70
     1
102
RTVSPropertyOp55
 70
     1
102
RTVSPropertyOp56
 70
     1
102
RTVSPropertyOp57
 70
     1
102
RTVSPost2010Prop28
280
     0
102
RTVSPost2010PropOp28
 70
     1
102
RTVSPost2010Prop29
280
     1
102
RTVSPost2010PropOp29
 70
     1
102
RTVSPost2010Prop30
280
     1
102
RTVSPost2010PropOp30
 70
     1
102
RTVSPost2010Prop31
280
     0
102
RTVSPost2010PropOp31
 70
     1
102
RTVSPost2010Prop32
280
     0
102
RTVSPost2010PropOp32
 70
     1
102
RTVSPost2010Prop33
280
     0
102
RTVSPost2010PropOp33
 70
     1
102
RTVSPost2010Prop34
280
     0
102
RTVSPost2010PropOp34
 70
     1
102
RTVSPost2010Prop35
280
     0
102
RTVSPost2010PropOp35
 70
     1
102
RTVSPost2010Prop36
280
     0
102
RTVSPost2010PropOp36
 70
     1
102
RTVSPost2010Prop37
 90
       50
102
RTVSPost2010PropOp37
 70
     1
102
RTVSPost2010Prop38
140
0.0
102
RTVSPost2010PropOp38
 70
     1
102
RTVSPost2010Prop39
140
1.0
102
RTVSPost2010PropOp39
 70
     1
102
RTVSPost2010Prop40
 90
        0
102
RTVSPost2010PropOp40
 70
     1
102
RTVSPost2010Prop41ColorIndex
 90
       18
102
RTVSPost2010Prop41ColorRGB
 90
        0
102
RTVSPost2010PropOp41
 70
     1
102
RTVSPost2010Prop42
 90
       50
102
RTVSPost2010PropOp42
 70
     1
102
RTVSPost2010Prop43
 90
        3
102
RTVSPost2010PropOp43
 70
     1
102
RTVSPost2010Prop44ColorIndex
 90
        5
102
RTVSPost2010Prop44ColorRGB
 90
      255
102
RTVSPost2010PropOp44
 70
     1
102
RTVSPost2010Prop45
280
     0
102
RTVSPost2010PropOp45
 70
     1
102
RTVSPost2010Prop46
 90
       50
102
RTVSPost2010PropOp46
 70
     1
102
RTVSPost2010Prop47
 90
       50
102
RTVSPost2010PropOp47
 70
     1
102
RTVSPost2010Prop48
 90
       50
102
RTVSPost2010PropOp48
 70
     1
102
RTVSPost2010Prop49
280
     0
102
RTVSPost2010PropOp49
 70
     1
102
RTVSPost2010Prop50
 90
       50
102
RTVSPost2010PropOp50
 70
     1
102
RTVSPost2010Prop51ColorIndex
 90
      256
102
RTVSPost2010Prop51ColorRGB
 90
-16777216
102
RTVSPost2010PropOp51
 70
     0
102
RTVSPost2010Prop52
140
1.0
102
RTVSPost2010PropOp52
 70
     0
102
RTVSPost2010Prop53
 90
        2
102
RTVSPost2010PropOp53
 70
     1
102
RTVSPost2010Prop54
  1
strokes_ogs.tif
102
RTVSPost2010PropOp54
 70
     1
102
RTVSPost2010Prop55
280
     0
102
RTVSPost2010PropOp55
 70
     1
102
RTVSPost2010Prop56
140
1.0
102
RTVSPost2010PropOp56
 70
     1
102
RTVSPost2010Prop57
140
1.0
102
RTVSPost2010PropOp57
 70
     1
  0
XRECORD
  5
446
102
{ACAD_REACTORS
330
445
102
}
330
445
100
AcDbXrecord
280
     1
102
RTVSPropertyOp0
 70
     1
102
RTVSPropertyOp1
 70
     1
102
RTVSPropertyOp2
 70
     1
102
RTVSPropertyOp3
 70
     1
102
RTVSPropertyOp4
 70
     1
102
RTVSPropertyOp5
 70
     1
102
RTVSPropertyOp6
 70
     1
102
RTVSPropertyOp7
 70
     1
102
RTVSPropertyOp8
 70
     1
102
RTVSPropertyOp9
 70
     1
102
RTVSPropertyOp10
 70
     1
102
RTVSPropertyOp11
 70
     1
102
RTVSPropertyOp12
 70
     1
102
RTVSPropertyOp13
 70
     1
102
RTVSPropertyOp14
 70
     1
102
RTVSPropertyOp15
 70
     1
102
RTVSPropertyOp16
 70
     1
102
RTVSPropertyOp17
 70
     1
102
RTVSPropertyOp18
 70
     1
102
RTVSPropertyOp19
 70
     1
102
RTVSPropertyOp20
 70
     1
102
RTVSPropertyOp21
 70
     1
102
RTVSPropertyOp22
 70
     1
102
RTVSPropertyOp23
 70
     1
102
RTVSPropertyOp24
 70
     1
102
RTVSPropertyOp25
 70
     1
102
RTVSPropertyOp26
 70
     1
102
RTVSPropertyOp27
 70
     1
102
RTVSPropertyOp28
 70
     1
102
RTVSPropertyOp29
 70
     1
102
RTVSPropertyOp30
 70
     1
102
RTVSPropertyOp31
 70
     1
102
RTVSPropertyOp32
 70
     1
102
RTVSPropertyOp33
 70
     1
102
RTVSPropertyOp34
 70
     1
102
RTVSPropertyOp35
 70
     1
102
RTVSPropertyOp36
 70
     1
102
RTVSPropertyOp37
 70
     1
102
RTVSPropertyOp38
 70
     1
102
RTVSPropertyOp39
 70
     1
102
RTVSPropertyOp40
 70
     1
102
RTVSPropertyOp41
 70
     1
102
RTVSPropertyOp42
 70
     1
102
RTVSPropertyOp43
 70
     1
102
RTVSPropertyOp44
 70
     1
102
RTVSPropertyOp45
 70
     1
102
RTVSPropertyOp46
 70
     1
102
RTVSPropertyOp47
 70
     1
102
RTVSPropertyOp48
 70
     1
102
RTVSPropertyOp49
 70
     1
102
RTVSPropertyOp50
 70
     1
102
RTVSPropertyOp51
 70
     0
102
RTVSPropertyOp52
 70
     0
102
RTVSPropertyOp53
 70
     1
102
RTVSPropertyOp54
 70
     1
102
RTVSPropertyOp55
 70
     1
102
RTVSPropertyOp56
 70
     1
102
RTVSPropertyOp57
 70
     1
102
RTVSPost2010Prop28
280
     0
102
RTVSPost2010PropOp28
 70
     1
102
RTVSPost2010Prop29
280
     1
102
RTVSPost2010PropOp29
 70
     1
102
RTVSPost2010Prop30
280
     1
102
RTVSPost2010PropOp30
 70
     1
102
RTVSPost2010Prop31
280
     0
102
RTVSPost2010PropOp31
 70
     1
102
RTVSPost2010Prop32
280
     0
102
RTVSPost2010PropOp32
 70
     1
102
RTVSPost2010Prop33
280
     0
102
RTVSPost2010PropOp33
 70
     1
102
RTVSPost2010Prop34
280
     0
102
RTVSPost2010PropOp34
 70
     1
102
RTVSPost2010Prop35
280
     0
102
RTVSPost2010PropOp35
 70
     1
102
RTVSPost2010Prop36
280
     0
102
RTVSPost2010PropOp36
 70
     1
102
RTVSPost2010Prop37
 90
       50
102
RTVSPost2010PropOp37
 70
     1
102
RTVSPost2010Prop38
140
0.0
102
RTVSPost2010PropOp38
 70
     1
102
RTVSPost2010Prop39
140
1.0
102
RTVSPost2010PropOp39
 70
     1
102
RTVSPost2010Prop40
 90
        0
102
RTVSPost2010PropOp40
 70
     1
102
RTVSPost2010Prop41ColorIndex
 90
       18
102
RTVSPost2010Prop41ColorRGB
 90
        0
102
RTVSPost2010PropOp41
 70
     1
102
RTVSPost2010Prop42
 90
       50
102
RTVSPost2010PropOp42
 70
     1
102
RTVSPost2010Prop43
 90
        3
102
RTVSPost2010PropOp43
 70
     1
102
RTVSPost2010Prop44ColorIndex
 90
        5
102
RTVSPost2010Prop44ColorRGB
 90
      255
102
RTVSPost2010PropOp44
 70
     1
102
RTVSPost2010Prop45
280
     0
102
RTVSPost2010PropOp45
 70
     1
102
RTVSPost2010Prop46
 90
       50
102
RTVSPost2010PropOp46
 70
     1
102
RTVSPost2010Prop47
 90
       50
102
RTVSPost2010PropOp47
 70
     1
102
RTVSPost2010Prop48
 90
       50
102
RTVSPost2010PropOp48
 70
     1
102
RTVSPost2010Prop49
280
     0
102
RTVSPost2010PropOp49
 70
     1
102
RTVSPost2010Prop50
 90
       50
102
RTVSPost2010PropOp50
 70
     1
102
RTVSPost2010Prop51ColorIndex
 90
      256
102
RTVSPost2010Prop51ColorRGB
 90
-16777216
102
RTVSPost2010PropOp51
 70
     0
102
RTVSPost2010Prop52
140
1.0
102
RTVSPost2010PropOp52
 70
     0
102
RTVSPost2010Prop53
 90
        2
102
RTVSPost2010PropOp53
 70
     1
102
RTVSPost2010Prop54
  1
strokes_ogs.tif
102
RTVSPost2010PropOp54
 70
     1
102
RTVSPost2010Prop55
280
     0
102
RTVSPost2010PropOp55
 70
     1
102
RTVSPost2010Prop56
140
1.0
102
RTVSPost2010PropOp56
 70
     1
102
RTVSPost2010Prop57
140
1.0
102
RTVSPost2010PropOp57
 70
     1
  0
XRECORD
  5
438
102
{ACAD_REACTORS
330
437
102
}
330
437
100
AcDbXrecord
280
     1
102
RTVSPropertyOp0
 70
     1
102
RTVSPropertyOp1
 70
     1
102
RTVSPropertyOp2
 70
     1
102
RTVSPropertyOp3
 70
     1
102
RTVSPropertyOp4
 70
     1
102
RTVSPropertyOp5
 70
     1
102
RTVSPropertyOp6
 70
     1
102
RTVSPropertyOp7
 70
     1
102
RTVSPropertyOp8
 70
     1
102
RTVSPropertyOp9
 70
     1
102
RTVSPropertyOp10
 70
     1
102
RTVSPropertyOp11
 70
     1
102
RTVSPropertyOp12
 70
     1
102
RTVSPropertyOp13
 70
     1
102
RTVSPropertyOp14
 70
     1
102
RTVSPropertyOp15
 70
     1
102
RTVSPropertyOp16
 70
     1
102
RTVSPropertyOp17
 70
     1
102
RTVSPropertyOp18
 70
     1
102
RTVSPropertyOp19
 70
     1
102
RTVSPropertyOp20
 70
     1
102
RTVSPropertyOp21
 70
     1
102
RTVSPropertyOp22
 70
     1
102
RTVSPropertyOp23
 70
     1
102
RTVSPropertyOp24
 70
     1
102
RTVSPropertyOp25
 70
     1
102
RTVSPropertyOp26
 70
     1
102
RTVSPropertyOp27
 70
     1
102
RTVSPropertyOp28
 70
     1
102
RTVSPropertyOp29
 70
     1
102
RTVSPropertyOp30
 70
     1
102
RTVSPropertyOp31
 70
     1
102
RTVSPropertyOp32
 70
     1
102
RTVSPropertyOp33
 70
     1
102
RTVSPropertyOp34
 70
     1
102
RTVSPropertyOp35
 70
     1
102
RTVSPropertyOp36
 70
     1
102
RTVSPropertyOp37
 70
     1
102
RTVSPropertyOp38
 70
     1
102
RTVSPropertyOp39
 70
     1
102
RTVSPropertyOp40
 70
     1
102
RTVSPropertyOp41
 70
     1
102
RTVSPropertyOp42
 70
     1
102
RTVSPropertyOp43
 70
     1
102
RTVSPropertyOp44
 70
     1
102
RTVSPropertyOp45
 70
     1
102
RTVSPropertyOp46
 70
     1
102
RTVSPropertyOp47
 70
     1
102
RTVSPropertyOp48
 70
     1
102
RTVSPropertyOp49
 70
     1
102
RTVSPropertyOp50
 70
     1
102
RTVSPropertyOp51
 70
     0
102
RTVSPropertyOp52
 70
     0
102
RTVSPropertyOp53
 70
     1
102
RTVSPropertyOp54
 70
     1
102
RTVSPropertyOp55
 70
     1
102
RTVSPropertyOp56
 70
     1
102
RTVSPropertyOp57
 70
     1
102
RTVSPost2010Prop28
280
     0
102
RTVSPost2010PropOp28
 70
     1
102
RTVSPost2010Prop29
280
     1
102
RTVSPost2010PropOp29
 70
     1
102
RTVSPost2010Prop30
280
     1
102
RTVSPost2010PropOp30
 70
     1
102
RTVSPost2010Prop31
280
     0
102
RTVSPost2010PropOp31
 70
     1
102
RTVSPost2010Prop32
280
     0
102
RTVSPost2010PropOp32
 70
     1
102
RTVSPost2010Prop33
280
     0
102
RTVSPost2010PropOp33
 70
     1
102
RTVSPost2010Prop34
280
     0
102
RTVSPost2010PropOp34
 70
     1
102
RTVSPost2010Prop35
280
     0
102
RTVSPost2010PropOp35
 70
     1
102
RTVSPost2010Prop36
280
     0
102
RTVSPost2010PropOp36
 70
     1
102
RTVSPost2010Prop37
 90
       50
102
RTVSPost2010PropOp37
 70
     1
102
RTVSPost2010Prop38
140
0.0
102
RTVSPost2010PropOp38
 70
     1
102
RTVSPost2010Prop39
140
1.0
102
RTVSPost2010PropOp39
 70
     1
102
RTVSPost2010Prop40
 90
        0
102
RTVSPost2010PropOp40
 70
     1
102
RTVSPost2010Prop41ColorIndex
 90
       18
102
RTVSPost2010Prop41ColorRGB
 90
        0
102
RTVSPost2010PropOp41
 70
     1
102
RTVSPost2010Prop42
 90
       50
102
RTVSPost2010PropOp42
 70
     1
102
RTVSPost2010Prop43
 90
        3
102
RTVSPost2010PropOp43
 70
     1
102
RTVSPost2010Prop44ColorIndex
 90
        5
102
RTVSPost2010Prop44ColorRGB
 90
      255
102
RTVSPost2010PropOp44
 70
     1
102
RTVSPost2010Prop45
280
     0
102
RTVSPost2010PropOp45
 70
     1
102
RTVSPost2010Prop46
 90
       50
102
RTVSPost2010PropOp46
 70
     1
102
RTVSPost2010Prop47
 90
       50
102
RTVSPost2010PropOp47
 70
     1
102
RTVSPost2010Prop48
 90
       50
102
RTVSPost2010PropOp48
 70
     1
102
RTVSPost2010Prop49
280
     0
102
RTVSPost2010PropOp49
 70
     1
102
RTVSPost2010Prop50
 90
       50
102
RTVSPost2010PropOp50
 70
     1
102
RTVSPost2010Prop51ColorIndex
 90
      256
102
RTVSPost2010Prop51ColorRGB
 90
-16777216
102
RTVSPost2010PropOp51
 70
     0
102
RTVSPost2010Prop52
140
1.0
102
RTVSPost2010PropOp52
 70
     0
102
RTVSPost2010Prop53
 90
        2
102
RTVSPost2010PropOp53
 70
     1
102
RTVSPost2010Prop54
  1
strokes_ogs.tif
102
RTVSPost2010PropOp54
 70
     1
102
RTVSPost2010Prop55
280
     0
102
RTVSPost2010PropOp55
 70
     1
102
RTVSPost2010Prop56
140
1.0
102
RTVSPost2010PropOp56
 70
     1
102
RTVSPost2010Prop57
140
1.0
102
RTVSPost2010PropOp57
 70
     1
  0
XRECORD
  5
458
102
{ACAD_REACTORS
330
457
102
}
330
457
100
AcDbXrecord
280
     1
102
RTVSPropertyOp0
 70
     1
102
RTVSPropertyOp1
 70
     1
102
RTVSPropertyOp2
 70
     1
102
RTVSPropertyOp3
 70
     1
102
RTVSPropertyOp4
 70
     1
102
RTVSPropertyOp5
 70
     1
102
RTVSPropertyOp6
 70
     1
102
RTVSPropertyOp7
 70
     1
102
RTVSPropertyOp8
 70
     1
102
RTVSPropertyOp9
 70
     1
102
RTVSPropertyOp10
 70
     1
102
RTVSPropertyOp11
 70
     1
102
RTVSPropertyOp12
 70
     1
102
RTVSPropertyOp13
 70
     1
102
RTVSPropertyOp14
 70
     1
102
RTVSPropertyOp15
 70
     1
102
RTVSPropertyOp16
 70
     1
102
RTVSPropertyOp17
 70
     1
102
RTVSPropertyOp18
 70
     1
102
RTVSPropertyOp19
 70
     1
102
RTVSPropertyOp20
 70
     1
102
RTVSPropertyOp21
 70
     1
102
RTVSPropertyOp22
 70
     1
102
RTVSPropertyOp23
 70
     1
102
RTVSPropertyOp24
 70
     1
102
RTVSPropertyOp25
 70
     1
102
RTVSPropertyOp26
 70
     1
102
RTVSPropertyOp27
 70
     1
102
RTVSPropertyOp28
 70
     1
102
RTVSPropertyOp29
 70
     1
102
RTVSPropertyOp30
 70
     1
102
RTVSPropertyOp31
 70
     1
102
RTVSPropertyOp32
 70
     1
102
RTVSPropertyOp33
 70
     1
102
RTVSPropertyOp34
 70
     1
102
RTVSPropertyOp35
 70
     1
102
RTVSPropertyOp36
 70
     1
102
RTVSPropertyOp37
 70
     1
102
RTVSPropertyOp38
 70
     1
102
RTVSPropertyOp39
 70
     1
102
RTVSPropertyOp40
 70
     1
102
RTVSPropertyOp41
 70
     1
102
RTVSPropertyOp42
 70
     1
102
RTVSPropertyOp43
 70
     1
102
RTVSPropertyOp44
 70
     1
102
RTVSPropertyOp45
 70
     1
102
RTVSPropertyOp46
 70
     1
102
RTVSPropertyOp47
 70
     1
102
RTVSPropertyOp48
 70
     1
102
RTVSPropertyOp49
 70
     1
102
RTVSPropertyOp50
 70
     1
102
RTVSPropertyOp51
 70
     0
102
RTVSPropertyOp52
 70
     0
102
RTVSPropertyOp53
 70
     1
102
RTVSPropertyOp54
 70
     1
102
RTVSPropertyOp55
 70
     1
102
RTVSPropertyOp56
 70
     1
102
RTVSPropertyOp57
 70
     1
102
RTVSPost2010Prop28
280
     0
102
RTVSPost2010PropOp28
 70
     1
102
RTVSPost2010Prop29
280
     1
102
RTVSPost2010PropOp29
 70
     1
102
RTVSPost2010Prop30
280
     1
102
RTVSPost2010PropOp30
 70
     1
102
RTVSPost2010Prop31
280
     0
102
RTVSPost2010PropOp31
 70
     1
102
RTVSPost2010Prop32
280
     0
102
RTVSPost2010PropOp32
 70
     1
102
RTVSPost2010Prop33
280
     0
102
RTVSPost2010PropOp33
 70
     1
102
RTVSPost2010Prop34
280
     0
102
RTVSPost2010PropOp34
 70
     1
102
RTVSPost2010Prop35
280
     0
102
RTVSPost2010PropOp35
 70
     1
102
RTVSPost2010Prop36
280
     0
102
RTVSPost2010PropOp36
 70
     1
102
RTVSPost2010Prop37
 90
       50
102
RTVSPost2010PropOp37
 70
     1
102
RTVSPost2010Prop38
140
0.0
102
RTVSPost2010PropOp38
 70
     1
102
RTVSPost2010Prop39
140
1.0
102
RTVSPost2010PropOp39
 70
     1
102
RTVSPost2010Prop40
 90
        0
102
RTVSPost2010PropOp40
 70
     1
102
RTVSPost2010Prop41ColorIndex
 90
       18
102
RTVSPost2010Prop41ColorRGB
 90
        0
102
RTVSPost2010PropOp41
 70
     1
102
RTVSPost2010Prop42
 90
       50
102
RTVSPost2010PropOp42
 70
     1
102
RTVSPost2010Prop43
 90
        3
102
RTVSPost2010PropOp43
 70
     1
102
RTVSPost2010Prop44ColorIndex
 90
        5
102
RTVSPost2010Prop44ColorRGB
 90
      255
102
RTVSPost2010PropOp44
 70
     1
102
RTVSPost2010Prop45
280
     0
102
RTVSPost2010PropOp45
 70
     1
102
RTVSPost2010Prop46
 90
       50
102
RTVSPost2010PropOp46
 70
     1
102
RTVSPost2010Prop47
 90
       50
102
RTVSPost2010PropOp47
 70
     1
102
RTVSPost2010Prop48
 90
       50
102
RTVSPost2010PropOp48
 70
     1
102
RTVSPost2010Prop49
280
     0
102
RTVSPost2010PropOp49
 70
     1
102
RTVSPost2010Prop50
 90
       50
102
RTVSPost2010PropOp50
 70
     1
102
RTVSPost2010Prop51ColorIndex
 90
      256
102
RTVSPost2010Prop51ColorRGB
 90
-16777216
102
RTVSPost2010PropOp51
 70
     0
102
RTVSPost2010Prop52
140
1.0
102
RTVSPost2010PropOp52
 70
     0
102
RTVSPost2010Prop53
 90
        2
102
RTVSPost2010PropOp53
 70
     1
102
RTVSPost2010Prop54
  1
strokes_ogs.tif
102
RTVSPost2010PropOp54
 70
     1
102
RTVSPost2010Prop55
280
     0
102
RTVSPost2010PropOp55
 70
     1
102
RTVSPost2010Prop56
140
1.0
102
RTVSPost2010PropOp56
 70
     1
102
RTVSPost2010Prop57
140
1.0
102
RTVSPost2010PropOp57
 70
     1
  0
ENDSEC
  0
EOF
