  0
SECTION
  2
HEADER
  9
$ACADVER
  1
AC1006
  9
$DWGCODEPAGE
  3
ansi_1252
  9
$INSBASE
 10
0.0
 20
0.0
 30
0.0
  9
$EXTMIN
 10
1064.12272111
 20
-485.21542571
  9
$EXTMAX
 10
1850.3927143
 20
-106.54042571
  9
$LIMMIN
 10
1064.12272111
 20
-485.21542571
  9
$LIMMAX
 10
1850.3927143
 20
-106.54042571
  9
$ORTHOMODE
 70
     0
  9
$REGENMODE
 70
     1
  9
$FILLMODE
 70
     1
  9
$QTEXTMODE
 70
     0
  9
$MIRRTEXT
 70
     1
  9
$DRAGMODE
 70
     2
  9
$LTSCALE
 40
1.0
  9
$OSMODE
 70
    37
  9
$ATTMODE
 70
     1
  9
$TEXTSIZE
 40
1.0
  9
$TRACEWID
 40
0.05
  9
$TEXTSTYLE
  7
STANDARD
  9
$CLAYER
  8
0
  9
$CELTYPE
  6
BYBLOCK
  9
$CECOLOR
 62
   256
  9
$DIMSCALE
 40
1.0
  9
$DIMASZ
 40
0.18
  9
$DIMEXO
 40
0.0625
  9
$DIMDLI
 40
0.38
  9
$DIMRND
 40
0.0
  9
$DIMDLE
 40
0.0
  9
$DIMEXE
 40
0.18
  9
$DIMTP
 40
0.0
  9
$DIMTM
 40
0.0
  9
$DIMTXT
 40
0.18
  9
$DIMCEN
 40
0.09
  9
$DIMTSZ
 40
0.0
  9
$DIMTOL
 70
     0
  9
$DIMLIM
 70
     0
  9
$DIMTIH
 70
     1
  9
$DIMTOH
 70
     1
  9
$DIMSE1
 70
     0
  9
$DIMSE2
 70
     0
  9
$DIMTAD
 70
     0
  9
$DIMZIN
 70
     0
  9
$DIMBLK
  1

  9
$DIMASO
 70
     1
  9
$DIMSHO
 70
     1
  9
$DIMPOST
  1

  9
$DIMAPOST
  1

  9
$DIMALT
 70
     0
  9
$DIMALTD
 70
     2
  9
$DIMALTF
 40
25.4
  9
$DIMLFAC
 40
1.0
  9
$DIMTOFL
 70
     0
  9
$DIMTVP
 40
0.0
  9
$DIMTIX
 70
     0
  9
$DIMSOXD
 70
     0
  9
$DIMSAH
 70
     0
  9
$DIMBLK1
  1

  9
$DIMBLK2
  1

  9
$LUNITS
 70
     2
  9
$LUPREC
 70
     4
  9
$SKETCHINC
 40
0.1
  9
$FILLETRAD
 40
0.5
  9
$AUNITS
 70
     0
  9
$AUPREC
 70
     0
  9
$MENU
  1
.
  9
$ELEVATION
 40
0.0
  9
$THICKNESS
 40
0.0
  9
$LIMCHECK
 70
     0
  9
$CHAMFERA
 40
0.0
  9
$CHAMFERB
 40
0.0
  9
$SKPOLY
 70
     0
  9
$TDCREATE
 40
2447893.125
  9
$TDUPDATE
 40
2460791.503243912
  9
$TDINDWG
 40
0.0
  9
$TDUSRTIMER
 40
0.0
  9
$USRTIMER
 70
     1
  9
$ANGBASE
 50
0.0
  9
$ANGDIR
 70
     0
  9
$PDMODE
 70
     0
  9
$PDSIZE
 40
0.0
  9
$PLINEWID
 40
0.0
  9
$COORDS
 70
     1
  9
$SPLFRAME
 70
     0
  9
$SPLINETYPE
 70
     6
  9
$SPLINESEGS
 70
     8
  9
$ATTDIA
 70
     0
  9
$ATTREQ
 70
     1
  9
$HANDLING
 70
     1
  9
$HANDSEED
  5
3F6
  9
$SURFTAB1
 70
     6
  9
$SURFTAB2
 70
     6
  9
$SURFTYPE
 70
     6
  9
$SURFU
 70
     6
  9
$SURFV
 70
     6
  9
$UCSNAME
  2

  9
$UCSORG
 10
0.0
 20
0.0
 30
0.0
  9
$UCSXDIR
 10
1.0
 20
0.0
 30
0.0
  9
$UCSYDIR
 10
0.0
 20
1.0
 30
0.0
  9
$USERI1
 70
     0
  9
$USERI2
 70
     0
  9
$USERI3
 70
     0
  9
$USERI4
 70
     0
  9
$USERI5
 70
     0
  9
$USERR1
 40
0.0
  9
$USERR2
 40
0.0
  9
$USERR3
 40
0.0
  9
$USERR4
 40
0.0
  9
$USERR5
 40
0.0
  9
$WORLDVIEW
 70
     1
  0
ENDSEC
  0
SECTION
  2
TABLES
  0
TABLE
  2
VPORT
 70
     1
  0
VPORT
  2
*ACTIVE
 70
     0
 10
0.0
 20
0.0
 11
1.0
 21
1.0
 12
1457.25771771
 22
-295.87792571
 13
0.0
 23
0.0
 14
1.0
 24
1.0
 15
0.0
 25
0.0
 16
0.0
 26
0.0
 36
1.0
 17
0.0
 27
0.0
 37
0.0
 40
378.675
 41
2.076371541
 42
50.0
 43
0.0
 44
0.0
 50
0.0
 51
0.0
 71
     0
 72
   100
 73
     1
 74
     1
 75
     0
 76
     0
 77
     0
 78
     0
  0
ENDTAB
  0
TABLE
  2
LTYPE
 70
    19
  0
LTYPE
  2
CONTINUOUS
 70
     0
  3
Solid line
 72
    65
 73
     0
 40
0.0
  0
LTYPE
  2
DOT
 70
     0
  3
..............
 72
    65
 73
     2
 40
2.0
 49
0.5
 49
-1.5
  0
LTYPE
  2
HIDDEN
 70
     0
  3
-- -- -- -- --
 72
    65
 73
     2
 40
7.0
 49
4.0
 49
-3.0
  0
LTYPE
  2
DASHDOT
 70
     0
  3
--.--.--.--.--
 72
    65
 73
     4
 40
8.5
 49
4.0
 49
-2.0
 49
0.5
 49
-2.0
  0
LTYPE
  2
STRICHPUNKT2
 70
     0
  3
--.--.--.--.--
 72
    65
 73
     4
 40
18.5
 49
10.0
 49
-4.0
 49
0.5
 49
-4.0
  0
LTYPE
  2
STRICHPUNKT3
 70
     0
  3
--.--.--.--.--
 72
    65
 73
     4
 40
35.5
 49
25.0
 49
-5.0
 49
0.5
 49
-5.0
  0
LTYPE
  2
PHANTOM
 70
     0
  3
--..--..--..--
 72
    65
 73
     6
 40
23.0
 49
10.0
 49
-4.0
 49
0.5
 49
-4.0
 49
0.5
 49
-4.0
  0
LTYPE
  2
PHANTOM2
 70
     0
  3
--..--..--..--
 72
    65
 73
     6
 40
33.0
 49
20.0
 49
-4.0
 49
0.5
 49
-4.0
 49
0.5
 49
-4.0
  0
LTYPE
  2
PHANTOM3
 70
     0
  3
--..--..--..--
 72
    65
 73
     6
 40
50.0
 49
37.0
 49
-4.0
 49
0.5
 49
-4.0
 49
0.5
 49
-4.0
  0
LTYPE
  2
STR3PKT
 70
     0
  3
--...--...--...
 72
    65
 73
     8
 40
31.5
 49
20.0
 49
-2.5
 49
0.5
 49
-2.5
 49
0.5
 49
-2.5
 49
0.5
 49
-2.5
  0
LTYPE
  2
2STRPKT
 70
     0
  3
--.--.--.--.--
 72
    65
 73
     6
 40
28.0
 49
10.0
 49
-2.5
 49
10.0
 49
-2.5
 49
0.5
 49
-2.5
  0
LTYPE
  2
GESTRICHELT2
 70
     0
  3
-- -- -- -- --
 72
    65
 73
     2
 40
25.0
 49
10.0
 49
-15.0
  0
LTYPE
  2
2STR2PKT
 70
     0
  3
--..--..--..--
 72
    65
 73
     8
 40
31.0
 49
10.0
 49
-2.5
 49
10.0
 49
-2.5
 49
0.5
 49
-2.5
 49
0.5
 49
-2.5
  0
LTYPE
  2
STR3PKT2
 70
     0
  3
--...--...--...
 72
    65
 73
     8
 40
21.0
 49
10.0
 49
-2.5
 49
0.5
 49
-2.5
 49
0.5
 49
-2.5
 49
0.5
 49
-2.0
  0
LTYPE
  2
2STR3PKT
 70
     0
  3
--...--...--...
 72
    65
 73
    10
 40
34.0
 49
10.0
 49
-2.5
 49
10.0
 49
-2.5
 49
0.5
 49
-2.5
 49
0.5
 49
-2.5
 49
0.5
 49
-2.5
  0
LTYPE
  2
STRKSTR
 70
     0
  3
-- - -- - -- -
 72
    65
 73
     4
 40
30.0
 49
20.0
 49
-2.5
 49
5.0
 49
-2.5
  0
LTYPE
  2
STRKSTR2
 70
     0
  3
-- - -- - -- -
 72
    65
 73
     6
 40
37.5
 49
20.0
 49
-2.5
 49
5.0
 49
-2.5
 49
5.0
 49
-2.5
  0
LTYPE
  2
STRKSTR3
 70
     0
  3
-- - -- - -- -
 72
    65
 73
     8
 40
45.0
 49
20.0
 49
-2.5
 49
5.0
 49
-2.5
 49
5.0
 49
-2.5
 49
5.0
 49
-2.5
  0
LTYPE
  2
PUNKT2
 70
     0
  3
..............
 72
    65
 73
     2
 40
3.5
 49
0.5
 49
-3.0
  0
ENDTAB
  0
TABLE
  2
LAYER
 70
    15
  0
LAYER
  2
0
 70
     0
 62
     7
  6
CONTINUOUS
  0
LAYER
  2
LE_GREEN
 70
     0
 62
     3
  6
CONTINUOUS
  0
LAYER
  2
LE_RED
 70
     0
 62
     1
  6
CONTINUOUS
  0
LAYER
  2
LE_ALL
 70
     0
 62
     7
  6
CONTINUOUS
  0
LAYER
  2
LE_HIDDEN1
 70
     0
 62
     3
  6
HIDDEN
  0
LAYER
  2
LE_HIDDEN
 70
     0
 62
     7
  6
CONTINUOUS
  0
LAYER
  2
LE_MIDDLE
 70
     0
 62
     7
  6
CONTINUOUS
  0
LAYER
  2
TXT_YELLOW
 70
     0
 62
     2
  6
CONTINUOUS
  0
LAYER
  2
TXT_DIM49
 70
     0
 62
     2
  6
CONTINUOUS
  0
LAYER
  2
TXT_ALL
 70
     0
 62
     7
  6
CONTINUOUS
  0
LAYER
  2
DIM49
 70
     0
 62
     4
  6
CONTINUOUS
  0
LAYER
  2
HATCH
 70
     0
 62
     3
  6
CONTINUOUS
  0
LAYER
  2
APPLE
 70
     0
 62
     7
  6
CONTINUOUS
  0
LAYER
  2
10
 70
     0
 62
     7
  6
CONTINUOUS
  0
LAYER
  2
49
 70
     0
 62
     7
  6
CONTINUOUS
  0
ENDTAB
  0
TABLE
  2
STYLE
 70
     5
  0
STYLE
  2
MONOTXT
 70
     0
 40
0.0
 41
1.0
 50
0.0
 71
     0
 42
1.0
  3
monotxt.shx
  4

  0
STYLE
  2
STANDARD
 70
     0
 40
0.0
 41
1.0
 50
0.0
 71
     0
 42
1.0
  3
txt
  4

  0
STYLE
  2
ARIAL
 70
     0
 40
0.0
 41
1.0
 50
0.0
 71
     0
 42
1.0
  3
arial.ttf
  4

  0
STYLE
  2
ARIAL_NARROW
 70
     0
 40
0.0
 41
1.0
 50
0.0
 71
     0
 42
1.0
  3
ArialN.ttf
  4

  0
STYLE
  2
ISOCPEUR
 70
     0
 40
0.0
 41
1.0
 50
0.0
 71
     0
 42
1.0
  3
ISOCPEUR.ttf
  4

  0
ENDTAB
  0
TABLE
  2
VIEW
 70
     0
  0
ENDTAB
  0
TABLE
  2
UCS
 70
     0
  0
ENDTAB
  0
ENDSEC
  0
SECTION
  2
BLOCKS
  0
ENDSEC
  0
SECTION
  2
ENTITIES
  0
POLYLINE
  5
16C
  8
0
 66
     1
 10
0.0
 20
0.0
 30
0.0
 70
     1
  0
VERTEX
  5
16D
  8
0
 10
1163.75204345
 20
-446.08348762
 30
0.0
  0
VERTEX
  5
16E
  8
0
 10
1583.75204345
 20
-446.08348762
 30
0.0
  0
VERTEX
  5
16F
  8
0
 10
1583.75204345
 20
-149.08348762
 30
0.0
  0
VERTEX
  5
170
  8
0
 10
1163.75204345
 20
-149.08348762
 30
0.0
  0
SEQEND
  5
171
  8
0
  0
POLYLINE
  5
172
  8
0
 66
     1
 10
0.0
 20
0.0
 30
0.0
 70
     1
  0
VERTEX
  5
173
  8
0
 10
1168.75204345
 20
-441.08348762
 30
0.0
  0
VERTEX
  5
174
  8
0
 10
1578.75204345
 20
-441.08348762
 30
0.0
  0
VERTEX
  5
175
  8
0
 10
1578.75204345
 20
-154.08348762
 30
0.0
  0
VERTEX
  5
176
  8
0
 10
1168.75204345
 20
-154.08348762
 30
0.0
  0
SEQEND
  5
177
  8
0
  0
LINE
  5
178
  8
0
 10
1393.75204345
 20
-441.08348762
 30
0.0
 11
1393.75204345
 21
-446.08348762
 31
0.0
  0
LINE
  5
179
  8
0
 10
1393.75204345
 20
-154.08348762
 30
0.0
 11
1393.75204345
 21
-149.08348762
 31
0.0
  0
LINE
  5
17A
  8
0
 10
1183.75204345
 20
-441.08348762
 30
0.0
 11
1183.75204345
 21
-446.08348762
 31
0.0
  0
LINE
  5
17B
  8
0
 10
1183.75204345
 20
-154.08348762
 30
0.0
 11
1183.75204345
 21
-149.08348762
 31
0.0
  0
TEXT
  5
17C
  8
TXT_ALL
 62
     4
 10
1582.75204345
 20
-445.08348762
 30
0.0
 40
2.5
  1

 50
90.00020741
  0
POLYLINE
  5
17D
  8
0
 66
     1
 10
0.0
 20
0.0
 30
0.0
  0
VERTEX
  5
17E
  8
0
 10
1578.75204345
 20
-164.08348762
 30
0.0
  0
VERTEX
  5
17F
  8
0
 10
1509.75874345
 20
-164.08348762
 30
0.0
  0
VERTEX
  5
180
  8
0
 10
1509.75874345
 20
-154.08348762
 30
0.0
  0
SEQEND
  5
181
  8
0
  0
LINE
  5
182
  8
0
 10
1511.66204345
 20
-421.58348762
 30
0.0
 11
1371.77204345
 21
-421.58348762
 31
0.0
  0
LINE
  5
183
  8
0
 10
1371.77204345
 20
-431.33348762
 30
0.0
 11
1511.66204345
 21
-431.33348762
 31
0.0
  0
POLYLINE
  5
184
  8
0
 66
     1
 10
0.0
 20
0.0
 30
0.0
  0
VERTEX
  5
185
  8
0
 10
1371.77204345
 20
-421.58348762
 30
0.0
  0
VERTEX
  5
186
  8
0
 10
1371.77204345
 20
-431.33348762
 30
0.0
  0
VERTEX
  5
187
  8
0
 10
1371.77204345
 20
-441.08348762
 30
0.0
  0
SEQEND
  5
188
  8
0
  0
POLYLINE
  5
189
  8
0
 66
     1
 10
0.0
 20
0.0
 30
0.0
  0
VERTEX
  5
18A
  8
0
 10
1441.71704345
 20
-421.58348762
 30
0.0
  0
VERTEX
  5
18B
  8
0
 10
1441.71704345
 20
-431.33348762
 30
0.0
  0
VERTEX
  5
18C
  8
0
 10
1441.71704345
 20
-441.08348762
 30
0.0
  0
SEQEND
  5
18D
  8
0
  0
TEXT
  5
18E
  8
TXT_ALL
 10
1373.77204345
 20
-427.75848757
 30
0.0
 40
2.5999999
  1
E-mail: verkoop@jonkers-bouwmetaal.nl
  7
ARIAL
  0
TEXT
  5
18F
  8
TXT_ALL
 10
1373.77204345
 20
-437.50848757
 30
0.0
 40
2.5999999
  1
Telefoon: 0527-685156
  7
ARIAL
  0
TEXT
  5
190
  8
TXT_ALL
 10
1443.71704345
 20
-437.50848757
 30
0.0
 40
2.5999999
  1
Website: www.jonkers-bouwmetaal.nl
  7
ARIAL
  0
TEXT
  5
191
  8
TXT_ALL
 10
1443.71704345
 20
-427.75848757
 30
0.0
 40
2.5999999
  1
Adres: Hoornse Hop 10, 8321 WX Urk
  7
ARIAL
  0
TEXT
  5
192
  8
TXT_ALL
 10
1172.1940037
 20
-160.33348762
 30
0.0
 40
2.5
  1
Art. nr. 91008146
  7
ARIAL
  0
TEXT
  5
193
  8
TXT_ALL
 10
1214.93204052
 20
-160.33348762
 30
0.0
 40
2.5
  1
Omschrijving: S02-anker 60x8 L=250
  7
ARIAL
  0
LINE
  5
194
  8
0
 10
1578.75204345
 20
-164.08348762
 30
0.0
 11
1168.75204345
 21
-164.08348762
 31
0.0
  0
LINE
  5
195
  8
0
 10
1211.77204345
 20
-164.08348762
 30
0.0
 11
1211.77204345
 21
-154.08348762
 31
0.0
  0
LINE
  5
196
  8
0
 10
1371.77204345
 20
-164.08348762
 30
0.0
 11
1371.77204345
 21
-154.08348762
 31
0.0
  0
TEXT
  5
197
  8
TXT_ALL
 10
1442.76574345
 20
-160.33348762
 30
0.0
 40
2.5
  1
Behandeling: Thermisch Verzinkt
  7
ARIAL
  0
LINE
  5
198
  8
0
 10
1511.66204345
 20
-421.58348762
 30
0.0
 11
1578.75204345
 21
-421.58348762
 31
0.0
  0
LINE
  5
199
  8
0
 10
1511.66204345
 20
-441.08348762
 30
0.0
 11
1511.66204345
 21
-421.58348762
 31
0.0
  0
LINE
  5
19A
  8
0
 10
1511.66204345
 20
-441.08348762
 30
0.0
 11
1511.66204345
 21
-421.58348762
 31
0.0
  0
TEXT
  5
19B
  8
TXT_ALL
 10
1306.11724154
 20
-439.92895421
 30
0.0
 40
2.5
  1

  0
TEXT
  5
19C
  8
TXT_ALL
 10
1427.2524245
 20
-429.83348762
 30
0.0
 40
2.5
  1

  0
POLYLINE
  5
19D
  8
0
 66
     1
 10
0.0
 20
0.0
 30
0.0
  0
VERTEX
  5
19E
  8
0
 10
1509.75874345
 20
-164.08348762
 30
0.0
  0
VERTEX
  5
19F
  8
0
 10
1440.76574345
 20
-164.08348762
 30
0.0
  0
VERTEX
  5
1A0
  8
0
 10
1440.76574345
 20
-154.08348762
 30
0.0
  0
SEQEND
  5
1A1
  8
0
  0
TEXT
  5
1A2
  8
TXT_ALL
 10
1511.75874345
 20
-160.33348762
 30
0.0
 40
2.5
  1
Verpakkingshoeveelheid: 1 st.
  7
ARIAL
  0
TEXT
  5
1A3
  8
TXT_ALL
 10
1373.77204345
 20
-160.33348762
 30
0.0
 40
2.5
  1
Materiaal: S355
  7
ARIAL
  0
TEXT
  5
1A4
  8
TXT_ALL
 10
1545.97259136
 20
-444.33299747
 30
0.0
 40
1.5
  1
Onderdeel van
  7
ARIAL
  0
POLYLINE
  5
1A5
  8
0
 66
     1
 10
0.0
 20
0.0
 30
0.0
  0
VERTEX
  5
31A
  8
0
 10
1377.50484886
 20
-366.0165068816239
 30
0.0
  0
VERTEX
  5
31B
  8
0
 10
1377.646576791549
 20
-366.4836618958987
 30
0.0
  0
VERTEX
  5
31C
  8
0
 10
1378.066021508461
 20
-366.9319000773024
 30
0.0
  0
VERTEX
  5
31D
  8
0
 10
1378.746198143809
 20
-367.3430706051073
 30
0.0
  0
VERTEX
  5
31E
  8
0
 10
1379.659563831583
 20
-367.7005236648881
 30
0.0
  0
VERTEX
  5
31F
  8
0
 10
1380.769133019135
 20
-367.9897846610484
 30
0.0
  0
VERTEX
  5
320
  8
0
 10
1382.029975148909
 20
-368.1991403466973
 30
0.0
  0
SEQEND
  5
3E8
  8
0
  0
POLYLINE
  5
1A6
  8
0
 66
     1
 10
0.0
 20
0.0
 30
0.0
  0
VERTEX
  5
321
  8
0
 10
1386.979722613064
 20
-363.8338734385908
 30
0.0
  0
VERTEX
  5
322
  8
0
 10
1385.676365356805
 20
-363.7160830608096
 30
0.0
  0
VERTEX
  5
323
  8
0
 10
1384.32940828995
 20
-363.683906537818
 30
0.0
  0
VERTEX
  5
324
  8
0
 10
1382.988980517088
 20
-363.7385413690212
 30
0.0
  0
VERTEX
  5
325
  8
0
 10
1381.704968144963
 20
-363.8779542341042
 30
0.0
  0
VERTEX
  5
326
  8
0
 10
1380.525157693338
 20
-364.0969566662134
 30
0.0
  0
VERTEX
  5
327
  8
0
 10
1379.493457645252
 20
-364.3873981488294
 30
0.0
  0
VERTEX
  5
328
  8
0
 10
1378.648264324452
 20
-364.7384694499307
 30
0.0
  0
VERTEX
  5
329
  8
0
 10
1378.021032916421
 20
-365.1371049043943
 30
0.0
  0
VERTEX
  5
32A
  8
0
 10
1377.63510681467
 20
-365.5684686730677
 30
0.0
  0
VERTEX
  5
32B
  8
0
 10
1377.50484886
 20
-366.0165068816239
 30
0.0
  0
SEQEND
  5
3E9
  8
0
  0
POLYLINE
  5
1A7
  8
0
 66
     1
 10
0.0
 20
0.0
 30
0.0
  0
VERTEX
  5
1A8
  8
0
 10
1386.9797226
 20
-363.83387341
 30
0.0
  0
VERTEX
  5
1A9
  8
0
 10
1411.30049561
 20
-366.8980028
 30
0.0
  0
SEQEND
  5
1AA
  8
0
  0
POLYLINE
  5
1AB
  8
0
 66
     1
 10
0.0
 20
0.0
 30
0.0
  0
VERTEX
  5
32C
  8
0
 10
1415.82562188
 20
-369.08063627
 30
0.0
  0
VERTEX
  5
32D
  8
0
 10
1415.683893945755
 20
-368.6134812597049
 30
0.0
  0
VERTEX
  5
32E
  8
0
 10
1415.264449230835
 20
-368.1652430821472
 30
0.0
  0
VERTEX
  5
32F
  8
0
 10
1414.584272601803
 20
-367.7540725575997
 30
0.0
  0
VERTEX
  5
330
  8
0
 10
1413.670906923961
 20
-367.3966195000814
 30
0.0
  0
VERTEX
  5
331
  8
0
 10
1412.561337748946
 20
-367.1073585048584
 30
0.0
  0
VERTEX
  5
332
  8
0
 10
1411.300495633064
 20
-366.8980028185908
 30
0.0
  0
SEQEND
  5
3EA
  8
0
  0
POLYLINE
  5
1AC
  8
0
 66
     1
 10
0.0
 20
0.0
 30
0.0
  0
VERTEX
  5
333
  8
0
 10
1406.350748168909
 20
-371.2632697266973
 30
0.0
  0
VERTEX
  5
334
  8
0
 10
1407.654105425487
 20
-371.3810601015835
 30
0.0
  0
VERTEX
  5
335
  8
0
 10
1409.00106249096
 20
-371.4132366218401
 30
0.0
  0
VERTEX
  5
336
  8
0
 10
1410.341490260937
 20
-371.3586017881673
 30
0.0
  0
VERTEX
  5
337
  8
0
 10
1411.625502628925
 20
-371.2191889209661
 30
0.0
  0
VERTEX
  5
338
  8
0
 10
1412.805313075455
 20
-371.0001864871538
 30
0.0
  0
VERTEX
  5
339
  8
0
 10
1413.837013117806
 20
-370.7097450032895
 30
0.0
  0
VERTEX
  5
33A
  8
0
 10
1414.682206432556
 20
-370.3586737014095
 30
0.0
  0
VERTEX
  5
33B
  8
0
 10
1415.309437834538
 20
-369.9600382466281
 30
0.0
  0
VERTEX
  5
33C
  8
0
 10
1415.695363930535
 20
-369.5286744780661
 30
0.0
  0
VERTEX
  5
33D
  8
0
 10
1415.82562188
 20
-369.08063627
 30
0.0
  0
SEQEND
  5
3EB
  8
0
  0
LINE
  5
1AD
  8
0
 10
1406.35074814
 20
-371.26326975
 30
0.0
 11
1382.02997513
 21
-368.19914036
 31
0.0
  0
POLYLINE
  5
1AE
  8
0
 66
     1
 10
0.0
 20
0.0
 30
0.0
  0
VERTEX
  5
33E
  8
0
 10
1320.44457371
 20
-358.8275879316238
 30
0.0
  0
VERTEX
  5
33F
  8
0
 10
1320.579076742581
 20
-359.2827986791171
 30
0.0
  0
VERTEX
  5
340
  8
0
 10
1320.977416974007
 20
-359.7205159331513
 30
0.0
  0
VERTEX
  5
341
  8
0
 10
1321.624286412539
 20
-360.1239184650904
 30
0.0
  0
VERTEX
  5
342
  8
0
 10
1322.494826228368
 20
-360.4775037418273
 30
0.0
  0
VERTEX
  5
343
  8
0
 10
1323.555582064498
 20
-360.767683679439
 30
0.0
  0
VERTEX
  5
344
  8
0
 10
1324.765789668935
 20
-360.9833068256324
 30
0.0
  0
VERTEX
  5
345
  8
0
 10
1326.078941442024
 20
-361.1160869038034
 30
0.0
  0
VERTEX
  5
346
  8
0
 10
1327.444573697436
 20
-361.16092125
 30
0.0
  0
VERTEX
  5
347
  8
0
 10
1328.81020595333
 20
-361.1160869054375
 30
0.0
  0
VERTEX
  5
348
  8
0
 10
1330.12335772785
 20
-360.9833068288378
 30
0.0
  0
VERTEX
  5
349
  8
0
 10
1331.333565334608
 20
-360.7676836840926
 30
0.0
  0
VERTEX
  5
34A
  8
0
 10
1332.394321173864
 20
-360.4775037477502
 30
0.0
  0
VERTEX
  5
34B
  8
0
 10
1333.2648609935
 20
-360.1239184720549
 30
0.0
  0
VERTEX
  5
34C
  8
0
 10
1333.911730436377
 20
-359.7205159408899
 30
0.0
  0
VERTEX
  5
34D
  8
0
 10
1334.310070672516
 20
-359.2827986873323
 30
0.0
  0
VERTEX
  5
34E
  8
0
 10
1334.44457371
 20
-358.82758794
 30
0.0
  0
SEQEND
  5
3EC
  8
0
  0
POLYLINE
  5
1AF
  8
0
 66
     1
 10
0.0
 20
0.0
 30
0.0
  0
VERTEX
  5
34F
  8
0
 10
1334.44457371
 20
-358.82758794
 30
0.0
  0
VERTEX
  5
350
  8
0
 10
1334.310070673129
 20
-358.3723771936946
 30
0.0
  0
VERTEX
  5
351
  8
0
 10
1333.911730438781
 20
-357.9346599410447
 30
0.0
  0
VERTEX
  5
352
  8
0
 10
1333.264860998735
 20
-357.5312574105567
 30
0.0
  0
VERTEX
  5
353
  8
0
 10
1332.394321182748
 20
-357.1776721352113
 30
0.0
  0
VERTEX
  5
354
  8
0
 10
1331.333565347667
 20
-356.8874921988159
 30
0.0
  0
VERTEX
  5
355
  8
0
 10
1330.123357745262
 20
-356.6718690535662
 30
0.0
  0
VERTEX
  5
356
  8
0
 10
1328.810205974895
 20
-356.5390889759924
 30
0.0
  0
VERTEX
  5
357
  8
0
 10
1327.444573722564
 20
-356.49425463
 30
0.0
  0
VERTEX
  5
358
  8
0
 10
1326.07894146975
 20
-356.5390889743583
 30
0.0
  0
VERTEX
  5
359
  8
0
 10
1324.765789697954
 20
-356.6718690503608
 30
0.0
  0
VERTEX
  5
35A
  8
0
 10
1323.555582093227
 20
-356.8874921941623
 30
0.0
  0
VERTEX
  5
35B
  8
0
 10
1322.494826255021
 20
-357.1776721292884
 30
0.0
  0
VERTEX
  5
35C
  8
0
 10
1321.624286435225
 20
-357.5312574035922
 30
0.0
  0
VERTEX
  5
35D
  8
0
 10
1320.977416990835
 20
-357.9346599333061
 30
0.0
  0
VERTEX
  5
35E
  8
0
 10
1320.579076751773
 20
-358.3723771854794
 30
0.0
  0
VERTEX
  5
35F
  8
0
 10
1320.44457371
 20
-358.8275879316238
 30
0.0
  0
SEQEND
  5
3ED
  8
0
  0
POLYLINE
  5
1B0
  8
0
 66
     1
 10
0.0
 20
0.0
 30
0.0
  0
VERTEX
  5
360
  8
0
 10
1242.8150005
 20
-342.2549467552136
 30
0.0
  0
VERTEX
  5
361
  8
0
 10
1242.891859375761
 20
-342.5150671823526
 30
0.0
  0
VERTEX
  5
362
  8
0
 10
1243.119482365147
 20
-342.765191327515
 30
0.0
  0
VERTEX
  5
363
  8
0
 10
1243.489122044308
 20
-342.9957070600516
 30
0.0
  0
VERTEX
  5
364
  8
0
 10
1243.986573367639
 20
-343.1977557896156
 30
0.0
  0
VERTEX
  5
365
  8
0
 10
1244.592719559713
 20
-343.3635728968223
 30
0.0
  0
VERTEX
  5
366
  8
0
 10
1245.284266762248
 20
-343.4867861232185
 30
0.0
  0
VERTEX
  5
367
  8
0
 10
1246.034639204014
 20
-343.5626604536019
 30
0.0
  0
VERTEX
  5
368
  8
0
 10
1246.81500049282
 20
-343.58828008
 30
0.0
  0
VERTEX
  5
369
  8
0
 10
1247.595361781903
 20
-343.5626604545357
 30
0.0
  0
VERTEX
  5
36A
  8
0
 10
1248.345734224486
 20
-343.4867861250502
 30
0.0
  0
VERTEX
  5
36B
  8
0
 10
1249.037281428347
 20
-343.3635728994814
 30
0.0
  0
VERTEX
  5
36C
  8
0
 10
1249.643427622208
 20
-343.1977557930001
 30
0.0
  0
VERTEX
  5
36D
  8
0
 10
1250.140878947714
 20
-342.9957070640314
 30
0.0
  0
VERTEX
  5
36E
  8
0
 10
1250.510518629358
 20
-342.7651913319371
 30
0.0
  0
VERTEX
  5
36F
  8
0
 10
1250.738141621438
 20
-342.515067187047
 30
0.0
  0
VERTEX
  5
370
  8
0
 10
1250.8150005
 20
-342.25494676
 30
0.0
  0
SEQEND
  5
3EE
  8
0
  0
POLYLINE
  5
1B1
  8
0
 66
     1
 10
0.0
 20
0.0
 30
0.0
  0
VERTEX
  5
371
  8
0
 10
1250.8150005
 20
-342.25494676
 30
0.0
  0
VERTEX
  5
372
  8
0
 10
1250.738141621788
 20
-341.9948263335398
 30
0.0
  0
VERTEX
  5
373
  8
0
 10
1250.510518630732
 20
-341.7447021891684
 30
0.0
  0
VERTEX
  5
374
  8
0
 10
1250.140878950706
 20
-341.514186457461
 30
0.0
  0
VERTEX
  5
375
  8
0
 10
1249.643427627285
 20
-341.3121377286922
 30
0.0
  0
VERTEX
  5
376
  8
0
 10
1249.03728143581
 20
-341.1463206221805
 30
0.0
  0
VERTEX
  5
377
  8
0
 10
1248.345734234435
 20
-341.0231073963236
 30
0.0
  0
VERTEX
  5
378
  8
0
 10
1247.595361794226
 20
-340.9472330662813
 30
0.0
  0
VERTEX
  5
379
  8
0
 10
1246.81500050718
 20
-340.92161344
 30
0.0
  0
VERTEX
  5
37A
  8
0
 10
1246.034639219857
 20
-340.9472330653476
 30
0.0
  0
VERTEX
  5
37B
  8
0
 10
1245.284266778831
 20
-341.0231073944919
 30
0.0
  0
VERTEX
  5
37C
  8
0
 10
1244.59271957613
 20
-341.1463206195214
 30
0.0
  0
VERTEX
  5
37D
  8
0
 10
1243.986573382869
 20
-341.3121377253077
 30
0.0
  0
VERTEX
  5
37E
  8
0
 10
1243.489122057272
 20
-341.5141864534813
 30
0.0
  0
VERTEX
  5
37F
  8
0
 10
1243.119482374763
 20
-341.7447021847464
 30
0.0
  0
VERTEX
  5
380
  8
0
 10
1242.891859381013
 20
-341.9948263288454
 30
0.0
  0
VERTEX
  5
381
  8
0
 10
1242.8150005
 20
-342.2549467552136
 30
0.0
  0
SEQEND
  5
3EF
  8
0
  0
POLYLINE
  5
1B2
  8
0
 66
     1
 10
0.0
 20
0.0
 30
0.0
  0
VERTEX
  5
382
  8
0
 10
1230.08707844
 20
-353.4799189152136
 30
0.0
  0
VERTEX
  5
383
  8
0
 10
1230.163937315761
 20
-353.7400393423526
 30
0.0
  0
VERTEX
  5
384
  8
0
 10
1230.391560305147
 20
-353.990163487515
 30
0.0
  0
VERTEX
  5
385
  8
0
 10
1230.761199984308
 20
-354.2206792200516
 30
0.0
  0
VERTEX
  5
386
  8
0
 10
1231.258651307639
 20
-354.4227279496156
 30
0.0
  0
VERTEX
  5
387
  8
0
 10
1231.864797499713
 20
-354.5885450568223
 30
0.0
  0
VERTEX
  5
388
  8
0
 10
1232.556344702248
 20
-354.7117582832185
 30
0.0
  0
VERTEX
  5
389
  8
0
 10
1233.306717144014
 20
-354.7876326136019
 30
0.0
  0
VERTEX
  5
38A
  8
0
 10
1234.08707843282
 20
-354.81325224
 30
0.0
  0
VERTEX
  5
38B
  8
0
 10
1234.867439721903
 20
-354.7876326145357
 30
0.0
  0
VERTEX
  5
38C
  8
0
 10
1235.617812164485
 20
-354.7117582850502
 30
0.0
  0
VERTEX
  5
38D
  8
0
 10
1236.309359368347
 20
-354.5885450594814
 30
0.0
  0
VERTEX
  5
38E
  8
0
 10
1236.915505562208
 20
-354.4227279530001
 30
0.0
  0
VERTEX
  5
38F
  8
0
 10
1237.412956887714
 20
-354.2206792240314
 30
0.0
  0
VERTEX
  5
390
  8
0
 10
1237.782596569358
 20
-353.9901634919371
 30
0.0
  0
VERTEX
  5
391
  8
0
 10
1238.010219561438
 20
-353.740039347047
 30
0.0
  0
VERTEX
  5
392
  8
0
 10
1238.08707844
 20
-353.47991892
 30
0.0
  0
SEQEND
  5
3F0
  8
0
  0
POLYLINE
  5
1B3
  8
0
 66
     1
 10
0.0
 20
0.0
 30
0.0
  0
VERTEX
  5
393
  8
0
 10
1238.08707844
 20
-353.47991892
 30
0.0
  0
VERTEX
  5
394
  8
0
 10
1238.010219561788
 20
-353.2197984935398
 30
0.0
  0
VERTEX
  5
395
  8
0
 10
1237.782596570732
 20
-352.9696743491684
 30
0.0
  0
VERTEX
  5
396
  8
0
 10
1237.412956890706
 20
-352.739158617461
 30
0.0
  0
VERTEX
  5
397
  8
0
 10
1236.915505567285
 20
-352.5371098886922
 30
0.0
  0
VERTEX
  5
398
  8
0
 10
1236.309359375809
 20
-352.3712927821805
 30
0.0
  0
VERTEX
  5
399
  8
0
 10
1235.617812174435
 20
-352.2480795563235
 30
0.0
  0
VERTEX
  5
39A
  8
0
 10
1234.867439734226
 20
-352.1722052262813
 30
0.0
  0
VERTEX
  5
39B
  8
0
 10
1234.087078447179
 20
-352.1465856
 30
0.0
  0
VERTEX
  5
39C
  8
0
 10
1233.306717159857
 20
-352.1722052253476
 30
0.0
  0
VERTEX
  5
39D
  8
0
 10
1232.556344718831
 20
-352.2480795544919
 30
0.0
  0
VERTEX
  5
39E
  8
0
 10
1231.86479751613
 20
-352.3712927795214
 30
0.0
  0
VERTEX
  5
39F
  8
0
 10
1231.258651322869
 20
-352.5371098853076
 30
0.0
  0
VERTEX
  5
3A0
  8
0
 10
1230.761199997271
 20
-352.7391586134813
 30
0.0
  0
VERTEX
  5
3A1
  8
0
 10
1230.391560314763
 20
-352.9696743447464
 30
0.0
  0
VERTEX
  5
3A2
  8
0
 10
1230.163937321013
 20
-353.2197984888454
 30
0.0
  0
VERTEX
  5
3A3
  8
0
 10
1230.08707844
 20
-353.4799189152136
 30
0.0
  0
SEQEND
  5
3F1
  8
0
  0
POLYLINE
  5
1B4
  8
0
 66
     1
 10
0.0
 20
0.0
 30
0.0
  0
VERTEX
  5
3A4
  8
0
 10
1196.41216196
 20
-349.2372782252136
 30
0.0
  0
VERTEX
  5
3A5
  8
0
 10
1196.489020835761
 20
-349.4973986523526
 30
0.0
  0
VERTEX
  5
3A6
  8
0
 10
1196.716643825147
 20
-349.747522797515
 30
0.0
  0
VERTEX
  5
3A7
  8
0
 10
1197.086283504308
 20
-349.9780385300517
 30
0.0
  0
VERTEX
  5
3A8
  8
0
 10
1197.583734827639
 20
-350.1800872596156
 30
0.0
  0
VERTEX
  5
3A9
  8
0
 10
1198.189881019714
 20
-350.3459043668223
 30
0.0
  0
VERTEX
  5
3AA
  8
0
 10
1198.881428222248
 20
-350.4691175932185
 30
0.0
  0
VERTEX
  5
3AB
  8
0
 10
1199.631800664014
 20
-350.5449919236019
 30
0.0
  0
VERTEX
  5
3AC
  8
0
 10
1200.41216195282
 20
-350.57061155
 30
0.0
  0
VERTEX
  5
3AD
  8
0
 10
1201.192523241903
 20
-350.5449919245357
 30
0.0
  0
VERTEX
  5
3AE
  8
0
 10
1201.942895684486
 20
-350.4691175950502
 30
0.0
  0
VERTEX
  5
3AF
  8
0
 10
1202.634442888347
 20
-350.3459043694814
 30
0.0
  0
VERTEX
  5
3B0
  8
0
 10
1203.240589082208
 20
-350.1800872630001
 30
0.0
  0
VERTEX
  5
3B1
  8
0
 10
1203.738040407714
 20
-349.9780385340314
 30
0.0
  0
VERTEX
  5
3B2
  8
0
 10
1204.107680089358
 20
-349.7475228019371
 30
0.0
  0
VERTEX
  5
3B3
  8
0
 10
1204.335303081438
 20
-349.497398657047
 30
0.0
  0
VERTEX
  5
3B4
  8
0
 10
1204.41216196
 20
-349.23727823
 30
0.0
  0
SEQEND
  5
3F2
  8
0
  0
POLYLINE
  5
1B5
  8
0
 66
     1
 10
0.0
 20
0.0
 30
0.0
  0
VERTEX
  5
3B5
  8
0
 10
1204.41216196
 20
-349.23727823
 30
0.0
  0
VERTEX
  5
3B6
  8
0
 10
1204.335303081788
 20
-348.9771578035398
 30
0.0
  0
VERTEX
  5
3B7
  8
0
 10
1204.107680090732
 20
-348.7270336591685
 30
0.0
  0
VERTEX
  5
3B8
  8
0
 10
1203.738040410706
 20
-348.496517927461
 30
0.0
  0
VERTEX
  5
3B9
  8
0
 10
1203.240589087285
 20
-348.2944691986922
 30
0.0
  0
VERTEX
  5
3BA
  8
0
 10
1202.63444289581
 20
-348.1286520921805
 30
0.0
  0
VERTEX
  5
3BB
  8
0
 10
1201.942895694435
 20
-348.0054388663236
 30
0.0
  0
VERTEX
  5
3BC
  8
0
 10
1201.192523254226
 20
-347.9295645362814
 30
0.0
  0
VERTEX
  5
3BD
  8
0
 10
1200.41216196718
 20
-347.90394491
 30
0.0
  0
VERTEX
  5
3BE
  8
0
 10
1199.631800679857
 20
-347.9295645353476
 30
0.0
  0
VERTEX
  5
3BF
  8
0
 10
1198.881428238831
 20
-348.0054388644919
 30
0.0
  0
VERTEX
  5
3C0
  8
0
 10
1198.18988103613
 20
-348.1286520895214
 30
0.0
  0
VERTEX
  5
3C1
  8
0
 10
1197.583734842869
 20
-348.2944691953077
 30
0.0
  0
VERTEX
  5
3C2
  8
0
 10
1197.086283517272
 20
-348.4965179234813
 30
0.0
  0
VERTEX
  5
3C3
  8
0
 10
1196.716643834763
 20
-348.7270336547464
 30
0.0
  0
VERTEX
  5
3C4
  8
0
 10
1196.489020841013
 20
-348.9771577988454
 30
0.0
  0
VERTEX
  5
3C5
  8
0
 10
1196.41216196
 20
-349.2372782252136
 30
0.0
  0
SEQEND
  5
3F3
  8
0
  0
POLYLINE
  5
1B6
  8
0
 66
     1
 10
0.0
 20
0.0
 30
0.0
  0
VERTEX
  5
3C6
  8
0
 10
1209.14008402
 20
-338.0123060652136
 30
0.0
  0
VERTEX
  5
3C7
  8
0
 10
1209.216942895761
 20
-338.2724264923526
 30
0.0
  0
VERTEX
  5
3C8
  8
0
 10
1209.444565885147
 20
-338.5225506375151
 30
0.0
  0
VERTEX
  5
3C9
  8
0
 10
1209.814205564308
 20
-338.7530663700517
 30
0.0
  0
VERTEX
  5
3CA
  8
0
 10
1210.311656887639
 20
-338.9551150996156
 30
0.0
  0
VERTEX
  5
3CB
  8
0
 10
1210.917803079713
 20
-339.1209322068223
 30
0.0
  0
VERTEX
  5
3CC
  8
0
 10
1211.609350282248
 20
-339.2441454332185
 30
0.0
  0
VERTEX
  5
3CD
  8
0
 10
1212.359722724014
 20
-339.3200197636019
 30
0.0
  0
VERTEX
  5
3CE
  8
0
 10
1213.14008401282
 20
-339.34563939
 30
0.0
  0
VERTEX
  5
3CF
  8
0
 10
1213.920445301903
 20
-339.3200197645357
 30
0.0
  0
VERTEX
  5
3D0
  8
0
 10
1214.670817744485
 20
-339.2441454350502
 30
0.0
  0
VERTEX
  5
3D1
  8
0
 10
1215.362364948347
 20
-339.1209322094815
 30
0.0
  0
VERTEX
  5
3D2
  8
0
 10
1215.968511142208
 20
-338.9551151030001
 30
0.0
  0
VERTEX
  5
3D3
  8
0
 10
1216.465962467714
 20
-338.7530663740314
 30
0.0
  0
VERTEX
  5
3D4
  8
0
 10
1216.835602149358
 20
-338.5225506419371
 30
0.0
  0
VERTEX
  5
3D5
  8
0
 10
1217.063225141438
 20
-338.272426497047
 30
0.0
  0
VERTEX
  5
3D6
  8
0
 10
1217.14008402
 20
-338.01230607
 30
0.0
  0
SEQEND
  5
3F4
  8
0
  0
POLYLINE
  5
1B7
  8
0
 66
     1
 10
0.0
 20
0.0
 30
0.0
  0
VERTEX
  5
3D7
  8
0
 10
1217.14008402
 20
-338.01230607
 30
0.0
  0
VERTEX
  5
3D8
  8
0
 10
1217.063225141788
 20
-337.7521856435398
 30
0.0
  0
VERTEX
  5
3D9
  8
0
 10
1216.835602150732
 20
-337.5020614991685
 30
0.0
  0
VERTEX
  5
3DA
  8
0
 10
1216.465962470706
 20
-337.271545767461
 30
0.0
  0
VERTEX
  5
3DB
  8
0
 10
1215.968511147285
 20
-337.0694970386922
 30
0.0
  0
VERTEX
  5
3DC
  8
0
 10
1215.362364955809
 20
-336.9036799321805
 30
0.0
  0
VERTEX
  5
3DD
  8
0
 10
1214.670817754435
 20
-336.7804667063236
 30
0.0
  0
VERTEX
  5
3DE
  8
0
 10
1213.920445314226
 20
-336.7045923762814
 30
0.0
  0
VERTEX
  5
3DF
  8
0
 10
1213.140084027179
 20
-336.67897275
 30
0.0
  0
VERTEX
  5
3E0
  8
0
 10
1212.359722739857
 20
-336.7045923753476
 30
0.0
  0
VERTEX
  5
3E1
  8
0
 10
1211.609350298831
 20
-336.7804667044919
 30
0.0
  0
VERTEX
  5
3E2
  8
0
 10
1210.91780309613
 20
-336.9036799295214
 30
0.0
  0
VERTEX
  5
3E3
  8
0
 10
1210.311656902869
 20
-337.0694970353077
 30
0.0
  0
VERTEX
  5
3E4
  8
0
 10
1209.814205577271
 20
-337.2715457634813
 30
0.0
  0
VERTEX
  5
3E5
  8
0
 10
1209.444565894763
 20
-337.5020614947464
 30
0.0
  0
VERTEX
  5
3E6
  8
0
 10
1209.216942901013
 20
-337.7521856388454
 30
0.0
  0
VERTEX
  5
3E7
  8
0
 10
1209.14008402
 20
-338.0123060652136
 30
0.0
  0
SEQEND
  5
3F5
  8
0
  0
POLYLINE
  5
1B8
  8
0
 66
     1
 10
0.0
 20
0.0
 30
0.0
  0
VERTEX
  5
1B9
  8
0
 10
1440.01133922
 20
-369.86169
 30
0.0
  0
VERTEX
  5
1BA
  8
0
 10
1418.79813578
 20
-388.56997694
 30
0.0
  0
VERTEX
  5
1BB
  8
0
 10
1418.79813578
 20
-381.0275046
 30
0.0
  0
SEQEND
  5
1BC
  8
0
  0
LINE
  5
1BD
  8
0
 10
1440.01133922
 20
-362.31921767
 30
0.0
 11
1418.79813578
 21
-381.0275046
 31
0.0
  0
POLYLINE
  5
1BE
  8
0
 66
     1
 10
0.0
 20
0.0
 30
0.0
  0
VERTEX
  5
1BF
  8
0
 10
1440.01133922
 20
-369.86169
 30
0.0
  0
VERTEX
  5
1C0
  8
0
 10
1440.01133922
 20
-362.31921767
 30
0.0
  0
VERTEX
  5
1C1
  8
0
 10
1206.15775255
 20
-332.85643512
 30
0.0
  0
VERTEX
  5
1C2
  8
0
 10
1184.94454911
 20
-351.56472205
 30
0.0
  0
VERTEX
  5
1C3
  8
0
 10
1418.79813578
 20
-381.0275046
 30
0.0
  0
SEQEND
  5
1C4
  8
0
  0
LINE
  5
1C5
  8
0
 10
1184.94454911
 20
-359.10719439
 30
0.0
 11
1184.94454911
 21
-351.56472205
 31
0.0
  0
LINE
  5
1C6
  8
0
 10
1184.94454911
 20
-359.10719439
 30
0.0
 11
1418.79813578
 21
-388.56997694
 31
0.0
  0
LINE
  5
1C7
  8
0
  6
STRICHPUNKT2
 62
     1
 10
1213.14008402
 20
-336.12668799
 30
0.0
 11
1213.14008402
 21
-347.44039648
 31
0.0
  0
LINE
  5
1C8
  8
0
  6
STRICHPUNKT2
 62
     1
 10
1213.14008402
 20
-338.01230607
 30
0.0
 11
1218.7525701
 21
-338.71941285
 31
0.0
  0
LINE
  5
1C9
  8
0
  6
STRICHPUNKT2
 62
     1
 10
1213.14008402
 20
-338.01230607
 30
0.0
 11
1207.52759794
 21
-337.30519929
 31
0.0
  0
LINE
  5
1CA
  8
0
  6
STRICHPUNKT2
 62
     1
 10
1213.14008402
 20
-338.01230607
 30
0.0
 11
1215.26140436
 21
-336.14147738
 31
0.0
  0
LINE
  5
1CB
  8
0
  6
STRICHPUNKT2
 62
     1
 10
1213.14008402
 20
-338.01230607
 30
0.0
 11
1211.01876368
 21
-339.88313476
 31
0.0
  0
LINE
  5
1CC
  8
0
  6
STRICHPUNKT2
 62
     1
 10
1213.14008402
 20
-345.5547784
 30
0.0
 11
1218.7525701
 21
-346.26188518
 31
0.0
  0
LINE
  5
1CD
  8
0
  6
STRICHPUNKT2
 62
     1
 10
1213.14008402
 20
-345.5547784
 30
0.0
 11
1207.52759794
 21
-344.84767162
 31
0.0
  0
LINE
  5
1CE
  8
0
  6
STRICHPUNKT2
 62
     1
 10
1213.14008402
 20
-345.5547784
 30
0.0
 11
1215.26140436
 21
-343.68394971
 31
0.0
  0
LINE
  5
1CF
  8
0
  6
STRICHPUNKT2
 62
     1
 10
1213.14008402
 20
-345.5547784
 30
0.0
 11
1211.01876368
 21
-347.42560709
 31
0.0
  0
LINE
  5
1D0
  8
0
  6
STRICHPUNKT2
 62
     1
 10
1200.41216196
 20
-347.35166015
 30
0.0
 11
1200.41216196
 21
-358.66536864
 31
0.0
  0
LINE
  5
1D1
  8
0
  6
STRICHPUNKT2
 62
     1
 10
1200.41216196
 20
-349.23727823
 30
0.0
 11
1206.02464804
 21
-349.94438501
 31
0.0
  0
LINE
  5
1D2
  8
0
  6
STRICHPUNKT2
 62
     1
 10
1200.41216196
 20
-349.23727823
 30
0.0
 11
1194.79967588
 21
-348.53017145
 31
0.0
  0
LINE
  5
1D3
  8
0
  6
STRICHPUNKT2
 62
     1
 10
1200.41216196
 20
-349.23727823
 30
0.0
 11
1202.5334823
 21
-347.36644954
 31
0.0
  0
LINE
  5
1D4
  8
0
  6
STRICHPUNKT2
 62
     1
 10
1200.41216196
 20
-349.23727823
 30
0.0
 11
1198.29084162
 21
-351.10810692
 31
0.0
  0
LINE
  5
1D5
  8
0
  6
STRICHPUNKT2
 62
     1
 10
1200.41216196
 20
-356.77975056
 30
0.0
 11
1206.02464804
 21
-357.48685734
 31
0.0
  0
LINE
  5
1D6
  8
0
  6
STRICHPUNKT2
 62
     1
 10
1200.41216196
 20
-356.77975056
 30
0.0
 11
1194.79967588
 21
-356.07264378
 31
0.0
  0
LINE
  5
1D7
  8
0
  6
STRICHPUNKT2
 62
     1
 10
1200.41216196
 20
-356.77975056
 30
0.0
 11
1202.5334823
 21
-354.90892187
 31
0.0
  0
LINE
  5
1D8
  8
0
  6
STRICHPUNKT2
 62
     1
 10
1200.41216196
 20
-356.77975056
 30
0.0
 11
1198.29084162
 21
-358.65057926
 31
0.0
  0
LINE
  5
1D9
  8
0
  6
STRICHPUNKT2
 62
     1
 10
1234.08707844
 20
-351.59430083
 30
0.0
 11
1234.08707844
 21
-362.90800933
 31
0.0
  0
LINE
  5
1DA
  8
0
  6
STRICHPUNKT2
 62
     1
 10
1234.08707844
 20
-353.47991892
 30
0.0
 11
1239.69956452
 21
-354.1870257
 31
0.0
  0
LINE
  5
1DB
  8
0
  6
STRICHPUNKT2
 62
     1
 10
1234.08707844
 20
-353.47991892
 30
0.0
 11
1228.47459236
 21
-352.77281213
 31
0.0
  0
LINE
  5
1DC
  8
0
  6
STRICHPUNKT2
 62
     1
 10
1234.08707844
 20
-353.47991892
 30
0.0
 11
1236.20839878
 21
-351.60909022
 31
0.0
  0
LINE
  5
1DD
  8
0
  6
STRICHPUNKT2
 62
     1
 10
1234.08707844
 20
-353.47991892
 30
0.0
 11
1231.9657581
 21
-355.35074761
 31
0.0
  0
LINE
  5
1DE
  8
0
  6
STRICHPUNKT2
 62
     1
 10
1234.08707844
 20
-361.02239125
 30
0.0
 11
1239.69956452
 21
-361.72949803
 31
0.0
  0
LINE
  5
1DF
  8
0
  6
STRICHPUNKT2
 62
     1
 10
1234.08707844
 20
-361.02239125
 30
0.0
 11
1228.47459236
 21
-360.31528447
 31
0.0
  0
LINE
  5
1E0
  8
0
  6
STRICHPUNKT2
 62
     1
 10
1234.08707844
 20
-361.02239125
 30
0.0
 11
1236.20839878
 21
-359.15156256
 31
0.0
  0
LINE
  5
1E1
  8
0
  6
STRICHPUNKT2
 62
     1
 10
1234.08707844
 20
-361.02239125
 30
0.0
 11
1231.9657581
 21
-362.89321994
 31
0.0
  0
LINE
  5
1E2
  8
0
  6
STRICHPUNKT2
 62
     1
 10
1246.8150005
 20
-340.36932867
 30
0.0
 11
1246.8150005
 21
-351.68303717
 31
0.0
  0
LINE
  5
1E3
  8
0
  6
STRICHPUNKT2
 62
     1
 10
1246.8150005
 20
-342.25494676
 30
0.0
 11
1252.42748658
 21
-342.96205354
 31
0.0
  0
LINE
  5
1E4
  8
0
  6
STRICHPUNKT2
 62
     1
 10
1246.8150005
 20
-342.25494676
 30
0.0
 11
1241.20251442
 21
-341.54783997
 31
0.0
  0
LINE
  5
1E5
  8
0
  6
STRICHPUNKT2
 62
     1
 10
1246.8150005
 20
-342.25494676
 30
0.0
 11
1248.93632084
 21
-340.38411806
 31
0.0
  0
LINE
  5
1E6
  8
0
  6
STRICHPUNKT2
 62
     1
 10
1246.8150005
 20
-342.25494676
 30
0.0
 11
1244.69368016
 21
-344.12577545
 31
0.0
  0
LINE
  5
1E7
  8
0
  6
STRICHPUNKT2
 62
     1
 10
1246.8150005
 20
-349.79741909
 30
0.0
 11
1252.42748658
 21
-350.50452587
 31
0.0
  0
LINE
  5
1E8
  8
0
  6
STRICHPUNKT2
 62
     1
 10
1246.8150005
 20
-349.79741909
 30
0.0
 11
1241.20251442
 21
-349.09031231
 31
0.0
  0
LINE
  5
1E9
  8
0
  6
STRICHPUNKT2
 62
     1
 10
1246.8150005
 20
-349.79741909
 30
0.0
 11
1248.93632084
 21
-347.9265904
 31
0.0
  0
LINE
  5
1EA
  8
0
  6
STRICHPUNKT2
 62
     1
 10
1246.8150005
 20
-349.79741909
 30
0.0
 11
1244.69368016
 21
-351.66824778
 31
0.0
  0
LINE
  5
1EB
  8
0
  6
STRICHPUNKT2
 62
     1
 10
1327.44457371
 20
-355.5277563
 30
0.0
 11
1327.44457371
 21
-369.66989192
 31
0.0
  0
LINE
  5
1EC
  8
0
  6
STRICHPUNKT2
 62
     1
 10
1327.44457371
 20
-358.82758794
 30
0.0
 11
1337.26642435
 21
-360.06502481
 31
0.0
  0
LINE
  5
1ED
  8
0
  6
STRICHPUNKT2
 62
     1
 10
1327.44457371
 20
-358.82758794
 30
0.0
 11
1317.62272307
 21
-357.59015108
 31
0.0
  0
LINE
  5
1EE
  8
0
  6
STRICHPUNKT2
 62
     1
 10
1327.44457371
 20
-358.82758794
 30
0.0
 11
1331.15688431
 21
-355.55363773
 31
0.0
  0
LINE
  5
1EF
  8
0
  6
STRICHPUNKT2
 62
     1
 10
1327.44457371
 20
-358.82758794
 30
0.0
 11
1323.73226311
 21
-362.10153816
 31
0.0
  0
LINE
  5
1F0
  8
0
  6
STRICHPUNKT2
 62
     1
 10
1327.44457371
 20
-366.37006028
 30
0.0
 11
1337.26642435
 21
-367.60749714
 31
0.0
  0
LINE
  5
1F1
  8
0
  6
STRICHPUNKT2
 62
     1
 10
1327.44457371
 20
-366.37006028
 30
0.0
 11
1317.62272307
 21
-365.13262341
 31
0.0
  0
LINE
  5
1F2
  8
0
  6
STRICHPUNKT2
 62
     1
 10
1327.44457371
 20
-366.37006028
 30
0.0
 11
1331.15688431
 21
-363.09611006
 31
0.0
  0
LINE
  5
1F3
  8
0
  6
STRICHPUNKT2
 62
     1
 10
1327.44457371
 20
-366.37006028
 30
0.0
 11
1323.73226311
 21
-369.64401049
 31
0.0
  0
LINE
  5
1F4
  8
0
  6
STRICHPUNKT2
 62
     1
 10
1384.50484886
 20
-362.71667524
 30
0.0
 11
1384.50484886
 21
-376.85881086
 31
0.0
  0
LINE
  5
1F5
  8
0
  6
STRICHPUNKT2
 62
     1
 10
1408.82562188
 20
-365.78080463
 30
0.0
 11
1408.82562188
 21
-379.92294025
 31
0.0
  0
LINE
  5
1F6
  8
0
  6
STRICHPUNKT2
 62
     1
 10
1374.68299822
 20
-364.77907002
 30
0.0
 11
1418.64747252
 21
-370.31807314
 31
0.0
  0
LINE
  5
1F7
  8
0
  6
STRICHPUNKT2
 62
     1
 10
1380.79253826
 20
-369.2904571
 30
0.0
 11
1388.21715946
 21
-362.74255667
 31
0.0
  0
LINE
  5
1F8
  8
0
  6
STRICHPUNKT2
 62
     1
 10
1405.11331127
 20
-372.35458648
 30
0.0
 11
1412.53793248
 21
-365.80668606
 31
0.0
  0
LINE
  5
1F9
  8
0
  6
STRICHPUNKT2
 62
     1
 10
1374.68299822
 20
-372.32154235
 30
0.0
 11
1418.64747252
 21
-377.86054547
 31
0.0
  0
LINE
  5
1FA
  8
0
  6
STRICHPUNKT2
 62
     1
 10
1380.79253826
 20
-376.83292943
 30
0.0
 11
1388.21715946
 21
-370.28502901
 31
0.0
  0
LINE
  5
1FB
  8
0
  6
STRICHPUNKT2
 62
     1
 10
1405.11331127
 20
-379.89705882
 30
0.0
 11
1412.53793248
 21
-373.34915839
 31
0.0
  0
POLYLINE
  5
1FC
  8
0
 66
     1
 10
0.0
 20
0.0
 30
0.0
 70
     1
  0
VERTEX
  5
1FD
  8
0
 10
1509.49274768
 20
-263.43488349
 30
0.0
 42
-1.0
  0
VERTEX
  5
1FE
  8
0
 10
1509.49274768
 20
-249.43488349
 30
0.0
  0
VERTEX
  5
1FF
  8
0
 10
1535.49274768
 20
-249.43488349
 30
0.0
 42
-1.0
  0
VERTEX
  5
200
  8
0
 10
1535.49274768
 20
-263.43488349
 30
0.0
  0
SEQEND
  5
201
  8
0
  0
CIRCLE
  5
202
  8
0
 10
1448.49274768
 20
-256.43488349
 30
0.0
 40
7.0
  0
CIRCLE
  5
203
  8
0
 10
1355.49274768
 20
-238.43488349
 30
0.0
 40
4.0
  0
CIRCLE
  5
204
  8
0
 10
1355.49274768
 20
-274.43488349
 30
0.0
 40
4.0
  0
CIRCLE
  5
205
  8
0
 10
1319.49274768
 20
-274.43488349
 30
0.0
 40
4.0
  0
CIRCLE
  5
206
  8
0
 10
1319.49274768
 20
-238.43488349
 30
0.0
 40
4.0
  0
LINE
  5
207
  8
0
 10
1557.49274768
 20
-226.43488349
 30
0.0
 11
1557.49274768
 21
-286.43488349
 31
0.0
  0
LINE
  5
208
  8
0
 10
1307.49274768
 20
-286.43488349
 30
0.0
 11
1557.49274768
 21
-286.43488349
 31
0.0
  0
LINE
  5
209
  8
0
 10
1307.49274768
 20
-226.43488349
 30
0.0
 11
1307.49274768
 21
-286.43488349
 31
0.0
  0
LINE
  5
20A
  8
0
 10
1557.49274768
 20
-226.43488349
 30
0.0
 11
1307.49274768
 21
-226.43488349
 31
0.0
  0
LINE
  5
20B
  8
0
  6
STRICHPUNKT2
 62
     1
 10
1319.49274768
 20
-238.43488349
 30
0.0
 11
1325.49274768
 21
-238.43488349
 31
0.0
  0
LINE
  5
20C
  8
0
  6
STRICHPUNKT2
 62
     1
 10
1319.49274768
 20
-238.43488349
 30
0.0
 11
1313.49274768
 21
-238.43488349
 31
0.0
  0
LINE
  5
20D
  8
0
  6
STRICHPUNKT2
 62
     1
 10
1319.49274768
 20
-238.43488349
 30
0.0
 11
1319.49274768
 21
-232.43488349
 31
0.0
  0
LINE
  5
20E
  8
0
  6
STRICHPUNKT2
 62
     1
 10
1319.49274768
 20
-238.43488349
 30
0.0
 11
1319.49274768
 21
-244.43488349
 31
0.0
  0
LINE
  5
20F
  8
0
  6
STRICHPUNKT2
 62
     1
 10
1319.49274768
 20
-238.43488349
 30
0.0
 11
1325.49274768
 21
-238.43488349
 31
0.0
  0
LINE
  5
210
  8
0
  6
STRICHPUNKT2
 62
     1
 10
1319.49274768
 20
-238.43488349
 30
0.0
 11
1313.49274768
 21
-238.43488349
 31
0.0
  0
LINE
  5
211
  8
0
  6
STRICHPUNKT2
 62
     1
 10
1319.49274768
 20
-238.43488349
 30
0.0
 11
1319.49274768
 21
-232.43488349
 31
0.0
  0
LINE
  5
212
  8
0
  6
STRICHPUNKT2
 62
     1
 10
1319.49274768
 20
-238.43488349
 30
0.0
 11
1319.49274768
 21
-244.43488349
 31
0.0
  0
LINE
  5
213
  8
0
  6
STRICHPUNKT2
 62
     1
 10
1319.49274768
 20
-274.43488349
 30
0.0
 11
1325.49274768
 21
-274.43488349
 31
0.0
  0
LINE
  5
214
  8
0
  6
STRICHPUNKT2
 62
     1
 10
1319.49274768
 20
-274.43488349
 30
0.0
 11
1313.49274768
 21
-274.43488349
 31
0.0
  0
LINE
  5
215
  8
0
  6
STRICHPUNKT2
 62
     1
 10
1319.49274768
 20
-274.43488349
 30
0.0
 11
1319.49274768
 21
-268.43488349
 31
0.0
  0
LINE
  5
216
  8
0
  6
STRICHPUNKT2
 62
     1
 10
1319.49274768
 20
-274.43488349
 30
0.0
 11
1319.49274768
 21
-280.43488349
 31
0.0
  0
LINE
  5
217
  8
0
  6
STRICHPUNKT2
 62
     1
 10
1319.49274768
 20
-274.43488349
 30
0.0
 11
1325.49274768
 21
-274.43488349
 31
0.0
  0
LINE
  5
218
  8
0
  6
STRICHPUNKT2
 62
     1
 10
1319.49274768
 20
-274.43488349
 30
0.0
 11
1313.49274768
 21
-274.43488349
 31
0.0
  0
LINE
  5
219
  8
0
  6
STRICHPUNKT2
 62
     1
 10
1319.49274768
 20
-274.43488349
 30
0.0
 11
1319.49274768
 21
-268.43488349
 31
0.0
  0
LINE
  5
21A
  8
0
  6
STRICHPUNKT2
 62
     1
 10
1319.49274768
 20
-274.43488349
 30
0.0
 11
1319.49274768
 21
-280.43488349
 31
0.0
  0
LINE
  5
21B
  8
0
  6
STRICHPUNKT2
 62
     1
 10
1355.49274768
 20
-274.43488349
 30
0.0
 11
1361.49274768
 21
-274.43488349
 31
0.0
  0
LINE
  5
21C
  8
0
  6
STRICHPUNKT2
 62
     1
 10
1355.49274768
 20
-274.43488349
 30
0.0
 11
1349.49274768
 21
-274.43488349
 31
0.0
  0
LINE
  5
21D
  8
0
  6
STRICHPUNKT2
 62
     1
 10
1355.49274768
 20
-274.43488349
 30
0.0
 11
1355.49274768
 21
-268.43488349
 31
0.0
  0
LINE
  5
21E
  8
0
  6
STRICHPUNKT2
 62
     1
 10
1355.49274768
 20
-274.43488349
 30
0.0
 11
1355.49274768
 21
-280.43488349
 31
0.0
  0
LINE
  5
21F
  8
0
  6
STRICHPUNKT2
 62
     1
 10
1355.49274768
 20
-274.43488349
 30
0.0
 11
1361.49274768
 21
-274.43488349
 31
0.0
  0
LINE
  5
220
  8
0
  6
STRICHPUNKT2
 62
     1
 10
1355.49274768
 20
-274.43488349
 30
0.0
 11
1349.49274768
 21
-274.43488349
 31
0.0
  0
LINE
  5
221
  8
0
  6
STRICHPUNKT2
 62
     1
 10
1355.49274768
 20
-274.43488349
 30
0.0
 11
1355.49274768
 21
-268.43488349
 31
0.0
  0
LINE
  5
222
  8
0
  6
STRICHPUNKT2
 62
     1
 10
1355.49274768
 20
-274.43488349
 30
0.0
 11
1355.49274768
 21
-280.43488349
 31
0.0
  0
LINE
  5
223
  8
0
  6
STRICHPUNKT2
 62
     1
 10
1355.49274768
 20
-238.43488349
 30
0.0
 11
1361.49274768
 21
-238.43488349
 31
0.0
  0
LINE
  5
224
  8
0
  6
STRICHPUNKT2
 62
     1
 10
1355.49274768
 20
-238.43488349
 30
0.0
 11
1349.49274768
 21
-238.43488349
 31
0.0
  0
LINE
  5
225
  8
0
  6
STRICHPUNKT2
 62
     1
 10
1355.49274768
 20
-238.43488349
 30
0.0
 11
1355.49274768
 21
-232.43488349
 31
0.0
  0
LINE
  5
226
  8
0
  6
STRICHPUNKT2
 62
     1
 10
1355.49274768
 20
-238.43488349
 30
0.0
 11
1355.49274768
 21
-244.43488349
 31
0.0
  0
LINE
  5
227
  8
0
  6
STRICHPUNKT2
 62
     1
 10
1355.49274768
 20
-238.43488349
 30
0.0
 11
1361.49274768
 21
-238.43488349
 31
0.0
  0
LINE
  5
228
  8
0
  6
STRICHPUNKT2
 62
     1
 10
1355.49274768
 20
-238.43488349
 30
0.0
 11
1349.49274768
 21
-238.43488349
 31
0.0
  0
LINE
  5
229
  8
0
  6
STRICHPUNKT2
 62
     1
 10
1355.49274768
 20
-238.43488349
 30
0.0
 11
1355.49274768
 21
-232.43488349
 31
0.0
  0
LINE
  5
22A
  8
0
  6
STRICHPUNKT2
 62
     1
 10
1355.49274768
 20
-238.43488349
 30
0.0
 11
1355.49274768
 21
-244.43488349
 31
0.0
  0
LINE
  5
22B
  8
0
  6
STRICHPUNKT2
 62
     1
 10
1448.49274768
 20
-256.43488349
 30
0.0
 11
1458.99274768
 21
-256.43488349
 31
0.0
  0
LINE
  5
22C
  8
0
  6
STRICHPUNKT2
 62
     1
 10
1448.49274768
 20
-256.43488349
 30
0.0
 11
1437.99274768
 21
-256.43488349
 31
0.0
  0
LINE
  5
22D
  8
0
  6
STRICHPUNKT2
 62
     1
 10
1448.49274768
 20
-256.43488349
 30
0.0
 11
1448.49274768
 21
-245.93488349
 31
0.0
  0
LINE
  5
22E
  8
0
  6
STRICHPUNKT2
 62
     1
 10
1448.49274768
 20
-256.43488349
 30
0.0
 11
1448.49274768
 21
-266.93488349
 31
0.0
  0
LINE
  5
22F
  8
0
  6
STRICHPUNKT2
 62
     1
 10
1448.49274768
 20
-256.43488349
 30
0.0
 11
1458.99274768
 21
-256.43488349
 31
0.0
  0
LINE
  5
230
  8
0
  6
STRICHPUNKT2
 62
     1
 10
1448.49274768
 20
-256.43488349
 30
0.0
 11
1437.99274768
 21
-256.43488349
 31
0.0
  0
LINE
  5
231
  8
0
  6
STRICHPUNKT2
 62
     1
 10
1448.49274768
 20
-256.43488349
 30
0.0
 11
1448.49274768
 21
-245.93488349
 31
0.0
  0
LINE
  5
232
  8
0
  6
STRICHPUNKT2
 62
     1
 10
1448.49274768
 20
-256.43488349
 30
0.0
 11
1448.49274768
 21
-266.93488349
 31
0.0
  0
LINE
  5
233
  8
0
  6
STRICHPUNKT2
 62
     1
 10
1498.99274768
 20
-256.43488349
 30
0.0
 11
1545.99274768
 21
-256.43488349
 31
0.0
  0
LINE
  5
234
  8
0
  6
STRICHPUNKT2
 62
     1
 10
1509.49274768
 20
-266.93488349
 30
0.0
 11
1509.49274768
 21
-245.93488349
 31
0.0
  0
LINE
  5
235
  8
0
  6
STRICHPUNKT2
 62
     1
 10
1535.49274768
 20
-266.93488349
 30
0.0
 11
1535.49274768
 21
-245.93488349
 31
0.0
  0
LINE
  5
236
  8
0
  6
STRICHPUNKT2
 62
     1
 10
1498.99274768
 20
-256.43488349
 30
0.0
 11
1545.99274768
 21
-256.43488349
 31
0.0
  0
LINE
  5
237
  8
0
  6
STRICHPUNKT2
 62
     1
 10
1509.49274768
 20
-266.93488349
 30
0.0
 11
1509.49274768
 21
-245.93488349
 31
0.0
  0
LINE
  5
238
  8
0
  6
STRICHPUNKT2
 62
     1
 10
1535.49274768
 20
-266.93488349
 30
0.0
 11
1535.49274768
 21
-245.93488349
 31
0.0
  0
POLYLINE
  5
239
  8
0
 66
     1
 10
0.0
 20
0.0
 30
0.0
  0
VERTEX
  5
23A
  8
0
 10
1557.49274768
 20
-192.59552599
 30
0.0
  0
VERTEX
  5
23B
  8
0
 10
1307.49274768
 20
-192.59552599
 30
0.0
  0
VERTEX
  5
23C
  8
0
 10
1307.49274768
 20
-200.59552599
 30
0.0
  0
SEQEND
  5
23D
  8
0
  0
LINE
  5
23E
  8
0
 10
1557.49274768
 20
-200.59552599
 30
0.0
 11
1307.49274768
 21
-200.59552599
 31
0.0
  0
LINE
  5
23F
  8
0
 10
1557.49274768
 20
-192.59552599
 30
0.0
 11
1557.49274768
 21
-200.59552599
 31
0.0
  0
LINE
  5
240
  8
0
  6
STRICHPUNKT2
 62
     1
 10
1319.49274768
 20
-202.59552599
 30
0.0
 11
1319.49274768
 21
-190.59552599
 31
0.0
  0
LINE
  5
241
  8
0
  6
STRICHPUNKT2
 62
     1
 10
1535.49274768
 20
-204.09552599
 30
0.0
 11
1535.49274768
 21
-189.09552599
 31
0.0
  0
LINE
  5
242
  8
0
  6
STRICHPUNKT2
 62
     1
 10
1509.49274768
 20
-204.09552599
 30
0.0
 11
1509.49274768
 21
-189.09552599
 31
0.0
  0
LINE
  5
243
  8
0
  6
STRICHPUNKT2
 62
     1
 10
1448.49274768
 20
-204.09552599
 30
0.0
 11
1448.49274768
 21
-189.09552599
 31
0.0
  0
LINE
  5
244
  8
0
  6
STRICHPUNKT2
 62
     1
 10
1355.49274768
 20
-202.59552599
 30
0.0
 11
1355.49274768
 21
-190.59552599
 31
0.0
  0
LINE
  5
245
  8
0
  6
STRICHPUNKT2
 62
     1
 10
1355.49274768
 20
-202.59552599
 30
0.0
 11
1355.49274768
 21
-190.59552599
 31
0.0
  0
LINE
  5
246
  8
0
  6
STRICHPUNKT2
 62
     1
 10
1319.49274768
 20
-202.59552599
 30
0.0
 11
1319.49274768
 21
-190.59552599
 31
0.0
  0
POLYLINE
  5
247
  8
0
 66
     1
 10
0.0
 20
0.0
 30
0.0
  0
VERTEX
  5
248
  8
0
 10
1265.26560249
 20
-192.59552599
 30
0.0
  0
VERTEX
  5
249
  8
0
 10
1205.26560249
 20
-192.59552599
 30
0.0
  0
VERTEX
  5
24A
  8
0
 10
1205.26560249
 20
-200.59552599
 30
0.0
  0
SEQEND
  5
24B
  8
0
  0
LINE
  5
24C
  8
0
 10
1265.26560249
 20
-200.59552599
 30
0.0
 11
1205.26560249
 21
-200.59552599
 31
0.0
  0
LINE
  5
24D
  8
0
 10
1265.26560249
 20
-192.59552599
 30
0.0
 11
1265.26560249
 21
-200.59552599
 31
0.0
  0
LINE
  5
24E
  8
0
  6
STRICHPUNKT2
 62
     1
 10
1253.26560249
 20
-202.59552599
 30
0.0
 11
1253.26560249
 21
-190.59552599
 31
0.0
  0
LINE
  5
24F
  8
0
  6
STRICHPUNKT2
 62
     1
 10
1235.26560249
 20
-204.09552599
 30
0.0
 11
1235.26560249
 21
-189.09552599
 31
0.0
  0
LINE
  5
250
  8
0
  6
STRICHPUNKT2
 62
     1
 10
1235.26560249
 20
-204.09552599
 30
0.0
 11
1235.26560249
 21
-189.09552599
 31
0.0
  0
LINE
  5
251
  8
0
  6
STRICHPUNKT2
 62
     1
 10
1217.26560249
 20
-202.59552599
 30
0.0
 11
1217.26560249
 21
-190.59552599
 31
0.0
  0
LINE
  5
252
  8
0
  6
STRICHPUNKT2
 62
     1
 10
1253.26560249
 20
-202.59552599
 30
0.0
 11
1253.26560249
 21
-190.59552599
 31
0.0
  0
LINE
  5
253
  8
0
  6
STRICHPUNKT2
 62
     1
 10
1235.26560249
 20
-204.09552599
 30
0.0
 11
1235.26560249
 21
-189.09552599
 31
0.0
  0
LINE
  5
254
  8
0
  6
STRICHPUNKT2
 62
     1
 10
1217.26560249
 20
-202.59552599
 30
0.0
 11
1217.26560249
 21
-190.59552599
 31
0.0
  0
TEXT
  5
255
  8
TXT_DIM49
 10
1311.63784338
 20
-214.93488349
 30
0.0
 40
2.5
  1
12
  7
ARIAL
  0
LINE
  5
256
  8
0
 62
     4
 10
1308.49274768
 20
-215.43488349
 30
0.0
 11
1306.49274768
 21
-217.43488349
 31
0.0
  0
LINE
  5
257
  8
0
 62
     4
 10
1318.74274768
 20
-217.18488349
 30
0.0
 11
1320.24274768
 21
-215.68488349
 31
0.0
  0
LINE
  5
258
  8
0
 62
     4
 10
1307.49274768
 20
-216.43488349
 30
0.0
 11
1319.49274768
 21
-216.43488349
 31
0.0
  0
LINE
  5
259
  8
0
 62
     4
 10
1307.49274768
 20
-218.43488349
 30
0.0
 11
1307.49274768
 21
-214.43488349
 31
0.0
  0
LINE
  5
25A
  8
0
 62
     4
 10
1319.49274768
 20
-218.43488349
 30
0.0
 11
1319.49274768
 21
-214.43488349
 31
0.0
  0
TEXT
  5
25B
  8
TXT_DIM49
 10
1335.63784338
 20
-214.93488349
 30
0.0
 40
2.5
  1
36
  7
ARIAL
  0
LINE
  5
25C
  8
0
 62
     4
 10
1320.49274768
 20
-215.43488349
 30
0.0
 11
1318.49274768
 21
-217.43488349
 31
0.0
  0
LINE
  5
25D
  8
0
 62
     4
 10
1354.74274768
 20
-217.18488349
 30
0.0
 11
1356.24274768
 21
-215.68488349
 31
0.0
  0
LINE
  5
25E
  8
0
 62
     4
 10
1319.49274768
 20
-216.43488349
 30
0.0
 11
1355.49274768
 21
-216.43488349
 31
0.0
  0
LINE
  5
25F
  8
0
 62
     4
 10
1319.49274768
 20
-218.43488349
 30
0.0
 11
1319.49274768
 21
-214.43488349
 31
0.0
  0
LINE
  5
260
  8
0
 62
     4
 10
1355.49274768
 20
-218.43488349
 30
0.0
 11
1355.49274768
 21
-214.43488349
 31
0.0
  0
TEXT
  5
261
  8
TXT_DIM49
 10
1400.13784338
 20
-214.93488349
 30
0.0
 40
2.5
  1
93
  7
ARIAL
  0
LINE
  5
262
  8
0
 62
     4
 10
1356.49274768
 20
-215.43488349
 30
0.0
 11
1354.49274768
 21
-217.43488349
 31
0.0
  0
LINE
  5
263
  8
0
 62
     4
 10
1447.74274768
 20
-217.18488349
 30
0.0
 11
1449.24274768
 21
-215.68488349
 31
0.0
  0
LINE
  5
264
  8
0
 62
     4
 10
1355.49274768
 20
-216.43488349
 30
0.0
 11
1448.49274768
 21
-216.43488349
 31
0.0
  0
LINE
  5
265
  8
0
 62
     4
 10
1355.49274768
 20
-218.43488349
 30
0.0
 11
1355.49274768
 21
-214.43488349
 31
0.0
  0
LINE
  5
266
  8
0
 62
     4
 10
1448.49274768
 20
-218.43488349
 30
0.0
 11
1448.49274768
 21
-214.43488349
 31
0.0
  0
TEXT
  5
267
  8
TXT_DIM49
 10
1483.63784338
 20
-214.93488349
 30
0.0
 40
2.5
  1
74
  7
ARIAL
  0
LINE
  5
268
  8
0
 62
     4
 10
1449.49274768
 20
-215.43488349
 30
0.0
 11
1447.49274768
 21
-217.43488349
 31
0.0
  0
LINE
  5
269
  8
0
 62
     4
 10
1521.74274768
 20
-217.18488349
 30
0.0
 11
1523.24274768
 21
-215.68488349
 31
0.0
  0
LINE
  5
26A
  8
0
 62
     4
 10
1448.49274768
 20
-216.43488349
 30
0.0
 11
1522.49274768
 21
-216.43488349
 31
0.0
  0
LINE
  5
26B
  8
0
 62
     4
 10
1448.49274768
 20
-218.43488349
 30
0.0
 11
1448.49274768
 21
-214.43488349
 31
0.0
  0
LINE
  5
26C
  8
0
 62
     4
 10
1522.49274768
 20
-218.43488349
 30
0.0
 11
1522.49274768
 21
-214.43488349
 31
0.0
  0
TEXT
  5
26D
  8
TXT_DIM49
 10
1538.13784338
 20
-214.93488349
 30
0.0
 40
2.5
  1
35
  7
ARIAL
  0
LINE
  5
26E
  8
0
 62
     4
 10
1523.49274768
 20
-215.43488349
 30
0.0
 11
1521.49274768
 21
-217.43488349
 31
0.0
  0
LINE
  5
26F
  8
0
 62
     4
 10
1556.74274768
 20
-217.18488349
 30
0.0
 11
1558.24274768
 21
-215.68488349
 31
0.0
  0
LINE
  5
270
  8
0
 62
     4
 10
1522.49274768
 20
-216.43488349
 30
0.0
 11
1557.49274768
 21
-216.43488349
 31
0.0
  0
LINE
  5
271
  8
0
 62
     4
 10
1522.49274768
 20
-218.43488349
 30
0.0
 11
1522.49274768
 21
-214.43488349
 31
0.0
  0
LINE
  5
272
  8
0
 62
     4
 10
1557.49274768
 20
-218.43488349
 30
0.0
 11
1557.49274768
 21
-214.43488349
 31
0.0
  0
TEXT
  5
273
  8
TXT_DIM49
 10
1295.99274768
 20
-234.28978779
 30
0.0
 40
2.5
  1
12
 50
90.00020741
  7
ARIAL
  0
LINE
  5
274
  8
0
 62
     4
 10
1298.49274768
 20
-227.43488349
 30
0.0
 11
1296.49274768
 21
-225.43488349
 31
0.0
  0
LINE
  5
275
  8
0
 62
     4
 10
1296.74274768
 20
-237.68488349
 30
0.0
 11
1298.24274768
 21
-239.18488349
 31
0.0
  0
LINE
  5
276
  8
0
 62
     4
 10
1297.49274768
 20
-226.43488349
 30
0.0
 11
1297.49274768
 21
-238.43488349
 31
0.0
  0
LINE
  5
277
  8
0
 62
     4
 10
1299.49274768
 20
-226.43488349
 30
0.0
 11
1295.49274768
 21
-226.43488349
 31
0.0
  0
LINE
  5
278
  8
0
 62
     4
 10
1299.49274768
 20
-238.43488349
 30
0.0
 11
1295.49274768
 21
-238.43488349
 31
0.0
  0
TEXT
  5
279
  8
TXT_DIM49
 10
1295.99274768
 20
-258.28978779
 30
0.0
 40
2.5
  1
36
 50
90.00020741
  7
ARIAL
  0
LINE
  5
27A
  8
0
 62
     4
 10
1298.49274768
 20
-239.43488349
 30
0.0
 11
1296.49274768
 21
-237.43488349
 31
0.0
  0
LINE
  5
27B
  8
0
 62
     4
 10
1296.74274768
 20
-273.68488349
 30
0.0
 11
1298.24274768
 21
-275.18488349
 31
0.0
  0
LINE
  5
27C
  8
0
 62
     4
 10
1297.49274768
 20
-238.43488349
 30
0.0
 11
1297.49274768
 21
-274.43488349
 31
0.0
  0
LINE
  5
27D
  8
0
 62
     4
 10
1299.49274768
 20
-238.43488349
 30
0.0
 11
1295.49274768
 21
-238.43488349
 31
0.0
  0
LINE
  5
27E
  8
0
 62
     4
 10
1299.49274768
 20
-274.43488349
 30
0.0
 11
1295.49274768
 21
-274.43488349
 31
0.0
  0
TEXT
  5
27F
  8
TXT_DIM49
 10
1295.99274768
 20
-282.28978779
 30
0.0
 40
2.5
  1
12
 50
90.00020741
  7
ARIAL
  0
LINE
  5
280
  8
0
 62
     4
 10
1298.49274768
 20
-275.43488349
 30
0.0
 11
1296.49274768
 21
-273.43488349
 31
0.0
  0
LINE
  5
281
  8
0
 62
     4
 10
1296.74274768
 20
-285.68488349
 30
0.0
 11
1298.24274768
 21
-287.18488349
 31
0.0
  0
LINE
  5
282
  8
0
 62
     4
 10
1297.49274768
 20
-274.43488349
 30
0.0
 11
1297.49274768
 21
-286.43488349
 31
0.0
  0
LINE
  5
283
  8
0
 62
     4
 10
1299.49274768
 20
-274.43488349
 30
0.0
 11
1295.49274768
 21
-274.43488349
 31
0.0
  0
LINE
  5
284
  8
0
 62
     4
 10
1299.49274768
 20
-286.43488349
 30
0.0
 11
1295.49274768
 21
-286.43488349
 31
0.0
  0
TEXT
  5
285
  8
TXT_DIM49
 10
1565.86646424
 20
-243.28978779
 30
0.0
 40
2.5
  1
30
 50
90.00020741
  7
ARIAL
  0
LINE
  5
286
  8
0
 62
     4
 10
1568.36646424
 20
-227.43488349
 30
0.0
 11
1566.36646424
 21
-225.43488349
 31
0.0
  0
LINE
  5
287
  8
0
 62
     4
 10
1566.61646424
 20
-255.68488349
 30
0.0
 11
1568.11646424
 21
-257.18488349
 31
0.0
  0
LINE
  5
288
  8
0
 62
     4
 10
1567.36646424
 20
-226.43488349
 30
0.0
 11
1567.36646424
 21
-256.43488349
 31
0.0
  0
LINE
  5
289
  8
0
 62
     4
 10
1565.36646424
 20
-226.43488349
 30
0.0
 11
1569.36646424
 21
-226.43488349
 31
0.0
  0
LINE
  5
28A
  8
0
 62
     4
 10
1565.36646424
 20
-256.43488349
 30
0.0
 11
1569.36646424
 21
-256.43488349
 31
0.0
  0
TEXT
  5
28B
  8
TXT_DIM49
 10
1565.86646424
 20
-273.28978779
 30
0.0
 40
2.5
  1
30
 50
90.00020741
  7
ARIAL
  0
LINE
  5
28C
  8
0
 62
     4
 10
1568.36646424
 20
-257.43488349
 30
0.0
 11
1566.36646424
 21
-255.43488349
 31
0.0
  0
LINE
  5
28D
  8
0
 62
     4
 10
1566.61646424
 20
-285.68488349
 30
0.0
 11
1568.11646424
 21
-287.18488349
 31
0.0
  0
LINE
  5
28E
  8
0
 62
     4
 10
1567.36646424
 20
-256.43488349
 30
0.0
 11
1567.36646424
 21
-286.43488349
 31
0.0
  0
LINE
  5
28F
  8
0
 62
     4
 10
1565.36646424
 20
-256.43488349
 30
0.0
 11
1569.36646424
 21
-256.43488349
 31
0.0
  0
LINE
  5
290
  8
0
 62
     4
 10
1565.36646424
 20
-286.43488349
 30
0.0
 11
1569.36646424
 21
-286.43488349
 31
0.0
  0
LINE
  5
291
  8
0
 62
     5
 10
1518.32822472
 20
-256.43488349
 30
0.0
 11
1524.96237778
 21
-272.91318546
 31
0.0
  0
TEXT
  5
292
  8
TXT_DIM49
 10
1524.96237778
 20
-274.16318546
 30
0.0
 40
2.5
  1
Slobgat 14 x 40
  7
ARIAL
  0
LINE
  5
293
  8
0
 62
     5
 10
1448.49274768
 20
-256.43488349
 30
0.0
 11
1456.4055314
 21
-267.28349231
 31
0.0
  0
TEXT
  5
294
  8
TXT_DIM49
 10
1456.4055314
 20
-268.53349231
 30
0.0
 40
2.5
  1
Ø14
  7
ARIAL
  0
LINE
  5
295
  8
0
 62
     5
 10
1355.49274768
 20
-274.43488349
 30
0.0
 11
1360.10711399
 21
-282.15972058
 31
0.0
  0
TEXT
  5
296
  8
TXT_DIM49
 10
1360.10711399
 20
-283.40972058
 30
0.0
 40
2.5
  1
Ø8
  7
ARIAL
  0
LINE
  5
297
  8
0
 62
     5
 10
1355.49274768
 20
-238.43488349
 30
0.0
 11
1359.90661514
 21
-249.59241747
 31
0.0
  0
TEXT
  5
298
  8
TXT_DIM49
 10
1359.90661514
 20
-250.84241747
 30
0.0
 40
2.5
  1
Ø8
  7
ARIAL
  0
LINE
  5
299
  8
0
 62
     5
 10
1319.49274768
 20
-274.43488349
 30
0.0
 11
1324.1195364
 21
-283.16614618
 31
0.0
  0
TEXT
  5
29A
  8
TXT_DIM49
 10
1324.1195364
 20
-284.41614618
 30
0.0
 40
2.5
  1
Ø8
  7
ARIAL
  0
LINE
  5
29B
  8
0
 62
     5
 10
1319.49274768
 20
-238.43488349
 30
0.0
 11
1323.31557533
 21
-248.3874587
 31
0.0
  0
TEXT
  5
29C
  8
TXT_DIM49
 10
1323.31557533
 20
-249.6374587
 30
0.0
 40
2.5
  1
Ø8
  7
ARIAL
  0
TEXT
  5
29D
  8
TXT_DIM49
 10
1429.71039118
 20
-181.09552599
 30
0.0
 40
2.5
  1
250
  7
ARIAL
  0
LINE
  5
29E
  8
0
 62
     4
 10
1308.49274768
 20
-181.59552599
 30
0.0
 11
1306.49274768
 21
-183.59552599
 31
0.0
  0
LINE
  5
29F
  8
0
 62
     4
 10
1556.74274768
 20
-183.34552599
 30
0.0
 11
1558.24274768
 21
-181.84552599
 31
0.0
  0
LINE
  5
2A0
  8
0
 62
     4
 10
1307.49274768
 20
-182.59552599
 30
0.0
 11
1557.49274768
 21
-182.59552599
 31
0.0
  0
LINE
  5
2A1
  8
0
 62
     4
 10
1307.49274768
 20
-184.59552599
 30
0.0
 11
1307.49274768
 21
-180.59552599
 31
0.0
  0
LINE
  5
2A2
  8
0
 62
     4
 10
1557.49274768
 20
-184.59552599
 30
0.0
 11
1557.49274768
 21
-180.59552599
 31
0.0
  0
TEXT
  5
2A3
  8
TXT_DIM49
 10
1193.76560249
 20
-197.52297814
 30
0.0
 40
2.5
  1
8
 50
90.00020741
  7
ARIAL
  0
LINE
  5
2A4
  8
0
 62
     4
 10
1196.26560249
 20
-193.59552599
 30
0.0
 11
1194.26560249
 21
-191.59552599
 31
0.0
  0
LINE
  5
2A5
  8
0
 62
     4
 10
1194.51560249
 20
-199.84552599
 30
0.0
 11
1196.01560249
 21
-201.34552599
 31
0.0
  0
LINE
  5
2A6
  8
0
 62
     4
 10
1195.26560249
 20
-192.59552599
 30
0.0
 11
1195.26560249
 21
-200.59552599
 31
0.0
  0
LINE
  5
2A7
  8
0
 62
     4
 10
1197.26560249
 20
-192.59552599
 30
0.0
 11
1193.26560249
 21
-192.59552599
 31
0.0
  0
LINE
  5
2A8
  8
0
 62
     4
 10
1197.26560249
 20
-200.59552599
 30
0.0
 11
1193.26560249
 21
-200.59552599
 31
0.0
  0
TEXT
  5
2A9
  8
TXT_DIM49
 10
1233.41069819
 20
-183.41475695
 30
0.0
 40
2.5
  1
60
  7
ARIAL
  0
LINE
  5
2AA
  8
0
 62
     4
 10
1206.26560249
 20
-183.91475695
 30
0.0
 11
1204.26560249
 21
-185.91475695
 31
0.0
  0
LINE
  5
2AB
  8
0
 62
     4
 10
1264.51560249
 20
-185.66475695
 30
0.0
 11
1266.01560249
 21
-184.16475695
 31
0.0
  0
LINE
  5
2AC
  8
0
 62
     4
 10
1205.26560249
 20
-184.91475695
 30
0.0
 11
1265.26560249
 21
-184.91475695
 31
0.0
  0
LINE
  5
2AD
  8
0
 62
     4
 10
1205.26560249
 20
-186.91475695
 30
0.0
 11
1205.26560249
 21
-182.91475695
 31
0.0
  0
LINE
  5
2AE
  8
0
 62
     4
 10
1265.26560249
 20
-186.91475695
 30
0.0
 11
1265.26560249
 21
-182.91475695
 31
0.0
  0
POINT
  5
2AF
  8
0
 10
1373.75204345
 20
-269.95348762
 30
0.0
  0
POINT
  5
2B0
  8
0
 62
     3
 10
1512.42141076
 20
-440.29080556
 30
0.0
  0
POINT
  5
2B1
  8
0
 62
     3
 10
1578.28582446
 20
-422.37181066
 30
0.0
  0
POINT
  5
2B2
  8
0
 62
     3
 10
1512.42141076
 20
-422.37181066
 30
0.0
  0
POINT
  5
2B3
  8
0
 62
     3
 10
1578.28582446
 20
-440.29080556
 30
0.0
  0
POINT
  5
2B4
  8
0
 62
     3
 10
1560.59446952
 20
-445.97348762
 30
0.0
  0
POINT
  5
2B5
  8
0
 62
     3
 10
1578.28650149
 20
-441.16021422
 30
0.0
  0
POINT
  5
2B6
  8
0
 62
     3
 10
1560.59446952
 20
-441.16021422
 30
0.0
  0
POINT
  5
2B7
  8
0
 62
     3
 10
1578.28650149
 20
-445.97348762
 30
0.0
  0
ENDSEC
  0
EOF
