  0
SECTION
  2
HEADER
  9
$ACADVER
  1
AC1006
  9
$DWGCODEPAGE
  3
ansi_1252
  9
$INSBASE
 10
0.0
 20
0.0
 30
0.0
  9
$EXTMIN
 10
1578.71058494
 20
-947.31783667
  9
$EXTMAX
 10
2400.60497908
 20
-568.64283667
  9
$LIMMIN
 10
1578.71058494
 20
-947.31783667
  9
$LIMMAX
 10
2400.60497908
 20
-568.64283667
  9
$ORTHOMODE
 70
     0
  9
$REGENMODE
 70
     1
  9
$FILLMODE
 70
     1
  9
$QTEXTMODE
 70
     0
  9
$MIRRTEXT
 70
     1
  9
$DRAGMODE
 70
     2
  9
$LTSCALE
 40
1.0
  9
$OSMODE
 70
    37
  9
$ATTMODE
 70
     1
  9
$TEXTSIZE
 40
1.0
  9
$TRACEWID
 40
0.05
  9
$TEXTSTYLE
  7
STANDARD
  9
$CLAYER
  8
0
  9
$CELTYPE
  6
BYBLOCK
  9
$CECOLOR
 62
   256
  9
$DIMSCALE
 40
1.0
  9
$DIMASZ
 40
0.18
  9
$DIMEXO
 40
0.0625
  9
$DIMDLI
 40
0.38
  9
$DIMRND
 40
0.0
  9
$DIMDLE
 40
0.0
  9
$DIMEXE
 40
0.18
  9
$DIMTP
 40
0.0
  9
$DIMTM
 40
0.0
  9
$DIMTXT
 40
0.18
  9
$DIMCEN
 40
0.09
  9
$DIMTSZ
 40
0.0
  9
$DIMTOL
 70
     0
  9
$DIMLIM
 70
     0
  9
$DIMTIH
 70
     1
  9
$DIMTOH
 70
     1
  9
$DIMSE1
 70
     0
  9
$DIMSE2
 70
     0
  9
$DIMTAD
 70
     0
  9
$DIMZIN
 70
     0
  9
$DIMBLK
  1

  9
$DIMASO
 70
     1
  9
$DIMSHO
 70
     1
  9
$DIMPOST
  1

  9
$DIMAPOST
  1

  9
$DIMALT
 70
     0
  9
$DIMALTD
 70
     2
  9
$DIMALTF
 40
25.4
  9
$DIMLFAC
 40
1.0
  9
$DIMTOFL
 70
     0
  9
$DIMTVP
 40
0.0
  9
$DIMTIX
 70
     0
  9
$DIMSOXD
 70
     0
  9
$DIMSAH
 70
     0
  9
$DIMBLK1
  1

  9
$DIMBLK2
  1

  9
$LUNITS
 70
     2
  9
$LUPREC
 70
     4
  9
$SKETCHINC
 40
0.1
  9
$FILLETRAD
 40
0.5
  9
$AUNITS
 70
     0
  9
$AUPREC
 70
     0
  9
$MENU
  1
.
  9
$ELEVATION
 40
0.0
  9
$THICKNESS
 40
0.0
  9
$LIMCHECK
 70
     0
  9
$CHAMFERA
 40
0.0
  9
$CHAMFERB
 40
0.0
  9
$SKPOLY
 70
     0
  9
$TDCREATE
 40
2447893.125
  9
$TDUPDATE
 40
2460791.477905035
  9
$TDINDWG
 40
0.0
  9
$TDUSRTIMER
 40
0.0
  9
$USRTIMER
 70
     1
  9
$ANGBASE
 50
0.0
  9
$ANGDIR
 70
     0
  9
$PDMODE
 70
     0
  9
$PDSIZE
 40
0.0
  9
$PLINEWID
 40
0.0
  9
$COORDS
 70
     1
  9
$SPLFRAME
 70
     0
  9
$SPLINETYPE
 70
     6
  9
$SPLINESEGS
 70
     8
  9
$ATTDIA
 70
     0
  9
$ATTREQ
 70
     1
  9
$HANDLING
 70
     1
  9
$HANDSEED
  5
3DD
  9
$SURFTAB1
 70
     6
  9
$SURFTAB2
 70
     6
  9
$SURFTYPE
 70
     6
  9
$SURFU
 70
     6
  9
$SURFV
 70
     6
  9
$UCSNAME
  2

  9
$UCSORG
 10
0.0
 20
0.0
 30
0.0
  9
$UCSXDIR
 10
1.0
 20
0.0
 30
0.0
  9
$UCSYDIR
 10
0.0
 20
1.0
 30
0.0
  9
$USERI1
 70
     0
  9
$USERI2
 70
     0
  9
$USERI3
 70
     0
  9
$USERI4
 70
     0
  9
$USERI5
 70
     0
  9
$USERR1
 40
0.0
  9
$USERR2
 40
0.0
  9
$USERR3
 40
0.0
  9
$USERR4
 40
0.0
  9
$USERR5
 40
0.0
  9
$WORLDVIEW
 70
     1
  0
ENDSEC
  0
SECTION
  2
TABLES
  0
TABLE
  2
VPORT
 70
     1
  0
VPORT
  2
*ACTIVE
 70
     0
 10
0.0
 20
0.0
 11
1.0
 21
1.0
 12
1989.65778201
 22
-757.98033667
 13
0.0
 23
0.0
 14
1.0
 24
1.0
 15
0.0
 25
0.0
 16
0.0
 26
0.0
 36
1.0
 17
0.0
 27
0.0
 37
0.0
 40
378.675
 41
2.170447994
 42
50.0
 43
0.0
 44
0.0
 50
0.0
 51
0.0
 71
     0
 72
   100
 73
     1
 74
     1
 75
     0
 76
     0
 77
     0
 78
     0
  0
ENDTAB
  0
TABLE
  2
LTYPE
 70
    19
  0
LTYPE
  2
CONTINUOUS
 70
     0
  3
Solid line
 72
    65
 73
     0
 40
0.0
  0
LTYPE
  2
DOT
 70
     0
  3
..............
 72
    65
 73
     2
 40
2.0
 49
0.5
 49
-1.5
  0
LTYPE
  2
HIDDEN
 70
     0
  3
-- -- -- -- --
 72
    65
 73
     2
 40
7.0
 49
4.0
 49
-3.0
  0
LTYPE
  2
DASHDOT
 70
     0
  3
--.--.--.--.--
 72
    65
 73
     4
 40
8.5
 49
4.0
 49
-2.0
 49
0.5
 49
-2.0
  0
LTYPE
  2
STRICHPUNKT2
 70
     0
  3
--.--.--.--.--
 72
    65
 73
     4
 40
18.5
 49
10.0
 49
-4.0
 49
0.5
 49
-4.0
  0
LTYPE
  2
STRICHPUNKT3
 70
     0
  3
--.--.--.--.--
 72
    65
 73
     4
 40
35.5
 49
25.0
 49
-5.0
 49
0.5
 49
-5.0
  0
LTYPE
  2
PHANTOM
 70
     0
  3
--..--..--..--
 72
    65
 73
     6
 40
23.0
 49
10.0
 49
-4.0
 49
0.5
 49
-4.0
 49
0.5
 49
-4.0
  0
LTYPE
  2
PHANTOM2
 70
     0
  3
--..--..--..--
 72
    65
 73
     6
 40
33.0
 49
20.0
 49
-4.0
 49
0.5
 49
-4.0
 49
0.5
 49
-4.0
  0
LTYPE
  2
PHANTOM3
 70
     0
  3
--..--..--..--
 72
    65
 73
     6
 40
50.0
 49
37.0
 49
-4.0
 49
0.5
 49
-4.0
 49
0.5
 49
-4.0
  0
LTYPE
  2
STR3PKT
 70
     0
  3
--...--...--...
 72
    65
 73
     8
 40
31.5
 49
20.0
 49
-2.5
 49
0.5
 49
-2.5
 49
0.5
 49
-2.5
 49
0.5
 49
-2.5
  0
LTYPE
  2
2STRPKT
 70
     0
  3
--.--.--.--.--
 72
    65
 73
     6
 40
28.0
 49
10.0
 49
-2.5
 49
10.0
 49
-2.5
 49
0.5
 49
-2.5
  0
LTYPE
  2
GESTRICHELT2
 70
     0
  3
-- -- -- -- --
 72
    65
 73
     2
 40
25.0
 49
10.0
 49
-15.0
  0
LTYPE
  2
2STR2PKT
 70
     0
  3
--..--..--..--
 72
    65
 73
     8
 40
31.0
 49
10.0
 49
-2.5
 49
10.0
 49
-2.5
 49
0.5
 49
-2.5
 49
0.5
 49
-2.5
  0
LTYPE
  2
STR3PKT2
 70
     0
  3
--...--...--...
 72
    65
 73
     8
 40
21.0
 49
10.0
 49
-2.5
 49
0.5
 49
-2.5
 49
0.5
 49
-2.5
 49
0.5
 49
-2.0
  0
LTYPE
  2
2STR3PKT
 70
     0
  3
--...--...--...
 72
    65
 73
    10
 40
34.0
 49
10.0
 49
-2.5
 49
10.0
 49
-2.5
 49
0.5
 49
-2.5
 49
0.5
 49
-2.5
 49
0.5
 49
-2.5
  0
LTYPE
  2
STRKSTR
 70
     0
  3
-- - -- - -- -
 72
    65
 73
     4
 40
30.0
 49
20.0
 49
-2.5
 49
5.0
 49
-2.5
  0
LTYPE
  2
STRKSTR2
 70
     0
  3
-- - -- - -- -
 72
    65
 73
     6
 40
37.5
 49
20.0
 49
-2.5
 49
5.0
 49
-2.5
 49
5.0
 49
-2.5
  0
LTYPE
  2
STRKSTR3
 70
     0
  3
-- - -- - -- -
 72
    65
 73
     8
 40
45.0
 49
20.0
 49
-2.5
 49
5.0
 49
-2.5
 49
5.0
 49
-2.5
 49
5.0
 49
-2.5
  0
LTYPE
  2
PUNKT2
 70
     0
  3
..............
 72
    65
 73
     2
 40
3.5
 49
0.5
 49
-3.0
  0
ENDTAB
  0
TABLE
  2
LAYER
 70
    16
  0
LAYER
  2
0
 70
     0
 62
     7
  6
CONTINUOUS
  0
LAYER
  2
LE_GREEN
 70
     0
 62
     3
  6
CONTINUOUS
  0
LAYER
  2
LE_RED
 70
     0
 62
     1
  6
CONTINUOUS
  0
LAYER
  2
LE_ALL
 70
     0
 62
     7
  6
CONTINUOUS
  0
LAYER
  2
LE_HIDDEN1
 70
     0
 62
     3
  6
HIDDEN
  0
LAYER
  2
LE_HIDDEN
 70
     0
 62
     7
  6
CONTINUOUS
  0
LAYER
  2
LE_MIDDLE
 70
     0
 62
     7
  6
CONTINUOUS
  0
LAYER
  2
TXT_YELLOW
 70
     0
 62
     2
  6
CONTINUOUS
  0
LAYER
  2
TXT_DIM49
 70
     0
 62
     2
  6
CONTINUOUS
  0
LAYER
  2
TXT_ALL
 70
     0
 62
     7
  6
CONTINUOUS
  0
LAYER
  2
DIM49
 70
     0
 62
     4
  6
CONTINUOUS
  0
LAYER
  2
HATCH
 70
     0
 62
     3
  6
CONTINUOUS
  0
LAYER
  2
APPLE
 70
     0
 62
     7
  6
CONTINUOUS
  0
LAYER
  2
10
 70
     0
 62
     7
  6
CONTINUOUS
  0
LAYER
  2
20
 70
     0
 62
     7
  6
CONTINUOUS
  0
LAYER
  2
49
 70
     0
 62
     7
  6
CONTINUOUS
  0
ENDTAB
  0
TABLE
  2
STYLE
 70
     5
  0
STYLE
  2
MONOTXT
 70
     0
 40
0.0
 41
1.0
 50
0.0
 71
     0
 42
1.0
  3
monotxt.shx
  4

  0
STYLE
  2
STANDARD
 70
     0
 40
0.0
 41
1.0
 50
0.0
 71
     0
 42
1.0
  3
txt
  4

  0
STYLE
  2
ARIAL
 70
     0
 40
0.0
 41
1.0
 50
0.0
 71
     0
 42
1.0
  3
arial.ttf
  4

  0
STYLE
  2
ARIAL_NARROW
 70
     0
 40
0.0
 41
1.0
 50
0.0
 71
     0
 42
1.0
  3
ArialN.ttf
  4

  0
STYLE
  2
ISOCPEUR
 70
     0
 40
0.0
 41
1.0
 50
0.0
 71
     0
 42
1.0
  3
ISOCPEUR.ttf
  4

  0
ENDTAB
  0
TABLE
  2
VIEW
 70
     0
  0
ENDTAB
  0
TABLE
  2
UCS
 70
     0
  0
ENDTAB
  0
ENDSEC
  0
SECTION
  2
BLOCKS
  0
ENDSEC
  0
SECTION
  2
ENTITIES
  0
POLYLINE
  5
16D
  8
0
 66
     1
 10
0.0
 20
0.0
 30
0.0
 70
     1
  0
VERTEX
  5
16E
  8
0
 10
1772.66975335
 20
-908.1421044
 30
0.0
  0
VERTEX
  5
16F
  8
0
 10
2192.66975335
 20
-908.1421044
 30
0.0
  0
VERTEX
  5
170
  8
0
 10
2192.66975335
 20
-611.1421044
 30
0.0
  0
VERTEX
  5
171
  8
0
 10
1772.66975335
 20
-611.1421044
 30
0.0
  0
SEQEND
  5
172
  8
0
  0
POLYLINE
  5
173
  8
0
 66
     1
 10
0.0
 20
0.0
 30
0.0
 70
     1
  0
VERTEX
  5
174
  8
0
 10
1777.66975335
 20
-903.1421044
 30
0.0
  0
VERTEX
  5
175
  8
0
 10
2187.66975335
 20
-903.1421044
 30
0.0
  0
VERTEX
  5
176
  8
0
 10
2187.66975335
 20
-616.1421044
 30
0.0
  0
VERTEX
  5
177
  8
0
 10
1777.66975335
 20
-616.1421044
 30
0.0
  0
SEQEND
  5
178
  8
0
  0
LINE
  5
179
  8
0
 10
2002.66975335
 20
-903.1421044
 30
0.0
 11
2002.66975335
 21
-908.1421044
 31
0.0
  0
LINE
  5
17A
  8
0
 10
2002.66975335
 20
-616.1421044
 30
0.0
 11
2002.66975335
 21
-611.1421044
 31
0.0
  0
LINE
  5
17B
  8
0
 10
1792.66975335
 20
-903.1421044
 30
0.0
 11
1792.66975335
 21
-908.1421044
 31
0.0
  0
LINE
  5
17C
  8
0
 10
1792.66975335
 20
-616.1421044
 30
0.0
 11
1792.66975335
 21
-611.1421044
 31
0.0
  0
TEXT
  5
17D
  8
TXT_ALL
 62
     4
 10
2191.66975335
 20
-907.1421044
 30
0.0
 40
2.5
  1

 50
90.00020741
  0
POLYLINE
  5
17E
  8
0
 66
     1
 10
0.0
 20
0.0
 30
0.0
  0
VERTEX
  5
17F
  8
0
 10
2187.66975335
 20
-626.1421044
 30
0.0
  0
VERTEX
  5
180
  8
0
 10
2118.67645335
 20
-626.1421044
 30
0.0
  0
VERTEX
  5
181
  8
0
 10
2118.67645335
 20
-616.1421044
 30
0.0
  0
SEQEND
  5
182
  8
0
  0
LINE
  5
183
  8
0
 10
2120.57975335
 20
-883.6421044
 30
0.0
 11
1980.68975335
 21
-883.6421044
 31
0.0
  0
LINE
  5
184
  8
0
 10
1980.68975335
 20
-893.3921044
 30
0.0
 11
2120.57975335
 21
-893.3921044
 31
0.0
  0
POLYLINE
  5
185
  8
0
 66
     1
 10
0.0
 20
0.0
 30
0.0
  0
VERTEX
  5
186
  8
0
 10
1980.68975335
 20
-883.6421044
 30
0.0
  0
VERTEX
  5
187
  8
0
 10
1980.68975335
 20
-893.3921044
 30
0.0
  0
VERTEX
  5
188
  8
0
 10
1980.68975335
 20
-903.1421044
 30
0.0
  0
SEQEND
  5
189
  8
0
  0
POLYLINE
  5
18A
  8
0
 66
     1
 10
0.0
 20
0.0
 30
0.0
  0
VERTEX
  5
18B
  8
0
 10
2050.63475335
 20
-883.6421044
 30
0.0
  0
VERTEX
  5
18C
  8
0
 10
2050.63475335
 20
-893.3921044
 30
0.0
  0
VERTEX
  5
18D
  8
0
 10
2050.63475335
 20
-903.1421044
 30
0.0
  0
SEQEND
  5
18E
  8
0
  0
TEXT
  5
18F
  8
TXT_ALL
 10
1982.68975335
 20
-889.81710435
 30
0.0
 40
2.5999999
  1
E-mail: verkoop@jonkers-bouwmetaal.nl
  7
ARIAL
  0
TEXT
  5
190
  8
TXT_ALL
 10
1982.68975335
 20
-899.56710435
 30
0.0
 40
2.5999999
  1
Telefoon: 0527-685156
  7
ARIAL
  0
TEXT
  5
191
  8
TXT_ALL
 10
2052.63475335
 20
-899.56710435
 30
0.0
 40
2.5999999
  1
Website: www.jonkers-bouwmetaal.nl
  7
ARIAL
  0
TEXT
  5
192
  8
TXT_ALL
 10
2052.63475335
 20
-889.81710435
 30
0.0
 40
2.5999999
  1
Adres: Hoornse Hop 10, 8321 WX Urk
  7
ARIAL
  0
TEXT
  5
193
  8
TXT_ALL
 10
1781.1117136
 20
-622.3921044
 30
0.0
 40
2.5
  1
Art. nr. 91007962
  7
ARIAL
  0
TEXT
  5
194
  8
TXT_ALL
 10
1823.84975042
 20
-622.3921044
 30
0.0
 40
2.5
  1
Omschrijving: H1204-Anker 120x100  100x10
  7
ARIAL
  0
LINE
  5
195
  8
0
 10
2187.66975335
 20
-626.1421044
 30
0.0
 11
1777.66975335
 21
-626.1421044
 31
0.0
  0
LINE
  5
196
  8
0
 10
1820.68975335
 20
-626.1421044
 30
0.0
 11
1820.68975335
 21
-616.1421044
 31
0.0
  0
LINE
  5
197
  8
0
 10
1980.68975335
 20
-626.1421044
 30
0.0
 11
1980.68975335
 21
-616.1421044
 31
0.0
  0
TEXT
  5
198
  8
TXT_ALL
 10
2051.68345335
 20
-622.3921044
 30
0.0
 40
2.5
  1
Behandeling: Thermisch Verzinkt
  7
ARIAL
  0
LINE
  5
199
  8
0
 10
2120.57975335
 20
-883.6421044
 30
0.0
 11
2187.66975335
 21
-883.6421044
 31
0.0
  0
LINE
  5
19A
  8
0
 10
2120.57975335
 20
-903.1421044
 30
0.0
 11
2120.57975335
 21
-883.6421044
 31
0.0
  0
LINE
  5
19B
  8
0
 10
2120.57975335
 20
-903.1421044
 30
0.0
 11
2120.57975335
 21
-883.6421044
 31
0.0
  0
TEXT
  5
19C
  8
TXT_ALL
 10
1915.03495144
 20
-901.98757099
 30
0.0
 40
2.5
  1

  0
TEXT
  5
19D
  8
TXT_ALL
 10
2036.1701344
 20
-891.8921044
 30
0.0
 40
2.5
  1

  0
POLYLINE
  5
19E
  8
0
 66
     1
 10
0.0
 20
0.0
 30
0.0
  0
VERTEX
  5
19F
  8
0
 10
2118.67645335
 20
-626.1421044
 30
0.0
  0
VERTEX
  5
1A0
  8
0
 10
2049.68345335
 20
-626.1421044
 30
0.0
  0
VERTEX
  5
1A1
  8
0
 10
2049.68345335
 20
-616.1421044
 30
0.0
  0
SEQEND
  5
1A2
  8
0
  0
TEXT
  5
1A3
  8
TXT_ALL
 10
2120.67645335
 20
-622.3921044
 30
0.0
 40
2.5
  1
Verpakkingshoeveelheid: 1 st.
  7
ARIAL
  0
TEXT
  5
1A4
  8
TXT_ALL
 10
1982.68975335
 20
-622.3921044
 30
0.0
 40
2.5
  1
Materiaal: S355
  7
ARIAL
  0
TEXT
  5
1A5
  8
TXT_ALL
 10
2155.16217626
 20
-906.39161425
 30
0.0
 40
1.5
  1
Onderdeel van
  7
ARIAL
  0
POLYLINE
  5
1A6
  8
0
 66
     1
 10
0.0
 20
0.0
 30
0.0
  0
VERTEX
  5
1A7
  8
0
 10
1840.64361024
 20
-821.87744666
 30
0.0
  0
VERTEX
  5
1A8
  8
0
 10
1805.28827118
 20
-853.05792488
 30
0.0
  0
VERTEX
  5
1A9
  8
0
 10
1795.93412771
 20
-851.87941358
 30
0.0
  0
SEQEND
  5
1AA
  8
0
  0
POLYLINE
  5
1AB
  8
0
 66
     1
 10
0.0
 20
0.0
 30
0.0
  0
VERTEX
  5
33B
  8
0
 10
1840.643610260971
 20
-821.8774466706353
 30
0.0
  0
VERTEX
  5
33C
  8
0
 10
1840.823347512499
 20
-823.7394206193844
 30
0.0
  0
VERTEX
  5
33D
  8
0
 10
1841.35565204609
 20
-825.5751294816499
 30
0.0
  0
VERTEX
  5
33E
  8
0
 10
1842.220067697214
 20
-827.3140279959412
 30
0.0
  0
VERTEX
  5
33F
  8
0
 10
1843.383375457455
 20
-828.8892912681155
 30
0.0
  0
VERTEX
  5
340
  8
0
 10
1844.800870062365
 20
-830.2403828145631
 30
0.0
  0
VERTEX
  5
341
  8
0
 10
1846.418077989684
 20
-831.3153809453026
 30
0.0
  0
VERTEX
  5
342
  8
0
 10
1848.172850846243
 20
-832.0729740853919
 30
0.0
  0
VERTEX
  5
343
  8
0
 10
1849.997753695835
 20
-832.4840483555718
 30
0.0
  0
SEQEND
  5
3CC
  8
0
  0
POLYLINE
  5
1AC
  8
0
 66
     1
 10
0.0
 20
0.0
 30
0.0
  0
VERTEX
  5
1AD
  8
0
 10
1849.99775371
 20
-832.48404838
 30
0.0
  0
VERTEX
  5
1AE
  8
0
 10
1814.64241465
 20
-863.6645266
 30
0.0
  0
SEQEND
  5
1AF
  8
0
  0
POLYLINE
  5
1B0
  8
0
 66
     1
 10
0.0
 20
0.0
 30
0.0
  0
VERTEX
  5
344
  8
0
 10
1805.288271200971
 20
-853.0579249006353
 30
0.0
  0
VERTEX
  5
345
  8
0
 10
1805.468008452499
 20
-854.9198988493844
 30
0.0
  0
VERTEX
  5
346
  8
0
 10
1806.00031298609
 20
-856.7556077116499
 30
0.0
  0
VERTEX
  5
347
  8
0
 10
1806.864728637214
 20
-858.4945062259411
 30
0.0
  0
VERTEX
  5
348
  8
0
 10
1808.028036397455
 20
-860.0697694981154
 30
0.0
  0
VERTEX
  5
349
  8
0
 10
1809.445531002365
 20
-861.420861044563
 30
0.0
  0
VERTEX
  5
34A
  8
0
 10
1811.062738929684
 20
-862.4958591753026
 30
0.0
  0
VERTEX
  5
34B
  8
0
 10
1812.817511786243
 20
-863.2534523153919
 30
0.0
  0
VERTEX
  5
34C
  8
0
 10
1814.642414635835
 20
-863.6645265855717
 30
0.0
  0
SEQEND
  5
3CD
  8
0
  0
POLYLINE
  5
1B1
  8
0
 66
     1
 10
0.0
 20
0.0
 30
0.0
  0
VERTEX
  5
1B2
  8
0
 10
1814.64241465
 20
-863.6645266
 30
0.0
  0
VERTEX
  5
1B3
  8
0
 10
1814.64241465
 20
-873.09261702
 30
0.0
  0
SEQEND
  5
1B4
  8
0
  0
POLYLINE
  5
1B5
  8
0
 66
     1
 10
0.0
 20
0.0
 30
0.0
  0
VERTEX
  5
34D
  8
0
 10
1795.934127751942
 20
-851.8794136112706
 30
0.0
  0
VERTEX
  5
34E
  8
0
 10
1796.293602254998
 20
-855.6033615087687
 30
0.0
  0
VERTEX
  5
34F
  8
0
 10
1797.358211322179
 20
-859.2747792333
 30
0.0
  0
VERTEX
  5
350
  8
0
 10
1799.087042624428
 20
-862.7525762618823
 30
0.0
  0
VERTEX
  5
351
  8
0
 10
1801.413658144911
 20
-865.9031028062308
 30
0.0
  0
VERTEX
  5
352
  8
0
 10
1804.248647354729
 20
-868.605285899126
 30
0.0
  0
VERTEX
  5
353
  8
0
 10
1807.483063209367
 20
-870.7552821606051
 30
0.0
  0
VERTEX
  5
354
  8
0
 10
1810.992608922486
 20
-872.2704684407839
 30
0.0
  0
VERTEX
  5
355
  8
0
 10
1814.642414621669
 20
-873.0926169811434
 30
0.0
  0
SEQEND
  5
3CE
  8
0
  0
POLYLINE
  5
1B6
  8
0
 66
     1
 10
0.0
 20
0.0
 30
0.0
  0
VERTEX
  5
356
  8
0
 10
1833.490435655936
 20
-776.6359160807478
 30
0.0
  0
VERTEX
  5
357
  8
0
 10
1833.161288246844
 20
-776.6882243109204
 30
0.0
  0
VERTEX
  5
358
  8
0
 10
1832.821130222688
 20
-776.9232090990264
 30
0.0
  0
VERTEX
  5
359
  8
0
 10
1832.482621093998
 20
-777.3321251202821
 30
0.0
  0
VERTEX
  5
35A
  8
0
 10
1832.15835900509
 20
-777.8997539282337
 30
0.0
  0
VERTEX
  5
35B
  8
0
 10
1831.860411874509
 20
-778.6049703329397
 30
0.0
  0
VERTEX
  5
35C
  8
0
 10
1831.599868268655
 20
-779.4215286078073
 30
0.0
  0
VERTEX
  5
35D
  8
0
 10
1831.38642472351
 20
-780.319039265176
 30
0.0
  0
VERTEX
  5
35E
  8
0
 10
1831.22802487296
 20
-781.2641000484192
 30
0.0
  0
VERTEX
  5
35F
  8
0
 10
1831.130563814088
 20
-782.2215390489358
 30
0.0
  0
VERTEX
  5
360
  8
0
 10
1831.097668711955
 20
-783.1557236834949
 30
0.0
  0
SEQEND
  5
3CF
  8
0
  0
POLYLINE
  5
1B7
  8
0
 66
     1
 10
0.0
 20
0.0
 30
0.0
  0
VERTEX
  5
361
  8
0
 10
1834.633202588045
 20
-780.0376758795828
 30
0.0
  0
VERTEX
  5
362
  8
0
 10
1834.597410881372
 20
-779.1254455447964
 30
0.0
  0
VERTEX
  5
363
  8
0
 10
1834.491485097069
 20
-778.3132854269146
 30
0.0
  0
VERTEX
  5
364
  8
0
 10
1834.319714561591
 20
-777.6340828904466
 30
0.0
  0
VERTEX
  5
365
  8
0
 10
1834.089054898697
 20
-777.115341356086
 30
0.0
  0
VERTEX
  5
366
  8
0
 10
1833.80884637054
 20
-776.7780665855676
 30
0.0
  0
VERTEX
  5
367
  8
0
 10
1833.490435655936
 20
-776.6359160807478
 30
0.0
  0
SEQEND
  5
3D0
  8
0
  0
POLYLINE
  5
1B8
  8
0
 66
     1
 10
0.0
 20
0.0
 30
0.0
  0
VERTEX
  5
1B9
  8
0
 10
1834.6332026
 20
-780.03767588
 30
0.0
  0
VERTEX
  5
1BA
  8
0
 10
1834.6332026
 20
-817.75003754
 30
0.0
  0
SEQEND
  5
1BB
  8
0
  0
POLYLINE
  5
1BC
  8
0
 66
     1
 10
0.0
 20
0.0
 30
0.0
  0
VERTEX
  5
368
  8
0
 10
1832.24043565
 20
-824.2698451699999
 30
0.0
  0
VERTEX
  5
369
  8
0
 10
1832.569583059413
 20
-824.217536936394
 30
0.0
  0
VERTEX
  5
36A
  8
0
 10
1832.909741083656
 20
-823.9825521449546
 30
0.0
  0
VERTEX
  5
36B
  8
0
 10
1833.248250212197
 20
-823.5736361205895
 30
0.0
  0
VERTEX
  5
36C
  8
0
 10
1833.572512300727
 20
-823.0060073098681
 30
0.0
  0
VERTEX
  5
36D
  8
0
 10
1833.870459430711
 20
-822.3007909028353
 30
0.0
  0
VERTEX
  5
36E
  8
0
 10
1834.131003035776
 20
-821.4842326261702
 30
0.0
  0
VERTEX
  5
36F
  8
0
 10
1834.344446579966
 20
-820.5867219676004
 30
0.0
  0
VERTEX
  5
370
  8
0
 10
1834.502846429432
 20
-819.6416611837969
 30
0.0
  0
VERTEX
  5
371
  8
0
 10
1834.600307487131
 20
-818.684222183382
 30
0.0
  0
VERTEX
  5
372
  8
0
 10
1834.633202588045
 20
-817.7500375495828
 30
0.0
  0
SEQEND
  5
3D1
  8
0
  0
POLYLINE
  5
1BD
  8
0
 66
     1
 10
0.0
 20
0.0
 30
0.0
  0
VERTEX
  5
373
  8
0
 10
1831.097668711955
 20
-820.8680853534948
 30
0.0
  0
VERTEX
  5
374
  8
0
 10
1831.133460417781
 20
-821.7803156948972
 30
0.0
  0
VERTEX
  5
375
  8
0
 10
1831.239386202102
 20
-822.5924758186286
 30
0.0
  0
VERTEX
  5
376
  8
0
 10
1831.41115673841
 20
-823.2716783595533
 30
0.0
  0
VERTEX
  5
377
  8
0
 10
1831.64181640283
 20
-823.790419896472
 30
0.0
  0
VERTEX
  5
378
  8
0
 10
1831.922024933038
 20
-824.1276946672979
 30
0.0
  0
VERTEX
  5
379
  8
0
 10
1832.24043565
 20
-824.2698451699999
 30
0.0
  0
SEQEND
  5
3D2
  8
0
  0
LINE
  5
1BE
  8
0
 10
1831.09766869
 20
-820.86808537
 30
0.0
 11
1831.09766869
 21
-783.1557237
 31
0.0
  0
POLYLINE
  5
1BF
  8
0
 66
     1
 10
0.0
 20
0.0
 30
0.0
  0
VERTEX
  5
37A
  8
0
 10
1813.691445775936
 20
-794.0969838907479
 30
0.0
  0
VERTEX
  5
37B
  8
0
 10
1813.362298366844
 20
-794.1492921209204
 30
0.0
  0
VERTEX
  5
37C
  8
0
 10
1813.022140342688
 20
-794.3842769090264
 30
0.0
  0
VERTEX
  5
37D
  8
0
 10
1812.683631213998
 20
-794.7931929302821
 30
0.0
  0
VERTEX
  5
37E
  8
0
 10
1812.359369125089
 20
-795.3608217382338
 30
0.0
  0
VERTEX
  5
37F
  8
0
 10
1812.061421994509
 20
-796.0660381429398
 30
0.0
  0
VERTEX
  5
380
  8
0
 10
1811.800878388654
 20
-796.8825964178073
 30
0.0
  0
VERTEX
  5
381
  8
0
 10
1811.58743484351
 20
-797.780107075176
 30
0.0
  0
VERTEX
  5
382
  8
0
 10
1811.42903499296
 20
-798.7251678584192
 30
0.0
  0
VERTEX
  5
383
  8
0
 10
1811.331573934088
 20
-799.6826068589359
 30
0.0
  0
VERTEX
  5
384
  8
0
 10
1811.298678831955
 20
-800.6167914934949
 30
0.0
  0
SEQEND
  5
3D3
  8
0
  0
POLYLINE
  5
1C0
  8
0
 66
     1
 10
0.0
 20
0.0
 30
0.0
  0
VERTEX
  5
385
  8
0
 10
1814.834212708045
 20
-797.4987436895829
 30
0.0
  0
VERTEX
  5
386
  8
0
 10
1814.798421001372
 20
-796.5865133547965
 30
0.0
  0
VERTEX
  5
387
  8
0
 10
1814.692495217069
 20
-795.7743532369146
 30
0.0
  0
VERTEX
  5
388
  8
0
 10
1814.520724681591
 20
-795.0951507004467
 30
0.0
  0
VERTEX
  5
389
  8
0
 10
1814.290065018697
 20
-794.576409166086
 30
0.0
  0
VERTEX
  5
38A
  8
0
 10
1814.00985649054
 20
-794.2391343955676
 30
0.0
  0
VERTEX
  5
38B
  8
0
 10
1813.691445775936
 20
-794.0969838907479
 30
0.0
  0
SEQEND
  5
3D4
  8
0
  0
POLYLINE
  5
1C1
  8
0
 66
     1
 10
0.0
 20
0.0
 30
0.0
  0
VERTEX
  5
1C2
  8
0
 10
1814.83421273
 20
-797.49874369
 30
0.0
  0
VERTEX
  5
1C3
  8
0
 10
1814.83421273
 20
-835.21110535
 30
0.0
  0
SEQEND
  5
1C4
  8
0
  0
POLYLINE
  5
1C5
  8
0
 66
     1
 10
0.0
 20
0.0
 30
0.0
  0
VERTEX
  5
38C
  8
0
 10
1812.44144577
 20
-841.73091297
 30
0.0
  0
VERTEX
  5
38D
  8
0
 10
1812.770593179413
 20
-841.678604736394
 30
0.0
  0
VERTEX
  5
38E
  8
0
 10
1813.110751203656
 20
-841.4436199449547
 30
0.0
  0
VERTEX
  5
38F
  8
0
 10
1813.449260332197
 20
-841.0347039205895
 30
0.0
  0
VERTEX
  5
390
  8
0
 10
1813.773522420727
 20
-840.4670751098681
 30
0.0
  0
VERTEX
  5
391
  8
0
 10
1814.071469550711
 20
-839.7618587028353
 30
0.0
  0
VERTEX
  5
392
  8
0
 10
1814.332013155776
 20
-838.9453004261702
 30
0.0
  0
VERTEX
  5
393
  8
0
 10
1814.545456699966
 20
-838.0477897676004
 30
0.0
  0
VERTEX
  5
394
  8
0
 10
1814.703856549432
 20
-837.102728983797
 30
0.0
  0
VERTEX
  5
395
  8
0
 10
1814.801317607131
 20
-836.145289983382
 30
0.0
  0
VERTEX
  5
396
  8
0
 10
1814.834212708045
 20
-835.2111053495828
 30
0.0
  0
SEQEND
  5
3D5
  8
0
  0
POLYLINE
  5
1C6
  8
0
 66
     1
 10
0.0
 20
0.0
 30
0.0
  0
VERTEX
  5
397
  8
0
 10
1811.298678831955
 20
-838.3291531534949
 30
0.0
  0
VERTEX
  5
398
  8
0
 10
1811.334470537781
 20
-839.2413834948973
 30
0.0
  0
VERTEX
  5
399
  8
0
 10
1811.440396322101
 20
-840.0535436186286
 30
0.0
  0
VERTEX
  5
39A
  8
0
 10
1811.612166858409
 20
-840.7327461595534
 30
0.0
  0
VERTEX
  5
39B
  8
0
 10
1811.84282652283
 20
-841.251487696472
 30
0.0
  0
VERTEX
  5
39C
  8
0
 10
1812.123035053038
 20
-841.5887624672979
 30
0.0
  0
VERTEX
  5
39D
  8
0
 10
1812.44144577
 20
-841.73091297
 30
0.0
  0
SEQEND
  5
3D6
  8
0
  0
LINE
  5
1C7
  8
0
 10
1811.29867882
 20
-838.32915317
 30
0.0
 11
1811.29867882
 21
-800.61679151
 31
0.0
  0
POLYLINE
  5
1C8
  8
0
 66
     1
 10
0.0
 20
0.0
 30
0.0
  0
VERTEX
  5
1C9
  8
0
 10
1840.64361024
 20
-746.45272334
 30
0.0
  0
VERTEX
  5
1CA
  8
0
 10
1805.28827118
 20
-777.63320156
 30
0.0
  0
VERTEX
  5
1CB
  8
0
 10
1795.93412771
 20
-776.45469026
 30
0.0
  0
SEQEND
  5
1CC
  8
0
  0
LINE
  5
1CD
  8
0
 10
1831.28946677
 20
-745.27421203
 30
0.0
 11
1795.93412771
 21
-776.45469026
 31
0.0
  0
LINE
  5
1CE
  8
0
 10
1840.64361024
 20
-746.45272334
 30
0.0
 11
1831.28946677
 21
-745.27421203
 31
0.0
  0
POLYLINE
  5
1CF
  8
0
 66
     1
 10
0.0
 20
0.0
 30
0.0
  0
VERTEX
  5
1D0
  8
0
 10
1840.64361024
 20
-746.45272334
 30
0.0
  0
VERTEX
  5
1D1
  8
0
 10
1840.64361024
 20
-821.87744666
 30
0.0
  0
VERTEX
  5
1D2
  8
0
 10
1805.28827118
 20
-853.05792488
 30
0.0
  0
VERTEX
  5
1D3
  8
0
 10
1805.28827118
 20
-777.63320156
 30
0.0
  0
SEQEND
  5
1D4
  8
0
  0
POLYLINE
  5
1D5
  8
0
 66
     1
 10
0.0
 20
0.0
 30
0.0
  0
VERTEX
  5
1D6
  8
0
 10
1805.28827118
 20
-853.05792488
 30
0.0
  0
VERTEX
  5
1D7
  8
0
 10
1795.93412771
 20
-851.87941358
 30
0.0
  0
VERTEX
  5
1D8
  8
0
 10
1795.93412771
 20
-776.45469026
 30
0.0
  0
SEQEND
  5
1D9
  8
0
  0
LINE
  5
1DA
  8
0
  6
STRICHPUNKT2
 62
     1
 10
1815.40498164
 20
-799.35239542
 30
0.0
 11
1811.4128512
 21
-798.84943426
 31
0.0
  0
LINE
  5
1DB
  8
0
  6
STRICHPUNKT2
 62
     1
 10
1815.40498164
 20
-837.06475709
 30
0.0
 11
1811.29867882
 21
-836.54741156
 31
0.0
  0
LINE
  5
1DC
  8
0
  6
STRICHPUNKT2
 62
     1
 10
1813.06644577
 20
-791.98669978
 30
0.0
 11
1813.06644577
 21
-843.84119707
 31
0.0
  0
LINE
  5
1DD
  8
0
  6
STRICHPUNKT2
 62
     1
 10
1810.41479534
 20
-801.39630346
 30
0.0
 11
1815.7180962
 21
-796.71923173
 31
0.0
  0
LINE
  5
1DE
  8
0
  6
STRICHPUNKT2
 62
     1
 10
1810.41479534
 20
-839.10866513
 30
0.0
 11
1815.7180962
 21
-834.43159339
 31
0.0
  0
LINE
  5
1DF
  8
0
  6
STRICHPUNKT2
 62
     1
 10
1835.20397151
 20
-781.89132762
 30
0.0
 11
1831.21184108
 21
-781.38836646
 31
0.0
  0
LINE
  5
1E0
  8
0
  6
STRICHPUNKT2
 62
     1
 10
1835.20397151
 20
-819.60368928
 30
0.0
 11
1831.09766869
 21
-819.08634375
 31
0.0
  0
LINE
  5
1E1
  8
0
  6
STRICHPUNKT2
 62
     1
 10
1832.86543565
 20
-774.52563198
 30
0.0
 11
1832.86543565
 21
-826.38012927
 31
0.0
  0
LINE
  5
1E2
  8
0
  6
STRICHPUNKT2
 62
     1
 10
1830.21378522
 20
-783.93523566
 30
0.0
 11
1835.51708607
 21
-779.25816393
 31
0.0
  0
LINE
  5
1E3
  8
0
  6
STRICHPUNKT2
 62
     1
 10
1830.21378522
 20
-821.64759732
 30
0.0
 11
1835.51708607
 21
-816.97052559
 31
0.0
  0
POLYLINE
  5
1E4
  8
0
 66
     1
 10
0.0
 20
0.0
 30
0.0
  0
VERTEX
  5
39E
  8
0
 10
1871.83654411
 20
-858.311934754017
 30
0.0
  0
VERTEX
  5
39F
  8
0
 10
1871.941389762238
 20
-858.6514546646423
 30
0.0
  0
VERTEX
  5
3A0
  8
0
 10
1872.251529681793
 20
-858.976735700431
 30
0.0
  0
VERTEX
  5
3A1
  8
0
 10
1872.753957139352
 20
-859.2741361399643
 30
0.0
  0
VERTEX
  5
3A2
  8
0
 10
1873.427601200385
 20
-859.5311835255839
 30
0.0
  0
VERTEX
  5
3A3
  8
0
 10
1874.244210403522
 20
-859.737097736593
 30
0.0
  0
VERTEX
  5
3A4
  8
0
 10
1875.169537577761
 20
-859.8832430887874
 30
0.0
  0
VERTEX
  5
3A5
  8
0
 10
1876.164776109301
 20
-859.9634905000444
 30
0.0
  0
VERTEX
  5
3A6
  8
0
 10
1877.188187423497
 20
-859.974474533377
 30
0.0
  0
VERTEX
  5
3A7
  8
0
 10
1878.196851428156
 20
-859.9157345375138
 30
0.0
  0
VERTEX
  5
3A8
  8
0
 10
1879.148466507619
 20
-859.789733965812
 30
0.0
  0
VERTEX
  5
3A9
  8
0
 10
1880.00312357902
 20
-859.601757063305
 30
0.0
  0
SEQEND
  5
3D7
  8
0
  0
POLYLINE
  5
1E5
  8
0
 66
     1
 10
0.0
 20
0.0
 30
0.0
  0
VERTEX
  5
3AA
  8
0
 10
1873.669964665784
 20
-857.0221124499288
 30
0.0
  0
VERTEX
  5
3AB
  8
0
 10
1873.038135290317
 20
-857.2281097317314
 30
0.0
  0
VERTEX
  5
3AC
  8
0
 10
1872.52498678642
 20
-857.4679710089832
 30
0.0
  0
VERTEX
  5
3AD
  8
0
 10
1872.146552423437
 20
-857.7342018420936
 30
0.0
  0
VERTEX
  5
3AE
  8
0
 10
1871.914656341993
 20
-858.0184838775592
 30
0.0
  0
VERTEX
  5
3AF
  8
0
 10
1871.83654411
 20
-858.311934754017
 30
0.0
  0
SEQEND
  5
3D8
  8
0
  0
POLYLINE
  5
1E6
  8
0
 66
     1
 10
0.0
 20
0.0
 30
0.0
  0
VERTEX
  5
1E7
  8
0
 10
1873.66996465
 20
-857.02211244
 30
0.0
  0
VERTEX
  5
1E8
  8
0
 10
1896.88676639
 20
-850.68895352
 30
0.0
  0
SEQEND
  5
1E9
  8
0
  0
POLYLINE
  5
1EA
  8
0
 66
     1
 10
0.0
 20
0.0
 30
0.0
  0
VERTEX
  5
3B0
  8
0
 10
1905.05334585
 20
-851.97877584
 30
0.0
  0
VERTEX
  5
3B1
  8
0
 10
1904.948500195032
 20
-851.6392559309836
 30
0.0
  0
VERTEX
  5
3B2
  8
0
 10
1904.638360274673
 20
-851.3139748968614
 30
0.0
  0
VERTEX
  5
3B3
  8
0
 10
1904.135932818158
 20
-851.0165744588619
 30
0.0
  0
VERTEX
  5
3B4
  8
0
 10
1903.462288759786
 20
-850.7595270744691
 30
0.0
  0
VERTEX
  5
3B5
  8
0
 10
1902.645679560563
 20
-850.5536128642328
 30
0.0
  0
VERTEX
  5
3B6
  8
0
 10
1901.720352391029
 20
-850.4074675122488
 30
0.0
  0
VERTEX
  5
3B7
  8
0
 10
1900.725113864443
 20
-850.3272201005768
 30
0.0
  0
VERTEX
  5
3B8
  8
0
 10
1899.701702554872
 20
-850.3162360661913
 30
0.0
  0
VERTEX
  5
3B9
  8
0
 10
1898.693038553938
 20
-850.374976060404
 30
0.0
  0
VERTEX
  5
3BA
  8
0
 10
1897.74142347677
 20
-850.5009766299486
 30
0.0
  0
VERTEX
  5
3BB
  8
0
 10
1896.886766405784
 20
-850.6889535299289
 30
0.0
  0
SEQEND
  5
3D9
  8
0
  0
POLYLINE
  5
1EB
  8
0
 66
     1
 10
0.0
 20
0.0
 30
0.0
  0
VERTEX
  5
3BC
  8
0
 10
1903.21992531902
 20
-853.268598143305
 30
0.0
  0
VERTEX
  5
3BD
  8
0
 10
1903.851754688691
 20
-853.0626008608666
 30
0.0
  0
VERTEX
  5
3BE
  8
0
 10
1904.364903186954
 20
-852.8227395834255
 30
0.0
  0
VERTEX
  5
3BF
  8
0
 10
1904.74333754474
 20
-852.5565087505306
 30
0.0
  0
VERTEX
  5
3C0
  8
0
 10
1904.975233621663
 20
-852.2722267156258
 30
0.0
  0
VERTEX
  5
3C1
  8
0
 10
1905.05334585
 20
-851.97877584
 30
0.0
  0
SEQEND
  5
3DA
  8
0
  0
LINE
  5
1EC
  8
0
 10
1903.21992531
 20
-853.26859816
 30
0.0
 11
1880.00312357
 21
-859.60175708
 31
0.0
  0
LINE
  5
1ED
  8
0
 10
1908.18384932
 20
-875.44963962
 30
0.0
 11
1814.64241465
 21
-863.6645266
 31
0.0
  0
LINE
  5
1EE
  8
0
 10
1849.99775371
 20
-832.48404838
 30
0.0
 11
1814.64241465
 21
-863.6645266
 31
0.0
  0
POLYLINE
  5
1EF
  8
0
 66
     1
 10
0.0
 20
0.0
 30
0.0
  0
VERTEX
  5
1F0
  8
0
 10
1849.99775371
 20
-832.48404838
 30
0.0
  0
VERTEX
  5
1F1
  8
0
 10
1943.53918837
 20
-844.2691614
 30
0.0
  0
VERTEX
  5
1F2
  8
0
 10
1908.18384932
 20
-875.44963962
 30
0.0
  0
VERTEX
  5
1F3
  8
0
 10
1908.18384932
 20
-884.87773004
 30
0.0
  0
VERTEX
  5
1F4
  8
0
 10
1814.64241465
 20
-873.09261702
 30
0.0
  0
SEQEND
  5
1F5
  8
0
  0
LINE
  5
1F6
  8
0
 10
1814.64241465
 20
-863.6645266
 30
0.0
 11
1814.64241465
 21
-873.09261702
 31
0.0
  0
LINE
  5
1F7
  8
0
 10
1943.53918837
 20
-853.69725182
 30
0.0
 11
1908.18384932
 21
-884.87773004
 31
0.0
  0
LINE
  5
1F8
  8
0
 10
1943.53918837
 20
-844.2691614
 30
0.0
 11
1943.53918837
 21
-853.69725182
 31
0.0
  0
LINE
  5
1F9
  8
0
  6
STRICHPUNKT2
 62
     1
 10
1876.83654411
 20
-855.95491216
 30
0.0
 11
1876.83654411
 21
-859.97860143
 31
0.0
  0
LINE
  5
1FA
  8
0
  6
STRICHPUNKT2
 62
     1
 10
1900.05334585
 20
-849.62175324
 30
0.0
 11
1900.05334585
 21
-854.13238858
 31
0.0
  0
LINE
  5
1FB
  8
0
  6
STRICHPUNKT2
 62
     1
 10
1871.03234368
 20
-859.89522449
 30
0.0
 11
1905.85754628
 21
-850.39548611
 31
0.0
  0
LINE
  5
1FC
  8
0
  6
STRICHPUNKT2
 62
     1
 10
1881.5864133
 20
-860.24666824
 30
0.0
 11
1872.08667492
 21
-856.37720129
 31
0.0
  0
LINE
  5
1FD
  8
0
  6
STRICHPUNKT2
 62
     1
 10
1904.80321504
 20
-853.91350932
 30
0.0
 11
1895.30347666
 21
-850.04404237
 31
0.0
  0
POLYLINE
  5
1FE
  8
0
 66
     1
 10
0.0
 20
0.0
 30
0.0
  0
VERTEX
  5
1FF
  8
0
 10
2026.85447086
 20
-729.42331833
 30
0.0
 42
-0.414213562
  0
VERTEX
  5
200
  8
0
 10
2016.85447086
 20
-719.42331833
 30
0.0
  0
VERTEX
  5
201
  8
0
 10
2006.85447086
 20
-719.42331833
 30
0.0
  0
SEQEND
  5
202
  8
0
  0
ARC
  5
203
  8
0
 10
2026.85447086
 20
-719.42331833
 30
0.0
 40
20.0
 50
180.0
 51
-90.0
  0
LINE
  5
204
  8
0
 10
2026.85447086
 20
-729.42331833
 30
0.0
 11
2026.85447086
 21
-739.42331833
 31
0.0
  0
POLYLINE
  5
205
  8
0
 66
     1
 10
0.0
 20
0.0
 30
0.0
  0
VERTEX
  5
206
  8
0
 10
2016.85447086
 20
-719.42331833
 30
0.0
  0
VERTEX
  5
207
  8
0
 10
2016.85447086
 20
-639.42331833
 30
0.0
  0
VERTEX
  5
208
  8
0
 10
2006.85447086
 20
-639.42331833
 30
0.0
  0
SEQEND
  5
209
  8
0
  0
LINE
  5
20A
  8
0
 10
2006.85447086
 20
-719.42331833
 30
0.0
 11
2006.85447086
 21
-639.42331833
 31
0.0
  0
LINE
  5
20B
  8
0
 10
2016.85447086
 20
-719.42331833
 30
0.0
 11
2006.85447086
 21
-719.42331833
 31
0.0
  0
LINE
  5
20C
  8
0
  6
STRICHPUNKT2
 62
     1
 10
2006.85447086
 20
-669.42331833
 30
0.0
 11
2004.35447086
 21
-669.42331833
 31
0.0
  0
LINE
  5
20D
  8
0
  6
STRICHPUNKT2
 62
     1
 10
2019.35447086
 20
-669.42331833
 30
0.0
 11
2016.85447086
 21
-669.42331833
 31
0.0
  0
LINE
  5
20E
  8
0
  6
STRICHPUNKT2
 62
     1
 10
2006.85447086
 20
-709.42331833
 30
0.0
 11
2004.35447086
 21
-709.42331833
 31
0.0
  0
LINE
  5
20F
  8
0
  6
STRICHPUNKT2
 62
     1
 10
2019.35447086
 20
-709.42331833
 30
0.0
 11
2016.85447086
 21
-709.42331833
 31
0.0
  0
POLYLINE
  5
210
  8
0
 66
     1
 10
0.0
 20
0.0
 30
0.0
  0
VERTEX
  5
211
  8
0
 10
2126.85447086
 20
-729.42331833
 30
0.0
  0
VERTEX
  5
212
  8
0
 10
2026.85447086
 20
-729.42331833
 30
0.0
  0
VERTEX
  5
213
  8
0
 10
2026.85447086
 20
-739.42331833
 30
0.0
  0
SEQEND
  5
214
  8
0
  0
LINE
  5
215
  8
0
 10
2126.85447086
 20
-739.42331833
 30
0.0
 11
2026.85447086
 21
-739.42331833
 31
0.0
  0
LINE
  5
216
  8
0
 10
2126.85447086
 20
-729.42331833
 30
0.0
 11
2126.85447086
 21
-739.42331833
 31
0.0
  0
LINE
  5
217
  8
0
  6
STRICHPUNKT2
 62
     1
 10
2079.35447086
 20
-739.42331833
 30
0.0
 11
2079.35447086
 21
-741.92331833
 31
0.0
  0
LINE
  5
218
  8
0
  6
STRICHPUNKT2
 62
     1
 10
2079.35447086
 20
-726.92331833
 30
0.0
 11
2079.35447086
 21
-729.42331833
 31
0.0
  0
LINE
  5
219
  8
0
  6
STRICHPUNKT2
 62
     1
 10
2094.35447086
 20
-739.42331833
 30
0.0
 11
2094.35447086
 21
-741.92331833
 31
0.0
  0
LINE
  5
21A
  8
0
  6
STRICHPUNKT2
 62
     1
 10
2094.35447086
 20
-726.92331833
 30
0.0
 11
2094.35447086
 21
-729.42331833
 31
0.0
  0
LINE
  5
21B
  8
0
 10
1866.46903904
 20
-719.42331833
 30
0.0
 11
1966.46903904
 21
-719.42331833
 31
0.0
  0
LINE
  5
21C
  8
0
 10
1966.46903904
 20
-739.42331833
 30
0.0
 11
1966.46903904
 21
-719.42331833
 31
0.0
  0
LINE
  5
21D
  8
0
 10
1866.46903904
 20
-739.42331833
 30
0.0
 11
1966.46903904
 21
-739.42331833
 31
0.0
  0
LINE
  5
21E
  8
0
 10
1866.46903904
 20
-719.42331833
 30
0.0
 11
1866.46903904
 21
-739.42331833
 31
0.0
  0
POLYLINE
  5
21F
  8
0
 66
     1
 10
0.0
 20
0.0
 30
0.0
 70
     1
  0
VERTEX
  5
220
  8
0
 10
1893.46903904
 20
-669.42331833
 30
0.0
  0
VERTEX
  5
221
  8
0
 10
1893.46903904
 20
-709.42331833
 30
0.0
 42
-1.0
  0
VERTEX
  5
222
  8
0
 10
1883.46903904
 20
-709.42331833
 30
0.0
  0
VERTEX
  5
223
  8
0
 10
1883.46903904
 20
-669.42331833
 30
0.0
 42
-1.0
  0
SEQEND
  5
224
  8
0
  0
POLYLINE
  5
225
  8
0
 66
     1
 10
0.0
 20
0.0
 30
0.0
 70
     1
  0
VERTEX
  5
226
  8
0
 10
1949.46903904
 20
-669.42331833
 30
0.0
  0
VERTEX
  5
227
  8
0
 10
1949.46903904
 20
-709.42331833
 30
0.0
 42
-1.0
  0
VERTEX
  5
228
  8
0
 10
1939.46903904
 20
-709.42331833
 30
0.0
  0
VERTEX
  5
229
  8
0
 10
1939.46903904
 20
-669.42331833
 30
0.0
 42
-1.0
  0
SEQEND
  5
22A
  8
0
  0
LINE
  5
22B
  8
0
 10
1866.46903904
 20
-639.42331833
 30
0.0
 11
1966.46903904
 21
-639.42331833
 31
0.0
  0
LINE
  5
22C
  8
0
 10
1966.46903904
 20
-719.42331833
 30
0.0
 11
1966.46903904
 21
-639.42331833
 31
0.0
  0
LINE
  5
22D
  8
0
 10
1866.46903904
 20
-719.42331833
 30
0.0
 11
1966.46903904
 21
-719.42331833
 31
0.0
  0
LINE
  5
22E
  8
0
 10
1866.46903904
 20
-639.42331833
 30
0.0
 11
1866.46903904
 21
-719.42331833
 31
0.0
  0
LINE
  5
22F
  8
0
  6
STRICHPUNKT2
 62
     1
 10
1944.46903904
 20
-661.92331833
 30
0.0
 11
1944.46903904
 21
-716.92331833
 31
0.0
  0
LINE
  5
230
  8
0
  6
STRICHPUNKT2
 62
     1
 10
1951.96903904
 20
-669.42331833
 30
0.0
 11
1936.96903904
 21
-669.42331833
 31
0.0
  0
LINE
  5
231
  8
0
  6
STRICHPUNKT2
 62
     1
 10
1951.96903904
 20
-709.42331833
 30
0.0
 11
1936.96903904
 21
-709.42331833
 31
0.0
  0
LINE
  5
232
  8
0
  6
STRICHPUNKT2
 62
     1
 10
1888.46903904
 20
-661.92331833
 30
0.0
 11
1888.46903904
 21
-716.92331833
 31
0.0
  0
LINE
  5
233
  8
0
  6
STRICHPUNKT2
 62
     1
 10
1895.96903904
 20
-669.42331833
 30
0.0
 11
1880.96903904
 21
-669.42331833
 31
0.0
  0
LINE
  5
234
  8
0
  6
STRICHPUNKT2
 62
     1
 10
1895.96903904
 20
-709.42331833
 30
0.0
 11
1880.96903904
 21
-709.42331833
 31
0.0
  0
LINE
  5
235
  8
0
 10
1866.46903904
 20
-739.42331833
 30
0.0
 11
1966.46903904
 21
-739.42331833
 31
0.0
  0
LINE
  5
236
  8
0
  6
STRICHPUNKT2
 62
     1
 10
1929.4594201
 20
-739.42331833
 30
0.0
 11
1929.4594201
 21
-741.92331833
 31
0.0
  0
LINE
  5
237
  8
0
  6
STRICHPUNKT2
 62
     1
 10
1903.47865799
 20
-739.42331833
 30
0.0
 11
1903.47865799
 21
-741.92331833
 31
0.0
  0
POLYLINE
  5
238
  8
0
 66
     1
 10
0.0
 20
0.0
 30
0.0
  0
VERTEX
  5
239
  8
0
 10
2016.85447086
 20
-765.20453226
 30
0.0
  0
VERTEX
  5
23A
  8
0
 10
2026.85447086
 20
-765.20453226
 30
0.0
  0
VERTEX
  5
23B
  8
0
 10
2026.85447086
 20
-865.20453226
 30
0.0
  0
VERTEX
  5
23C
  8
0
 10
2016.85447086
 20
-865.20453226
 30
0.0
  0
SEQEND
  5
23D
  8
0
  0
POLYLINE
  5
23E
  8
0
 66
     1
 10
0.0
 20
0.0
 30
0.0
  0
VERTEX
  5
23F
  8
0
 10
2016.85447086
 20
-765.20453226
 30
0.0
  0
VERTEX
  5
240
  8
0
 10
2016.85447086
 20
-865.20453226
 30
0.0
  0
VERTEX
  5
241
  8
0
 10
2006.85447086
 20
-865.20453226
 30
0.0
  0
SEQEND
  5
242
  8
0
  0
LINE
  5
243
  8
0
 10
2006.85447086
 20
-765.20453226
 30
0.0
 11
2006.85447086
 21
-865.20453226
 31
0.0
  0
LINE
  5
244
  8
0
 10
2016.85447086
 20
-765.20453226
 30
0.0
 11
2006.85447086
 21
-765.20453226
 31
0.0
  0
LINE
  5
245
  8
0
  6
STRICHPUNKT2
 62
     1
 10
2006.85447086
 20
-843.20453226
 30
0.0
 11
2004.35447086
 21
-843.20453226
 31
0.0
  0
LINE
  5
246
  8
0
  6
STRICHPUNKT2
 62
     1
 10
2019.35447086
 20
-843.20453226
 30
0.0
 11
2016.85447086
 21
-843.20453226
 31
0.0
  0
LINE
  5
247
  8
0
  6
STRICHPUNKT2
 62
     1
 10
2006.85447086
 20
-787.20453226
 30
0.0
 11
2004.35447086
 21
-787.20453226
 31
0.0
  0
LINE
  5
248
  8
0
  6
STRICHPUNKT2
 62
     1
 10
2019.35447086
 20
-787.20453226
 30
0.0
 11
2016.85447086
 21
-787.20453226
 31
0.0
  0
POLYLINE
  5
249
  8
0
 66
     1
 10
0.0
 20
0.0
 30
0.0
 70
     1
  0
VERTEX
  5
24A
  8
0
 10
2083.68459788
 20
-830.69491332
 30
0.0
 42
-1.0
  0
VERTEX
  5
24B
  8
0
 10
2075.02434384
 20
-825.69491332
 30
0.0
  0
VERTEX
  5
24C
  8
0
 10
2090.02434384
 20
-799.7141512
 30
0.0
 42
-1.0
  0
VERTEX
  5
24D
  8
0
 10
2098.68459788
 20
-804.7141512
 30
0.0
  0
SEQEND
  5
24E
  8
0
  0
LINE
  5
24F
  8
0
 10
2126.85447086
 20
-865.20453226
 30
0.0
 11
2026.85447086
 21
-865.20453226
 31
0.0
  0
LINE
  5
250
  8
0
 10
2026.85447086
 20
-765.20453226
 30
0.0
 11
2026.85447086
 21
-865.20453226
 31
0.0
  0
POLYLINE
  5
251
  8
0
 66
     1
 10
0.0
 20
0.0
 30
0.0
  0
VERTEX
  5
252
  8
0
 10
2026.85447086
 20
-765.20453226
 30
0.0
  0
VERTEX
  5
253
  8
0
 10
2126.85447086
 20
-765.20453226
 30
0.0
  0
VERTEX
  5
254
  8
0
 10
2126.85447086
 20
-865.20453226
 30
0.0
  0
SEQEND
  5
255
  8
0
  0
LINE
  5
256
  8
0
  6
STRICHPUNKT2
 62
     1
 10
2075.60447086
 20
-834.69010385
 30
0.0
 11
2098.10447086
 21
-795.71896068
 31
0.0
  0
LINE
  5
257
  8
0
  6
STRICHPUNKT2
 62
     1
 10
2085.84966139
 20
-831.94491332
 30
0.0
 11
2072.85928033
 21
-824.44491332
 31
0.0
  0
LINE
  5
258
  8
0
  6
STRICHPUNKT2
 62
     1
 10
2100.84966139
 20
-805.9641512
 30
0.0
 11
2087.85928033
 21
-798.4641512
 31
0.0
  0
TEXT
  5
259
  8
TXT_DIM49
 10
2064.07210506
 20
-746.46636518
 30
0.0
 40
2.5
  1
120
  7
ARIAL
  0
LINE
  5
25A
  8
0
 62
     4
 10
2007.85447086
 20
-746.96636518
 30
0.0
 11
2005.85447086
 21
-748.96636518
 31
0.0
  0
LINE
  5
25B
  8
0
 62
     4
 10
2126.10447086
 20
-748.71636518
 30
0.0
 11
2127.60447086
 21
-747.21636518
 31
0.0
  0
LINE
  5
25C
  8
0
 62
     4
 10
2006.85447086
 20
-747.96636518
 30
0.0
 11
2126.85447086
 21
-747.96636518
 31
0.0
  0
LINE
  5
25D
  8
0
 62
     4
 10
2006.85447086
 20
-745.96636518
 30
0.0
 11
2006.85447086
 21
-749.96636518
 31
0.0
  0
LINE
  5
25E
  8
0
 62
     4
 10
2126.85447086
 20
-745.96636518
 30
0.0
 11
2126.85447086
 21
-749.96636518
 31
0.0
  0
TEXT
  5
25F
  8
TXT_DIM49
 10
1995.35447086
 20
-692.20568413
 30
0.0
 40
2.5
  1
100
 50
90.00020741
  7
ARIAL
  0
LINE
  5
260
  8
0
 62
     4
 10
1995.85447086
 20
-738.42331833
 30
0.0
 11
1997.85447086
 21
-740.42331833
 31
0.0
  0
LINE
  5
261
  8
0
 62
     4
 10
1997.60447086
 20
-640.17331833
 30
0.0
 11
1996.10447086
 21
-638.67331833
 31
0.0
  0
LINE
  5
262
  8
0
 62
     4
 10
1996.85447086
 20
-739.42331833
 30
0.0
 11
1996.85447086
 21
-639.42331833
 31
0.0
  0
LINE
  5
263
  8
0
 62
     4
 10
1998.85447086
 20
-739.42331833
 30
0.0
 11
1994.85447086
 21
-739.42331833
 31
0.0
  0
LINE
  5
264
  8
0
 62
     4
 10
1998.85447086
 20
-639.42331833
 30
0.0
 11
1994.85447086
 21
-639.42331833
 31
0.0
  0
TEXT
  5
265
  8
TXT_DIM49
 10
2009.99956025
 20
-633.31991889
 30
0.0
 40
2.5
  1
10
  7
ARIAL
  0
LINE
  5
266
  8
0
 62
     4
 10
2007.85447086
 20
-633.81991889
 30
0.0
 11
2005.85447086
 21
-635.81991889
 31
0.0
  0
LINE
  5
267
  8
0
 62
     4
 10
2016.10447086
 20
-635.56991889
 30
0.0
 11
2017.60447086
 21
-634.06991889
 31
0.0
  0
LINE
  5
268
  8
0
 62
     4
 10
2006.85447086
 20
-634.81991889
 30
0.0
 11
2016.85447086
 21
-634.81991889
 31
0.0
  0
LINE
  5
269
  8
0
 62
     4
 10
2006.85447086
 20
-636.81991889
 30
0.0
 11
2006.85447086
 21
-632.81991889
 31
0.0
  0
LINE
  5
26A
  8
0
 62
     4
 10
2016.85447086
 20
-636.81991889
 30
0.0
 11
2016.85447086
 21
-632.81991889
 31
0.0
  0
TEXT
  5
26B
  8
TXT_DIM49
 10
2135.35447086
 20
-736.27822894
 30
0.0
 40
2.5
  1
10
 50
90.00020741
  7
ARIAL
  0
LINE
  5
26C
  8
0
 62
     4
 10
2137.85447086
 20
-730.42331833
 30
0.0
 11
2135.85447086
 21
-728.42331833
 31
0.0
  0
LINE
  5
26D
  8
0
 62
     4
 10
2136.10447086
 20
-738.67331833
 30
0.0
 11
2137.60447086
 21
-740.17331833
 31
0.0
  0
LINE
  5
26E
  8
0
 62
     4
 10
2136.85447086
 20
-729.42331833
 30
0.0
 11
2136.85447086
 21
-739.42331833
 31
0.0
  0
LINE
  5
26F
  8
0
 62
     4
 10
2134.85447086
 20
-729.42331833
 30
0.0
 11
2138.85447086
 21
-729.42331833
 31
0.0
  0
LINE
  5
270
  8
0
 62
     4
 10
2134.85447086
 20
-739.42331833
 30
0.0
 11
2138.85447086
 21
-739.42331833
 31
0.0
  0
LINE
  5
271
  8
0
 62
     5
 10
1939.46903904
 20
-669.42331833
 30
0.0
 11
1932.12993242
 21
-676.74693509
 31
0.0
  0
TEXT
  5
272
  8
TXT_DIM49
 10
1909.05882137
 20
-677.99693509
 30
0.0
 40
2.5
  1
Slobgat 10 x 50
  7
ARIAL
  0
LINE
  5
273
  8
0
 62
     5
 10
1893.46903904
 20
-669.42331833
 30
0.0
 11
1899.74729329
 21
-663.9972983
 31
0.0
  0
TEXT
  5
274
  8
TXT_DIM49
 10
1899.74729329
 20
-665.2472983
 30
0.0
 40
2.5
  1
Slobgat 10 x 50
  7
ARIAL
  0
TEXT
  5
275
  8
TXT_DIM49
 10
1953.61412843
 20
-630.79348263
 30
0.0
 40
2.5
  1
22
  7
ARIAL
  0
LINE
  5
276
  8
0
 62
     4
 10
1965.46903904
 20
-633.29348263
 30
0.0
 11
1967.46903904
 21
-631.29348263
 31
0.0
  0
LINE
  5
277
  8
0
 62
     4
 10
1945.21903904
 20
-631.54348263
 30
0.0
 11
1943.71903904
 21
-633.04348263
 31
0.0
  0
LINE
  5
278
  8
0
 62
     4
 10
1966.46903904
 20
-632.29348263
 30
0.0
 11
1944.46903904
 21
-632.29348263
 31
0.0
  0
LINE
  5
279
  8
0
 62
     4
 10
1966.46903904
 20
-634.29348263
 30
0.0
 11
1966.46903904
 21
-630.29348263
 31
0.0
  0
LINE
  5
27A
  8
0
 62
     4
 10
1944.46903904
 20
-634.29348263
 30
0.0
 11
1944.46903904
 21
-630.29348263
 31
0.0
  0
TEXT
  5
27B
  8
TXT_DIM49
 10
1914.61412843
 20
-630.79348263
 30
0.0
 40
2.5
  1
56
  7
ARIAL
  0
LINE
  5
27C
  8
0
 62
     4
 10
1943.46903904
 20
-633.29348263
 30
0.0
 11
1945.46903904
 21
-631.29348263
 31
0.0
  0
LINE
  5
27D
  8
0
 62
     4
 10
1889.21903904
 20
-631.54348263
 30
0.0
 11
1887.71903904
 21
-633.04348263
 31
0.0
  0
LINE
  5
27E
  8
0
 62
     4
 10
1944.46903904
 20
-632.29348263
 30
0.0
 11
1888.46903904
 21
-632.29348263
 31
0.0
  0
LINE
  5
27F
  8
0
 62
     4
 10
1944.46903904
 20
-634.29348263
 30
0.0
 11
1944.46903904
 21
-630.29348263
 31
0.0
  0
LINE
  5
280
  8
0
 62
     4
 10
1888.46903904
 20
-634.29348263
 30
0.0
 11
1888.46903904
 21
-630.29348263
 31
0.0
  0
TEXT
  5
281
  8
TXT_DIM49
 10
1875.61412843
 20
-630.79348263
 30
0.0
 40
2.5
  1
22
  7
ARIAL
  0
LINE
  5
282
  8
0
 62
     4
 10
1887.46903904
 20
-633.29348263
 30
0.0
 11
1889.46903904
 21
-631.29348263
 31
0.0
  0
LINE
  5
283
  8
0
 62
     4
 10
1867.21903904
 20
-631.54348263
 30
0.0
 11
1865.71903904
 21
-633.04348263
 31
0.0
  0
LINE
  5
284
  8
0
 62
     4
 10
1888.46903904
 20
-632.29348263
 30
0.0
 11
1866.46903904
 21
-632.29348263
 31
0.0
  0
LINE
  5
285
  8
0
 62
     4
 10
1888.46903904
 20
-634.29348263
 30
0.0
 11
1888.46903904
 21
-630.29348263
 31
0.0
  0
LINE
  5
286
  8
0
 62
     4
 10
1866.46903904
 20
-634.29348263
 30
0.0
 11
1866.46903904
 21
-630.29348263
 31
0.0
  0
TEXT
  5
287
  8
TXT_DIM49
 10
1859.06408805
 20
-656.27822894
 30
0.0
 40
2.5
  1
30
 50
90.00020741
  7
ARIAL
  0
LINE
  5
288
  8
0
 62
     4
 10
1861.56408805
 20
-640.42331833
 30
0.0
 11
1859.56408805
 21
-638.42331833
 31
0.0
  0
LINE
  5
289
  8
0
 62
     4
 10
1859.81408805
 20
-668.67331833
 30
0.0
 11
1861.31408805
 21
-670.17331833
 31
0.0
  0
LINE
  5
28A
  8
0
 62
     4
 10
1860.56408805
 20
-639.42331833
 30
0.0
 11
1860.56408805
 21
-669.42331833
 31
0.0
  0
LINE
  5
28B
  8
0
 62
     4
 10
1862.56408805
 20
-639.42331833
 30
0.0
 11
1858.56408805
 21
-639.42331833
 31
0.0
  0
LINE
  5
28C
  8
0
 62
     4
 10
1862.56408805
 20
-669.42331833
 30
0.0
 11
1858.56408805
 21
-669.42331833
 31
0.0
  0
TEXT
  5
28D
  8
TXT_DIM49
 10
1859.06408805
 20
-691.27822894
 30
0.0
 40
2.5
  1
40
 50
90.00020741
  7
ARIAL
  0
LINE
  5
28E
  8
0
 62
     4
 10
1861.56408805
 20
-670.42331833
 30
0.0
 11
1859.56408805
 21
-668.42331833
 31
0.0
  0
LINE
  5
28F
  8
0
 62
     4
 10
1859.81408805
 20
-708.67331833
 30
0.0
 11
1861.31408805
 21
-710.17331833
 31
0.0
  0
LINE
  5
290
  8
0
 62
     4
 10
1860.56408805
 20
-669.42331833
 30
0.0
 11
1860.56408805
 21
-709.42331833
 31
0.0
  0
LINE
  5
291
  8
0
 62
     4
 10
1862.56408805
 20
-669.42331833
 30
0.0
 11
1858.56408805
 21
-669.42331833
 31
0.0
  0
LINE
  5
292
  8
0
 62
     4
 10
1862.56408805
 20
-709.42331833
 30
0.0
 11
1858.56408805
 21
-709.42331833
 31
0.0
  0
TEXT
  5
293
  8
TXT_DIM49
 10
1859.06408805
 20
-726.27822894
 30
0.0
 40
2.5
  1
30
 50
90.00020741
  7
ARIAL
  0
LINE
  5
294
  8
0
 62
     4
 10
1861.56408805
 20
-710.42331833
 30
0.0
 11
1859.56408805
 21
-708.42331833
 31
0.0
  0
LINE
  5
295
  8
0
 62
     4
 10
1859.81408805
 20
-738.67331833
 30
0.0
 11
1861.31408805
 21
-740.17331833
 31
0.0
  0
LINE
  5
296
  8
0
 62
     4
 10
1860.56408805
 20
-709.42331833
 30
0.0
 11
1860.56408805
 21
-739.42331833
 31
0.0
  0
LINE
  5
297
  8
0
 62
     4
 10
1862.56408805
 20
-709.42331833
 30
0.0
 11
1858.56408805
 21
-709.42331833
 31
0.0
  0
LINE
  5
298
  8
0
 62
     4
 10
1862.56408805
 20
-739.42331833
 30
0.0
 11
1858.56408805
 21
-739.42331833
 31
0.0
  0
TEXT
  5
299
  8
TXT_DIM49
 10
1913.68667324
 20
-750.39417786
 30
0.0
 40
2.5
  1
100
  7
ARIAL
  0
LINE
  5
29A
  8
0
 62
     4
 10
1965.46903904
 20
-752.89417786
 30
0.0
 11
1967.46903904
 21
-750.89417786
 31
0.0
  0
LINE
  5
29B
  8
0
 62
     4
 10
1867.21903904
 20
-751.14417786
 30
0.0
 11
1865.71903904
 21
-752.64417786
 31
0.0
  0
LINE
  5
29C
  8
0
 62
     4
 10
1966.46903904
 20
-751.89417786
 30
0.0
 11
1866.46903904
 21
-751.89417786
 31
0.0
  0
LINE
  5
29D
  8
0
 62
     4
 10
1966.46903904
 20
-749.89417786
 30
0.0
 11
1966.46903904
 21
-753.89417786
 31
0.0
  0
LINE
  5
29E
  8
0
 62
     4
 10
1866.46903904
 20
-749.89417786
 30
0.0
 11
1866.46903904
 21
-753.89417786
 31
0.0
  0
LINE
  5
29F
  8
0
 62
     5
 10
2082.52434384
 20
-812.70453226
 30
0.0
 11
2076.65189406
 21
-806.86730357
 31
0.0
  0
TEXT
  5
2A0
  8
TXT_DIM49
 10
2053.58078301
 20
-808.11730357
 30
0.0
 40
2.5
  1
Slobgat 10 x 40
  7
ARIAL
  0
TEXT
  5
2A1
  8
TXT_DIM49
 10
2108.79407486
 20
-813.58123066
 30
0.0
 40
2.5
  1
30
 50
344.999965432
  7
ARIAL
  0
TEXT
  5
2A2
  8
TXT_DIM49
 10
2112.37748699
 20
-814.54140304
 30
0.0
 40
2.5
  1
°
 50
344.999965432
  7
ARIAL
  0
LINE
  5
2A3
  8
0
 62
     4
 10
2125.86421543
 20
-816.78128098
 30
0.0
 11
2127.8447263
 21
-818.80058202
 31
0.0
  0
LINE
  5
2A4
  8
0
 62
     4
 10
2096.20469655
 20
-810.52394208
 30
0.0
 11
2095.63581363
 21
-808.48032465
 31
0.0
  0
POLYLINE
  5
2A5
  8
0
 62
     4
 66
     1
 10
0.0
 20
0.0
 30
0.0
  0
VERTEX
  5
3C2
  8
0
 62
     4
 10
2095.920254652704
 20
-809.5021334313926
 30
0.0
  0
VERTEX
  5
3C3
  8
0
 62
     4
 10
2105.694220749464
 20
-814.0598088135358
 30
0.0
  0
VERTEX
  5
3C4
  8
0
 62
     4
 10
2116.111130366598
 20
-816.8510114071169
 30
0.0
  0
VERTEX
  5
3C5
  8
0
 62
     4
 10
2126.854470962635
 20
-817.7909319300039
 30
0.0
  0
SEQEND
  5
3DB
  8
0
 62
     4
  0
TEXT
  5
2A6
  8
TXT_DIM49
 10
2108.74956025
 20
-758.26476187
 30
0.0
 40
2.5
  1
33
  7
ARIAL
  0
LINE
  5
2A7
  8
0
 62
     4
 10
2125.85447086
 20
-760.76476187
 30
0.0
 11
2127.85447086
 21
-758.76476187
 31
0.0
  0
LINE
  5
2A8
  8
0
 62
     4
 10
2095.10447086
 20
-759.01476187
 30
0.0
 11
2093.60447086
 21
-760.51476187
 31
0.0
  0
LINE
  5
2A9
  8
0
 62
     4
 10
2126.85447086
 20
-759.76476187
 30
0.0
 11
2094.35447086
 21
-759.76476187
 31
0.0
  0
LINE
  5
2AA
  8
0
 62
     4
 10
2126.85447086
 20
-761.76476187
 30
0.0
 11
2126.85447086
 21
-757.76476187
 31
0.0
  0
LINE
  5
2AB
  8
0
 62
     4
 10
2094.35447086
 20
-761.76476187
 30
0.0
 11
2094.35447086
 21
-757.76476187
 31
0.0
  0
TEXT
  5
2AC
  8
TXT_DIM49
 10
2084.99956025
 20
-758.26476187
 30
0.0
 40
2.5
  1
15
  7
ARIAL
  0
LINE
  5
2AD
  8
0
 62
     4
 10
2093.35447086
 20
-760.76476187
 30
0.0
 11
2095.35447086
 21
-758.76476187
 31
0.0
  0
LINE
  5
2AE
  8
0
 62
     4
 10
2080.10447086
 20
-759.01476187
 30
0.0
 11
2078.60447086
 21
-760.51476187
 31
0.0
  0
LINE
  5
2AF
  8
0
 62
     4
 10
2094.35447086
 20
-759.76476187
 30
0.0
 11
2079.35447086
 21
-759.76476187
 31
0.0
  0
LINE
  5
2B0
  8
0
 62
     4
 10
2094.35447086
 20
-761.76476187
 30
0.0
 11
2094.35447086
 21
-757.76476187
 31
0.0
  0
LINE
  5
2B1
  8
0
 62
     4
 10
2079.35447086
 20
-761.76476187
 30
0.0
 11
2079.35447086
 21
-757.76476187
 31
0.0
  0
TEXT
  5
2B2
  8
TXT_DIM49
 10
2041.24956025
 20
-758.26476187
 30
0.0
 40
2.5
  1
73
  7
ARIAL
  0
LINE
  5
2B3
  8
0
 62
     4
 10
2078.35447086
 20
-760.76476187
 30
0.0
 11
2080.35447086
 21
-758.76476187
 31
0.0
  0
LINE
  5
2B4
  8
0
 62
     4
 10
2007.60447086
 20
-759.01476187
 30
0.0
 11
2006.10447086
 21
-760.51476187
 31
0.0
  0
LINE
  5
2B5
  8
0
 62
     4
 10
2079.35447086
 20
-759.76476187
 30
0.0
 11
2006.85447086
 21
-759.76476187
 31
0.0
  0
LINE
  5
2B6
  8
0
 62
     4
 10
2079.35447086
 20
-761.76476187
 30
0.0
 11
2079.35447086
 21
-757.76476187
 31
0.0
  0
LINE
  5
2B7
  8
0
 62
     4
 10
2006.85447086
 20
-761.76476187
 30
0.0
 11
2006.85447086
 21
-757.76476187
 31
0.0
  0
TEXT
  5
2B8
  8
TXT_DIM49
 10
2130.9551392
 20
-785.56425235
 30
0.0
 40
2.5
  1
37
 50
90.00020741
  7
ARIAL
  0
LINE
  5
2B9
  8
0
 62
     4
 10
2133.4551392
 20
-766.20453226
 30
0.0
 11
2131.4551392
 21
-764.20453226
 31
0.0
  0
LINE
  5
2BA
  8
0
 62
     4
 10
2131.7051392
 20
-801.4641512
 30
0.0
 11
2133.2051392
 21
-802.9641512
 31
0.0
  0
LINE
  5
2BB
  8
0
 62
     4
 10
2132.4551392
 20
-765.20453226
 30
0.0
 11
2132.4551392
 21
-802.2141512
 31
0.0
  0
LINE
  5
2BC
  8
0
 62
     4
 10
2130.4551392
 20
-765.20453226
 30
0.0
 11
2134.4551392
 21
-765.20453226
 31
0.0
  0
LINE
  5
2BD
  8
0
 62
     4
 10
2130.4551392
 20
-802.2141512
 30
0.0
 11
2134.4551392
 21
-802.2141512
 31
0.0
  0
TEXT
  5
2BE
  8
TXT_DIM49
 10
2130.9551392
 20
-817.05944287
 30
0.0
 40
2.5
  1
26
 50
90.00020741
  7
ARIAL
  0
LINE
  5
2BF
  8
0
 62
     4
 10
2133.4551392
 20
-803.2141512
 30
0.0
 11
2131.4551392
 21
-801.2141512
 31
0.0
  0
LINE
  5
2C0
  8
0
 62
     4
 10
2131.7051392
 20
-827.44491332
 30
0.0
 11
2133.2051392
 21
-828.94491332
 31
0.0
  0
LINE
  5
2C1
  8
0
 62
     4
 10
2132.4551392
 20
-802.2141512
 30
0.0
 11
2132.4551392
 21
-828.19491332
 31
0.0
  0
LINE
  5
2C2
  8
0
 62
     4
 10
2130.4551392
 20
-802.2141512
 30
0.0
 11
2134.4551392
 21
-802.2141512
 31
0.0
  0
LINE
  5
2C3
  8
0
 62
     4
 10
2130.4551392
 20
-828.19491332
 30
0.0
 11
2134.4551392
 21
-828.19491332
 31
0.0
  0
TEXT
  5
2C4
  8
TXT_DIM49
 10
2130.9551392
 20
-848.5546334
 30
0.0
 40
2.5
  1
37
 50
90.00020741
  7
ARIAL
  0
LINE
  5
2C5
  8
0
 62
     4
 10
2133.4551392
 20
-829.19491332
 30
0.0
 11
2131.4551392
 21
-827.19491332
 31
0.0
  0
LINE
  5
2C6
  8
0
 62
     4
 10
2131.7051392
 20
-864.45453226
 30
0.0
 11
2133.2051392
 21
-865.95453226
 31
0.0
  0
LINE
  5
2C7
  8
0
 62
     4
 10
2132.4551392
 20
-828.19491332
 30
0.0
 11
2132.4551392
 21
-865.20453226
 31
0.0
  0
LINE
  5
2C8
  8
0
 62
     4
 10
2130.4551392
 20
-828.19491332
 30
0.0
 11
2134.4551392
 21
-828.19491332
 31
0.0
  0
LINE
  5
2C9
  8
0
 62
     4
 10
2130.4551392
 20
-865.20453226
 30
0.0
 11
2134.4551392
 21
-865.20453226
 31
0.0
  0
TEXT
  5
2CA
  8
TXT_DIM49
 10
2107.09985573
 20
-837.27056748
 30
0.0
 40
2.5
  1
60
 50
299.999861727
  7
ARIAL
  0
TEXT
  5
2CB
  8
TXT_DIM49
 10
2108.95476634
 20
-840.4833669
 30
0.0
 40
2.5
  1
°
 50
299.999861727
  7
ARIAL
  0
LINE
  5
2CC
  8
0
 62
     4
 10
2112.74853295
 20
-864.21660339
 30
0.0
 11
2114.77238724
 21
-866.19246113
 31
0.0
  0
LINE
  5
2CD
  8
0
 62
     4
 10
2089.78819938
 20
-821.64105613
 30
0.0
 11
2087.73272081
 21
-822.16546802
 31
0.0
  0
POLYLINE
  5
2CE
  8
0
 62
     4
 66
     1
 10
0.0
 20
0.0
 30
0.0
  0
VERTEX
  5
3C6
  8
0
 62
     4
 10
2113.76046009
 20
-865.20453226
 30
0.0
  0
VERTEX
  5
3C7
  8
0
 62
     4
 10
2112.667840129178
 20
-854.8089477308165
 30
0.0
  0
VERTEX
  5
3C8
  8
0
 62
     4
 10
2109.437732981864
 20
-844.8677001280729
 30
0.0
  0
VERTEX
  5
3C9
  8
0
 62
     4
 10
2104.211309829848
 20
-835.8152696744183
 30
0.0
  0
VERTEX
  5
3CA
  8
0
 62
     4
 10
2097.216990443513
 20
-828.0472910181575
 30
0.0
  0
VERTEX
  5
3CB
  8
0
 62
     4
 10
2088.760460141814
 20
-821.9032621006929
 30
0.0
  0
SEQEND
  5
3DC
  8
0
 62
     4
  0
TEXT
  5
2CF
  8
TXT_DIM49
 10
1995.35447086
 20
-817.98689806
 30
0.0
 40
2.5
  1
100
 50
90.00020741
  7
ARIAL
  0
LINE
  5
2D0
  8
0
 62
     4
 10
1997.85447086
 20
-766.20453226
 30
0.0
 11
1995.85447086
 21
-764.20453226
 31
0.0
  0
LINE
  5
2D1
  8
0
 62
     4
 10
1996.10447086
 20
-864.45453226
 30
0.0
 11
1997.60447086
 21
-865.95453226
 31
0.0
  0
LINE
  5
2D2
  8
0
 62
     4
 10
1996.85447086
 20
-765.20453226
 30
0.0
 11
1996.85447086
 21
-865.20453226
 31
0.0
  0
LINE
  5
2D3
  8
0
 62
     4
 10
1998.85447086
 20
-765.20453226
 30
0.0
 11
1994.85447086
 21
-765.20453226
 31
0.0
  0
LINE
  5
2D4
  8
0
 62
     4
 10
1998.85447086
 20
-865.20453226
 30
0.0
 11
1994.85447086
 21
-865.20453226
 31
0.0
  0
ENDSEC
  0
EOF
