  0
SECTION
  2
HEADER
  9
$ACADVER
  1
AC1006
  9
$DWGCODEPAGE
  3
ansi_1252
  9
$INSBASE
 10
0.0
 20
0.0
 30
0.0
  9
$EXTMIN
 10
-85365.25924663
 20
449881.29137481
  9
$EXTMAX
 10
-84543.36485249
 20
450259.96637481
  9
$LIMMIN
 10
-85365.25924663
 20
449881.29137481
  9
$LIMMAX
 10
-84543.36485249
 20
450259.96637481
  9
$ORTHOMODE
 70
     0
  9
$REGENMODE
 70
     1
  9
$FILLMODE
 70
     1
  9
$QTEXTMODE
 70
     0
  9
$MIRRTEXT
 70
     1
  9
$DRAGMODE
 70
     2
  9
$LTSCALE
 40
1.0
  9
$OSMODE
 70
    37
  9
$ATTMODE
 70
     1
  9
$TEXTSIZE
 40
1.0
  9
$TRACEWID
 40
0.05
  9
$TEXTSTYLE
  7
STANDARD
  9
$CLAYER
  8
0
  9
$CELTYPE
  6
BYBLOCK
  9
$CECOLOR
 62
   256
  9
$DIMSCALE
 40
1.0
  9
$DIMASZ
 40
0.18
  9
$DIMEXO
 40
0.0625
  9
$DIMDLI
 40
0.38
  9
$DIMRND
 40
0.0
  9
$DIMDLE
 40
0.0
  9
$DIMEXE
 40
0.18
  9
$DIMTP
 40
0.0
  9
$DIMTM
 40
0.0
  9
$DIMTXT
 40
0.18
  9
$DIMCEN
 40
0.09
  9
$DIMTSZ
 40
0.0
  9
$DIMTOL
 70
     0
  9
$DIMLIM
 70
     0
  9
$DIMTIH
 70
     1
  9
$DIMTOH
 70
     1
  9
$DIMSE1
 70
     0
  9
$DIMSE2
 70
     0
  9
$DIMTAD
 70
     0
  9
$DIMZIN
 70
     0
  9
$DIMBLK
  1

  9
$DIMASO
 70
     1
  9
$DIMSHO
 70
     1
  9
$DIMPOST
  1

  9
$DIMAPOST
  1

  9
$DIMALT
 70
     0
  9
$DIMALTD
 70
     2
  9
$DIMALTF
 40
25.4
  9
$DIMLFAC
 40
1.0
  9
$DIMTOFL
 70
     0
  9
$DIMTVP
 40
0.0
  9
$DIMTIX
 70
     0
  9
$DIMSOXD
 70
     0
  9
$DIMSAH
 70
     0
  9
$DIMBLK1
  1

  9
$DIMBLK2
  1

  9
$LUNITS
 70
     2
  9
$LUPREC
 70
     4
  9
$SKETCHINC
 40
0.1
  9
$FILLETRAD
 40
0.5
  9
$AUNITS
 70
     0
  9
$AUPREC
 70
     0
  9
$MENU
  1
.
  9
$ELEVATION
 40
0.0
  9
$THICKNESS
 40
0.0
  9
$LIMCHECK
 70
     0
  9
$CHAMFERA
 40
0.0
  9
$CHAMFERB
 40
0.0
  9
$SKPOLY
 70
     0
  9
$TDCREATE
 40
2447893.125
  9
$TDUPDATE
 40
2460791.47780765
  9
$TDINDWG
 40
0.0
  9
$TDUSRTIMER
 40
0.0
  9
$USRTIMER
 70
     1
  9
$ANGBASE
 50
0.0
  9
$ANGDIR
 70
     0
  9
$PDMODE
 70
     0
  9
$PDSIZE
 40
0.0
  9
$PLINEWID
 40
0.0
  9
$COORDS
 70
     1
  9
$SPLFRAME
 70
     0
  9
$SPLINETYPE
 70
     6
  9
$SPLINESEGS
 70
     8
  9
$ATTDIA
 70
     0
  9
$ATTREQ
 70
     1
  9
$HANDLING
 70
     1
  9
$HANDSEED
  5
36B
  9
$SURFTAB1
 70
     6
  9
$SURFTAB2
 70
     6
  9
$SURFTYPE
 70
     6
  9
$SURFU
 70
     6
  9
$SURFV
 70
     6
  9
$UCSNAME
  2

  9
$UCSORG
 10
0.0
 20
0.0
 30
0.0
  9
$UCSXDIR
 10
1.0
 20
0.0
 30
0.0
  9
$UCSYDIR
 10
0.0
 20
1.0
 30
0.0
  9
$USERI1
 70
     0
  9
$USERI2
 70
     0
  9
$USERI3
 70
     0
  9
$USERI4
 70
     0
  9
$USERI5
 70
     0
  9
$USERR1
 40
0.0
  9
$USERR2
 40
0.0
  9
$USERR3
 40
0.0
  9
$USERR4
 40
0.0
  9
$USERR5
 40
0.0
  9
$WORLDVIEW
 70
     1
  0
ENDSEC
  0
SECTION
  2
TABLES
  0
TABLE
  2
VPORT
 70
     1
  0
VPORT
  2
*ACTIVE
 70
     0
 10
0.0
 20
0.0
 11
1.0
 21
1.0
 12
-84954.31204956
 22
450070.62887481
 13
0.0
 23
0.0
 14
1.0
 24
1.0
 15
0.0
 25
0.0
 16
0.0
 26
0.0
 36
1.0
 17
0.0
 27
0.0
 37
0.0
 40
378.675
 41
2.170447994
 42
50.0
 43
0.0
 44
0.0
 50
0.0
 51
0.0
 71
     0
 72
   100
 73
     1
 74
     1
 75
     0
 76
     0
 77
     0
 78
     0
  0
ENDTAB
  0
TABLE
  2
LTYPE
 70
    19
  0
LTYPE
  2
CONTINUOUS
 70
     0
  3
Solid line
 72
    65
 73
     0
 40
0.0
  0
LTYPE
  2
DOT
 70
     0
  3
..............
 72
    65
 73
     2
 40
2.0
 49
0.5
 49
-1.5
  0
LTYPE
  2
HIDDEN
 70
     0
  3
-- -- -- -- --
 72
    65
 73
     2
 40
7.0
 49
4.0
 49
-3.0
  0
LTYPE
  2
DASHDOT
 70
     0
  3
--.--.--.--.--
 72
    65
 73
     4
 40
8.5
 49
4.0
 49
-2.0
 49
0.5
 49
-2.0
  0
LTYPE
  2
STRICHPUNKT2
 70
     0
  3
--.--.--.--.--
 72
    65
 73
     4
 40
18.5
 49
10.0
 49
-4.0
 49
0.5
 49
-4.0
  0
LTYPE
  2
STRICHPUNKT3
 70
     0
  3
--.--.--.--.--
 72
    65
 73
     4
 40
35.5
 49
25.0
 49
-5.0
 49
0.5
 49
-5.0
  0
LTYPE
  2
PHANTOM
 70
     0
  3
--..--..--..--
 72
    65
 73
     6
 40
23.0
 49
10.0
 49
-4.0
 49
0.5
 49
-4.0
 49
0.5
 49
-4.0
  0
LTYPE
  2
PHANTOM2
 70
     0
  3
--..--..--..--
 72
    65
 73
     6
 40
33.0
 49
20.0
 49
-4.0
 49
0.5
 49
-4.0
 49
0.5
 49
-4.0
  0
LTYPE
  2
PHANTOM3
 70
     0
  3
--..--..--..--
 72
    65
 73
     6
 40
50.0
 49
37.0
 49
-4.0
 49
0.5
 49
-4.0
 49
0.5
 49
-4.0
  0
LTYPE
  2
STR3PKT
 70
     0
  3
--...--...--...
 72
    65
 73
     8
 40
31.5
 49
20.0
 49
-2.5
 49
0.5
 49
-2.5
 49
0.5
 49
-2.5
 49
0.5
 49
-2.5
  0
LTYPE
  2
2STRPKT
 70
     0
  3
--.--.--.--.--
 72
    65
 73
     6
 40
28.0
 49
10.0
 49
-2.5
 49
10.0
 49
-2.5
 49
0.5
 49
-2.5
  0
LTYPE
  2
GESTRICHELT2
 70
     0
  3
-- -- -- -- --
 72
    65
 73
     2
 40
25.0
 49
10.0
 49
-15.0
  0
LTYPE
  2
2STR2PKT
 70
     0
  3
--..--..--..--
 72
    65
 73
     8
 40
31.0
 49
10.0
 49
-2.5
 49
10.0
 49
-2.5
 49
0.5
 49
-2.5
 49
0.5
 49
-2.5
  0
LTYPE
  2
STR3PKT2
 70
     0
  3
--...--...--...
 72
    65
 73
     8
 40
21.0
 49
10.0
 49
-2.5
 49
0.5
 49
-2.5
 49
0.5
 49
-2.5
 49
0.5
 49
-2.0
  0
LTYPE
  2
2STR3PKT
 70
     0
  3
--...--...--...
 72
    65
 73
    10
 40
34.0
 49
10.0
 49
-2.5
 49
10.0
 49
-2.5
 49
0.5
 49
-2.5
 49
0.5
 49
-2.5
 49
0.5
 49
-2.5
  0
LTYPE
  2
STRKSTR
 70
     0
  3
-- - -- - -- -
 72
    65
 73
     4
 40
30.0
 49
20.0
 49
-2.5
 49
5.0
 49
-2.5
  0
LTYPE
  2
STRKSTR2
 70
     0
  3
-- - -- - -- -
 72
    65
 73
     6
 40
37.5
 49
20.0
 49
-2.5
 49
5.0
 49
-2.5
 49
5.0
 49
-2.5
  0
LTYPE
  2
STRKSTR3
 70
     0
  3
-- - -- - -- -
 72
    65
 73
     8
 40
45.0
 49
20.0
 49
-2.5
 49
5.0
 49
-2.5
 49
5.0
 49
-2.5
 49
5.0
 49
-2.5
  0
LTYPE
  2
PUNKT2
 70
     0
  3
..............
 72
    65
 73
     2
 40
3.5
 49
0.5
 49
-3.0
  0
ENDTAB
  0
TABLE
  2
LAYER
 70
    16
  0
LAYER
  2
0
 70
     0
 62
     7
  6
CONTINUOUS
  0
LAYER
  2
LE_GREEN
 70
     0
 62
     3
  6
CONTINUOUS
  0
LAYER
  2
LE_RED
 70
     0
 62
     1
  6
CONTINUOUS
  0
LAYER
  2
LE_ALL
 70
     0
 62
     7
  6
CONTINUOUS
  0
LAYER
  2
LE_HIDDEN1
 70
     0
 62
     3
  6
HIDDEN
  0
LAYER
  2
LE_HIDDEN
 70
     0
 62
     7
  6
CONTINUOUS
  0
LAYER
  2
LE_MIDDLE
 70
     0
 62
     7
  6
CONTINUOUS
  0
LAYER
  2
TXT_YELLOW
 70
     0
 62
     2
  6
CONTINUOUS
  0
LAYER
  2
TXT_DIM49
 70
     0
 62
     2
  6
CONTINUOUS
  0
LAYER
  2
TXT_ALL
 70
     0
 62
     7
  6
CONTINUOUS
  0
LAYER
  2
DIM49
 70
     0
 62
     4
  6
CONTINUOUS
  0
LAYER
  2
HATCH
 70
     0
 62
     3
  6
CONTINUOUS
  0
LAYER
  2
APPLE
 70
     0
 62
     7
  6
CONTINUOUS
  0
LAYER
  2
10
 70
     0
 62
     7
  6
CONTINUOUS
  0
LAYER
  2
20
 70
     0
 62
     7
  6
CONTINUOUS
  0
LAYER
  2
49
 70
     0
 62
     7
  6
CONTINUOUS
  0
ENDTAB
  0
TABLE
  2
STYLE
 70
     5
  0
STYLE
  2
MONOTXT
 70
     0
 40
0.0
 41
1.0
 50
0.0
 71
     0
 42
1.0
  3
monotxt.shx
  4

  0
STYLE
  2
STANDARD
 70
     0
 40
0.0
 41
1.0
 50
0.0
 71
     0
 42
1.0
  3
txt
  4

  0
STYLE
  2
ARIAL
 70
     0
 40
0.0
 41
1.0
 50
0.0
 71
     0
 42
1.0
  3
arial.ttf
  4

  0
STYLE
  2
ARIAL_NARROW
 70
     0
 40
0.0
 41
1.0
 50
0.0
 71
     0
 42
1.0
  3
ArialN.ttf
  4

  0
STYLE
  2
ISOCPEUR
 70
     0
 40
0.0
 41
1.0
 50
0.0
 71
     0
 42
1.0
  3
ISOCPEUR.ttf
  4

  0
ENDTAB
  0
TABLE
  2
VIEW
 70
     0
  0
ENDTAB
  0
TABLE
  2
UCS
 70
     0
  0
ENDTAB
  0
ENDSEC
  0
SECTION
  2
BLOCKS
  0
ENDSEC
  0
SECTION
  2
ENTITIES
  0
POLYLINE
  5
16D
  8
0
 66
     1
 10
0.0
 20
0.0
 30
0.0
 70
     1
  0
VERTEX
  5
16E
  8
0
 10
-85183.50713629
 20
449926.09579948
 30
0.0
  0
VERTEX
  5
16F
  8
0
 10
-84763.50713629
 20
449926.09579948
 30
0.0
  0
VERTEX
  5
170
  8
0
 10
-84763.50713629
 20
450223.09579948
 30
0.0
  0
VERTEX
  5
171
  8
0
 10
-85183.50713629
 20
450223.09579948
 30
0.0
  0
SEQEND
  5
172
  8
0
  0
POLYLINE
  5
173
  8
0
 66
     1
 10
0.0
 20
0.0
 30
0.0
 70
     1
  0
VERTEX
  5
174
  8
0
 10
-85178.50713629
 20
449931.09579948
 30
0.0
  0
VERTEX
  5
175
  8
0
 10
-84768.50713629
 20
449931.09579948
 30
0.0
  0
VERTEX
  5
176
  8
0
 10
-84768.50713629
 20
450218.09579948
 30
0.0
  0
VERTEX
  5
177
  8
0
 10
-85178.50713629
 20
450218.09579948
 30
0.0
  0
SEQEND
  5
178
  8
0
  0
LINE
  5
179
  8
0
 10
-84953.50713629
 20
449931.09579948
 30
0.0
 11
-84953.50713629
 21
449926.09579948
 31
0.0
  0
LINE
  5
17A
  8
0
 10
-84953.50713629
 20
450218.09579948
 30
0.0
 11
-84953.50713629
 21
450223.09579948
 31
0.0
  0
LINE
  5
17B
  8
0
 10
-85163.50713629
 20
449931.09579948
 30
0.0
 11
-85163.50713629
 21
449926.09579948
 31
0.0
  0
LINE
  5
17C
  8
0
 10
-85163.50713629
 20
450218.09579948
 30
0.0
 11
-85163.50713629
 21
450223.09579948
 31
0.0
  0
TEXT
  5
17D
  8
TXT_ALL
 62
     4
 10
-84764.50713629
 20
449927.09579948
 30
0.0
 40
2.5
  1

 50
90.00020741
  0
POLYLINE
  5
17E
  8
0
 66
     1
 10
0.0
 20
0.0
 30
0.0
  0
VERTEX
  5
17F
  8
0
 10
-84768.50713629
 20
450208.09579948
 30
0.0
  0
VERTEX
  5
180
  8
0
 10
-84837.50043629
 20
450208.09579948
 30
0.0
  0
VERTEX
  5
181
  8
0
 10
-84837.50043629
 20
450218.09579948
 30
0.0
  0
SEQEND
  5
182
  8
0
  0
LINE
  5
183
  8
0
 10
-84835.59713629
 20
449950.59579948
 30
0.0
 11
-84975.48713629
 21
449950.59579948
 31
0.0
  0
LINE
  5
184
  8
0
 10
-84975.48713629
 20
449940.84579948
 30
0.0
 11
-84835.59713629
 21
449940.84579948
 31
0.0
  0
POLYLINE
  5
185
  8
0
 66
     1
 10
0.0
 20
0.0
 30
0.0
  0
VERTEX
  5
186
  8
0
 10
-84975.48713629
 20
449950.59579948
 30
0.0
  0
VERTEX
  5
187
  8
0
 10
-84975.48713629
 20
449940.84579948
 30
0.0
  0
VERTEX
  5
188
  8
0
 10
-84975.48713629
 20
449931.09579948
 30
0.0
  0
SEQEND
  5
189
  8
0
  0
POLYLINE
  5
18A
  8
0
 66
     1
 10
0.0
 20
0.0
 30
0.0
  0
VERTEX
  5
18B
  8
0
 10
-84905.54213629
 20
449950.59579948
 30
0.0
  0
VERTEX
  5
18C
  8
0
 10
-84905.54213629
 20
449940.84579948
 30
0.0
  0
VERTEX
  5
18D
  8
0
 10
-84905.54213629
 20
449931.09579948
 30
0.0
  0
SEQEND
  5
18E
  8
0
  0
TEXT
  5
18F
  8
TXT_ALL
 10
-84973.48713629
 20
449944.42079953
 30
0.0
 40
2.5999999
  1
E-mail: verkoop@jonkers-bouwmetaal.nl
  7
ARIAL
  0
TEXT
  5
190
  8
TXT_ALL
 10
-84973.48713629
 20
449934.67079953
 30
0.0
 40
2.5999999
  1
Telefoon: 0527-685156
  7
ARIAL
  0
TEXT
  5
191
  8
TXT_ALL
 10
-84903.54213629
 20
449934.67079953
 30
0.0
 40
2.5999999
  1
Website: www.jonkers-bouwmetaal.nl
  7
ARIAL
  0
TEXT
  5
192
  8
TXT_ALL
 10
-84903.54213629
 20
449944.42079953
 30
0.0
 40
2.5999999
  1
Adres: Hoornse Hop 10, 8321 WX Urk
  7
ARIAL
  0
TEXT
  5
193
  8
TXT_ALL
 10
-85175.06517604
 20
450211.84579948
 30
0.0
 40
2.5
  1
Art. nr. 91007858
  7
ARIAL
  0
TEXT
  5
194
  8
TXT_ALL
 10
-85132.32713922
 20
450211.84579948
 30
0.0
 40
2.5
  1
Omschrijving: H1001-anker 100x40 100x4
  7
ARIAL
  0
LINE
  5
195
  8
0
 10
-84768.50713629
 20
450208.09579948
 30
0.0
 11
-85178.50713629
 21
450208.09579948
 31
0.0
  0
LINE
  5
196
  8
0
 10
-85135.48713629
 20
450208.09579948
 30
0.0
 11
-85135.48713629
 21
450218.09579948
 31
0.0
  0
LINE
  5
197
  8
0
 10
-84975.48713629
 20
450208.09579948
 30
0.0
 11
-84975.48713629
 21
450218.09579948
 31
0.0
  0
TEXT
  5
198
  8
TXT_ALL
 10
-84904.49343629
 20
450211.84579948
 30
0.0
 40
2.5
  1
Behandeling: Thermisch Verzinkt
  7
ARIAL
  0
LINE
  5
199
  8
0
 10
-84835.59713629
 20
449950.59579948
 30
0.0
 11
-84768.50713629
 21
449950.59579948
 31
0.0
  0
LINE
  5
19A
  8
0
 10
-84835.59713629
 20
449931.09579948
 30
0.0
 11
-84835.59713629
 21
449950.59579948
 31
0.0
  0
LINE
  5
19B
  8
0
 10
-84835.59713629
 20
449931.09579948
 30
0.0
 11
-84835.59713629
 21
449950.59579948
 31
0.0
  0
TEXT
  5
19C
  8
TXT_ALL
 10
-85041.1419382
 20
449932.25033289
 30
0.0
 40
2.5
  1

  0
TEXT
  5
19D
  8
TXT_ALL
 10
-84920.00675523
 20
449942.34579948
 30
0.0
 40
2.5
  1

  0
POLYLINE
  5
19E
  8
0
 66
     1
 10
0.0
 20
0.0
 30
0.0
  0
VERTEX
  5
19F
  8
0
 10
-84837.50043629
 20
450208.09579948
 30
0.0
  0
VERTEX
  5
1A0
  8
0
 10
-84906.49343629
 20
450208.09579948
 30
0.0
  0
VERTEX
  5
1A1
  8
0
 10
-84906.49343629
 20
450218.09579948
 30
0.0
  0
SEQEND
  5
1A2
  8
0
  0
TEXT
  5
1A3
  8
TXT_ALL
 10
-84835.50043629
 20
450211.84579948
 30
0.0
 40
2.5
  1
Verpakkingshoeveelheid: 1 st.
  7
ARIAL
  0
TEXT
  5
1A4
  8
TXT_ALL
 10
-84973.48713629
 20
450211.84579948
 30
0.0
 40
2.5
  1
Materiaal: S355
  7
ARIAL
  0
TEXT
  5
1A5
  8
TXT_ALL
 10
-84800.72548906
 20
449927.84628963
 30
0.0
 40
1.5
  1
Onderdeel van
  7
ARIAL
  0
POLYLINE
  5
1A6
  8
0
 66
     1
 10
0.0
 20
0.0
 30
0.0
  0
VERTEX
  5
2F6
  8
0
 10
-85108.47182293466
 20
450028.7956318393
 30
0.0
  0
VERTEX
  5
2F7
  8
0
 10
-85108.76805560291
 20
450028.7485544322
 30
0.0
  0
VERTEX
  5
2F8
  8
0
 10
-85109.07419782471
 20
450028.5370681228
 30
0.0
  0
VERTEX
  5
2F9
  8
0
 10
-85109.37885604058
 20
450028.1690437036
 30
0.0
  0
VERTEX
  5
2FA
  8
0
 10
-85109.67069192065
 20
450027.6581777763
 30
0.0
  0
VERTEX
  5
2FB
  8
0
 10
-85109.93884433822
 20
450027.023483012
 30
0.0
  0
VERTEX
  5
2FC
  8
0
 10
-85110.17333358353
 20
450026.2885805644
 30
0.0
  0
VERTEX
  5
2FD
  8
0
 10
-85110.36543277417
 20
450025.4808209726
 30
0.0
  0
VERTEX
  5
2FE
  8
0
 10
-85110.50799263967
 20
450024.6302662675
 30
0.0
  0
VERTEX
  5
2FF
  8
0
 10
-85110.59570759264
 20
450023.7685711668
 30
0.0
  0
VERTEX
  5
300
  8
0
 10
-85110.62531318456
 20
450022.9278049955
 30
0.0
  0
SEQEND
  5
35F
  8
0
  0
POLYLINE
  5
1A7
  8
0
 66
     1
 10
0.0
 20
0.0
 30
0.0
  0
VERTEX
  5
301
  8
0
 10
-85107.44333269545
 20
450025.7340480197
 30
0.0
  0
VERTEX
  5
302
  8
0
 10
-85107.47554523149
 20
450026.5550553213
 30
0.0
  0
VERTEX
  5
303
  8
0
 10
-85107.5708784374
 20
450027.2859994275
 30
0.0
  0
VERTEX
  5
304
  8
0
 10
-85107.72547191937
 20
450027.8972817105
 30
0.0
  0
VERTEX
  5
305
  8
0
 10
-85107.93306561603
 20
450028.3641490915
 30
0.0
  0
VERTEX
  5
306
  8
0
 10
-85108.18525329145
 20
450028.667696385
 30
0.0
  0
VERTEX
  5
307
  8
0
 10
-85108.47182293466
 20
450028.7956318393
 30
0.0
  0
SEQEND
  5
360
  8
0
  0
POLYLINE
  5
1A8
  8
0
 66
     1
 10
0.0
 20
0.0
 30
0.0
  0
VERTEX
  5
1A9
  8
0
 10
-85107.44333269
 20
450025.73404802
 30
0.0
  0
VERTEX
  5
1AA
  8
0
 10
-85107.44333269
 20
450010.64910336
 30
0.0
  0
SEQEND
  5
1AB
  8
0
  0
POLYLINE
  5
1AC
  8
0
 66
     1
 10
0.0
 20
0.0
 30
0.0
  0
VERTEX
  5
308
  8
0
 10
-85109.59682294
 20
450004.7812765
 30
0.0
  0
VERTEX
  5
309
  8
0
 10
-85109.30059027146
 20
450004.8283539102
 30
0.0
  0
VERTEX
  5
30A
  8
0
 10
-85108.99444804959
 20
450005.0398402226
 30
0.0
  0
VERTEX
  5
30B
  8
0
 10
-85108.68978983385
 20
450005.4078646447
 30
0.0
  0
VERTEX
  5
30C
  8
0
 10
-85108.39795395412
 20
450005.9187305744
 30
0.0
  0
VERTEX
  5
30D
  8
0
 10
-85108.12980153708
 20
450006.5534253409
 30
0.0
  0
VERTEX
  5
30E
  8
0
 10
-85107.8953122925
 20
450007.2883277901
 30
0.0
  0
VERTEX
  5
30F
  8
0
 10
-85107.70321310271
 20
450008.096087383
 30
0.0
  0
VERTEX
  5
310
  8
0
 10
-85107.5606532382
 20
450008.9466420885
 30
0.0
  0
VERTEX
  5
311
  8
0
 10
-85107.47293828626
 20
450009.8083371891
 30
0.0
  0
VERTEX
  5
312
  8
0
 10
-85107.44333269545
 20
450010.6491033597
 30
0.0
  0
SEQEND
  5
361
  8
0
  0
POLYLINE
  5
1AD
  8
0
 66
     1
 10
0.0
 20
0.0
 30
0.0
  0
VERTEX
  5
313
  8
0
 10
-85110.62531318456
 20
450007.8428603355
 30
0.0
  0
VERTEX
  5
314
  8
0
 10
-85110.59310064928
 20
450007.021853028
 30
0.0
  0
VERTEX
  5
315
  8
0
 10
-85110.49776744335
 20
450006.2909089166
 30
0.0
  0
VERTEX
  5
316
  8
0
 10
-85110.34317396063
 20
450005.6796266296
 30
0.0
  0
VERTEX
  5
317
  8
0
 10
-85110.13558026259
 20
450005.2127592463
 30
0.0
  0
VERTEX
  5
318
  8
0
 10
-85109.88339258533
 20
450004.9092119525
 30
0.0
  0
VERTEX
  5
319
  8
0
 10
-85109.59682294
 20
450004.7812765
 30
0.0
  0
SEQEND
  5
362
  8
0
  0
LINE
  5
1AE
  8
0
 10
-85110.6253132
 20
450007.84286032
 30
0.0
 11
-85110.6253132
 21
450022.92780498
 31
0.0
  0
LINE
  5
1AF
  8
0
 10
-85110.22756564
 20
450026.0848284
 30
0.0
 11
-85107.44333269
 21
450025.73404802
 31
0.0
  0
LINE
  5
1B0
  8
0
 10
-85110.6253132
 20
450011.04999522
 30
0.0
 11
-85107.44333269
 21
450010.64910336
 31
0.0
  0
LINE
  5
1B1
  8
0
 10
-85091.35665341
 20
450050.29206507
 30
0.0
 11
-85091.35665341
 21
450020.12217574
 31
0.0
  0
LINE
  5
1B2
  8
0
 10
-85126.71199247
 20
449988.94169752
 30
0.0
 11
-85091.35665341
 21
450020.12217574
 31
0.0
  0
POLYLINE
  5
1B3
  8
0
 66
     1
 10
0.0
 20
0.0
 30
0.0
  0
VERTEX
  5
1B4
  8
0
 10
-85126.71199247
 20
449988.94169752
 30
0.0
  0
VERTEX
  5
1B5
  8
0
 10
-85126.71199247
 20
450019.11158685
 30
0.0
  0
VERTEX
  5
1B6
  8
0
 10
-85091.35665341
 20
450050.29206507
 30
0.0
  0
VERTEX
  5
1B7
  8
0
 10
-85095.0983108
 20
450050.76346959
 30
0.0
  0
SEQEND
  5
1B8
  8
0
  0
LINE
  5
1B9
  8
0
 10
-85130.45364986
 20
450019.58299137
 30
0.0
 11
-85095.0983108
 21
450050.76346959
 31
0.0
  0
LINE
  5
1BA
  8
0
 10
-85126.71199247
 20
450019.11158685
 30
0.0
 11
-85130.45364986
 21
450019.58299137
 31
0.0
  0
LINE
  5
1BB
  8
0
 10
-85130.45364986
 20
449989.41310204
 30
0.0
 11
-85130.45364986
 21
450019.58299137
 31
0.0
  0
LINE
  5
1BC
  8
0
 10
-85126.71199247
 20
449988.94169752
 30
0.0
 11
-85130.45364986
 21
449989.41310204
 31
0.0
  0
LINE
  5
1BD
  8
0
  6
STRICHPUNKT2
 62
     1
 10
-85106.92964066
 20
450024.06576146
 30
0.0
 11
-85110.52255806
 21
450024.5184265
 31
0.0
  0
LINE
  5
1BE
  8
0
  6
STRICHPUNKT2
 62
     1
 10
-85106.92964066
 20
450008.9808168
 30
0.0
 11
-85110.6253132
 21
450009.44642777
 31
0.0
  0
LINE
  5
1BF
  8
0
  6
STRICHPUNKT2
 62
     1
 10
-85109.03432294
 20
450030.69488753
 30
0.0
 11
-85109.03432294
 21
450004.53193663
 31
0.0
  0
LINE
  5
1C0
  8
0
  6
STRICHPUNKT2
 62
     1
 10
-85111.42080833
 20
450022.22624422
 30
0.0
 11
-85106.64783756
 21
450026.43560878
 31
0.0
  0
LINE
  5
1C1
  8
0
  6
STRICHPUNKT2
 62
     1
 10
-85111.42080833
 20
450007.14129956
 30
0.0
 11
-85106.64783756
 21
450011.35066412
 31
0.0
  0
POLYLINE
  5
1C2
  8
0
 66
     1
 10
0.0
 20
0.0
 30
0.0
  0
VERTEX
  5
31A
  8
0
 10
-85039.82926889
 20
449992.92360031
 30
0.0
  0
VERTEX
  5
31B
  8
0
 10
-85039.97099682424
 20
449993.3907553203
 30
0.0
  0
VERTEX
  5
31C
  8
0
 10
-85040.39044153916
 20
449993.8389934978
 30
0.0
  0
VERTEX
  5
31D
  8
0
 10
-85041.07061816819
 20
449994.2501640224
 30
0.0
  0
VERTEX
  5
31E
  8
0
 10
-85041.98398384603
 20
449994.6076170799
 30
0.0
  0
VERTEX
  5
31F
  8
0
 10
-85043.09355302106
 20
449994.8968780751
 30
0.0
  0
VERTEX
  5
320
  8
0
 10
-85044.35439513694
 20
449995.1062337614
 30
0.0
  0
SEQEND
  5
363
  8
0
  0
POLYLINE
  5
1C3
  8
0
 66
     1
 10
0.0
 20
0.0
 30
0.0
  0
VERTEX
  5
321
  8
0
 10
-85049.30414260109
 20
449990.7409668533
 30
0.0
  0
VERTEX
  5
322
  8
0
 10
-85048.00078534451
 20
449990.6231764784
 30
0.0
  0
VERTEX
  5
323
  8
0
 10
-85046.65382827904
 20
449990.5909999582
 30
0.0
  0
VERTEX
  5
324
  8
0
 10
-85045.31340050905
 20
449990.6456347918
 30
0.0
  0
VERTEX
  5
325
  8
0
 10
-85044.02938814108
 20
449990.785047659
 30
0.0
  0
VERTEX
  5
326
  8
0
 10
-85042.84957769453
 20
449991.0040500928
 30
0.0
  0
VERTEX
  5
327
  8
0
 10
-85041.8178776522
 20
449991.2944915767
 30
0.0
  0
VERTEX
  5
328
  8
0
 10
-85040.97268433744
 20
449991.6455628786
 30
0.0
  0
VERTEX
  5
329
  8
0
 10
-85040.34545293546
 20
449992.0441983333
 30
0.0
  0
VERTEX
  5
32A
  8
0
 10
-85039.95952683946
 20
449992.4755621019
 30
0.0
  0
VERTEX
  5
32B
  8
0
 10
-85039.82926889
 20
449992.92360031
 30
0.0
  0
SEQEND
  5
364
  8
0
  0
POLYLINE
  5
1C4
  8
0
 66
     1
 10
0.0
 20
0.0
 30
0.0
  0
VERTEX
  5
1C5
  8
0
 10
-85049.30414262
 20
449990.74096683
 30
0.0
  0
VERTEX
  5
1C6
  8
0
 10
-85059.59370044
 20
449992.03732926
 30
0.0
  0
SEQEND
  5
1C7
  8
0
  0
POLYLINE
  5
1C8
  8
0
 66
     1
 10
0.0
 20
0.0
 30
0.0
  0
VERTEX
  5
32C
  8
0
 10
-85064.1188267
 20
449994.2199627484
 30
0.0
  0
VERTEX
  5
32D
  8
0
 10
-85063.97709876845
 20
449993.7528077341
 30
0.0
  0
VERTEX
  5
32E
  8
0
 10
-85063.55765405153
 20
449993.3045695527
 30
0.0
  0
VERTEX
  5
32F
  8
0
 10
-85062.87747741619
 20
449992.8933990249
 30
0.0
  0
VERTEX
  5
330
  8
0
 10
-85061.96411172842
 20
449992.5359459652
 30
0.0
  0
VERTEX
  5
331
  8
0
 10
-85060.85454254087
 20
449992.246684969
 30
0.0
  0
VERTEX
  5
332
  8
0
 10
-85059.59370041109
 20
449992.0373292833
 30
0.0
  0
SEQEND
  5
365
  8
0
  0
POLYLINE
  5
1C9
  8
0
 66
     1
 10
0.0
 20
0.0
 30
0.0
  0
VERTEX
  5
333
  8
0
 10
-85054.64395294694
 20
449996.4025961914
 30
0.0
  0
VERTEX
  5
334
  8
0
 10
-85055.94731020319
 20
449996.5203865692
 30
0.0
  0
VERTEX
  5
335
  8
0
 10
-85057.29426727004
 20
449996.5525630922
 30
0.0
  0
VERTEX
  5
336
  8
0
 10
-85058.63469504291
 20
449996.497928261
 30
0.0
  0
VERTEX
  5
337
  8
0
 10
-85059.91870741504
 20
449996.3585153959
 30
0.0
  0
VERTEX
  5
338
  8
0
 10
-85061.09851786666
 20
449996.1395129638
 30
0.0
  0
VERTEX
  5
339
  8
0
 10
-85062.13021791475
 20
449995.8490714812
 30
0.0
  0
VERTEX
  5
33A
  8
0
 10
-85062.97541123554
 20
449995.4980001801
 30
0.0
  0
VERTEX
  5
33B
  8
0
 10
-85063.60264264357
 20
449995.0993647256
 30
0.0
  0
VERTEX
  5
33C
  8
0
 10
-85063.98856874532
 20
449994.6680009569
 30
0.0
  0
VERTEX
  5
33D
  8
0
 10
-85064.1188267
 20
449994.2199627484
 30
0.0
  0
SEQEND
  5
366
  8
0
  0
LINE
  5
1CA
  8
0
 10
-85054.64395297
 20
449996.40259621
 30
0.0
 11
-85044.35439515
 21
449995.10623378
 31
0.0
  0
LINE
  5
1CB
  8
0
 10
-85044.35439515
 20
449991.33499762
 30
0.0
 11
-85044.35439515
 21
449995.10623378
 31
0.0
  0
LINE
  5
1CC
  8
0
 10
-85042.70616324828
 20
449991.0379822004
 30
0.0
 11
-85044.35439513694
 21
449991.3349975914
 31
0.0
  0
POLYLINE
  5
1CD
  8
0
 66
     1
 10
0.0
 20
0.0
 30
0.0
  0
VERTEX
  5
1CE
  8
0
 10
-85044.35439515
 20
449991.33499762
 30
0.0
  0
VERTEX
  5
1CF
  8
0
 10
-85054.64395297
 20
449992.63136005
 30
0.0
  0
VERTEX
  5
1D0
  8
0
 10
-85054.64395297
 20
449996.40259621
 30
0.0
  0
SEQEND
  5
1D1
  8
0
  0
POLYLINE
  5
1D2
  8
0
 66
     1
 10
0.0
 20
0.0
 30
0.0
  0
VERTEX
  5
33E
  8
0
 10
-85054.64395294694
 20
449992.6313600214
 30
0.0
  0
VERTEX
  5
33F
  8
0
 10
-85055.98200364776
 20
449992.7510836326
 30
0.0
  0
VERTEX
  5
340
  8
0
 10
-85057.36458494571
 20
449992.7806214101
 30
0.0
  0
VERTEX
  5
341
  8
0
 10
-85058.73753962551
 20
449992.7188163269
 30
0.0
  0
VERTEX
  5
342
  8
0
 10
-85060.047087557
 20
449992.5680893554
 30
0.0
  0
VERTEX
  5
343
  8
0
 10
-85061.24193232141
 20
449992.3343446353
 30
0.0
  0
SEQEND
  5
367
  8
0
  0
POLYLINE
  5
1D3
  8
0
 66
     1
 10
0.0
 20
0.0
 30
0.0
  0
VERTEX
  5
1D4
  8
0
 10
-85036.91221519
 20
449973.85675285
 30
0.0
  0
VERTEX
  5
1D5
  8
0
 10
-85001.55687613
 20
450005.03723108
 30
0.0
  0
VERTEX
  5
1D6
  8
0
 10
-85001.55687613
 20
450001.26599491
 30
0.0
  0
SEQEND
  5
1D7
  8
0
  0
LINE
  5
1D8
  8
0
 10
-85036.91221519
 20
449970.08551669
 30
0.0
 11
-85001.55687613
 21
450001.26599491
 31
0.0
  0
LINE
  5
1D9
  8
0
 10
-85036.91221519
 20
449973.85675285
 30
0.0
 11
-85036.91221519
 21
449970.08551669
 31
0.0
  0
POLYLINE
  5
1DA
  8
0
 66
     1
 10
0.0
 20
0.0
 30
0.0
  0
VERTEX
  5
1DB
  8
0
 10
-85036.91221519
 20
449973.85675285
 30
0.0
  0
VERTEX
  5
1DC
  8
0
 10
-85122.97033509
 20
449984.69905683
 30
0.0
  0
VERTEX
  5
1DD
  8
0
 10
-85087.61499603
 20
450015.87953506
 30
0.0
  0
VERTEX
  5
1DE
  8
0
 10
-85001.55687613
 20
450005.03723108
 30
0.0
  0
SEQEND
  5
1DF
  8
0
  0
LINE
  5
1E0
  8
0
 10
-85122.97033509
 20
449984.69905683
 30
0.0
 11
-85122.97033509
 21
449980.92782067
 31
0.0
  0
LINE
  5
1E1
  8
0
 10
-85036.91221519
 20
449970.08551669
 30
0.0
 11
-85122.97033509
 21
449980.92782067
 31
0.0
  0
LINE
  5
1E2
  8
0
  6
STRICHPUNKT2
 62
     1
 10
-85046.82926889
 20
449995.75202743
 30
0.0
 11
-85046.82926889
 21
449990.59026697
 31
0.0
  0
LINE
  5
1E3
  8
0
  6
STRICHPUNKT2
 62
     1
 10
-85057.1188267
 20
449997.04838986
 30
0.0
 11
-85057.1188267
 21
449991.72552448
 31
0.0
  0
LINE
  5
1E4
  8
0
  6
STRICHPUNKT2
 62
     1
 10
-85037.47512542
 20
449991.745089
 30
0.0
 11
-85066.47297017
 21
449995.39847404
 31
0.0
  0
LINE
  5
1E5
  8
0
  6
STRICHPUNKT2
 62
     1
 10
-85043.29373498
 20
449996.04164813
 30
0.0
 11
-85050.36480279
 21
449989.80555248
 31
0.0
  0
LINE
  5
1E6
  8
0
  6
STRICHPUNKT2
 62
     1
 10
-85053.5832928
 20
449997.33801056
 30
0.0
 11
-85060.65436061
 21
449991.10191492
 31
0.0
  0
LINE
  5
1E7
  8
0
  6
STRICHPUNKT2
 62
     1
 10
-85044.35439515
 20
449991.33499762
 30
0.0
 11
-85045.1186211
 21
449990.66101368
 31
0.0
  0
LINE
  5
1E8
  8
0
  6
STRICHPUNKT2
 62
     1
 10
-85054.64395297
 20
449992.63136005
 30
0.0
 11
-85055.85204305
 21
449991.56592474
 31
0.0
  0
LINE
  5
1E9
  8
0
 10
-85122.97033509
 20
449984.69905683
 30
0.0
 11
-85087.61499603
 21
450015.87953506
 31
0.0
  0
LINE
  5
1EA
  8
0
 10
-85122.97033509
 20
449984.69905683
 30
0.0
 11
-85122.97033509
 21
449980.92782067
 31
0.0
  0
POLYLINE
  5
1EB
  8
0
 66
     1
 10
0.0
 20
0.0
 30
0.0
  0
VERTEX
  5
344
  8
0
 10
-85126.71199246819
 20
449988.941697517
 30
0.0
  0
VERTEX
  5
345
  8
0
 10
-85126.64009756788
 20
449988.1969079377
 30
0.0
  0
VERTEX
  5
346
  8
0
 10
-85126.42717575478
 20
449987.4626243929
 30
0.0
  0
VERTEX
  5
347
  8
0
 10
-85126.08140949473
 20
449986.7670649873
 30
0.0
  0
VERTEX
  5
348
  8
0
 10
-85125.61608639102
 20
449986.1369596785
 30
0.0
  0
VERTEX
  5
349
  8
0
 10
-85125.04908854944
 20
449985.5965230599
 30
0.0
  0
VERTEX
  5
34A
  8
0
 10
-85124.4022053789
 20
449985.1665238074
 30
0.0
  0
VERTEX
  5
34B
  8
0
 10
-85123.70029623661
 20
449984.8634865513
 30
0.0
  0
VERTEX
  5
34C
  8
0
 10
-85122.97033509708
 20
449984.699056843
 30
0.0
  0
SEQEND
  5
368
  8
0
  0
POLYLINE
  5
1EC
  8
0
 66
     1
 10
0.0
 20
0.0
 30
0.0
  0
VERTEX
  5
1ED
  8
0
 10
-85126.71199247
 20
449988.94169752
 30
0.0
  0
VERTEX
  5
1EE
  8
0
 10
-85091.35665341
 20
450020.12217574
 30
0.0
  0
SEQEND
  5
1EF
  8
0
  0
POLYLINE
  5
1F0
  8
0
 66
     1
 10
0.0
 20
0.0
 30
0.0
  0
VERTEX
  5
34D
  8
0
 10
-85091.35665340819
 20
450020.122175737
 30
0.0
  0
VERTEX
  5
34E
  8
0
 10
-85091.28475850789
 20
450019.3773861577
 30
0.0
  0
VERTEX
  5
34F
  8
0
 10
-85091.07183669478
 20
450018.6431026129
 30
0.0
  0
VERTEX
  5
350
  8
0
 10
-85090.72607043473
 20
450017.9475432073
 30
0.0
  0
VERTEX
  5
351
  8
0
 10
-85090.26074733102
 20
450017.3174378985
 30
0.0
  0
VERTEX
  5
352
  8
0
 10
-85089.69374948944
 20
450016.7770012799
 30
0.0
  0
VERTEX
  5
353
  8
0
 10
-85089.0468663189
 20
450016.3470020274
 30
0.0
  0
VERTEX
  5
354
  8
0
 10
-85088.34495717661
 20
450016.0439647713
 30
0.0
  0
VERTEX
  5
355
  8
0
 10
-85087.61499603708
 20
450015.879535063
 30
0.0
  0
SEQEND
  5
369
  8
0
  0
LINE
  5
1F1
  8
0
 10
-85126.71199247
 20
449988.94169752
 30
0.0
 11
-85130.45364986
 21
449989.41310204
 31
0.0
  0
POLYLINE
  5
1F2
  8
0
 66
     1
 10
0.0
 20
0.0
 30
0.0
  0
VERTEX
  5
356
  8
0
 10
-85130.45364984639
 20
449989.413102034
 30
0.0
  0
VERTEX
  5
357
  8
0
 10
-85130.30986004577
 20
449987.9235228754
 30
0.0
  0
VERTEX
  5
358
  8
0
 10
-85129.88401641959
 20
449986.4549557859
 30
0.0
  0
VERTEX
  5
359
  8
0
 10
-85129.19248389945
 20
449985.0638369747
 30
0.0
  0
VERTEX
  5
35A
  8
0
 10
-85128.26183769203
 20
449983.8036263571
 30
0.0
  0
VERTEX
  5
35B
  8
0
 10
-85127.1278420089
 20
449982.7227531198
 30
0.0
  0
VERTEX
  5
35C
  8
0
 10
-85125.83407566776
 20
449981.862754615
 30
0.0
  0
VERTEX
  5
35D
  8
0
 10
-85124.43025738322
 20
449981.2566801026
 30
0.0
  0
VERTEX
  5
35E
  8
0
 10
-85122.97033510415
 20
449980.927820686
 30
0.0
  0
SEQEND
  5
36A
  8
0
  0
POLYLINE
  5
1F3
  8
0
 66
     1
 10
0.0
 20
0.0
 30
0.0
  0
VERTEX
  5
1F4
  8
0
 10
-84933.16452272
 20
450147.10608226
 30
0.0
  0
VERTEX
  5
1F5
  8
0
 10
-84933.16452272
 20
450179.10608226
 30
0.0
  0
VERTEX
  5
1F6
  8
0
 10
-84937.16452272
 20
450179.10608226
 30
0.0
  0
SEQEND
  5
1F7
  8
0
  0
LINE
  5
1F8
  8
0
 10
-84937.16452272
 20
450147.10608226
 30
0.0
 11
-84937.16452272
 21
450179.10608226
 31
0.0
  0
LINE
  5
1F9
  8
0
 10
-84933.16452272
 20
450147.10608226
 30
0.0
 11
-84937.16452272
 21
450147.10608226
 31
0.0
  0
LINE
  5
1FA
  8
0
  6
STRICHPUNKT2
 62
     1
 10
-84937.16452272
 20
450168.10608226
 30
0.0
 11
-84939.41452272
 21
450168.10608226
 31
0.0
  0
LINE
  5
1FB
  8
0
  6
STRICHPUNKT2
 62
     1
 10
-84930.91452272
 20
450168.10608226
 30
0.0
 11
-84933.16452272
 21
450168.10608226
 31
0.0
  0
LINE
  5
1FC
  8
0
  6
STRICHPUNKT2
 62
     1
 10
-84937.16452272
 20
450152.10608226
 30
0.0
 11
-84939.41452272
 21
450152.10608226
 31
0.0
  0
LINE
  5
1FD
  8
0
  6
STRICHPUNKT2
 62
     1
 10
-84930.91452272
 20
450152.10608226
 30
0.0
 11
-84933.16452272
 21
450152.10608226
 31
0.0
  0
POLYLINE
  5
1FE
  8
0
 66
     1
 10
0.0
 20
0.0
 30
0.0
  0
VERTEX
  5
1FF
  8
0
 10
-84837.16452272
 20
450143.10608226
 30
0.0
  0
VERTEX
  5
200
  8
0
 10
-84929.16452272
 20
450143.10608226
 30
0.0
  0
VERTEX
  5
201
  8
0
 10
-84929.16452272
 20
450139.10608226
 30
0.0
  0
SEQEND
  5
202
  8
0
  0
LINE
  5
203
  8
0
 10
-84837.16452272
 20
450139.10608226
 30
0.0
 11
-84929.16452272
 21
450139.10608226
 31
0.0
  0
LINE
  5
204
  8
0
 10
-84837.16452272
 20
450143.10608226
 30
0.0
 11
-84837.16452272
 21
450139.10608226
 31
0.0
  0
LINE
  5
205
  8
0
  6
STRICHPUNKT2
 62
     1
 10
-84866.66452272
 20
450139.10608226
 30
0.0
 11
-84866.66452272
 21
450136.10608226
 31
0.0
  0
LINE
  5
206
  8
0
  6
STRICHPUNKT2
 62
     1
 10
-84866.66452272
 20
450146.10608226
 30
0.0
 11
-84866.66452272
 21
450143.10608226
 31
0.0
  0
LINE
  5
207
  8
0
  6
STRICHPUNKT2
 62
     1
 10
-84877.66452272
 20
450139.10608226
 30
0.0
 11
-84877.66452272
 21
450136.10608226
 31
0.0
  0
LINE
  5
208
  8
0
  6
STRICHPUNKT2
 62
     1
 10
-84877.66452272
 20
450146.10608226
 30
0.0
 11
-84877.66452272
 21
450143.10608226
 31
0.0
  0
POLYLINE
  5
209
  8
0
 66
     1
 10
0.0
 20
0.0
 30
0.0
  0
VERTEX
  5
20A
  8
0
 10
-84929.16452272
 20
450143.10608226
 30
0.0
 42
-0.414213562
  0
VERTEX
  5
20B
  8
0
 10
-84933.16452272
 20
450147.10608226
 30
0.0
  0
VERTEX
  5
20C
  8
0
 10
-84937.16452272
 20
450147.10608226
 30
0.0
  0
SEQEND
  5
20D
  8
0
  0
ARC
  5
20E
  8
0
 10
-84929.16452272
 20
450147.10608226
 30
0.0
 40
8.0
 50
180.0
 51
-90.0
  0
LINE
  5
20F
  8
0
 10
-84929.16452272
 20
450143.10608226
 30
0.0
 11
-84929.16452272
 21
450139.10608226
 31
0.0
  0
POLYLINE
  5
210
  8
0
 66
     1
 10
0.0
 20
0.0
 30
0.0
 70
     1
  0
VERTEX
  5
211
  8
0
 10
-85018.07760971
 20
450168.10608226
 30
0.0
  0
VERTEX
  5
212
  8
0
 10
-85018.07760971
 20
450152.10608226
 30
0.0
 42
-1.0
  0
VERTEX
  5
213
  8
0
 10
-85027.07760971
 20
450152.10608226
 30
0.0
  0
VERTEX
  5
214
  8
0
 10
-85027.07760971
 20
450168.10608226
 30
0.0
 42
-1.0
  0
SEQEND
  5
215
  8
0
  0
LINE
  5
216
  8
0
 10
-84972.57760971
 20
450147.10608226
 30
0.0
 11
-85072.57760971
 21
450147.10608226
 31
0.0
  0
LINE
  5
217
  8
0
 10
-85072.57760971
 20
450179.10608226
 30
0.0
 11
-85072.57760971
 21
450147.10608226
 31
0.0
  0
LINE
  5
218
  8
0
 10
-84972.57760971
 20
450179.10608226
 30
0.0
 11
-85072.57760971
 21
450179.10608226
 31
0.0
  0
LINE
  5
219
  8
0
 10
-84972.57760971
 20
450147.10608226
 30
0.0
 11
-84972.57760971
 21
450179.10608226
 31
0.0
  0
LINE
  5
21A
  8
0
  6
STRICHPUNKT2
 62
     1
 10
-85022.57760971
 20
450174.85608226
 30
0.0
 11
-85022.57760971
 21
450145.35608226
 31
0.0
  0
LINE
  5
21B
  8
0
  6
STRICHPUNKT2
 62
     1
 10
-85015.82760971
 20
450168.10608226
 30
0.0
 11
-85029.32760971
 21
450168.10608226
 31
0.0
  0
LINE
  5
21C
  8
0
  6
STRICHPUNKT2
 62
     1
 10
-85015.82760971
 20
450152.10608226
 30
0.0
 11
-85029.32760971
 21
450152.10608226
 31
0.0
  0
LINE
  5
21D
  8
0
 10
-84972.57760971
 20
450139.10608226
 30
0.0
 11
-85072.57760971
 21
450139.10608226
 31
0.0
  0
LINE
  5
21E
  8
0
  6
STRICHPUNKT2
 62
     1
 10
-85022.57760971
 20
450139.10608226
 30
0.0
 11
-85022.57760971
 21
450136.10608226
 31
0.0
  0
LINE
  5
21F
  8
0
 10
-84972.57760971
 20
450139.10608226
 30
0.0
 11
-85072.57760971
 21
450139.10608226
 31
0.0
  0
LINE
  5
220
  8
0
 10
-85072.57760971
 20
450147.10608226
 30
0.0
 11
-85072.57760971
 21
450139.10608226
 31
0.0
  0
LINE
  5
221
  8
0
 10
-84972.57760971
 20
450147.10608226
 30
0.0
 11
-85072.57760971
 21
450147.10608226
 31
0.0
  0
LINE
  5
222
  8
0
 10
-84972.57760971
 20
450139.10608226
 30
0.0
 11
-84972.57760971
 21
450147.10608226
 31
0.0
  0
POLYLINE
  5
223
  8
0
 66
     1
 10
0.0
 20
0.0
 30
0.0
  0
VERTEX
  5
224
  8
0
 10
-84933.16452272
 20
450005.79605964
 30
0.0
  0
VERTEX
  5
225
  8
0
 10
-84933.16452272
 20
450105.79605964
 30
0.0
  0
VERTEX
  5
226
  8
0
 10
-84937.16452272
 20
450105.79605964
 30
0.0
  0
SEQEND
  5
227
  8
0
  0
LINE
  5
228
  8
0
 10
-84937.16452272
 20
450005.79605964
 30
0.0
 11
-84937.16452272
 21
450105.79605964
 31
0.0
  0
LINE
  5
229
  8
0
 10
-84933.16452272
 20
450005.79605964
 30
0.0
 11
-84937.16452272
 21
450005.79605964
 31
0.0
  0
LINE
  5
22A
  8
0
  6
STRICHPUNKT2
 62
     1
 10
-84937.16452272
 20
450055.79605964
 30
0.0
 11
-84939.41452272
 21
450055.79605964
 31
0.0
  0
LINE
  5
22B
  8
0
  6
STRICHPUNKT2
 62
     1
 10
-84930.91452272
 20
450055.79605964
 30
0.0
 11
-84933.16452272
 21
450055.79605964
 31
0.0
  0
POLYLINE
  5
22C
  8
0
 66
     1
 10
0.0
 20
0.0
 30
0.0
 70
     1
  0
VERTEX
  5
22D
  8
0
 10
-84866.66452272
 20
450062.79605964
 30
0.0
 42
-1.0
  0
VERTEX
  5
22E
  8
0
 10
-84866.66452272
 20
450048.79605964
 30
0.0
  0
VERTEX
  5
22F
  8
0
 10
-84877.66452272
 20
450048.79605964
 30
0.0
 42
-1.0
  0
VERTEX
  5
230
  8
0
 10
-84877.66452272
 20
450062.79605964
 30
0.0
  0
SEQEND
  5
231
  8
0
  0
LINE
  5
232
  8
0
 10
-84929.16452272
 20
450105.79605964
 30
0.0
 11
-84837.16452272
 21
450105.79605964
 31
0.0
  0
LINE
  5
233
  8
0
 10
-84837.16452272
 20
450005.79605964
 30
0.0
 11
-84837.16452272
 21
450105.79605964
 31
0.0
  0
POLYLINE
  5
234
  8
0
 66
     1
 10
0.0
 20
0.0
 30
0.0
  0
VERTEX
  5
235
  8
0
 10
-84837.16452272
 20
450005.79605964
 30
0.0
  0
VERTEX
  5
236
  8
0
 10
-84929.16452272
 20
450005.79605964
 30
0.0
  0
VERTEX
  5
237
  8
0
 10
-84929.16452272
 20
450105.79605964
 30
0.0
  0
SEQEND
  5
238
  8
0
  0
LINE
  5
239
  8
0
  6
STRICHPUNKT2
 62
     1
 10
-84856.66452272
 20
450055.79605964
 30
0.0
 11
-84887.66452272
 21
450055.79605964
 31
0.0
  0
LINE
  5
23A
  8
0
  6
STRICHPUNKT2
 62
     1
 10
-84866.66452272
 20
450065.79605964
 30
0.0
 11
-84866.66452272
 21
450045.79605964
 31
0.0
  0
LINE
  5
23B
  8
0
  6
STRICHPUNKT2
 62
     1
 10
-84877.66452272
 20
450065.79605964
 30
0.0
 11
-84877.66452272
 21
450045.79605964
 31
0.0
  0
LINE
  5
23C
  8
0
 10
-84929.16452272
 20
450005.79605964
 30
0.0
 11
-84929.16452272
 21
450105.79605964
 31
0.0
  0
LINE
  5
23D
  8
0
 10
-84933.16452272
 20
450105.79605964
 30
0.0
 11
-84929.16452272
 21
450105.79605964
 31
0.0
  0
LINE
  5
23E
  8
0
 10
-84929.16452272
 20
450005.79605964
 30
0.0
 11
-84933.16452272
 21
450005.79605964
 31
0.0
  0
TEXT
  5
23F
  8
TXT_DIM49
 10
-84890.04427583
 20
450131.51690593
 30
0.0
 40
2.5
  1
100
  7
ARIAL
  0
LINE
  5
240
  8
0
 62
     4
 10
-84936.16452272
 20
450131.01690593
 30
0.0
 11
-84938.16452272
 21
450129.01690593
 31
0.0
  0
LINE
  5
241
  8
0
 62
     4
 10
-84837.91452272
 20
450129.26690593
 30
0.0
 11
-84836.41452272
 21
450130.76690593
 31
0.0
  0
LINE
  5
242
  8
0
 62
     4
 10
-84937.16452272
 20
450130.01690593
 30
0.0
 11
-84837.16452272
 21
450130.01690593
 31
0.0
  0
LINE
  5
243
  8
0
 62
     4
 10
-84937.16452272
 20
450132.01690593
 30
0.0
 11
-84937.16452272
 21
450128.01690593
 31
0.0
  0
LINE
  5
244
  8
0
 62
     4
 10
-84837.16452272
 20
450132.01690593
 30
0.0
 11
-84837.16452272
 21
450128.01690593
 31
0.0
  0
TEXT
  5
245
  8
TXT_DIM49
 10
-84949.85267122
 20
450157.18624681
 30
0.0
 40
2.5
  1
40
 50
90.00020741
  7
ARIAL
  0
LINE
  5
246
  8
0
 62
     4
 10
-84947.35267122
 20
450178.10608226
 30
0.0
 11
-84949.35267122
 21
450180.10608226
 31
0.0
  0
LINE
  5
247
  8
0
 62
     4
 10
-84949.10267122
 20
450139.85608226
 30
0.0
 11
-84947.60267122
 21
450138.35608226
 31
0.0
  0
LINE
  5
248
  8
0
 62
     4
 10
-84948.35267122
 20
450179.10608226
 30
0.0
 11
-84948.35267122
 21
450139.10608226
 31
0.0
  0
LINE
  5
249
  8
0
 62
     4
 10
-84946.35267122
 20
450179.10608226
 30
0.0
 11
-84950.35267122
 21
450179.10608226
 31
0.0
  0
LINE
  5
24A
  8
0
 62
     4
 10
-84946.35267122
 20
450139.10608226
 30
0.0
 11
-84950.35267122
 21
450139.10608226
 31
0.0
  0
TEXT
  5
24B
  8
TXT_DIM49
 10
-84936.12444044
 20
450186.40346121
 30
0.0
 40
2.5
  1
4
  7
ARIAL
  0
LINE
  5
24C
  8
0
 62
     4
 10
-84936.16452272
 20
450185.90346121
 30
0.0
 11
-84938.16452272
 21
450183.90346121
 31
0.0
  0
LINE
  5
24D
  8
0
 62
     4
 10
-84933.91452272
 20
450184.15346121
 30
0.0
 11
-84932.41452272
 21
450185.65346121
 31
0.0
  0
LINE
  5
24E
  8
0
 62
     4
 10
-84937.16452272
 20
450184.90346121
 30
0.0
 11
-84933.16452272
 21
450184.90346121
 31
0.0
  0
LINE
  5
24F
  8
0
 62
     4
 10
-84937.16452272
 20
450182.90346121
 30
0.0
 11
-84937.16452272
 21
450186.90346121
 31
0.0
  0
LINE
  5
250
  8
0
 62
     4
 10
-84933.16452272
 20
450182.90346121
 30
0.0
 11
-84933.16452272
 21
450186.90346121
 31
0.0
  0
TEXT
  5
251
  8
TXT_DIM49
 10
-84829.85267122
 20
450140.14616454
 30
0.0
 40
2.5
  1
4
 50
90.00020741
  7
ARIAL
  0
LINE
  5
252
  8
0
 62
     4
 10
-84827.35267122
 20
450142.10608226
 30
0.0
 11
-84829.35267122
 21
450144.10608226
 31
0.0
  0
LINE
  5
253
  8
0
 62
     4
 10
-84829.10267122
 20
450139.85608226
 30
0.0
 11
-84827.60267122
 21
450138.35608226
 31
0.0
  0
LINE
  5
254
  8
0
 62
     4
 10
-84828.35267122
 20
450143.10608226
 30
0.0
 11
-84828.35267122
 21
450139.10608226
 31
0.0
  0
LINE
  5
255
  8
0
 62
     4
 10
-84830.35267122
 20
450143.10608226
 30
0.0
 11
-84826.35267122
 21
450143.10608226
 31
0.0
  0
LINE
  5
256
  8
0
 62
     4
 10
-84830.35267122
 20
450139.10608226
 30
0.0
 11
-84826.35267122
 21
450139.10608226
 31
0.0
  0
TEXT
  5
257
  8
TXT_DIM49
 10
-84999.49744516
 20
450186.41435715
 30
0.0
 40
2.5
  1
50
  7
ARIAL
  0
LINE
  5
258
  8
0
 62
     4
 10
-84973.57760971
 20
450183.91435715
 30
0.0
 11
-84971.57760971
 21
450185.91435715
 31
0.0
  0
LINE
  5
259
  8
0
 62
     4
 10
-85021.82760971
 20
450185.66435715
 30
0.0
 11
-85023.32760971
 21
450184.16435715
 31
0.0
  0
LINE
  5
25A
  8
0
 62
     4
 10
-84972.57760971
 20
450184.91435715
 30
0.0
 11
-85022.57760971
 21
450184.91435715
 31
0.0
  0
LINE
  5
25B
  8
0
 62
     4
 10
-84972.57760971
 20
450182.91435715
 30
0.0
 11
-84972.57760971
 21
450186.91435715
 31
0.0
  0
LINE
  5
25C
  8
0
 62
     4
 10
-85022.57760971
 20
450182.91435715
 30
0.0
 11
-85022.57760971
 21
450186.91435715
 31
0.0
  0
TEXT
  5
25D
  8
TXT_DIM49
 10
-85049.49744516
 20
450186.41435715
 30
0.0
 40
2.5
  1
50
  7
ARIAL
  0
LINE
  5
25E
  8
0
 62
     4
 10
-85023.57760971
 20
450183.91435715
 30
0.0
 11
-85021.57760971
 21
450185.91435715
 31
0.0
  0
LINE
  5
25F
  8
0
 62
     4
 10
-85071.82760971
 20
450185.66435715
 30
0.0
 11
-85073.32760971
 21
450184.16435715
 31
0.0
  0
LINE
  5
260
  8
0
 62
     4
 10
-85022.57760971
 20
450184.91435715
 30
0.0
 11
-85072.57760971
 21
450184.91435715
 31
0.0
  0
LINE
  5
261
  8
0
 62
     4
 10
-85022.57760971
 20
450182.91435715
 30
0.0
 11
-85022.57760971
 21
450186.91435715
 31
0.0
  0
LINE
  5
262
  8
0
 62
     4
 10
-85072.57760971
 20
450182.91435715
 30
0.0
 11
-85072.57760971
 21
450186.91435715
 31
0.0
  0
TEXT
  5
263
  8
TXT_DIM49
 10
-85079.1478311
 20
450171.68624681
 30
0.0
 40
2.5
  1
11
 50
90.00020741
  7
ARIAL
  0
LINE
  5
264
  8
0
 62
     4
 10
-85076.6478311
 20
450178.10608226
 30
0.0
 11
-85078.6478311
 21
450180.10608226
 31
0.0
  0
LINE
  5
265
  8
0
 62
     4
 10
-85078.3978311
 20
450168.85608226
 30
0.0
 11
-85076.8978311
 21
450167.35608226
 31
0.0
  0
LINE
  5
266
  8
0
 62
     4
 10
-85077.6478311
 20
450179.10608226
 30
0.0
 11
-85077.6478311
 21
450168.10608226
 31
0.0
  0
LINE
  5
267
  8
0
 62
     4
 10
-85075.6478311
 20
450179.10608226
 30
0.0
 11
-85079.6478311
 21
450179.10608226
 31
0.0
  0
LINE
  5
268
  8
0
 62
     4
 10
-85075.6478311
 20
450168.10608226
 30
0.0
 11
-85079.6478311
 21
450168.10608226
 31
0.0
  0
TEXT
  5
269
  8
TXT_DIM49
 10
-85079.1478311
 20
450158.18624681
 30
0.0
 40
2.5
  1
16
 50
90.00020741
  7
ARIAL
  0
LINE
  5
26A
  8
0
 62
     4
 10
-85076.6478311
 20
450167.10608226
 30
0.0
 11
-85078.6478311
 21
450169.10608226
 31
0.0
  0
LINE
  5
26B
  8
0
 62
     4
 10
-85078.3978311
 20
450152.85608226
 30
0.0
 11
-85076.8978311
 21
450151.35608226
 31
0.0
  0
LINE
  5
26C
  8
0
 62
     4
 10
-85077.6478311
 20
450168.10608226
 30
0.0
 11
-85077.6478311
 21
450152.10608226
 31
0.0
  0
LINE
  5
26D
  8
0
 62
     4
 10
-85075.6478311
 20
450168.10608226
 30
0.0
 11
-85079.6478311
 21
450168.10608226
 31
0.0
  0
LINE
  5
26E
  8
0
 62
     4
 10
-85075.6478311
 20
450152.10608226
 30
0.0
 11
-85079.6478311
 21
450152.10608226
 31
0.0
  0
TEXT
  5
26F
  8
TXT_DIM49
 10
-85079.1478311
 20
450143.68624681
 30
0.0
 40
2.5
  1
13
 50
90.00020741
  7
ARIAL
  0
LINE
  5
270
  8
0
 62
     4
 10
-85076.6478311
 20
450151.10608226
 30
0.0
 11
-85078.6478311
 21
450153.10608226
 31
0.0
  0
LINE
  5
271
  8
0
 62
     4
 10
-85078.3978311
 20
450139.85608226
 30
0.0
 11
-85076.8978311
 21
450138.35608226
 31
0.0
  0
LINE
  5
272
  8
0
 62
     4
 10
-85077.6478311
 20
450152.10608226
 30
0.0
 11
-85077.6478311
 21
450139.10608226
 31
0.0
  0
LINE
  5
273
  8
0
 62
     4
 10
-85075.6478311
 20
450152.10608226
 30
0.0
 11
-85079.6478311
 21
450152.10608226
 31
0.0
  0
LINE
  5
274
  8
0
 62
     4
 10
-85075.6478311
 20
450139.10608226
 30
0.0
 11
-85079.6478311
 21
450139.10608226
 31
0.0
  0
LINE
  5
275
  8
0
 62
     5
 10
-85018.07760971
 20
450160.10608226
 30
0.0
 11
-85006.03908526
 21
450165.67623851
 31
0.0
  0
TEXT
  5
276
  8
TXT_DIM49
 10
-85006.03908526
 20
450164.42623851
 30
0.0
 40
2.5
  1
Slobgat 9 x 25
  7
ARIAL
  0
TEXT
  5
277
  8
TXT_DIM49
 10
-84853.83435817
 20
450113.10270367
 30
0.0
 40
2.5
  1
30
  7
ARIAL
  0
LINE
  5
278
  8
0
 62
     4
 10
-84838.16452272
 20
450110.60270367
 30
0.0
 11
-84836.16452272
 21
450112.60270367
 31
0.0
  0
LINE
  5
279
  8
0
 62
     4
 10
-84865.91452272
 20
450112.35270367
 30
0.0
 11
-84867.41452272
 21
450110.85270367
 31
0.0
  0
LINE
  5
27A
  8
0
 62
     4
 10
-84837.16452272
 20
450111.60270367
 30
0.0
 11
-84866.66452272
 21
450111.60270367
 31
0.0
  0
LINE
  5
27B
  8
0
 62
     4
 10
-84837.16452272
 20
450109.60270367
 30
0.0
 11
-84837.16452272
 21
450113.60270367
 31
0.0
  0
LINE
  5
27C
  8
0
 62
     4
 10
-84866.66452272
 20
450109.60270367
 30
0.0
 11
-84866.66452272
 21
450113.60270367
 31
0.0
  0
TEXT
  5
27D
  8
TXT_DIM49
 10
-84874.08435817
 20
450113.10270367
 30
0.0
 40
2.5
  1
11
  7
ARIAL
  0
LINE
  5
27E
  8
0
 62
     4
 10
-84867.66452272
 20
450110.60270367
 30
0.0
 11
-84865.66452272
 21
450112.60270367
 31
0.0
  0
LINE
  5
27F
  8
0
 62
     4
 10
-84876.91452272
 20
450112.35270367
 30
0.0
 11
-84878.41452272
 21
450110.85270367
 31
0.0
  0
LINE
  5
280
  8
0
 62
     4
 10
-84866.66452272
 20
450111.60270367
 30
0.0
 11
-84877.66452272
 21
450111.60270367
 31
0.0
  0
LINE
  5
281
  8
0
 62
     4
 10
-84866.66452272
 20
450109.60270367
 30
0.0
 11
-84866.66452272
 21
450113.60270367
 31
0.0
  0
LINE
  5
282
  8
0
 62
     4
 10
-84877.66452272
 20
450109.60270367
 30
0.0
 11
-84877.66452272
 21
450113.60270367
 31
0.0
  0
TEXT
  5
283
  8
TXT_DIM49
 10
-84909.33435817
 20
450113.10270367
 30
0.0
 40
2.5
  1
60
  7
ARIAL
  0
LINE
  5
284
  8
0
 62
     4
 10
-84878.66452272
 20
450110.60270367
 30
0.0
 11
-84876.66452272
 21
450112.60270367
 31
0.0
  0
LINE
  5
285
  8
0
 62
     4
 10
-84936.41452272
 20
450112.35270367
 30
0.0
 11
-84937.91452272
 21
450110.85270367
 31
0.0
  0
LINE
  5
286
  8
0
 62
     4
 10
-84877.66452272
 20
450111.60270367
 30
0.0
 11
-84937.16452272
 21
450111.60270367
 31
0.0
  0
LINE
  5
287
  8
0
 62
     4
 10
-84877.66452272
 20
450109.60270367
 30
0.0
 11
-84877.66452272
 21
450113.60270367
 31
0.0
  0
LINE
  5
288
  8
0
 62
     4
 10
-84937.16452272
 20
450109.60270367
 30
0.0
 11
-84937.16452272
 21
450113.60270367
 31
0.0
  0
TEXT
  5
289
  8
TXT_DIM49
 10
-84832.85277079
 20
450078.87622419
 30
0.0
 40
2.5
  1
50
 50
90.00020741
  7
ARIAL
  0
LINE
  5
28A
  8
0
 62
     4
 10
-84830.35277079
 20
450104.79605964
 30
0.0
 11
-84832.35277079
 21
450106.79605964
 31
0.0
  0
LINE
  5
28B
  8
0
 62
     4
 10
-84832.10277079
 20
450056.54605964
 30
0.0
 11
-84830.60277079
 21
450055.04605964
 31
0.0
  0
LINE
  5
28C
  8
0
 62
     4
 10
-84831.35277079
 20
450105.79605964
 30
0.0
 11
-84831.35277079
 21
450055.79605964
 31
0.0
  0
LINE
  5
28D
  8
0
 62
     4
 10
-84833.35277079
 20
450105.79605964
 30
0.0
 11
-84829.35277079
 21
450105.79605964
 31
0.0
  0
LINE
  5
28E
  8
0
 62
     4
 10
-84833.35277079
 20
450055.79605964
 30
0.0
 11
-84829.35277079
 21
450055.79605964
 31
0.0
  0
TEXT
  5
28F
  8
TXT_DIM49
 10
-84832.85277079
 20
450028.87622419
 30
0.0
 40
2.5
  1
50
 50
90.00020741
  7
ARIAL
  0
LINE
  5
290
  8
0
 62
     4
 10
-84830.35277079
 20
450054.79605964
 30
0.0
 11
-84832.35277079
 21
450056.79605964
 31
0.0
  0
LINE
  5
291
  8
0
 62
     4
 10
-84832.10277079
 20
450006.54605964
 30
0.0
 11
-84830.60277079
 21
450005.04605964
 31
0.0
  0
LINE
  5
292
  8
0
 62
     4
 10
-84831.35277079
 20
450055.79605964
 30
0.0
 11
-84831.35277079
 21
450005.79605964
 31
0.0
  0
LINE
  5
293
  8
0
 62
     4
 10
-84833.35277079
 20
450055.79605964
 30
0.0
 11
-84829.35277079
 21
450055.79605964
 31
0.0
  0
LINE
  5
294
  8
0
 62
     4
 10
-84833.35277079
 20
450005.79605964
 30
0.0
 11
-84829.35277079
 21
450005.79605964
 31
0.0
  0
LINE
  5
295
  8
0
 62
     5
 10
-84872.16452272
 20
450062.79605964
 30
0.0
 11
-84876.41582826
 21
450072.76977155
 31
0.0
  0
TEXT
  5
296
  8
TXT_DIM49
 10
-84900.40618694
 20
450071.51977155
 30
0.0
 40
2.5
  1
Slobgat 14 x 25
  7
ARIAL
  0
ENDSEC
  0
EOF
