  0
SECTION
  2
HEADER
  9
$ACADVER
  1
AC1006
  9
$DWGCODEPAGE
  3
ansi_1252
  9
$INSBASE
 10
0.0
 20
0.0
 30
0.0
  9
$EXTMIN
 10
1461.49008079
 20
-793.83025591
  9
$EXTMAX
 10
2231.73691333
 20
-438.95106292
  9
$LIMMIN
 10
1461.49008079
 20
-793.83025591
  9
$LIMMAX
 10
2231.73691333
 20
-438.95106292
  9
$ORTHOMODE
 70
     0
  9
$REGENMODE
 70
     1
  9
$FILLMODE
 70
     1
  9
$QTEXTMODE
 70
     0
  9
$MIRRTEXT
 70
     1
  9
$DRAGMODE
 70
     2
  9
$LTSCALE
 40
1.0
  9
$OSMODE
 70
    37
  9
$ATTMODE
 70
     1
  9
$TEXTSIZE
 40
1.0
  9
$TRACEWID
 40
0.05
  9
$TEXTSTYLE
  7
STANDARD
  9
$CLAYER
  8
0
  9
$CELTYPE
  6
BYBLOCK
  9
$CECOLOR
 62
   256
  9
$DIMSCALE
 40
1.0
  9
$DIMASZ
 40
0.18
  9
$DIMEXO
 40
0.0625
  9
$DIMDLI
 40
0.38
  9
$DIMRND
 40
0.0
  9
$DIMDLE
 40
0.0
  9
$DIMEXE
 40
0.18
  9
$DIMTP
 40
0.0
  9
$DIMTM
 40
0.0
  9
$DIMTXT
 40
0.18
  9
$DIMCEN
 40
0.09
  9
$DIMTSZ
 40
0.0
  9
$DIMTOL
 70
     0
  9
$DIMLIM
 70
     0
  9
$DIMTIH
 70
     1
  9
$DIMTOH
 70
     1
  9
$DIMSE1
 70
     0
  9
$DIMSE2
 70
     0
  9
$DIMTAD
 70
     0
  9
$DIMZIN
 70
     0
  9
$DIMBLK
  1

  9
$DIMASO
 70
     1
  9
$DIMSHO
 70
     1
  9
$DIMPOST
  1

  9
$DIMAPOST
  1

  9
$DIMALT
 70
     0
  9
$DIMALTD
 70
     2
  9
$DIMALTF
 40
25.4
  9
$DIMLFAC
 40
1.0
  9
$DIMTOFL
 70
     0
  9
$DIMTVP
 40
0.0
  9
$DIMTIX
 70
     0
  9
$DIMSOXD
 70
     0
  9
$DIMSAH
 70
     0
  9
$DIMBLK1
  1

  9
$DIMBLK2
  1

  9
$LUNITS
 70
     2
  9
$LUPREC
 70
     4
  9
$SKETCHINC
 40
0.1
  9
$FILLETRAD
 40
0.5
  9
$AUNITS
 70
     0
  9
$AUPREC
 70
     0
  9
$MENU
  1
.
  9
$ELEVATION
 40
0.0
  9
$THICKNESS
 40
0.0
  9
$LIMCHECK
 70
     0
  9
$CHAMFERA
 40
0.0
  9
$CHAMFERB
 40
0.0
  9
$SKPOLY
 70
     0
  9
$TDCREATE
 40
2447893.125
  9
$TDUPDATE
 40
2460791.477709491
  9
$TDINDWG
 40
0.0
  9
$TDUSRTIMER
 40
0.0
  9
$USRTIMER
 70
     1
  9
$ANGBASE
 50
0.0
  9
$ANGDIR
 70
     0
  9
$PDMODE
 70
     0
  9
$PDSIZE
 40
0.0
  9
$PLINEWID
 40
0.0
  9
$COORDS
 70
     1
  9
$SPLFRAME
 70
     0
  9
$SPLINETYPE
 70
     6
  9
$SPLINESEGS
 70
     8
  9
$ATTDIA
 70
     0
  9
$ATTREQ
 70
     1
  9
$HANDLING
 70
     1
  9
$HANDSEED
  5
420
  9
$SURFTAB1
 70
     6
  9
$SURFTAB2
 70
     6
  9
$SURFTYPE
 70
     6
  9
$SURFU
 70
     6
  9
$SURFV
 70
     6
  9
$UCSNAME
  2

  9
$UCSORG
 10
0.0
 20
0.0
 30
0.0
  9
$UCSXDIR
 10
1.0
 20
0.0
 30
0.0
  9
$UCSYDIR
 10
0.0
 20
1.0
 30
0.0
  9
$USERI1
 70
     0
  9
$USERI2
 70
     0
  9
$USERI3
 70
     0
  9
$USERI4
 70
     0
  9
$USERI5
 70
     0
  9
$USERR1
 40
0.0
  9
$USERR2
 40
0.0
  9
$USERR3
 40
0.0
  9
$USERR4
 40
0.0
  9
$USERR5
 40
0.0
  9
$WORLDVIEW
 70
     1
  0
ENDSEC
  0
SECTION
  2
TABLES
  0
TABLE
  2
VPORT
 70
     1
  0
VPORT
  2
*ACTIVE
 70
     0
 10
0.0
 20
0.0
 11
1.0
 21
1.0
 12
1846.61349706
 22
-616.39065941
 13
0.0
 23
0.0
 14
1.0
 24
1.0
 15
0.0
 25
0.0
 16
0.0
 26
0.0
 36
1.0
 17
0.0
 27
0.0
 37
0.0
 40
354.879192986
 41
2.170447994
 42
50.0
 43
0.0
 44
0.0
 50
0.0
 51
0.0
 71
     0
 72
   100
 73
     1
 74
     1
 75
     0
 76
     0
 77
     0
 78
     0
  0
ENDTAB
  0
TABLE
  2
LTYPE
 70
    19
  0
LTYPE
  2
CONTINUOUS
 70
     0
  3
Solid line
 72
    65
 73
     0
 40
0.0
  0
LTYPE
  2
DOT
 70
     0
  3
..............
 72
    65
 73
     2
 40
2.0
 49
0.5
 49
-1.5
  0
LTYPE
  2
HIDDEN
 70
     0
  3
-- -- -- -- --
 72
    65
 73
     2
 40
7.0
 49
4.0
 49
-3.0
  0
LTYPE
  2
DASHDOT
 70
     0
  3
--.--.--.--.--
 72
    65
 73
     4
 40
8.5
 49
4.0
 49
-2.0
 49
0.5
 49
-2.0
  0
LTYPE
  2
STRICHPUNKT2
 70
     0
  3
--.--.--.--.--
 72
    65
 73
     4
 40
18.5
 49
10.0
 49
-4.0
 49
0.5
 49
-4.0
  0
LTYPE
  2
STRICHPUNKT3
 70
     0
  3
--.--.--.--.--
 72
    65
 73
     4
 40
35.5
 49
25.0
 49
-5.0
 49
0.5
 49
-5.0
  0
LTYPE
  2
PHANTOM
 70
     0
  3
--..--..--..--
 72
    65
 73
     6
 40
23.0
 49
10.0
 49
-4.0
 49
0.5
 49
-4.0
 49
0.5
 49
-4.0
  0
LTYPE
  2
PHANTOM2
 70
     0
  3
--..--..--..--
 72
    65
 73
     6
 40
33.0
 49
20.0
 49
-4.0
 49
0.5
 49
-4.0
 49
0.5
 49
-4.0
  0
LTYPE
  2
PHANTOM3
 70
     0
  3
--..--..--..--
 72
    65
 73
     6
 40
50.0
 49
37.0
 49
-4.0
 49
0.5
 49
-4.0
 49
0.5
 49
-4.0
  0
LTYPE
  2
STR3PKT
 70
     0
  3
--...--...--...
 72
    65
 73
     8
 40
31.5
 49
20.0
 49
-2.5
 49
0.5
 49
-2.5
 49
0.5
 49
-2.5
 49
0.5
 49
-2.5
  0
LTYPE
  2
2STRPKT
 70
     0
  3
--.--.--.--.--
 72
    65
 73
     6
 40
28.0
 49
10.0
 49
-2.5
 49
10.0
 49
-2.5
 49
0.5
 49
-2.5
  0
LTYPE
  2
GESTRICHELT2
 70
     0
  3
-- -- -- -- --
 72
    65
 73
     2
 40
25.0
 49
10.0
 49
-15.0
  0
LTYPE
  2
2STR2PKT
 70
     0
  3
--..--..--..--
 72
    65
 73
     8
 40
31.0
 49
10.0
 49
-2.5
 49
10.0
 49
-2.5
 49
0.5
 49
-2.5
 49
0.5
 49
-2.5
  0
LTYPE
  2
STR3PKT2
 70
     0
  3
--...--...--...
 72
    65
 73
     8
 40
21.0
 49
10.0
 49
-2.5
 49
0.5
 49
-2.5
 49
0.5
 49
-2.5
 49
0.5
 49
-2.0
  0
LTYPE
  2
2STR3PKT
 70
     0
  3
--...--...--...
 72
    65
 73
    10
 40
34.0
 49
10.0
 49
-2.5
 49
10.0
 49
-2.5
 49
0.5
 49
-2.5
 49
0.5
 49
-2.5
 49
0.5
 49
-2.5
  0
LTYPE
  2
STRKSTR
 70
     0
  3
-- - -- - -- -
 72
    65
 73
     4
 40
30.0
 49
20.0
 49
-2.5
 49
5.0
 49
-2.5
  0
LTYPE
  2
STRKSTR2
 70
     0
  3
-- - -- - -- -
 72
    65
 73
     6
 40
37.5
 49
20.0
 49
-2.5
 49
5.0
 49
-2.5
 49
5.0
 49
-2.5
  0
LTYPE
  2
STRKSTR3
 70
     0
  3
-- - -- - -- -
 72
    65
 73
     8
 40
45.0
 49
20.0
 49
-2.5
 49
5.0
 49
-2.5
 49
5.0
 49
-2.5
 49
5.0
 49
-2.5
  0
LTYPE
  2
PUNKT2
 70
     0
  3
..............
 72
    65
 73
     2
 40
3.5
 49
0.5
 49
-3.0
  0
ENDTAB
  0
TABLE
  2
LAYER
 70
    17
  0
LAYER
  2
0
 70
     0
 62
     7
  6
CONTINUOUS
  0
LAYER
  2
LE_GREEN
 70
     0
 62
     3
  6
CONTINUOUS
  0
LAYER
  2
LE_RED
 70
     0
 62
     1
  6
CONTINUOUS
  0
LAYER
  2
LE_ALL
 70
     0
 62
     7
  6
CONTINUOUS
  0
LAYER
  2
LE_HIDDEN1
 70
     0
 62
     3
  6
HIDDEN
  0
LAYER
  2
LE_HIDDEN
 70
     0
 62
     7
  6
CONTINUOUS
  0
LAYER
  2
LE_MIDDLE
 70
     0
 62
     7
  6
CONTINUOUS
  0
LAYER
  2
TXT_YELLOW
 70
     0
 62
     2
  6
CONTINUOUS
  0
LAYER
  2
TXT_DIM49
 70
     0
 62
     2
  6
CONTINUOUS
  0
LAYER
  2
TXT_ALL
 70
     0
 62
     7
  6
CONTINUOUS
  0
LAYER
  2
DIM49
 70
     0
 62
     4
  6
CONTINUOUS
  0
LAYER
  2
HATCH
 70
     0
 62
     3
  6
CONTINUOUS
  0
LAYER
  2
APPLE
 70
     0
 62
     7
  6
CONTINUOUS
  0
LAYER
  2
10
 70
     0
 62
     7
  6
CONTINUOUS
  0
LAYER
  2
20
 70
     0
 62
     7
  6
CONTINUOUS
  0
LAYER
  2
47
 70
     0
 62
     7
  6
CONTINUOUS
  0
LAYER
  2
49
 70
     0
 62
     7
  6
CONTINUOUS
  0
ENDTAB
  0
TABLE
  2
STYLE
 70
     5
  0
STYLE
  2
MONOTXT
 70
     0
 40
0.0
 41
1.0
 50
0.0
 71
     0
 42
1.0
  3
monotxt.shx
  4

  0
STYLE
  2
STANDARD
 70
     0
 40
0.0
 41
1.0
 50
0.0
 71
     0
 42
1.0
  3
txt
  4

  0
STYLE
  2
ARIAL
 70
     0
 40
0.0
 41
1.0
 50
0.0
 71
     0
 42
1.0
  3
arial.ttf
  4

  0
STYLE
  2
ARIAL_NARROW
 70
     0
 40
0.0
 41
1.0
 50
0.0
 71
     0
 42
1.0
  3
ArialN.ttf
  4

  0
STYLE
  2
ISOCPEUR
 70
     0
 40
0.0
 41
1.0
 50
0.0
 71
     0
 42
1.0
  3
ISOCPEUR.ttf
  4

  0
ENDTAB
  0
TABLE
  2
VIEW
 70
     0
  0
ENDTAB
  0
TABLE
  2
UCS
 70
     0
  0
ENDTAB
  0
ENDSEC
  0
SECTION
  2
BLOCKS
  0
ENDSEC
  0
SECTION
  2
ENTITIES
  0
POLYLINE
  5
16E
  8
0
 66
     1
 10
0.0
 20
0.0
 30
0.0
 70
     1
  0
VERTEX
  5
16F
  8
0
 10
1536.05580403
 20
-764.60640313
 30
0.0
  0
VERTEX
  5
170
  8
0
 10
1956.05580403
 20
-764.60640313
 30
0.0
  0
VERTEX
  5
171
  8
0
 10
1956.05580403
 20
-467.60640313
 30
0.0
  0
VERTEX
  5
172
  8
0
 10
1536.05580403
 20
-467.60640313
 30
0.0
  0
SEQEND
  5
173
  8
0
  0
POLYLINE
  5
174
  8
0
 66
     1
 10
0.0
 20
0.0
 30
0.0
 70
     1
  0
VERTEX
  5
175
  8
0
 10
1541.05580403
 20
-759.60640313
 30
0.0
  0
VERTEX
  5
176
  8
0
 10
1951.05580403
 20
-759.60640313
 30
0.0
  0
VERTEX
  5
177
  8
0
 10
1951.05580403
 20
-472.60640313
 30
0.0
  0
VERTEX
  5
178
  8
0
 10
1541.05580403
 20
-472.60640313
 30
0.0
  0
SEQEND
  5
179
  8
0
  0
LINE
  5
17A
  8
0
 10
1766.05580403
 20
-759.60640313
 30
0.0
 11
1766.05580403
 21
-764.60640313
 31
0.0
  0
LINE
  5
17B
  8
0
 10
1766.05580403
 20
-472.60640313
 30
0.0
 11
1766.05580403
 21
-467.60640313
 31
0.0
  0
LINE
  5
17C
  8
0
 10
1556.05580403
 20
-759.60640313
 30
0.0
 11
1556.05580403
 21
-764.60640313
 31
0.0
  0
LINE
  5
17D
  8
0
 10
1556.05580403
 20
-472.60640313
 30
0.0
 11
1556.05580403
 21
-467.60640313
 31
0.0
  0
TEXT
  5
17E
  8
TXT_ALL
 62
     4
 10
1955.05580403
 20
-763.60640313
 30
0.0
 40
2.5
  1

 50
90.00020741
  0
POLYLINE
  5
17F
  8
0
 66
     1
 10
0.0
 20
0.0
 30
0.0
  0
VERTEX
  5
180
  8
0
 10
1951.05580403
 20
-482.60640313
 30
0.0
  0
VERTEX
  5
181
  8
0
 10
1882.06250403
 20
-482.60640313
 30
0.0
  0
VERTEX
  5
182
  8
0
 10
1882.06250403
 20
-472.60640313
 30
0.0
  0
SEQEND
  5
183
  8
0
  0
LINE
  5
184
  8
0
 10
1883.96580403
 20
-740.10640313
 30
0.0
 11
1744.07580403
 21
-740.10640313
 31
0.0
  0
LINE
  5
185
  8
0
 10
1744.07580403
 20
-749.85640313
 30
0.0
 11
1883.96580403
 21
-749.85640313
 31
0.0
  0
POLYLINE
  5
186
  8
0
 66
     1
 10
0.0
 20
0.0
 30
0.0
  0
VERTEX
  5
187
  8
0
 10
1744.07580403
 20
-740.10640313
 30
0.0
  0
VERTEX
  5
188
  8
0
 10
1744.07580403
 20
-749.85640313
 30
0.0
  0
VERTEX
  5
189
  8
0
 10
1744.07580403
 20
-759.60640313
 30
0.0
  0
SEQEND
  5
18A
  8
0
  0
POLYLINE
  5
18B
  8
0
 66
     1
 10
0.0
 20
0.0
 30
0.0
  0
VERTEX
  5
18C
  8
0
 10
1814.02080403
 20
-740.10640313
 30
0.0
  0
VERTEX
  5
18D
  8
0
 10
1814.02080403
 20
-749.85640313
 30
0.0
  0
VERTEX
  5
18E
  8
0
 10
1814.02080403
 20
-759.60640313
 30
0.0
  0
SEQEND
  5
18F
  8
0
  0
TEXT
  5
190
  8
TXT_ALL
 10
1746.07580403
 20
-746.28140308
 30
0.0
 40
2.5999999
  1
E-mail: verkoop@jonkers-bouwmetaal.nl
  7
ARIAL
  0
TEXT
  5
191
  8
TXT_ALL
 10
1746.07580403
 20
-756.03140308
 30
0.0
 40
2.5999999
  1
Telefoon: 0527-685156
  7
ARIAL
  0
TEXT
  5
192
  8
TXT_ALL
 10
1816.02080403
 20
-756.03140308
 30
0.0
 40
2.5999999
  1
Website: www.jonkers-bouwmetaal.nl
  7
ARIAL
  0
TEXT
  5
193
  8
TXT_ALL
 10
1816.02080403
 20
-746.28140308
 30
0.0
 40
2.5999999
  1
Adres: Hoornse Hop 10, 8321 WX Urk
  7
ARIAL
  0
TEXT
  5
194
  8
TXT_ALL
 10
1544.49776428
 20
-478.85640313
 30
0.0
 40
2.5
  1
Art. nr. 91007745
  7
ARIAL
  0
TEXT
  5
195
  8
TXT_ALL
 10
1587.2358011
 20
-478.85640313
 30
0.0
 40
2.5
  1
Omschrijving: H1203-Anker 120x100  80x8
  7
ARIAL
  0
LINE
  5
196
  8
0
 10
1951.05580403
 20
-482.60640313
 30
0.0
 11
1541.05580403
 21
-482.60640313
 31
0.0
  0
LINE
  5
197
  8
0
 10
1584.07580403
 20
-482.60640313
 30
0.0
 11
1584.07580403
 21
-472.60640313
 31
0.0
  0
LINE
  5
198
  8
0
 10
1744.07580403
 20
-482.60640313
 30
0.0
 11
1744.07580403
 21
-472.60640313
 31
0.0
  0
TEXT
  5
199
  8
TXT_ALL
 10
1815.06950403
 20
-478.85640313
 30
0.0
 40
2.5
  1
Behandeling: Thermisch Verzinkt
  7
ARIAL
  0
LINE
  5
19A
  8
0
 10
1883.96580403
 20
-740.10640313
 30
0.0
 11
1951.05580403
 21
-740.10640313
 31
0.0
  0
LINE
  5
19B
  8
0
 10
1883.96580403
 20
-759.60640313
 30
0.0
 11
1883.96580403
 21
-740.10640313
 31
0.0
  0
LINE
  5
19C
  8
0
 10
1883.96580403
 20
-759.60640313
 30
0.0
 11
1883.96580403
 21
-740.10640313
 31
0.0
  0
TEXT
  5
19D
  8
TXT_ALL
 10
1678.42100212
 20
-758.45186972
 30
0.0
 40
2.5
  1

  0
TEXT
  5
19E
  8
TXT_ALL
 10
1799.55618509
 20
-748.35640313
 30
0.0
 40
2.5
  1

  0
POLYLINE
  5
19F
  8
0
 66
     1
 10
0.0
 20
0.0
 30
0.0
  0
VERTEX
  5
1A0
  8
0
 10
1882.06250403
 20
-482.60640313
 30
0.0
  0
VERTEX
  5
1A1
  8
0
 10
1813.06950403
 20
-482.60640313
 30
0.0
  0
VERTEX
  5
1A2
  8
0
 10
1813.06950403
 20
-472.60640313
 30
0.0
  0
SEQEND
  5
1A3
  8
0
  0
TEXT
  5
1A4
  8
TXT_ALL
 10
1884.06250403
 20
-478.85640313
 30
0.0
 40
2.5
  1
Verpakkingshoeveelheid: 1 st.
  7
ARIAL
  0
TEXT
  5
1A5
  8
TXT_ALL
 10
1746.07580403
 20
-478.85640313
 30
0.0
 40
2.5
  1
Materiaal: S355
  7
ARIAL
  0
TEXT
  5
1A6
  8
TXT_ALL
 10
1918.36416444
 20
-762.85591298
 30
0.0
 40
1.5
  1
Onderdeel van
  7
ARIAL
  0
POLYLINE
  5
1A7
  8
0
 66
     1
 10
0.0
 20
0.0
 30
0.0
  0
VERTEX
  5
32A
  8
0
 10
1585.899323284749
 20
-677.6506107905984
 30
0.0
  0
VERTEX
  5
32B
  8
0
 10
1585.631635689631
 20
-677.694351789013
 30
0.0
  0
VERTEX
  5
32C
  8
0
 10
1585.355020458873
 20
-677.888923954535
 30
0.0
  0
VERTEX
  5
32D
  8
0
 10
1585.080107760689
 20
-678.2268499879433
 30
0.0
  0
VERTEX
  5
32E
  8
0
 10
1584.817462335922
 20
-678.6951435812558
 30
0.0
  0
VERTEX
  5
32F
  8
0
 10
1584.577177500976
 20
-679.2758084742627
 30
0.0
  0
VERTEX
  5
330
  8
0
 10
1584.368487267325
 20
-679.9465300407152
 30
0.0
  0
VERTEX
  5
331
  8
0
 10
1584.199411483632
 20
-680.6815328269009
 30
0.0
  0
VERTEX
  5
332
  8
0
 10
1584.07644763746
 20
-681.4525710878768
 30
0.0
  0
VERTEX
  5
333
  8
0
 10
1584.004321160469
 20
-682.2300142556091
 30
0.0
  0
VERTEX
  5
334
  8
0
 10
1583.985803832728
 20
-682.9839856250892
 30
0.0
  0
VERTEX
  5
335
  8
0
 10
1584.021607264759
 20
-683.6855104993539
 30
0.0
  0
VERTEX
  5
336
  8
0
 10
1584.110355550743
 20
-684.3076296708433
 30
0.0
  0
VERTEX
  5
337
  8
0
 10
1584.248638143815
 20
-684.8264354486314
 30
0.0
  0
VERTEX
  5
338
  8
0
 10
1584.431140921459
 20
-685.2219904175818
 30
0.0
  0
VERTEX
  5
339
  8
0
 10
1584.650850404264
 20
-685.4790936220328
 30
0.0
  0
VERTEX
  5
33A
  8
0
 10
1584.89932328
 20
-685.58786473
 30
0.0
  0
SEQEND
  5
411
  8
0
  0
POLYLINE
  5
1A8
  8
0
 66
     1
 10
0.0
 20
0.0
 30
0.0
  0
VERTEX
  5
33B
  8
0
 10
1584.89932328
 20
-685.58786473
 30
0.0
  0
VERTEX
  5
33C
  8
0
 10
1585.167010874751
 20
-685.5441237290686
 30
0.0
  0
VERTEX
  5
33D
  8
0
 10
1585.443626104933
 20
-685.3495515617908
 30
0.0
  0
VERTEX
  5
33E
  8
0
 10
1585.718538802402
 20
-685.0116255274207
 30
0.0
  0
VERTEX
  5
33F
  8
0
 10
1585.981184226392
 20
-684.5433319339188
 30
0.0
  0
VERTEX
  5
340
  8
0
 10
1586.221469060573
 20
-683.96266704142
 30
0.0
  0
VERTEX
  5
341
  8
0
 10
1586.430159293544
 20
-683.2919454760516
 30
0.0
  0
VERTEX
  5
342
  8
0
 10
1586.599235076704
 20
-682.5569426913672
 30
0.0
  0
VERTEX
  5
343
  8
0
 10
1586.722198922541
 20
-681.7859044321233
 30
0.0
  0
VERTEX
  5
344
  8
0
 10
1586.794325399427
 20
-681.008461266152
 30
0.0
  0
VERTEX
  5
345
  8
0
 10
1586.812842727312
 20
-680.2544898982585
 30
0.0
  0
VERTEX
  5
346
  8
0
 10
1586.777039295672
 20
-679.552965025213
 30
0.0
  0
VERTEX
  5
347
  8
0
 10
1586.688291010301
 20
-678.9308458544051
 30
0.0
  0
VERTEX
  5
348
  8
0
 10
1586.55000841803
 20
-678.4120400766265
 30
0.0
  0
VERTEX
  5
349
  8
0
 10
1586.367505641317
 20
-678.0164851069219
 30
0.0
  0
VERTEX
  5
34A
  8
0
 10
1586.147796159506
 20
-677.7593819009128
 30
0.0
  0
VERTEX
  5
34B
  8
0
 10
1585.899323284749
 20
-677.6506107905984
 30
0.0
  0
SEQEND
  5
412
  8
0
  0
POLYLINE
  5
1A9
  8
0
 66
     1
 10
0.0
 20
0.0
 30
0.0
  0
VERTEX
  5
34C
  8
0
 10
1585.899323284749
 20
-612.5967869305983
 30
0.0
  0
VERTEX
  5
34D
  8
0
 10
1585.631635689631
 20
-612.6405279290129
 30
0.0
  0
VERTEX
  5
34E
  8
0
 10
1585.355020458873
 20
-612.8351000945349
 30
0.0
  0
VERTEX
  5
34F
  8
0
 10
1585.080107760689
 20
-613.1730261279432
 30
0.0
  0
VERTEX
  5
350
  8
0
 10
1584.817462335922
 20
-613.6413197212557
 30
0.0
  0
VERTEX
  5
351
  8
0
 10
1584.577177500976
 20
-614.2219846142626
 30
0.0
  0
VERTEX
  5
352
  8
0
 10
1584.368487267325
 20
-614.8927061807151
 30
0.0
  0
VERTEX
  5
353
  8
0
 10
1584.199411483632
 20
-615.6277089669009
 30
0.0
  0
VERTEX
  5
354
  8
0
 10
1584.07644763746
 20
-616.3987472278767
 30
0.0
  0
VERTEX
  5
355
  8
0
 10
1584.004321160469
 20
-617.1761903956091
 30
0.0
  0
VERTEX
  5
356
  8
0
 10
1583.985803832728
 20
-617.9301617650891
 30
0.0
  0
VERTEX
  5
357
  8
0
 10
1584.021607264759
 20
-618.6316866393538
 30
0.0
  0
VERTEX
  5
358
  8
0
 10
1584.110355550743
 20
-619.2538058108432
 30
0.0
  0
VERTEX
  5
359
  8
0
 10
1584.248638143815
 20
-619.7726115886313
 30
0.0
  0
VERTEX
  5
35A
  8
0
 10
1584.431140921459
 20
-620.1681665575817
 30
0.0
  0
VERTEX
  5
35B
  8
0
 10
1584.650850404264
 20
-620.4252697620327
 30
0.0
  0
VERTEX
  5
35C
  8
0
 10
1584.89932328
 20
-620.5340408699999
 30
0.0
  0
SEQEND
  5
413
  8
0
  0
POLYLINE
  5
1AA
  8
0
 66
     1
 10
0.0
 20
0.0
 30
0.0
  0
VERTEX
  5
35D
  8
0
 10
1584.89932328
 20
-620.5340408699999
 30
0.0
  0
VERTEX
  5
35E
  8
0
 10
1585.167010874751
 20
-620.4902998690685
 30
0.0
  0
VERTEX
  5
35F
  8
0
 10
1585.443626104933
 20
-620.2957277017907
 30
0.0
  0
VERTEX
  5
360
  8
0
 10
1585.718538802402
 20
-619.9578016674207
 30
0.0
  0
VERTEX
  5
361
  8
0
 10
1585.981184226392
 20
-619.4895080739187
 30
0.0
  0
VERTEX
  5
362
  8
0
 10
1586.221469060573
 20
-618.9088431814199
 30
0.0
  0
VERTEX
  5
363
  8
0
 10
1586.430159293544
 20
-618.2381216160516
 30
0.0
  0
VERTEX
  5
364
  8
0
 10
1586.599235076704
 20
-617.5031188313671
 30
0.0
  0
VERTEX
  5
365
  8
0
 10
1586.722198922541
 20
-616.7320805721232
 30
0.0
  0
VERTEX
  5
366
  8
0
 10
1586.794325399427
 20
-615.954637406152
 30
0.0
  0
VERTEX
  5
367
  8
0
 10
1586.812842727312
 20
-615.2006660382584
 30
0.0
  0
VERTEX
  5
368
  8
0
 10
1586.777039295672
 20
-614.4991411652129
 30
0.0
  0
VERTEX
  5
369
  8
0
 10
1586.688291010301
 20
-613.877021994405
 30
0.0
  0
VERTEX
  5
36A
  8
0
 10
1586.55000841803
 20
-613.3582162166264
 30
0.0
  0
VERTEX
  5
36B
  8
0
 10
1586.367505641317
 20
-612.9626612469218
 30
0.0
  0
VERTEX
  5
36C
  8
0
 10
1586.147796159506
 20
-612.7055580409127
 30
0.0
  0
VERTEX
  5
36D
  8
0
 10
1585.899323284749
 20
-612.5967869305983
 30
0.0
  0
SEQEND
  5
414
  8
0
  0
POLYLINE
  5
1AB
  8
0
 66
     1
 10
0.0
 20
0.0
 30
0.0
  0
VERTEX
  5
36E
  8
0
 10
1577.060488524749
 20
-652.9188184205984
 30
0.0
  0
VERTEX
  5
36F
  8
0
 10
1576.792800929631
 20
-652.962559419013
 30
0.0
  0
VERTEX
  5
370
  8
0
 10
1576.516185698873
 20
-653.157131584535
 30
0.0
  0
VERTEX
  5
371
  8
0
 10
1576.241273000689
 20
-653.4950576179433
 30
0.0
  0
VERTEX
  5
372
  8
0
 10
1575.978627575922
 20
-653.9633512112558
 30
0.0
  0
VERTEX
  5
373
  8
0
 10
1575.738342740976
 20
-654.5440161042627
 30
0.0
  0
VERTEX
  5
374
  8
0
 10
1575.529652507325
 20
-655.2147376707152
 30
0.0
  0
VERTEX
  5
375
  8
0
 10
1575.360576723632
 20
-655.9497404569009
 30
0.0
  0
VERTEX
  5
376
  8
0
 10
1575.237612877459
 20
-656.7207787178768
 30
0.0
  0
VERTEX
  5
377
  8
0
 10
1575.165486400469
 20
-657.4982218856092
 30
0.0
  0
VERTEX
  5
378
  8
0
 10
1575.146969072728
 20
-658.2521932550892
 30
0.0
  0
VERTEX
  5
379
  8
0
 10
1575.182772504759
 20
-658.9537181293539
 30
0.0
  0
VERTEX
  5
37A
  8
0
 10
1575.271520790743
 20
-659.5758373008433
 30
0.0
  0
VERTEX
  5
37B
  8
0
 10
1575.409803383815
 20
-660.0946430786314
 30
0.0
  0
VERTEX
  5
37C
  8
0
 10
1575.592306161459
 20
-660.4901980475818
 30
0.0
  0
VERTEX
  5
37D
  8
0
 10
1575.812015644264
 20
-660.7473012520328
 30
0.0
  0
VERTEX
  5
37E
  8
0
 10
1576.06048852
 20
-660.85607236
 30
0.0
  0
SEQEND
  5
415
  8
0
  0
POLYLINE
  5
1AC
  8
0
 66
     1
 10
0.0
 20
0.0
 30
0.0
  0
VERTEX
  5
37F
  8
0
 10
1576.06048852
 20
-660.85607236
 30
0.0
  0
VERTEX
  5
380
  8
0
 10
1576.328176114751
 20
-660.8123313590686
 30
0.0
  0
VERTEX
  5
381
  8
0
 10
1576.604791344933
 20
-660.6177591917908
 30
0.0
  0
VERTEX
  5
382
  8
0
 10
1576.879704042402
 20
-660.2798331574207
 30
0.0
  0
VERTEX
  5
383
  8
0
 10
1577.142349466392
 20
-659.8115395639188
 30
0.0
  0
VERTEX
  5
384
  8
0
 10
1577.382634300573
 20
-659.23087467142
 30
0.0
  0
VERTEX
  5
385
  8
0
 10
1577.591324533544
 20
-658.5601531060516
 30
0.0
  0
VERTEX
  5
386
  8
0
 10
1577.760400316704
 20
-657.8251503213672
 30
0.0
  0
VERTEX
  5
387
  8
0
 10
1577.883364162541
 20
-657.0541120621233
 30
0.0
  0
VERTEX
  5
388
  8
0
 10
1577.955490639427
 20
-656.276668896152
 30
0.0
  0
VERTEX
  5
389
  8
0
 10
1577.974007967312
 20
-655.5226975282585
 30
0.0
  0
VERTEX
  5
38A
  8
0
 10
1577.938204535672
 20
-654.821172655213
 30
0.0
  0
VERTEX
  5
38B
  8
0
 10
1577.849456250301
 20
-654.1990534844051
 30
0.0
  0
VERTEX
  5
38C
  8
0
 10
1577.71117365803
 20
-653.6802477066265
 30
0.0
  0
VERTEX
  5
38D
  8
0
 10
1577.528670881317
 20
-653.2846927369219
 30
0.0
  0
VERTEX
  5
38E
  8
0
 10
1577.308961399506
 20
-653.0275895309128
 30
0.0
  0
VERTEX
  5
38F
  8
0
 10
1577.060488524749
 20
-652.9188184205984
 30
0.0
  0
SEQEND
  5
416
  8
0
  0
POLYLINE
  5
1AD
  8
0
 66
     1
 10
0.0
 20
0.0
 30
0.0
  0
VERTEX
  5
390
  8
0
 10
1568.221653754749
 20
-693.2408499105984
 30
0.0
  0
VERTEX
  5
391
  8
0
 10
1567.953966159631
 20
-693.284590909013
 30
0.0
  0
VERTEX
  5
392
  8
0
 10
1567.677350928873
 20
-693.479163074535
 30
0.0
  0
VERTEX
  5
393
  8
0
 10
1567.402438230689
 20
-693.8170891079433
 30
0.0
  0
VERTEX
  5
394
  8
0
 10
1567.139792805922
 20
-694.2853827012558
 30
0.0
  0
VERTEX
  5
395
  8
0
 10
1566.899507970976
 20
-694.8660475942627
 30
0.0
  0
VERTEX
  5
396
  8
0
 10
1566.690817737325
 20
-695.5367691607152
 30
0.0
  0
VERTEX
  5
397
  8
0
 10
1566.521741953632
 20
-696.2717719469009
 30
0.0
  0
VERTEX
  5
398
  8
0
 10
1566.39877810746
 20
-697.0428102078768
 30
0.0
  0
VERTEX
  5
399
  8
0
 10
1566.326651630469
 20
-697.8202533756091
 30
0.0
  0
VERTEX
  5
39A
  8
0
 10
1566.308134302728
 20
-698.5742247450892
 30
0.0
  0
VERTEX
  5
39B
  8
0
 10
1566.343937734759
 20
-699.2757496193539
 30
0.0
  0
VERTEX
  5
39C
  8
0
 10
1566.432686020743
 20
-699.8978687908433
 30
0.0
  0
VERTEX
  5
39D
  8
0
 10
1566.570968613815
 20
-700.4166745686314
 30
0.0
  0
VERTEX
  5
39E
  8
0
 10
1566.753471391459
 20
-700.8122295375817
 30
0.0
  0
VERTEX
  5
39F
  8
0
 10
1566.973180874264
 20
-701.0693327420328
 30
0.0
  0
VERTEX
  5
3A0
  8
0
 10
1567.22165375
 20
-701.17810385
 30
0.0
  0
SEQEND
  5
417
  8
0
  0
POLYLINE
  5
1AE
  8
0
 66
     1
 10
0.0
 20
0.0
 30
0.0
  0
VERTEX
  5
3A1
  8
0
 10
1567.22165375
 20
-701.17810385
 30
0.0
  0
VERTEX
  5
3A2
  8
0
 10
1567.489341344751
 20
-701.1343628490686
 30
0.0
  0
VERTEX
  5
3A3
  8
0
 10
1567.765956574933
 20
-700.9397906817908
 30
0.0
  0
VERTEX
  5
3A4
  8
0
 10
1568.040869272402
 20
-700.6018646474207
 30
0.0
  0
VERTEX
  5
3A5
  8
0
 10
1568.303514696392
 20
-700.1335710539188
 30
0.0
  0
VERTEX
  5
3A6
  8
0
 10
1568.543799530573
 20
-699.55290616142
 30
0.0
  0
VERTEX
  5
3A7
  8
0
 10
1568.752489763544
 20
-698.8821845960516
 30
0.0
  0
VERTEX
  5
3A8
  8
0
 10
1568.921565546704
 20
-698.1471818113672
 30
0.0
  0
VERTEX
  5
3A9
  8
0
 10
1569.044529392541
 20
-697.3761435521233
 30
0.0
  0
VERTEX
  5
3AA
  8
0
 10
1569.116655869427
 20
-696.598700386152
 30
0.0
  0
VERTEX
  5
3AB
  8
0
 10
1569.135173197312
 20
-695.8447290182585
 30
0.0
  0
VERTEX
  5
3AC
  8
0
 10
1569.099369765672
 20
-695.143204145213
 30
0.0
  0
VERTEX
  5
3AD
  8
0
 10
1569.010621480301
 20
-694.5210849744051
 30
0.0
  0
VERTEX
  5
3AE
  8
0
 10
1568.87233888803
 20
-694.0022791966264
 30
0.0
  0
VERTEX
  5
3AF
  8
0
 10
1568.689836111317
 20
-693.6067242269219
 30
0.0
  0
VERTEX
  5
3B0
  8
0
 10
1568.470126629506
 20
-693.3496210209128
 30
0.0
  0
VERTEX
  5
3B1
  8
0
 10
1568.221653754749
 20
-693.2408499105984
 30
0.0
  0
SEQEND
  5
418
  8
0
  0
POLYLINE
  5
1AF
  8
0
 66
     1
 10
0.0
 20
0.0
 30
0.0
  0
VERTEX
  5
3B2
  8
0
 10
1568.221653754749
 20
-628.1870260405984
 30
0.0
  0
VERTEX
  5
3B3
  8
0
 10
1567.953966159631
 20
-628.230767039013
 30
0.0
  0
VERTEX
  5
3B4
  8
0
 10
1567.677350928873
 20
-628.425339204535
 30
0.0
  0
VERTEX
  5
3B5
  8
0
 10
1567.402438230689
 20
-628.7632652379433
 30
0.0
  0
VERTEX
  5
3B6
  8
0
 10
1567.139792805922
 20
-629.2315588312558
 30
0.0
  0
VERTEX
  5
3B7
  8
0
 10
1566.899507970976
 20
-629.8122237242627
 30
0.0
  0
VERTEX
  5
3B8
  8
0
 10
1566.690817737325
 20
-630.4829452907152
 30
0.0
  0
VERTEX
  5
3B9
  8
0
 10
1566.521741953632
 20
-631.2179480769009
 30
0.0
  0
VERTEX
  5
3BA
  8
0
 10
1566.39877810746
 20
-631.9889863378768
 30
0.0
  0
VERTEX
  5
3BB
  8
0
 10
1566.326651630469
 20
-632.7664295056092
 30
0.0
  0
VERTEX
  5
3BC
  8
0
 10
1566.308134302728
 20
-633.5204008750892
 30
0.0
  0
VERTEX
  5
3BD
  8
0
 10
1566.343937734759
 20
-634.2219257493539
 30
0.0
  0
VERTEX
  5
3BE
  8
0
 10
1566.432686020743
 20
-634.8440449208433
 30
0.0
  0
VERTEX
  5
3BF
  8
0
 10
1566.570968613815
 20
-635.3628506986314
 30
0.0
  0
VERTEX
  5
3C0
  8
0
 10
1566.753471391459
 20
-635.7584056675818
 30
0.0
  0
VERTEX
  5
3C1
  8
0
 10
1566.973180874264
 20
-636.0155088720328
 30
0.0
  0
VERTEX
  5
3C2
  8
0
 10
1567.22165375
 20
-636.12427998
 30
0.0
  0
SEQEND
  5
419
  8
0
  0
POLYLINE
  5
1B0
  8
0
 66
     1
 10
0.0
 20
0.0
 30
0.0
  0
VERTEX
  5
3C3
  8
0
 10
1567.22165375
 20
-636.12427998
 30
0.0
  0
VERTEX
  5
3C4
  8
0
 10
1567.489341344751
 20
-636.0805389790686
 30
0.0
  0
VERTEX
  5
3C5
  8
0
 10
1567.765956574933
 20
-635.8859668117908
 30
0.0
  0
VERTEX
  5
3C6
  8
0
 10
1568.040869272402
 20
-635.5480407774207
 30
0.0
  0
VERTEX
  5
3C7
  8
0
 10
1568.303514696392
 20
-635.0797471839188
 30
0.0
  0
VERTEX
  5
3C8
  8
0
 10
1568.543799530573
 20
-634.49908229142
 30
0.0
  0
VERTEX
  5
3C9
  8
0
 10
1568.752489763544
 20
-633.8283607260516
 30
0.0
  0
VERTEX
  5
3CA
  8
0
 10
1568.921565546704
 20
-633.0933579413672
 30
0.0
  0
VERTEX
  5
3CB
  8
0
 10
1569.044529392541
 20
-632.3223196821233
 30
0.0
  0
VERTEX
  5
3CC
  8
0
 10
1569.116655869427
 20
-631.544876516152
 30
0.0
  0
VERTEX
  5
3CD
  8
0
 10
1569.135173197312
 20
-630.7909051482585
 30
0.0
  0
VERTEX
  5
3CE
  8
0
 10
1569.099369765672
 20
-630.089380275213
 30
0.0
  0
VERTEX
  5
3CF
  8
0
 10
1569.010621480301
 20
-629.4672611044051
 30
0.0
  0
VERTEX
  5
3D0
  8
0
 10
1568.87233888803
 20
-628.9484553266265
 30
0.0
  0
VERTEX
  5
3D1
  8
0
 10
1568.689836111317
 20
-628.5529003569219
 30
0.0
  0
VERTEX
  5
3D2
  8
0
 10
1568.470126629506
 20
-628.2957971509128
 30
0.0
  0
VERTEX
  5
3D3
  8
0
 10
1568.221653754749
 20
-628.1870260405984
 30
0.0
  0
SEQEND
  5
41A
  8
0
  0
POLYLINE
  5
1B1
  8
0
 66
     1
 10
0.0
 20
0.0
 30
0.0
  0
VERTEX
  5
1B2
  8
0
 10
1554.93503812
 20
-620.80497103
 30
0.0
  0
VERTEX
  5
1B3
  8
0
 10
1554.93503812
 20
-718.85711136
 30
0.0
  0
VERTEX
  5
1B4
  8
0
 10
1562.4183529
 20
-719.7999204
 30
0.0
  0
SEQEND
  5
1B5
  8
0
  0
LINE
  5
1B6
  8
0
 10
1562.4183529
 20
-621.74778007
 30
0.0
 11
1562.4183529
 21
-719.7999204
 31
0.0
  0
LINE
  5
1B7
  8
0
 10
1554.93503812
 20
-620.80497103
 30
0.0
 11
1562.4183529
 21
-621.74778007
 31
0.0
  0
LINE
  5
1B8
  8
0
 10
1583.21930937
 20
-595.86058845
 30
0.0
 11
1554.93503812
 21
-620.80497103
 31
0.0
  0
LINE
  5
1B9
  8
0
 10
1583.21930937
 20
-595.86058845
 30
0.0
 11
1590.70262414
 21
-596.8033975
 31
0.0
  0
LINE
  5
1BA
  8
0
 10
1590.70262414
 20
-694.85553782
 30
0.0
 11
1590.70262414
 21
-596.8033975
 31
0.0
  0
LINE
  5
1BB
  8
0
 10
1590.70262414
 20
-694.85553782
 30
0.0
 11
1562.4183529
 21
-719.7999204
 31
0.0
  0
LINE
  5
1BC
  8
0
 10
1590.70262414
 20
-596.8033975
 30
0.0
 11
1562.4183529
 21
-621.74778007
 31
0.0
  0
LINE
  5
1BD
  8
0
  6
STRICHPUNKT2
 62
     1
 10
1569.59248245
 20
-632.39135527
 30
0.0
 11
1566.3987781
 21
-631.98898634
 31
0.0
  0
LINE
  5
1BE
  8
0
  6
STRICHPUNKT2
 62
     1
 10
1567.72165375
 20
-632.15565301
 30
0.0
 11
1569.8429741
 21
-630.28482431
 31
0.0
  0
LINE
  5
1BF
  8
0
  6
STRICHPUNKT2
 62
     1
 10
1567.72165375
 20
-632.15565301
 30
0.0
 11
1565.60033341
 21
-634.0264817
 31
0.0
  0
LINE
  5
1C0
  8
0
  6
STRICHPUNKT2
 62
     1
 10
1567.72165375
 20
-632.15565301
 30
0.0
 11
1567.72165375
 21
-626.49879876
 31
0.0
  0
LINE
  5
1C1
  8
0
  6
STRICHPUNKT2
 62
     1
 10
1567.72165375
 20
-632.15565301
 30
0.0
 11
1567.72165375
 21
-637.81250726
 31
0.0
  0
LINE
  5
1C2
  8
0
  6
STRICHPUNKT2
 62
     1
 10
1569.59248245
 20
-697.44517914
 30
0.0
 11
1566.3987781
 21
-697.04281021
 31
0.0
  0
LINE
  5
1C3
  8
0
  6
STRICHPUNKT2
 62
     1
 10
1567.72165375
 20
-697.20947688
 30
0.0
 11
1569.8429741
 21
-695.33864818
 31
0.0
  0
LINE
  5
1C4
  8
0
  6
STRICHPUNKT2
 62
     1
 10
1567.72165375
 20
-697.20947688
 30
0.0
 11
1565.60033341
 21
-699.08030557
 31
0.0
  0
LINE
  5
1C5
  8
0
  6
STRICHPUNKT2
 62
     1
 10
1567.72165375
 20
-697.20947688
 30
0.0
 11
1567.72165375
 21
-691.55262263
 31
0.0
  0
LINE
  5
1C6
  8
0
  6
STRICHPUNKT2
 62
     1
 10
1567.72165375
 20
-697.20947688
 30
0.0
 11
1567.72165375
 21
-702.86633113
 31
0.0
  0
LINE
  5
1C7
  8
0
  6
STRICHPUNKT2
 62
     1
 10
1578.43131721
 20
-657.12314765
 30
0.0
 11
1575.23761286
 21
-656.72077872
 31
0.0
  0
LINE
  5
1C8
  8
0
  6
STRICHPUNKT2
 62
     1
 10
1576.56048852
 20
-656.88744539
 30
0.0
 11
1578.68180886
 21
-655.01661669
 31
0.0
  0
LINE
  5
1C9
  8
0
  6
STRICHPUNKT2
 62
     1
 10
1576.56048852
 20
-656.88744539
 30
0.0
 11
1574.43916818
 21
-658.75827408
 31
0.0
  0
LINE
  5
1CA
  8
0
  6
STRICHPUNKT2
 62
     1
 10
1576.56048852
 20
-656.88744539
 30
0.0
 11
1576.56048852
 21
-651.23059114
 31
0.0
  0
LINE
  5
1CB
  8
0
  6
STRICHPUNKT2
 62
     1
 10
1576.56048852
 20
-656.88744539
 30
0.0
 11
1576.56048852
 21
-662.54429964
 31
0.0
  0
LINE
  5
1CC
  8
0
  6
STRICHPUNKT2
 62
     1
 10
1587.27015198
 20
-616.80111616
 30
0.0
 11
1584.07644763
 21
-616.39874723
 31
0.0
  0
LINE
  5
1CD
  8
0
  6
STRICHPUNKT2
 62
     1
 10
1585.39932328
 20
-616.5654139
 30
0.0
 11
1587.52064363
 21
-614.6945852
 31
0.0
  0
LINE
  5
1CE
  8
0
  6
STRICHPUNKT2
 62
     1
 10
1585.39932328
 20
-616.5654139
 30
0.0
 11
1583.27800294
 21
-618.43624259
 31
0.0
  0
LINE
  5
1CF
  8
0
  6
STRICHPUNKT2
 62
     1
 10
1585.39932328
 20
-616.5654139
 30
0.0
 11
1585.39932328
 21
-610.90855965
 31
0.0
  0
LINE
  5
1D0
  8
0
  6
STRICHPUNKT2
 62
     1
 10
1585.39932328
 20
-616.5654139
 30
0.0
 11
1585.39932328
 21
-622.22226814
 31
0.0
  0
LINE
  5
1D1
  8
0
  6
STRICHPUNKT2
 62
     1
 10
1587.27015198
 20
-681.85494002
 30
0.0
 11
1584.07644763
 21
-681.4525711
 31
0.0
  0
LINE
  5
1D2
  8
0
  6
STRICHPUNKT2
 62
     1
 10
1585.39932328
 20
-681.61923776
 30
0.0
 11
1587.52064363
 21
-679.74840907
 31
0.0
  0
LINE
  5
1D3
  8
0
  6
STRICHPUNKT2
 62
     1
 10
1585.39932328
 20
-681.61923776
 30
0.0
 11
1583.27800294
 21
-683.49006646
 31
0.0
  0
LINE
  5
1D4
  8
0
  6
STRICHPUNKT2
 62
     1
 10
1585.39932328
 20
-681.61923776
 30
0.0
 11
1585.39932328
 21
-675.96238351
 31
0.0
  0
LINE
  5
1D5
  8
0
  6
STRICHPUNKT2
 62
     1
 10
1585.39932328
 20
-681.61923776
 30
0.0
 11
1585.39932328
 21
-687.27609201
 31
0.0
  0
POLYLINE
  5
1D6
  8
0
 66
     1
 10
0.0
 20
0.0
 30
0.0
  0
VERTEX
  5
3D4
  8
0
 10
1636.91032148
 20
-723.3554828116238
 30
0.0
  0
VERTEX
  5
3D5
  8
0
 10
1637.044824512581
 20
-723.8106935591171
 30
0.0
  0
VERTEX
  5
3D6
  8
0
 10
1637.443164744007
 20
-724.2484108131514
 30
0.0
  0
VERTEX
  5
3D7
  8
0
 10
1638.090034182539
 20
-724.6518133450904
 30
0.0
  0
VERTEX
  5
3D8
  8
0
 10
1638.960573998368
 20
-725.0053986218273
 30
0.0
  0
VERTEX
  5
3D9
  8
0
 10
1640.021329834498
 20
-725.295578559439
 30
0.0
  0
VERTEX
  5
3DA
  8
0
 10
1641.231537438935
 20
-725.5112017056324
 30
0.0
  0
VERTEX
  5
3DB
  8
0
 10
1642.544689212024
 20
-725.6439817838034
 30
0.0
  0
VERTEX
  5
3DC
  8
0
 10
1643.910321467436
 20
-725.68881613
 30
0.0
  0
VERTEX
  5
3DD
  8
0
 10
1645.27595372333
 20
-725.6439817854375
 30
0.0
  0
VERTEX
  5
3DE
  8
0
 10
1646.58910549785
 20
-725.5112017088379
 30
0.0
  0
VERTEX
  5
3DF
  8
0
 10
1647.799313104608
 20
-725.2955785640926
 30
0.0
  0
VERTEX
  5
3E0
  8
0
 10
1648.860068943864
 20
-725.0053986277502
 30
0.0
  0
VERTEX
  5
3E1
  8
0
 10
1649.7306087635
 20
-724.651813352055
 30
0.0
  0
VERTEX
  5
3E2
  8
0
 10
1650.377478206377
 20
-724.24841082089
 30
0.0
  0
VERTEX
  5
3E3
  8
0
 10
1650.775818442516
 20
-723.8106935673324
 30
0.0
  0
VERTEX
  5
3E4
  8
0
 10
1650.91032148
 20
-723.35548282
 30
0.0
  0
SEQEND
  5
41B
  8
0
  0
POLYLINE
  5
1D7
  8
0
 66
     1
 10
0.0
 20
0.0
 30
0.0
  0
VERTEX
  5
3E5
  8
0
 10
1650.91032148
 20
-723.35548282
 30
0.0
  0
VERTEX
  5
3E6
  8
0
 10
1650.775818443129
 20
-722.9002720736946
 30
0.0
  0
VERTEX
  5
3E7
  8
0
 10
1650.377478208781
 20
-722.4625548210447
 30
0.0
  0
VERTEX
  5
3E8
  8
0
 10
1649.730608768735
 20
-722.0591522905568
 30
0.0
  0
VERTEX
  5
3E9
  8
0
 10
1648.860068952748
 20
-721.7055670152113
 30
0.0
  0
VERTEX
  5
3EA
  8
0
 10
1647.799313117667
 20
-721.4153870788159
 30
0.0
  0
VERTEX
  5
3EB
  8
0
 10
1646.589105515262
 20
-721.1997639335663
 30
0.0
  0
VERTEX
  5
3EC
  8
0
 10
1645.275953744895
 20
-721.0669838559924
 30
0.0
  0
VERTEX
  5
3ED
  8
0
 10
1643.910321492564
 20
-721.0221495100001
 30
0.0
  0
VERTEX
  5
3EE
  8
0
 10
1642.54468923975
 20
-721.0669838543583
 30
0.0
  0
VERTEX
  5
3EF
  8
0
 10
1641.231537467954
 20
-721.1997639303609
 30
0.0
  0
VERTEX
  5
3F0
  8
0
 10
1640.021329863227
 20
-721.4153870741624
 30
0.0
  0
VERTEX
  5
3F1
  8
0
 10
1638.960574025021
 20
-721.7055670092884
 30
0.0
  0
VERTEX
  5
3F2
  8
0
 10
1638.090034205225
 20
-722.0591522835922
 30
0.0
  0
VERTEX
  5
3F3
  8
0
 10
1637.443164760835
 20
-722.4625548133062
 30
0.0
  0
VERTEX
  5
3F4
  8
0
 10
1637.044824521773
 20
-722.9002720654794
 30
0.0
  0
VERTEX
  5
3F5
  8
0
 10
1636.91032148
 20
-723.3554828116238
 30
0.0
  0
SEQEND
  5
41C
  8
0
  0
POLYLINE
  5
1D8
  8
0
 66
     1
 10
0.0
 20
0.0
 30
0.0
  0
VERTEX
  5
1D9
  8
0
 10
1676.76074404
 20
-720.78278646
 30
0.0
  0
VERTEX
  5
1DA
  8
0
 10
1648.47647279
 20
-745.72716904
 30
0.0
  0
VERTEX
  5
1DB
  8
0
 10
1648.47647279
 20
-738.18469671
 30
0.0
  0
SEQEND
  5
1DC
  8
0
  0
LINE
  5
1DD
  8
0
 10
1676.76074404
 20
-713.24031413
 30
0.0
 11
1648.47647279
 21
-738.18469671
 31
0.0
  0
POLYLINE
  5
1DE
  8
0
 66
     1
 10
0.0
 20
0.0
 30
0.0
  0
VERTEX
  5
1DF
  8
0
 10
1676.76074404
 20
-720.78278646
 30
0.0
  0
VERTEX
  5
1E0
  8
0
 10
1676.76074404
 20
-713.24031413
 30
0.0
  0
VERTEX
  5
1E1
  8
0
 10
1598.18593892
 20
-703.3408192
 30
0.0
  0
VERTEX
  5
1E2
  8
0
 10
1569.90166767
 20
-728.28520177
 30
0.0
  0
VERTEX
  5
1E3
  8
0
 10
1648.47647279
 20
-738.18469671
 30
0.0
  0
SEQEND
  5
1E4
  8
0
  0
LINE
  5
1E5
  8
0
 10
1569.90166767
 20
-735.82767411
 30
0.0
 11
1569.90166767
 21
-728.28520177
 31
0.0
  0
LINE
  5
1E6
  8
0
 10
1569.90166767
 20
-735.82767411
 30
0.0
 11
1648.47647279
 21
-745.72716904
 31
0.0
  0
LINE
  5
1E7
  8
0
  6
STRICHPUNKT2
 62
     1
 10
1643.91032148
 20
-720.05565117
 30
0.0
 11
1643.91032148
 21
-725.68881615
 31
0.0
  0
LINE
  5
1E8
  8
0
  6
STRICHPUNKT2
 62
     1
 10
1643.91032148
 20
-723.35548282
 30
0.0
 11
1653.73217212
 21
-724.59291968
 31
0.0
  0
LINE
  5
1E9
  8
0
  6
STRICHPUNKT2
 62
     1
 10
1643.91032148
 20
-723.35548282
 30
0.0
 11
1634.08847084
 21
-722.11804595
 31
0.0
  0
LINE
  5
1EA
  8
0
  6
STRICHPUNKT2
 62
     1
 10
1643.91032148
 20
-723.35548282
 30
0.0
 11
1647.62263208
 21
-720.0815326
 31
0.0
  0
LINE
  5
1EB
  8
0
  6
STRICHPUNKT2
 62
     1
 10
1643.91032148
 20
-723.35548282
 30
0.0
 11
1640.19801088
 21
-726.62943303
 31
0.0
  0
POLYLINE
  5
1EC
  8
0
 66
     1
 10
0.0
 20
0.0
 30
0.0
  0
VERTEX
  5
3F6
  8
0
 10
1562.418352913606
 20
-719.7999204060137
 30
0.0
  0
VERTEX
  5
3F7
  8
0
 10
1562.562142714221
 20
-721.2894995645743
 30
0.0
  0
VERTEX
  5
3F8
  8
0
 10
1562.987986340403
 20
-722.7580666540608
 30
0.0
  0
VERTEX
  5
3F9
  8
0
 10
1563.679518860552
 20
-724.1491854652929
 30
0.0
  0
VERTEX
  5
3FA
  8
0
 10
1564.610165067964
 20
-725.4093960829646
 30
0.0
  0
VERTEX
  5
3FB
  8
0
 10
1565.744160751111
 20
-726.4902693201905
 30
0.0
  0
VERTEX
  5
3FC
  8
0
 10
1567.037927092216
 20
-727.3502678249828
 30
0.0
  0
VERTEX
  5
3FD
  8
0
 10
1568.441745376772
 20
-727.9563423373804
 30
0.0
  0
VERTEX
  5
3FE
  8
0
 10
1569.901667655839
 20
-728.2852017539628
 30
0.0
  0
SEQEND
  5
41D
  8
0
  0
LINE
  5
1ED
  8
0
 10
1598.18593892
 20
-703.3408192
 30
0.0
 11
1569.90166767
 21
-728.28520177
 31
0.0
  0
POLYLINE
  5
1EE
  8
0
 66
     1
 10
0.0
 20
0.0
 30
0.0
  0
VERTEX
  5
3FF
  8
0
 10
1590.702624163605
 20
-694.8555378260138
 30
0.0
  0
VERTEX
  5
400
  8
0
 10
1590.846413964221
 20
-696.3451169845744
 30
0.0
  0
VERTEX
  5
401
  8
0
 10
1591.272257590402
 20
-697.8136840740609
 30
0.0
  0
VERTEX
  5
402
  8
0
 10
1591.963790110551
 20
-699.204802885293
 30
0.0
  0
VERTEX
  5
403
  8
0
 10
1592.894436317964
 20
-700.4650135029647
 30
0.0
  0
VERTEX
  5
404
  8
0
 10
1594.028432001111
 20
-701.5458867401906
 30
0.0
  0
VERTEX
  5
405
  8
0
 10
1595.322198342216
 20
-702.4058852449829
 30
0.0
  0
VERTEX
  5
406
  8
0
 10
1596.726016626772
 20
-703.0119597573805
 30
0.0
  0
VERTEX
  5
407
  8
0
 10
1598.185938905839
 20
-703.3408191739629
 30
0.0
  0
SEQEND
  5
41E
  8
0
  0
LINE
  5
1EF
  8
0
 10
1590.70262414
 20
-694.85553782
 30
0.0
 11
1562.4183529
 21
-719.7999204
 31
0.0
  0
LINE
  5
1F0
  8
0
 10
1554.93503812
 20
-718.85711136
 30
0.0
 11
1562.4183529
 21
-719.7999204
 31
0.0
  0
POLYLINE
  5
1F1
  8
0
 66
     1
 10
0.0
 20
0.0
 30
0.0
  0
VERTEX
  5
408
  8
0
 10
1554.935038157211
 20
-718.8571113720276
 30
0.0
  0
VERTEX
  5
409
  8
0
 10
1555.222617758443
 20
-721.8362696891486
 30
0.0
  0
VERTEX
  5
40A
  8
0
 10
1556.074305010805
 20
-724.7734038681216
 30
0.0
  0
VERTEX
  5
40B
  8
0
 10
1557.457370051103
 20
-727.555641490586
 30
0.0
  0
VERTEX
  5
40C
  8
0
 10
1559.318662465929
 20
-730.0760627259293
 30
0.0
  0
VERTEX
  5
40D
  8
0
 10
1561.586653832222
 20
-732.237809200381
 30
0.0
  0
VERTEX
  5
40E
  8
0
 10
1564.174186514432
 20
-733.9578062099658
 30
0.0
  0
VERTEX
  5
40F
  8
0
 10
1566.981823083544
 20
-735.1699552347609
 30
0.0
  0
VERTEX
  5
410
  8
0
 10
1569.901667641679
 20
-735.8276740679258
 30
0.0
  0
SEQEND
  5
41F
  8
0
  0
LINE
  5
1F2
  8
0
 10
1569.90166767
 20
-735.82767411
 30
0.0
 11
1569.90166767
 21
-728.28520177
 31
0.0
  0
POLYLINE
  5
1F3
  8
0
 66
     1
 10
0.0
 20
0.0
 30
0.0
  0
VERTEX
  5
1F4
  8
0
 10
1790.59374311
 20
-500.19100631
 30
0.0
  0
VERTEX
  5
1F5
  8
0
 10
1790.59374311
 20
-604.19100631
 30
0.0
  0
VERTEX
  5
1F6
  8
0
 10
1798.59374311
 20
-604.19100631
 30
0.0
  0
SEQEND
  5
1F7
  8
0
  0
LINE
  5
1F8
  8
0
 10
1798.59374311
 20
-500.19100631
 30
0.0
 11
1798.59374311
 21
-604.19100631
 31
0.0
  0
LINE
  5
1F9
  8
0
 10
1790.59374311
 20
-500.19100631
 30
0.0
 11
1798.59374311
 21
-500.19100631
 31
0.0
  0
LINE
  5
1FA
  8
0
  6
STRICHPUNKT2
 62
     1
 10
1790.59374311
 20
-516.19100631
 30
0.0
 11
1788.59374311
 21
-516.19100631
 31
0.0
  0
LINE
  5
1FB
  8
0
  6
STRICHPUNKT2
 62
     1
 10
1800.59374311
 20
-516.19100631
 30
0.0
 11
1798.59374311
 21
-516.19100631
 31
0.0
  0
LINE
  5
1FC
  8
0
  6
STRICHPUNKT2
 62
     1
 10
1790.59374311
 20
-550.69100631
 30
0.0
 11
1788.59374311
 21
-550.69100631
 31
0.0
  0
LINE
  5
1FD
  8
0
  6
STRICHPUNKT2
 62
     1
 10
1800.59374311
 20
-550.69100631
 30
0.0
 11
1798.59374311
 21
-550.69100631
 31
0.0
  0
LINE
  5
1FE
  8
0
  6
STRICHPUNKT2
 62
     1
 10
1790.59374311
 20
-585.19100631
 30
0.0
 11
1788.59374311
 21
-585.19100631
 31
0.0
  0
LINE
  5
1FF
  8
0
  6
STRICHPUNKT2
 62
     1
 10
1800.59374311
 20
-585.19100631
 30
0.0
 11
1798.59374311
 21
-585.19100631
 31
0.0
  0
POLYLINE
  5
200
  8
0
 66
     1
 10
0.0
 20
0.0
 30
0.0
  0
VERTEX
  5
201
  8
0
 10
1806.59374311
 20
-620.19100631
 30
0.0
  0
VERTEX
  5
202
  8
0
 10
1890.59374311
 20
-620.19100631
 30
0.0
  0
VERTEX
  5
203
  8
0
 10
1890.59374311
 20
-612.19100631
 30
0.0
  0
SEQEND
  5
204
  8
0
  0
LINE
  5
205
  8
0
 10
1806.59374311
 20
-612.19100631
 30
0.0
 11
1890.59374311
 21
-612.19100631
 31
0.0
  0
LINE
  5
206
  8
0
 10
1806.59374311
 20
-620.19100631
 30
0.0
 11
1806.59374311
 21
-612.19100631
 31
0.0
  0
LINE
  5
207
  8
0
  6
STRICHPUNKT2
 62
     1
 10
1870.59374311
 20
-620.19100631
 30
0.0
 11
1870.59374311
 21
-623.69100631
 31
0.0
  0
LINE
  5
208
  8
0
  6
STRICHPUNKT2
 62
     1
 10
1870.59374311
 20
-608.69100631
 30
0.0
 11
1870.59374311
 21
-612.19100631
 31
0.0
  0
POLYLINE
  5
209
  8
0
 66
     1
 10
0.0
 20
0.0
 30
0.0
  0
VERTEX
  5
20A
  8
0
 10
1790.59374311
 20
-604.19100631
 30
0.0
 42
0.414213562
  0
VERTEX
  5
20B
  8
0
 10
1806.59374311
 20
-620.19100631
 30
0.0
  0
VERTEX
  5
20C
  8
0
 10
1806.59374311
 20
-612.19100631
 30
0.0
  0
SEQEND
  5
20D
  8
0
  0
ARC
  5
20E
  8
0
 10
1806.59374311
 20
-604.19100631
 30
0.0
 40
8.0
 50
180.0
 51
-90.0
  0
LINE
  5
20F
  8
0
 10
1790.59374311
 20
-604.19100631
 30
0.0
 11
1798.59374311
 21
-604.19100631
 31
0.0
  0
CIRCLE
  5
210
  8
0
 10
1679.48236576
 20
-585.19100631
 30
0.0
 40
4.0
  0
CIRCLE
  5
211
  8
0
 10
1679.48236576
 20
-516.19100631
 30
0.0
 40
4.0
  0
CIRCLE
  5
212
  8
0
 10
1704.48236576
 20
-550.69100631
 30
0.0
 40
4.0
  0
CIRCLE
  5
213
  8
0
 10
1729.48236576
 20
-585.19100631
 30
0.0
 40
4.0
  0
CIRCLE
  5
214
  8
0
 10
1729.48236576
 20
-516.19100631
 30
0.0
 40
4.0
  0
LINE
  5
215
  8
0
 10
1744.48236576
 20
-500.19100631
 30
0.0
 11
1744.48236576
 21
-604.19100631
 31
0.0
  0
LINE
  5
216
  8
0
 10
1664.48236576
 20
-604.19100631
 30
0.0
 11
1744.48236576
 21
-604.19100631
 31
0.0
  0
POLYLINE
  5
217
  8
0
 66
     1
 10
0.0
 20
0.0
 30
0.0
  0
VERTEX
  5
218
  8
0
 10
1664.48236576
 20
-604.19100631
 30
0.0
  0
VERTEX
  5
219
  8
0
 10
1664.48236576
 20
-500.19100631
 30
0.0
  0
VERTEX
  5
21A
  8
0
 10
1744.48236576
 20
-500.19100631
 30
0.0
  0
SEQEND
  5
21B
  8
0
  0
LINE
  5
21C
  8
0
  6
STRICHPUNKT2
 62
     1
 10
1729.48236576
 20
-516.19100631
 30
0.0
 11
1723.48236576
 21
-516.19100631
 31
0.0
  0
LINE
  5
21D
  8
0
  6
STRICHPUNKT2
 62
     1
 10
1729.48236576
 20
-516.19100631
 30
0.0
 11
1735.48236576
 21
-516.19100631
 31
0.0
  0
LINE
  5
21E
  8
0
  6
STRICHPUNKT2
 62
     1
 10
1729.48236576
 20
-516.19100631
 30
0.0
 11
1729.48236576
 21
-510.19100631
 31
0.0
  0
LINE
  5
21F
  8
0
  6
STRICHPUNKT2
 62
     1
 10
1729.48236576
 20
-516.19100631
 30
0.0
 11
1729.48236576
 21
-522.19100631
 31
0.0
  0
LINE
  5
220
  8
0
  6
STRICHPUNKT2
 62
     1
 10
1729.48236576
 20
-585.19100631
 30
0.0
 11
1723.48236576
 21
-585.19100631
 31
0.0
  0
LINE
  5
221
  8
0
  6
STRICHPUNKT2
 62
     1
 10
1729.48236576
 20
-585.19100631
 30
0.0
 11
1735.48236576
 21
-585.19100631
 31
0.0
  0
LINE
  5
222
  8
0
  6
STRICHPUNKT2
 62
     1
 10
1729.48236576
 20
-585.19100631
 30
0.0
 11
1729.48236576
 21
-579.19100631
 31
0.0
  0
LINE
  5
223
  8
0
  6
STRICHPUNKT2
 62
     1
 10
1729.48236576
 20
-585.19100631
 30
0.0
 11
1729.48236576
 21
-591.19100631
 31
0.0
  0
LINE
  5
224
  8
0
  6
STRICHPUNKT2
 62
     1
 10
1704.48236576
 20
-550.69100631
 30
0.0
 11
1698.48236576
 21
-550.69100631
 31
0.0
  0
LINE
  5
225
  8
0
  6
STRICHPUNKT2
 62
     1
 10
1704.48236576
 20
-550.69100631
 30
0.0
 11
1710.48236576
 21
-550.69100631
 31
0.0
  0
LINE
  5
226
  8
0
  6
STRICHPUNKT2
 62
     1
 10
1704.48236576
 20
-550.69100631
 30
0.0
 11
1704.48236576
 21
-544.69100631
 31
0.0
  0
LINE
  5
227
  8
0
  6
STRICHPUNKT2
 62
     1
 10
1704.48236576
 20
-550.69100631
 30
0.0
 11
1704.48236576
 21
-556.69100631
 31
0.0
  0
LINE
  5
228
  8
0
  6
STRICHPUNKT2
 62
     1
 10
1679.48236576
 20
-516.19100631
 30
0.0
 11
1673.48236576
 21
-516.19100631
 31
0.0
  0
LINE
  5
229
  8
0
  6
STRICHPUNKT2
 62
     1
 10
1679.48236576
 20
-516.19100631
 30
0.0
 11
1685.48236576
 21
-516.19100631
 31
0.0
  0
LINE
  5
22A
  8
0
  6
STRICHPUNKT2
 62
     1
 10
1679.48236576
 20
-516.19100631
 30
0.0
 11
1679.48236576
 21
-510.19100631
 31
0.0
  0
LINE
  5
22B
  8
0
  6
STRICHPUNKT2
 62
     1
 10
1679.48236576
 20
-516.19100631
 30
0.0
 11
1679.48236576
 21
-522.19100631
 31
0.0
  0
LINE
  5
22C
  8
0
  6
STRICHPUNKT2
 62
     1
 10
1679.48236576
 20
-585.19100631
 30
0.0
 11
1673.48236576
 21
-585.19100631
 31
0.0
  0
LINE
  5
22D
  8
0
  6
STRICHPUNKT2
 62
     1
 10
1679.48236576
 20
-585.19100631
 30
0.0
 11
1685.48236576
 21
-585.19100631
 31
0.0
  0
LINE
  5
22E
  8
0
  6
STRICHPUNKT2
 62
     1
 10
1679.48236576
 20
-585.19100631
 30
0.0
 11
1679.48236576
 21
-579.19100631
 31
0.0
  0
LINE
  5
22F
  8
0
  6
STRICHPUNKT2
 62
     1
 10
1679.48236576
 20
-585.19100631
 30
0.0
 11
1679.48236576
 21
-591.19100631
 31
0.0
  0
LINE
  5
230
  8
0
 10
1664.48236576
 20
-620.19100631
 30
0.0
 11
1744.48236576
 21
-620.19100631
 31
0.0
  0
LINE
  5
231
  8
0
  6
STRICHPUNKT2
 62
     1
 10
1704.48236576
 20
-620.19100631
 30
0.0
 11
1704.48236576
 21
-623.69100631
 31
0.0
  0
LINE
  5
232
  8
0
 10
1744.48236576
 20
-604.19100631
 30
0.0
 11
1744.48236576
 21
-620.19100631
 31
0.0
  0
LINE
  5
233
  8
0
 10
1664.48236576
 20
-620.19100631
 30
0.0
 11
1744.48236576
 21
-620.19100631
 31
0.0
  0
POLYLINE
  5
234
  8
0
 66
     1
 10
0.0
 20
0.0
 30
0.0
  0
VERTEX
  5
235
  8
0
 10
1664.48236576
 20
-620.19100631
 30
0.0
  0
VERTEX
  5
236
  8
0
 10
1664.48236576
 20
-604.19100631
 30
0.0
  0
VERTEX
  5
237
  8
0
 10
1744.48236576
 20
-604.19100631
 30
0.0
  0
SEQEND
  5
238
  8
0
  0
POLYLINE
  5
239
  8
0
 66
     1
 10
0.0
 20
0.0
 30
0.0
  0
VERTEX
  5
23A
  8
0
 10
1790.59374311
 20
-644.77317986
 30
0.0
  0
VERTEX
  5
23B
  8
0
 10
1790.59374311
 20
-724.77317986
 30
0.0
  0
VERTEX
  5
23C
  8
0
 10
1798.59374311
 20
-724.77317986
 30
0.0
  0
SEQEND
  5
23D
  8
0
  0
LINE
  5
23E
  8
0
 10
1798.59374311
 20
-644.77317986
 30
0.0
 11
1798.59374311
 21
-724.77317986
 31
0.0
  0
LINE
  5
23F
  8
0
 10
1790.59374311
 20
-644.77317986
 30
0.0
 11
1798.59374311
 21
-644.77317986
 31
0.0
  0
LINE
  5
240
  8
0
  6
STRICHPUNKT2
 62
     1
 10
1790.59374311
 20
-709.77317986
 30
0.0
 11
1788.59374311
 21
-709.77317986
 31
0.0
  0
LINE
  5
241
  8
0
  6
STRICHPUNKT2
 62
     1
 10
1800.59374311
 20
-709.77317986
 30
0.0
 11
1798.59374311
 21
-709.77317986
 31
0.0
  0
LINE
  5
242
  8
0
  6
STRICHPUNKT2
 62
     1
 10
1790.59374311
 20
-659.77317986
 30
0.0
 11
1788.59374311
 21
-659.77317986
 31
0.0
  0
LINE
  5
243
  8
0
  6
STRICHPUNKT2
 62
     1
 10
1800.59374311
 20
-659.77317986
 30
0.0
 11
1798.59374311
 21
-659.77317986
 31
0.0
  0
LINE
  5
244
  8
0
  6
STRICHPUNKT2
 62
     1
 10
1790.59374311
 20
-684.77317986
 30
0.0
 11
1788.59374311
 21
-684.77317986
 31
0.0
  0
LINE
  5
245
  8
0
  6
STRICHPUNKT2
 62
     1
 10
1800.59374311
 20
-684.77317986
 30
0.0
 11
1798.59374311
 21
-684.77317986
 31
0.0
  0
CIRCLE
  5
246
  8
0
 10
1870.59374311
 20
-684.77317986
 30
0.0
 40
7.0
  0
LINE
  5
247
  8
0
 10
1890.59374311
 20
-644.77317986
 30
0.0
 11
1890.59374311
 21
-724.77317986
 31
0.0
  0
LINE
  5
248
  8
0
 10
1806.59374311
 20
-724.77317986
 30
0.0
 11
1890.59374311
 21
-724.77317986
 31
0.0
  0
LINE
  5
249
  8
0
 10
1806.59374311
 20
-644.77317986
 30
0.0
 11
1806.59374311
 21
-724.77317986
 31
0.0
  0
LINE
  5
24A
  8
0
 10
1890.59374311
 20
-644.77317986
 30
0.0
 11
1806.59374311
 21
-644.77317986
 31
0.0
  0
LINE
  5
24B
  8
0
  6
STRICHPUNKT2
 62
     1
 10
1870.59374311
 20
-684.77317986
 30
0.0
 11
1881.09374311
 21
-684.77317986
 31
0.0
  0
LINE
  5
24C
  8
0
  6
STRICHPUNKT2
 62
     1
 10
1870.59374311
 20
-684.77317986
 30
0.0
 11
1860.09374311
 21
-684.77317986
 31
0.0
  0
LINE
  5
24D
  8
0
  6
STRICHPUNKT2
 62
     1
 10
1870.59374311
 20
-684.77317986
 30
0.0
 11
1870.59374311
 21
-674.27317986
 31
0.0
  0
LINE
  5
24E
  8
0
  6
STRICHPUNKT2
 62
     1
 10
1870.59374311
 20
-684.77317986
 30
0.0
 11
1870.59374311
 21
-695.27317986
 31
0.0
  0
LINE
  5
24F
  8
0
 10
1798.59374311
 20
-724.77317986
 30
0.0
 11
1806.59374311
 21
-724.77317986
 31
0.0
  0
LINE
  5
250
  8
0
 10
1806.59374311
 20
-644.77317986
 30
0.0
 11
1806.59374311
 21
-724.77317986
 31
0.0
  0
LINE
  5
251
  8
0
 10
1806.59374311
 20
-644.77317986
 30
0.0
 11
1798.59374311
 21
-644.77317986
 31
0.0
  0
TEXT
  5
252
  8
TXT_DIM49
 10
1837.81148317
 20
-627.42203708
 30
0.0
 40
2.5
  1
100
  7
ARIAL
  0
LINE
  5
253
  8
0
 62
     4
 10
1791.59374311
 20
-627.92203708
 30
0.0
 11
1789.59374311
 21
-629.92203708
 31
0.0
  0
LINE
  5
254
  8
0
 62
     4
 10
1889.84374311
 20
-629.67203708
 30
0.0
 11
1891.34374311
 21
-628.17203708
 31
0.0
  0
LINE
  5
255
  8
0
 62
     4
 10
1790.59374311
 20
-628.92203708
 30
0.0
 11
1890.59374311
 21
-628.92203708
 31
0.0
  0
LINE
  5
256
  8
0
 62
     4
 10
1790.59374311
 20
-626.92203708
 30
0.0
 11
1790.59374311
 21
-630.92203708
 31
0.0
  0
LINE
  5
257
  8
0
 62
     4
 10
1890.59374311
 20
-626.92203708
 30
0.0
 11
1890.59374311
 21
-630.92203708
 31
0.0
  0
TEXT
  5
258
  8
TXT_DIM49
 10
1775.09374311
 20
-562.97326625
 30
0.0
 40
2.5
  1
120
 50
90.00020741
  7
ARIAL
  0
LINE
  5
259
  8
0
 62
     4
 10
1775.59374311
 20
-619.19100631
 30
0.0
 11
1777.59374311
 21
-621.19100631
 31
0.0
  0
LINE
  5
25A
  8
0
 62
     4
 10
1777.34374311
 20
-500.94100631
 30
0.0
 11
1775.84374311
 21
-499.44100631
 31
0.0
  0
LINE
  5
25B
  8
0
 62
     4
 10
1776.59374311
 20
-620.19100631
 30
0.0
 11
1776.59374311
 21
-500.19100631
 31
0.0
  0
LINE
  5
25C
  8
0
 62
     4
 10
1778.59374311
 20
-620.19100631
 30
0.0
 11
1774.59374311
 21
-620.19100631
 31
0.0
  0
LINE
  5
25D
  8
0
 62
     4
 10
1778.59374311
 20
-500.19100631
 30
0.0
 11
1774.59374311
 21
-500.19100631
 31
0.0
  0
TEXT
  5
25E
  8
TXT_DIM49
 10
1793.66632309
 20
-493.26232127
 30
0.0
 40
2.5
  1
8
  7
ARIAL
  0
LINE
  5
25F
  8
0
 62
     4
 10
1791.59374311
 20
-493.76232127
 30
0.0
 11
1789.59374311
 21
-495.76232127
 31
0.0
  0
LINE
  5
260
  8
0
 62
     4
 10
1797.84374311
 20
-495.51232127
 30
0.0
 11
1799.34374311
 21
-494.01232127
 31
0.0
  0
LINE
  5
261
  8
0
 62
     4
 10
1790.59374311
 20
-494.76232127
 30
0.0
 11
1798.59374311
 21
-494.76232127
 31
0.0
  0
LINE
  5
262
  8
0
 62
     4
 10
1790.59374311
 20
-496.76232127
 30
0.0
 11
1790.59374311
 21
-492.76232127
 31
0.0
  0
LINE
  5
263
  8
0
 62
     4
 10
1798.59374311
 20
-496.76232127
 30
0.0
 11
1798.59374311
 21
-492.76232127
 31
0.0
  0
TEXT
  5
264
  8
TXT_DIM49
 10
1899.47794505
 20
-617.11842633
 30
0.0
 40
2.5
  1
8
 50
90.00020741
  7
ARIAL
  0
LINE
  5
265
  8
0
 62
     4
 10
1901.97794505
 20
-613.19100631
 30
0.0
 11
1899.97794505
 21
-611.19100631
 31
0.0
  0
LINE
  5
266
  8
0
 62
     4
 10
1900.22794505
 20
-619.44100631
 30
0.0
 11
1901.72794505
 21
-620.94100631
 31
0.0
  0
LINE
  5
267
  8
0
 62
     4
 10
1900.97794505
 20
-612.19100631
 30
0.0
 11
1900.97794505
 21
-620.19100631
 31
0.0
  0
LINE
  5
268
  8
0
 62
     4
 10
1898.97794505
 20
-612.19100631
 30
0.0
 11
1902.97794505
 21
-612.19100631
 31
0.0
  0
LINE
  5
269
  8
0
 62
     4
 10
1898.97794505
 20
-620.19100631
 30
0.0
 11
1902.97794505
 21
-620.19100631
 31
0.0
  0
TEXT
  5
26A
  8
TXT_DIM49
 10
1750.46131323
 20
-510.04584635
 30
0.0
 40
2.5
  1
16
 50
90.00020741
  7
ARIAL
  0
LINE
  5
26B
  8
0
 62
     4
 10
1752.96131323
 20
-501.19100631
 30
0.0
 11
1750.96131323
 21
-499.19100631
 31
0.0
  0
LINE
  5
26C
  8
0
 62
     4
 10
1751.21131323
 20
-515.44100631
 30
0.0
 11
1752.71131323
 21
-516.94100631
 31
0.0
  0
LINE
  5
26D
  8
0
 62
     4
 10
1751.96131323
 20
-500.19100631
 30
0.0
 11
1751.96131323
 21
-516.19100631
 31
0.0
  0
LINE
  5
26E
  8
0
 62
     4
 10
1749.96131323
 20
-500.19100631
 30
0.0
 11
1753.96131323
 21
-500.19100631
 31
0.0
  0
LINE
  5
26F
  8
0
 62
     4
 10
1749.96131323
 20
-516.19100631
 30
0.0
 11
1753.96131323
 21
-516.19100631
 31
0.0
  0
TEXT
  5
270
  8
TXT_DIM49
 10
1750.46131323
 20
-535.29588164
 30
0.0
 40
2.5
  1
35
 50
90.00020741
  7
ARIAL
  0
LINE
  5
271
  8
0
 62
     4
 10
1752.96131323
 20
-517.19100631
 30
0.0
 11
1750.96131323
 21
-515.19100631
 31
0.0
  0
LINE
  5
272
  8
0
 62
     4
 10
1751.21131323
 20
-549.94100631
 30
0.0
 11
1752.71131323
 21
-551.44100631
 31
0.0
  0
LINE
  5
273
  8
0
 62
     4
 10
1751.96131323
 20
-516.19100631
 30
0.0
 11
1751.96131323
 21
-550.69100631
 31
0.0
  0
LINE
  5
274
  8
0
 62
     4
 10
1749.96131323
 20
-516.19100631
 30
0.0
 11
1753.96131323
 21
-516.19100631
 31
0.0
  0
LINE
  5
275
  8
0
 62
     4
 10
1749.96131323
 20
-550.69100631
 30
0.0
 11
1753.96131323
 21
-550.69100631
 31
0.0
  0
TEXT
  5
276
  8
TXT_DIM49
 10
1750.46131323
 20
-569.79588164
 30
0.0
 40
2.5
  1
35
 50
90.00020741
  7
ARIAL
  0
LINE
  5
277
  8
0
 62
     4
 10
1752.96131323
 20
-551.69100631
 30
0.0
 11
1750.96131323
 21
-549.69100631
 31
0.0
  0
LINE
  5
278
  8
0
 62
     4
 10
1751.21131323
 20
-584.44100631
 30
0.0
 11
1752.71131323
 21
-585.94100631
 31
0.0
  0
LINE
  5
279
  8
0
 62
     4
 10
1751.96131323
 20
-550.69100631
 30
0.0
 11
1751.96131323
 21
-585.19100631
 31
0.0
  0
LINE
  5
27A
  8
0
 62
     4
 10
1749.96131323
 20
-550.69100631
 30
0.0
 11
1753.96131323
 21
-550.69100631
 31
0.0
  0
LINE
  5
27B
  8
0
 62
     4
 10
1749.96131323
 20
-585.19100631
 30
0.0
 11
1753.96131323
 21
-585.19100631
 31
0.0
  0
TEXT
  5
27C
  8
TXT_DIM49
 10
1750.46131323
 20
-604.54588164
 30
0.0
 40
2.5
  1
35
 50
90.00020741
  7
ARIAL
  0
LINE
  5
27D
  8
0
 62
     4
 10
1752.96131323
 20
-586.19100631
 30
0.0
 11
1750.96131323
 21
-584.19100631
 31
0.0
  0
LINE
  5
27E
  8
0
 62
     4
 10
1751.21131323
 20
-619.44100631
 30
0.0
 11
1752.71131323
 21
-620.94100631
 31
0.0
  0
LINE
  5
27F
  8
0
 62
     4
 10
1751.96131323
 20
-585.19100631
 30
0.0
 11
1751.96131323
 21
-620.19100631
 31
0.0
  0
LINE
  5
280
  8
0
 62
     4
 10
1749.96131323
 20
-585.19100631
 30
0.0
 11
1753.96131323
 21
-585.19100631
 31
0.0
  0
LINE
  5
281
  8
0
 62
     4
 10
1749.96131323
 20
-620.19100631
 30
0.0
 11
1753.96131323
 21
-620.19100631
 31
0.0
  0
TEXT
  5
282
  8
TXT_DIM49
 10
1735.12752572
 20
-493.59368146
 30
0.0
 40
2.5
  1
15
  7
ARIAL
  0
LINE
  5
283
  8
0
 62
     4
 10
1743.48236576
 20
-496.09368146
 30
0.0
 11
1745.48236576
 21
-494.09368146
 31
0.0
  0
LINE
  5
284
  8
0
 62
     4
 10
1730.23236576
 20
-494.34368146
 30
0.0
 11
1728.73236576
 21
-495.84368146
 31
0.0
  0
LINE
  5
285
  8
0
 62
     4
 10
1744.48236576
 20
-495.09368146
 30
0.0
 11
1729.48236576
 21
-495.09368146
 31
0.0
  0
LINE
  5
286
  8
0
 62
     4
 10
1744.48236576
 20
-497.09368146
 30
0.0
 11
1744.48236576
 21
-493.09368146
 31
0.0
  0
LINE
  5
287
  8
0
 62
     4
 10
1729.48236576
 20
-497.09368146
 30
0.0
 11
1729.48236576
 21
-493.09368146
 31
0.0
  0
TEXT
  5
288
  8
TXT_DIM49
 10
1715.12752572
 20
-493.59368146
 30
0.0
 40
2.5
  1
25
  7
ARIAL
  0
LINE
  5
289
  8
0
 62
     4
 10
1728.48236576
 20
-496.09368146
 30
0.0
 11
1730.48236576
 21
-494.09368146
 31
0.0
  0
LINE
  5
28A
  8
0
 62
     4
 10
1705.23236576
 20
-494.34368146
 30
0.0
 11
1703.73236576
 21
-495.84368146
 31
0.0
  0
LINE
  5
28B
  8
0
 62
     4
 10
1729.48236576
 20
-495.09368146
 30
0.0
 11
1704.48236576
 21
-495.09368146
 31
0.0
  0
LINE
  5
28C
  8
0
 62
     4
 10
1729.48236576
 20
-497.09368146
 30
0.0
 11
1729.48236576
 21
-493.09368146
 31
0.0
  0
LINE
  5
28D
  8
0
 62
     4
 10
1704.48236576
 20
-497.09368146
 30
0.0
 11
1704.48236576
 21
-493.09368146
 31
0.0
  0
TEXT
  5
28E
  8
TXT_DIM49
 10
1690.12752572
 20
-493.59368146
 30
0.0
 40
2.5
  1
25
  7
ARIAL
  0
LINE
  5
28F
  8
0
 62
     4
 10
1703.48236576
 20
-496.09368146
 30
0.0
 11
1705.48236576
 21
-494.09368146
 31
0.0
  0
LINE
  5
290
  8
0
 62
     4
 10
1680.23236576
 20
-494.34368146
 30
0.0
 11
1678.73236576
 21
-495.84368146
 31
0.0
  0
LINE
  5
291
  8
0
 62
     4
 10
1704.48236576
 20
-495.09368146
 30
0.0
 11
1679.48236576
 21
-495.09368146
 31
0.0
  0
LINE
  5
292
  8
0
 62
     4
 10
1704.48236576
 20
-497.09368146
 30
0.0
 11
1704.48236576
 21
-493.09368146
 31
0.0
  0
LINE
  5
293
  8
0
 62
     4
 10
1679.48236576
 20
-497.09368146
 30
0.0
 11
1679.48236576
 21
-493.09368146
 31
0.0
  0
TEXT
  5
294
  8
TXT_DIM49
 10
1670.12752572
 20
-493.59368146
 30
0.0
 40
2.5
  1
15
  7
ARIAL
  0
LINE
  5
295
  8
0
 62
     4
 10
1678.48236576
 20
-496.09368146
 30
0.0
 11
1680.48236576
 21
-494.09368146
 31
0.0
  0
LINE
  5
296
  8
0
 62
     4
 10
1665.23236576
 20
-494.34368146
 30
0.0
 11
1663.73236576
 21
-495.84368146
 31
0.0
  0
LINE
  5
297
  8
0
 62
     4
 10
1679.48236576
 20
-495.09368146
 30
0.0
 11
1664.48236576
 21
-495.09368146
 31
0.0
  0
LINE
  5
298
  8
0
 62
     4
 10
1679.48236576
 20
-497.09368146
 30
0.0
 11
1679.48236576
 21
-493.09368146
 31
0.0
  0
LINE
  5
299
  8
0
 62
     4
 10
1664.48236576
 20
-497.09368146
 30
0.0
 11
1664.48236576
 21
-493.09368146
 31
0.0
  0
LINE
  5
29A
  8
0
 62
     5
 10
1683.48236576
 20
-516.19100631
 30
0.0
 11
1685.94609135
 21
-513.10050639
 31
0.0
  0
TEXT
  5
29B
  8
TXT_DIM49
 10
1685.94609135
 20
-514.35050639
 30
0.0
 40
2.5
  1
Ø8
  7
ARIAL
  0
LINE
  5
29C
  8
0
 62
     5
 10
1726.48236576
 20
-516.19100631
 30
0.0
 11
1723.27622117
 21
-512.72014002
 31
0.0
  0
TEXT
  5
29D
  8
TXT_DIM49
 10
1718.83712621
 20
-513.97014002
 30
0.0
 40
2.5
  1
Ø8
  7
ARIAL
  0
LINE
  5
29E
  8
0
 62
     5
 10
1708.48236576
 20
-550.69100631
 30
0.0
 11
1712.7728248
 21
-545.90875244
 31
0.0
  0
TEXT
  5
29F
  8
TXT_DIM49
 10
1712.7728248
 20
-547.15875244
 30
0.0
 40
2.5
  1
Ø8
  7
ARIAL
  0
LINE
  5
2A0
  8
0
 62
     5
 10
1683.48236576
 20
-585.19100631
 30
0.0
 11
1689.02650624
 21
-580.33951975
 31
0.0
  0
TEXT
  5
2A1
  8
TXT_DIM49
 10
1689.02650624
 20
-581.58951975
 30
0.0
 40
2.5
  1
Ø8
  7
ARIAL
  0
LINE
  5
2A2
  8
0
 62
     5
 10
1725.48236576
 20
-585.19100631
 30
0.0
 11
1723.30778958
 21
-580.24289998
 31
0.0
  0
TEXT
  5
2A3
  8
TXT_DIM49
 10
1718.86869462
 20
-581.49289998
 30
0.0
 40
2.5
  1
Ø8
  7
ARIAL
  0
TEXT
  5
2A4
  8
TXT_DIM49
 10
1878.73890307
 20
-637.77993818
 30
0.0
 40
2.5
  1
20
  7
ARIAL
  0
LINE
  5
2A5
  8
0
 62
     4
 10
1889.59374311
 20
-640.27993818
 30
0.0
 11
1891.59374311
 21
-638.27993818
 31
0.0
  0
LINE
  5
2A6
  8
0
 62
     4
 10
1871.34374311
 20
-638.52993818
 30
0.0
 11
1869.84374311
 21
-640.02993818
 31
0.0
  0
LINE
  5
2A7
  8
0
 62
     4
 10
1890.59374311
 20
-639.27993818
 30
0.0
 11
1870.59374311
 21
-639.27993818
 31
0.0
  0
LINE
  5
2A8
  8
0
 62
     4
 10
1890.59374311
 20
-641.27993818
 30
0.0
 11
1890.59374311
 21
-637.27993818
 31
0.0
  0
LINE
  5
2A9
  8
0
 62
     4
 10
1870.59374311
 20
-641.27993818
 30
0.0
 11
1870.59374311
 21
-637.27993818
 31
0.0
  0
TEXT
  5
2AA
  8
TXT_DIM49
 10
1828.73890307
 20
-637.77993818
 30
0.0
 40
2.5
  1
80
  7
ARIAL
  0
LINE
  5
2AB
  8
0
 62
     4
 10
1869.59374311
 20
-640.27993818
 30
0.0
 11
1871.59374311
 21
-638.27993818
 31
0.0
  0
LINE
  5
2AC
  8
0
 62
     4
 10
1791.34374311
 20
-638.52993818
 30
0.0
 11
1789.84374311
 21
-640.02993818
 31
0.0
  0
LINE
  5
2AD
  8
0
 62
     4
 10
1870.59374311
 20
-639.27993818
 30
0.0
 11
1790.59374311
 21
-639.27993818
 31
0.0
  0
LINE
  5
2AE
  8
0
 62
     4
 10
1870.59374311
 20
-641.27993818
 30
0.0
 11
1870.59374311
 21
-637.27993818
 31
0.0
  0
LINE
  5
2AF
  8
0
 62
     4
 10
1790.59374311
 20
-641.27993818
 30
0.0
 11
1790.59374311
 21
-637.27993818
 31
0.0
  0
TEXT
  5
2B0
  8
TXT_DIM49
 10
1894.35137803
 20
-666.6280199
 30
0.0
 40
2.5
  1
40
 50
90.00020741
  7
ARIAL
  0
LINE
  5
2B1
  8
0
 62
     4
 10
1896.85137803
 20
-645.77317986
 30
0.0
 11
1894.85137803
 21
-643.77317986
 31
0.0
  0
LINE
  5
2B2
  8
0
 62
     4
 10
1895.10137803
 20
-684.02317986
 30
0.0
 11
1896.60137803
 21
-685.52317986
 31
0.0
  0
LINE
  5
2B3
  8
0
 62
     4
 10
1895.85137803
 20
-644.77317986
 30
0.0
 11
1895.85137803
 21
-684.77317986
 31
0.0
  0
LINE
  5
2B4
  8
0
 62
     4
 10
1893.85137803
 20
-644.77317986
 30
0.0
 11
1897.85137803
 21
-644.77317986
 31
0.0
  0
LINE
  5
2B5
  8
0
 62
     4
 10
1893.85137803
 20
-684.77317986
 30
0.0
 11
1897.85137803
 21
-684.77317986
 31
0.0
  0
TEXT
  5
2B6
  8
TXT_DIM49
 10
1894.35137803
 20
-706.6280199
 30
0.0
 40
2.5
  1
40
 50
90.00020741
  7
ARIAL
  0
LINE
  5
2B7
  8
0
 62
     4
 10
1896.85137803
 20
-685.77317986
 30
0.0
 11
1894.85137803
 21
-683.77317986
 31
0.0
  0
LINE
  5
2B8
  8
0
 62
     4
 10
1895.10137803
 20
-724.02317986
 30
0.0
 11
1896.60137803
 21
-725.52317986
 31
0.0
  0
LINE
  5
2B9
  8
0
 62
     4
 10
1895.85137803
 20
-684.77317986
 30
0.0
 11
1895.85137803
 21
-724.77317986
 31
0.0
  0
LINE
  5
2BA
  8
0
 62
     4
 10
1893.85137803
 20
-684.77317986
 30
0.0
 11
1897.85137803
 21
-684.77317986
 31
0.0
  0
LINE
  5
2BB
  8
0
 62
     4
 10
1893.85137803
 20
-724.77317986
 30
0.0
 11
1897.85137803
 21
-724.77317986
 31
0.0
  0
TEXT
  5
2BC
  8
TXT_DIM49
 10
1783.11959607
 20
-686.6280199
 30
0.0
 40
2.5
  1
80
 50
90.00020741
  7
ARIAL
  0
LINE
  5
2BD
  8
0
 62
     4
 10
1785.61959607
 20
-645.77317986
 30
0.0
 11
1783.61959607
 21
-643.77317986
 31
0.0
  0
LINE
  5
2BE
  8
0
 62
     4
 10
1783.86959607
 20
-724.02317986
 30
0.0
 11
1785.36959607
 21
-725.52317986
 31
0.0
  0
LINE
  5
2BF
  8
0
 62
     4
 10
1784.61959607
 20
-644.77317986
 30
0.0
 11
1784.61959607
 21
-724.77317986
 31
0.0
  0
LINE
  5
2C0
  8
0
 62
     4
 10
1786.61959607
 20
-644.77317986
 30
0.0
 11
1782.61959607
 21
-644.77317986
 31
0.0
  0
LINE
  5
2C1
  8
0
 62
     4
 10
1786.61959607
 20
-724.77317986
 30
0.0
 11
1782.61959607
 21
-724.77317986
 31
0.0
  0
LINE
  5
2C2
  8
0
 62
     5
 10
1863.59374311
 20
-684.77317986
 30
0.0
 11
1858.29930434
 21
-678.12891619
 31
0.0
  0
TEXT
  5
2C3
  8
TXT_DIM49
 10
1852.01566262
 20
-679.37891619
 30
0.0
 40
2.5
  1
Ø14
  7
ARIAL
  0
ENDSEC
  0
EOF
