  0
SECTION
  2
HEADER
  9
$ACADVER
  1
AC1006
  9
$DWGCODEPAGE
  3
ansi_1252
  9
$INSBASE
 10
0.0
 20
0.0
 30
0.0
  9
$EXTMIN
 10
1325.39382303
 20
-861.43927062
  9
$EXTMAX
 10
2147.28821716
 20
-482.76427062
  9
$LIMMIN
 10
1325.39382303
 20
-861.43927062
  9
$LIMMAX
 10
2147.28821716
 20
-482.76427062
  9
$ORTHOMODE
 70
     0
  9
$REGENMODE
 70
     1
  9
$FILLMODE
 70
     1
  9
$QTEXTMODE
 70
     0
  9
$MIRRTEXT
 70
     1
  9
$DRAGMODE
 70
     2
  9
$LTSCALE
 40
1.0
  9
$OSMODE
 70
    37
  9
$ATTMODE
 70
     1
  9
$TEXTSIZE
 40
1.0
  9
$TRACEWID
 40
0.05
  9
$TEXTSTYLE
  7
STANDARD
  9
$CLAYER
  8
0
  9
$CELTYPE
  6
BYBLOCK
  9
$CECOLOR
 62
   256
  9
$DIMSCALE
 40
1.0
  9
$DIMASZ
 40
0.18
  9
$DIMEXO
 40
0.0625
  9
$DIMDLI
 40
0.38
  9
$DIMRND
 40
0.0
  9
$DIMDLE
 40
0.0
  9
$DIMEXE
 40
0.18
  9
$DIMTP
 40
0.0
  9
$DIMTM
 40
0.0
  9
$DIMTXT
 40
0.18
  9
$DIMCEN
 40
0.09
  9
$DIMTSZ
 40
0.0
  9
$DIMTOL
 70
     0
  9
$DIMLIM
 70
     0
  9
$DIMTIH
 70
     1
  9
$DIMTOH
 70
     1
  9
$DIMSE1
 70
     0
  9
$DIMSE2
 70
     0
  9
$DIMTAD
 70
     0
  9
$DIMZIN
 70
     0
  9
$DIMBLK
  1

  9
$DIMASO
 70
     1
  9
$DIMSHO
 70
     1
  9
$DIMPOST
  1

  9
$DIMAPOST
  1

  9
$DIMALT
 70
     0
  9
$DIMALTD
 70
     2
  9
$DIMALTF
 40
25.4
  9
$DIMLFAC
 40
1.0
  9
$DIMTOFL
 70
     0
  9
$DIMTVP
 40
0.0
  9
$DIMTIX
 70
     0
  9
$DIMSOXD
 70
     0
  9
$DIMSAH
 70
     0
  9
$DIMBLK1
  1

  9
$DIMBLK2
  1

  9
$LUNITS
 70
     2
  9
$LUPREC
 70
     4
  9
$SKETCHINC
 40
0.1
  9
$FILLETRAD
 40
0.5
  9
$AUNITS
 70
     0
  9
$AUPREC
 70
     0
  9
$MENU
  1
.
  9
$ELEVATION
 40
0.0
  9
$THICKNESS
 40
0.0
  9
$LIMCHECK
 70
     0
  9
$CHAMFERA
 40
0.0
  9
$CHAMFERB
 40
0.0
  9
$SKPOLY
 70
     0
  9
$TDCREATE
 40
2447893.125
  9
$TDUPDATE
 40
2460791.477613623
  9
$TDINDWG
 40
0.0
  9
$TDUSRTIMER
 40
0.0
  9
$USRTIMER
 70
     1
  9
$ANGBASE
 50
0.0
  9
$ANGDIR
 70
     0
  9
$PDMODE
 70
     0
  9
$PDSIZE
 40
0.0
  9
$PLINEWID
 40
0.0
  9
$COORDS
 70
     1
  9
$SPLFRAME
 70
     0
  9
$SPLINETYPE
 70
     6
  9
$SPLINESEGS
 70
     8
  9
$ATTDIA
 70
     0
  9
$ATTREQ
 70
     1
  9
$HANDLING
 70
     1
  9
$HANDSEED
  5
3F2
  9
$SURFTAB1
 70
     6
  9
$SURFTAB2
 70
     6
  9
$SURFTYPE
 70
     6
  9
$SURFU
 70
     6
  9
$SURFV
 70
     6
  9
$UCSNAME
  2

  9
$UCSORG
 10
0.0
 20
0.0
 30
0.0
  9
$UCSXDIR
 10
1.0
 20
0.0
 30
0.0
  9
$UCSYDIR
 10
0.0
 20
1.0
 30
0.0
  9
$USERI1
 70
     0
  9
$USERI2
 70
     0
  9
$USERI3
 70
     0
  9
$USERI4
 70
     0
  9
$USERI5
 70
     0
  9
$USERR1
 40
0.0
  9
$USERR2
 40
0.0
  9
$USERR3
 40
0.0
  9
$USERR4
 40
0.0
  9
$USERR5
 40
0.0
  9
$WORLDVIEW
 70
     1
  0
ENDSEC
  0
SECTION
  2
TABLES
  0
TABLE
  2
VPORT
 70
     1
  0
VPORT
  2
*ACTIVE
 70
     0
 10
0.0
 20
0.0
 11
1.0
 21
1.0
 12
1736.3410201
 22
-672.10177062
 13
0.0
 23
0.0
 14
1.0
 24
1.0
 15
0.0
 25
0.0
 16
0.0
 26
0.0
 36
1.0
 17
0.0
 27
0.0
 37
0.0
 40
378.675
 41
2.170447994
 42
50.0
 43
0.0
 44
0.0
 50
0.0
 51
0.0
 71
     0
 72
   100
 73
     1
 74
     1
 75
     0
 76
     0
 77
     0
 78
     0
  0
ENDTAB
  0
TABLE
  2
LTYPE
 70
    19
  0
LTYPE
  2
CONTINUOUS
 70
     0
  3
Solid line
 72
    65
 73
     0
 40
0.0
  0
LTYPE
  2
DOT
 70
     0
  3
..............
 72
    65
 73
     2
 40
2.0
 49
0.5
 49
-1.5
  0
LTYPE
  2
HIDDEN
 70
     0
  3
-- -- -- -- --
 72
    65
 73
     2
 40
7.0
 49
4.0
 49
-3.0
  0
LTYPE
  2
DASHDOT
 70
     0
  3
--.--.--.--.--
 72
    65
 73
     4
 40
8.5
 49
4.0
 49
-2.0
 49
0.5
 49
-2.0
  0
LTYPE
  2
STRICHPUNKT2
 70
     0
  3
--.--.--.--.--
 72
    65
 73
     4
 40
18.5
 49
10.0
 49
-4.0
 49
0.5
 49
-4.0
  0
LTYPE
  2
STRICHPUNKT3
 70
     0
  3
--.--.--.--.--
 72
    65
 73
     4
 40
35.5
 49
25.0
 49
-5.0
 49
0.5
 49
-5.0
  0
LTYPE
  2
PHANTOM
 70
     0
  3
--..--..--..--
 72
    65
 73
     6
 40
23.0
 49
10.0
 49
-4.0
 49
0.5
 49
-4.0
 49
0.5
 49
-4.0
  0
LTYPE
  2
PHANTOM2
 70
     0
  3
--..--..--..--
 72
    65
 73
     6
 40
33.0
 49
20.0
 49
-4.0
 49
0.5
 49
-4.0
 49
0.5
 49
-4.0
  0
LTYPE
  2
PHANTOM3
 70
     0
  3
--..--..--..--
 72
    65
 73
     6
 40
50.0
 49
37.0
 49
-4.0
 49
0.5
 49
-4.0
 49
0.5
 49
-4.0
  0
LTYPE
  2
STR3PKT
 70
     0
  3
--...--...--...
 72
    65
 73
     8
 40
31.5
 49
20.0
 49
-2.5
 49
0.5
 49
-2.5
 49
0.5
 49
-2.5
 49
0.5
 49
-2.5
  0
LTYPE
  2
2STRPKT
 70
     0
  3
--.--.--.--.--
 72
    65
 73
     6
 40
28.0
 49
10.0
 49
-2.5
 49
10.0
 49
-2.5
 49
0.5
 49
-2.5
  0
LTYPE
  2
GESTRICHELT2
 70
     0
  3
-- -- -- -- --
 72
    65
 73
     2
 40
25.0
 49
10.0
 49
-15.0
  0
LTYPE
  2
2STR2PKT
 70
     0
  3
--..--..--..--
 72
    65
 73
     8
 40
31.0
 49
10.0
 49
-2.5
 49
10.0
 49
-2.5
 49
0.5
 49
-2.5
 49
0.5
 49
-2.5
  0
LTYPE
  2
STR3PKT2
 70
     0
  3
--...--...--...
 72
    65
 73
     8
 40
21.0
 49
10.0
 49
-2.5
 49
0.5
 49
-2.5
 49
0.5
 49
-2.5
 49
0.5
 49
-2.0
  0
LTYPE
  2
2STR3PKT
 70
     0
  3
--...--...--...
 72
    65
 73
    10
 40
34.0
 49
10.0
 49
-2.5
 49
10.0
 49
-2.5
 49
0.5
 49
-2.5
 49
0.5
 49
-2.5
 49
0.5
 49
-2.5
  0
LTYPE
  2
STRKSTR
 70
     0
  3
-- - -- - -- -
 72
    65
 73
     4
 40
30.0
 49
20.0
 49
-2.5
 49
5.0
 49
-2.5
  0
LTYPE
  2
STRKSTR2
 70
     0
  3
-- - -- - -- -
 72
    65
 73
     6
 40
37.5
 49
20.0
 49
-2.5
 49
5.0
 49
-2.5
 49
5.0
 49
-2.5
  0
LTYPE
  2
STRKSTR3
 70
     0
  3
-- - -- - -- -
 72
    65
 73
     8
 40
45.0
 49
20.0
 49
-2.5
 49
5.0
 49
-2.5
 49
5.0
 49
-2.5
 49
5.0
 49
-2.5
  0
LTYPE
  2
PUNKT2
 70
     0
  3
..............
 72
    65
 73
     2
 40
3.5
 49
0.5
 49
-3.0
  0
ENDTAB
  0
TABLE
  2
LAYER
 70
    17
  0
LAYER
  2
0
 70
     0
 62
     7
  6
CONTINUOUS
  0
LAYER
  2
LE_GREEN
 70
     0
 62
     3
  6
CONTINUOUS
  0
LAYER
  2
LE_RED
 70
     0
 62
     1
  6
CONTINUOUS
  0
LAYER
  2
LE_ALL
 70
     0
 62
     7
  6
CONTINUOUS
  0
LAYER
  2
LE_HIDDEN1
 70
     0
 62
     3
  6
HIDDEN
  0
LAYER
  2
LE_HIDDEN
 70
     0
 62
     7
  6
CONTINUOUS
  0
LAYER
  2
LE_MIDDLE
 70
     0
 62
     7
  6
CONTINUOUS
  0
LAYER
  2
TXT_YELLOW
 70
     0
 62
     2
  6
CONTINUOUS
  0
LAYER
  2
TXT_DIM49
 70
     0
 62
     2
  6
CONTINUOUS
  0
LAYER
  2
TXT_ALL
 70
     0
 62
     7
  6
CONTINUOUS
  0
LAYER
  2
DIM49
 70
     0
 62
     4
  6
CONTINUOUS
  0
LAYER
  2
HATCH
 70
     0
 62
     3
  6
CONTINUOUS
  0
LAYER
  2
APPLE
 70
     0
 62
     7
  6
CONTINUOUS
  0
LAYER
  2
10
 70
     0
 62
     7
  6
CONTINUOUS
  0
LAYER
  2
20
 70
     0
 62
     7
  6
CONTINUOUS
  0
LAYER
  2
47
 70
     0
 62
     7
  6
CONTINUOUS
  0
LAYER
  2
49
 70
     0
 62
     7
  6
CONTINUOUS
  0
ENDTAB
  0
TABLE
  2
STYLE
 70
     5
  0
STYLE
  2
MONOTXT
 70
     0
 40
0.0
 41
1.0
 50
0.0
 71
     0
 42
1.0
  3
monotxt.shx
  4

  0
STYLE
  2
STANDARD
 70
     0
 40
0.0
 41
1.0
 50
0.0
 71
     0
 42
1.0
  3
txt
  4

  0
STYLE
  2
ARIAL
 70
     0
 40
0.0
 41
1.0
 50
0.0
 71
     0
 42
1.0
  3
arial.ttf
  4

  0
STYLE
  2
ARIAL_NARROW
 70
     0
 40
0.0
 41
1.0
 50
0.0
 71
     0
 42
1.0
  3
ArialN.ttf
  4

  0
STYLE
  2
ISOCPEUR
 70
     0
 40
0.0
 41
1.0
 50
0.0
 71
     0
 42
1.0
  3
ISOCPEUR.ttf
  4

  0
ENDTAB
  0
TABLE
  2
VIEW
 70
     0
  0
ENDTAB
  0
TABLE
  2
UCS
 70
     0
  0
ENDTAB
  0
ENDSEC
  0
SECTION
  2
BLOCKS
  0
ENDSEC
  0
SECTION
  2
ENTITIES
  0
POLYLINE
  5
16E
  8
0
 66
     1
 10
0.0
 20
0.0
 30
0.0
 70
     1
  0
VERTEX
  5
16F
  8
0
 10
1488.89524071
 20
-834.65239076
 30
0.0
  0
VERTEX
  5
170
  8
0
 10
1908.89524071
 20
-834.65239076
 30
0.0
  0
VERTEX
  5
171
  8
0
 10
1908.89524071
 20
-537.65239076
 30
0.0
  0
VERTEX
  5
172
  8
0
 10
1488.89524071
 20
-537.65239076
 30
0.0
  0
SEQEND
  5
173
  8
0
  0
POLYLINE
  5
174
  8
0
 66
     1
 10
0.0
 20
0.0
 30
0.0
 70
     1
  0
VERTEX
  5
175
  8
0
 10
1493.89524071
 20
-829.65239076
 30
0.0
  0
VERTEX
  5
176
  8
0
 10
1903.89524071
 20
-829.65239076
 30
0.0
  0
VERTEX
  5
177
  8
0
 10
1903.89524071
 20
-542.65239076
 30
0.0
  0
VERTEX
  5
178
  8
0
 10
1493.89524071
 20
-542.65239076
 30
0.0
  0
SEQEND
  5
179
  8
0
  0
LINE
  5
17A
  8
0
 10
1718.89524071
 20
-829.65239076
 30
0.0
 11
1718.89524071
 21
-834.65239076
 31
0.0
  0
LINE
  5
17B
  8
0
 10
1718.89524071
 20
-542.65239076
 30
0.0
 11
1718.89524071
 21
-537.65239076
 31
0.0
  0
LINE
  5
17C
  8
0
 10
1508.89524071
 20
-829.65239076
 30
0.0
 11
1508.89524071
 21
-834.65239076
 31
0.0
  0
LINE
  5
17D
  8
0
 10
1508.89524071
 20
-542.65239076
 30
0.0
 11
1508.89524071
 21
-537.65239076
 31
0.0
  0
TEXT
  5
17E
  8
TXT_ALL
 62
     4
 10
1907.89524071
 20
-833.65239076
 30
0.0
 40
2.5
  1

 50
90.00020741
  0
POLYLINE
  5
17F
  8
0
 66
     1
 10
0.0
 20
0.0
 30
0.0
  0
VERTEX
  5
180
  8
0
 10
1903.89524071
 20
-552.65239076
 30
0.0
  0
VERTEX
  5
181
  8
0
 10
1834.90194071
 20
-552.65239076
 30
0.0
  0
VERTEX
  5
182
  8
0
 10
1834.90194071
 20
-542.65239076
 30
0.0
  0
SEQEND
  5
183
  8
0
  0
LINE
  5
184
  8
0
 10
1836.80524071
 20
-810.15239076
 30
0.0
 11
1696.91524071
 21
-810.15239076
 31
0.0
  0
LINE
  5
185
  8
0
 10
1696.91524071
 20
-819.90239076
 30
0.0
 11
1836.80524071
 21
-819.90239076
 31
0.0
  0
POLYLINE
  5
186
  8
0
 66
     1
 10
0.0
 20
0.0
 30
0.0
  0
VERTEX
  5
187
  8
0
 10
1696.91524071
 20
-810.15239076
 30
0.0
  0
VERTEX
  5
188
  8
0
 10
1696.91524071
 20
-819.90239076
 30
0.0
  0
VERTEX
  5
189
  8
0
 10
1696.91524071
 20
-829.65239076
 30
0.0
  0
SEQEND
  5
18A
  8
0
  0
POLYLINE
  5
18B
  8
0
 66
     1
 10
0.0
 20
0.0
 30
0.0
  0
VERTEX
  5
18C
  8
0
 10
1766.86024071
 20
-810.15239076
 30
0.0
  0
VERTEX
  5
18D
  8
0
 10
1766.86024071
 20
-819.90239076
 30
0.0
  0
VERTEX
  5
18E
  8
0
 10
1766.86024071
 20
-829.65239076
 30
0.0
  0
SEQEND
  5
18F
  8
0
  0
TEXT
  5
190
  8
TXT_ALL
 10
1698.91524071
 20
-816.32739071
 30
0.0
 40
2.5999999
  1
E-mail: verkoop@jonkers-bouwmetaal.nl
  7
ARIAL
  0
TEXT
  5
191
  8
TXT_ALL
 10
1698.91524071
 20
-826.07739071
 30
0.0
 40
2.5999999
  1
Telefoon: 0527-685156
  7
ARIAL
  0
TEXT
  5
192
  8
TXT_ALL
 10
1768.86024071
 20
-826.07739071
 30
0.0
 40
2.5999999
  1
Website: www.jonkers-bouwmetaal.nl
  7
ARIAL
  0
TEXT
  5
193
  8
TXT_ALL
 10
1768.86024071
 20
-816.32739071
 30
0.0
 40
2.5999999
  1
Adres: Hoornse Hop 10, 8321 WX Urk
  7
ARIAL
  0
TEXT
  5
194
  8
TXT_ALL
 10
1497.33720096
 20
-548.90239076
 30
0.0
 40
2.5
  1
Art. nr. 91007741
  7
ARIAL
  0
TEXT
  5
195
  8
TXT_ALL
 10
1540.07523778
 20
-548.90239076
 30
0.0
 40
2.5
  1
Omschrijving: H1505-anker 150x70 100x8
  7
ARIAL
  0
LINE
  5
196
  8
0
 10
1903.89524071
 20
-552.65239076
 30
0.0
 11
1493.89524071
 21
-552.65239076
 31
0.0
  0
LINE
  5
197
  8
0
 10
1536.91524071
 20
-552.65239076
 30
0.0
 11
1536.91524071
 21
-542.65239076
 31
0.0
  0
LINE
  5
198
  8
0
 10
1696.91524071
 20
-552.65239076
 30
0.0
 11
1696.91524071
 21
-542.65239076
 31
0.0
  0
TEXT
  5
199
  8
TXT_ALL
 10
1767.90894071
 20
-548.90239076
 30
0.0
 40
2.5
  1
Behandeling: Thermisch Verzinkt
  7
ARIAL
  0
LINE
  5
19A
  8
0
 10
1836.80524071
 20
-810.15239076
 30
0.0
 11
1903.89524071
 21
-810.15239076
 31
0.0
  0
LINE
  5
19B
  8
0
 10
1836.80524071
 20
-829.65239076
 30
0.0
 11
1836.80524071
 21
-810.15239076
 31
0.0
  0
LINE
  5
19C
  8
0
 10
1836.80524071
 20
-829.65239076
 30
0.0
 11
1836.80524071
 21
-810.15239076
 31
0.0
  0
TEXT
  5
19D
  8
TXT_ALL
 10
1631.2604388
 20
-828.49785735
 30
0.0
 40
2.5
  1

  0
TEXT
  5
19E
  8
TXT_ALL
 10
1752.39562177
 20
-818.40239076
 30
0.0
 40
2.5
  1

  0
POLYLINE
  5
19F
  8
0
 66
     1
 10
0.0
 20
0.0
 30
0.0
  0
VERTEX
  5
1A0
  8
0
 10
1834.90194071
 20
-552.65239076
 30
0.0
  0
VERTEX
  5
1A1
  8
0
 10
1765.90894071
 20
-552.65239076
 30
0.0
  0
VERTEX
  5
1A2
  8
0
 10
1765.90894071
 20
-542.65239076
 30
0.0
  0
SEQEND
  5
1A3
  8
0
  0
TEXT
  5
1A4
  8
TXT_ALL
 10
1836.90194071
 20
-548.90239076
 30
0.0
 40
2.5
  1
Verpakkingshoeveelheid: 1 st.
  7
ARIAL
  0
TEXT
  5
1A5
  8
TXT_ALL
 10
1698.91524071
 20
-548.90239076
 30
0.0
 40
2.5
  1
Materiaal: S355
  7
ARIAL
  0
TEXT
  5
1A6
  8
TXT_ALL
 10
1871.38766362
 20
-832.90190061
 30
0.0
 40
1.5
  1
Onderdeel van
  7
ARIAL
  0
POLYLINE
  5
1A7
  8
0
 66
     1
 10
0.0
 20
0.0
 30
0.0
  0
VERTEX
  5
1A8
  8
0
 10
1557.59948632
 20
-745.78651561
 30
0.0
  0
VERTEX
  5
1A9
  8
0
 10
1522.24414726
 20
-776.96699383
 30
0.0
  0
VERTEX
  5
1AA
  8
0
 10
1514.76083249
 20
-776.02418479
 30
0.0
  0
SEQEND
  5
1AB
  8
0
  0
POLYLINE
  5
1AC
  8
0
 66
     1
 10
0.0
 20
0.0
 30
0.0
  0
VERTEX
  5
31C
  8
0
 10
1557.599486343606
 20
-745.7865156160137
 30
0.0
  0
VERTEX
  5
31D
  8
0
 10
1557.743276144221
 20
-747.2760947745743
 30
0.0
  0
VERTEX
  5
31E
  8
0
 10
1558.169119770403
 20
-748.7446618640608
 30
0.0
  0
VERTEX
  5
31F
  8
0
 10
1558.860652290552
 20
-750.135780675293
 30
0.0
  0
VERTEX
  5
320
  8
0
 10
1559.791298497964
 20
-751.3959912929646
 30
0.0
  0
VERTEX
  5
321
  8
0
 10
1560.925294181111
 20
-752.4768645301905
 30
0.0
  0
VERTEX
  5
322
  8
0
 10
1562.219060522216
 20
-753.3368630349828
 30
0.0
  0
VERTEX
  5
323
  8
0
 10
1563.622878806772
 20
-753.9429375473804
 30
0.0
  0
VERTEX
  5
324
  8
0
 10
1565.082801085839
 20
-754.2717969639629
 30
0.0
  0
SEQEND
  5
3E3
  8
0
  0
POLYLINE
  5
1AD
  8
0
 66
     1
 10
0.0
 20
0.0
 30
0.0
  0
VERTEX
  5
1AE
  8
0
 10
1565.0828011
 20
-754.27179698
 30
0.0
  0
VERTEX
  5
1AF
  8
0
 10
1529.72746204
 20
-785.45227521
 30
0.0
  0
SEQEND
  5
1B0
  8
0
  0
POLYLINE
  5
1B1
  8
0
 66
     1
 10
0.0
 20
0.0
 30
0.0
  0
VERTEX
  5
325
  8
0
 10
1522.244147283606
 20
-776.9669938360138
 30
0.0
  0
VERTEX
  5
326
  8
0
 10
1522.387937084221
 20
-778.4565729945743
 30
0.0
  0
VERTEX
  5
327
  8
0
 10
1522.813780710403
 20
-779.9251400840609
 30
0.0
  0
VERTEX
  5
328
  8
0
 10
1523.505313230552
 20
-781.316258895293
 30
0.0
  0
VERTEX
  5
329
  8
0
 10
1524.435959437964
 20
-782.5764695129646
 30
0.0
  0
VERTEX
  5
32A
  8
0
 10
1525.569955121111
 20
-783.6573427501905
 30
0.0
  0
VERTEX
  5
32B
  8
0
 10
1526.863721462216
 20
-784.5173412549829
 30
0.0
  0
VERTEX
  5
32C
  8
0
 10
1528.267539746772
 20
-785.1234157673805
 30
0.0
  0
VERTEX
  5
32D
  8
0
 10
1529.727462025839
 20
-785.4522751839629
 30
0.0
  0
SEQEND
  5
3E4
  8
0
  0
POLYLINE
  5
1B2
  8
0
 66
     1
 10
0.0
 20
0.0
 30
0.0
  0
VERTEX
  5
1B3
  8
0
 10
1529.72746204
 20
-785.45227521
 30
0.0
  0
VERTEX
  5
1B4
  8
0
 10
1529.72746204
 20
-792.99474754
 30
0.0
  0
SEQEND
  5
1B5
  8
0
  0
POLYLINE
  5
1B6
  8
0
 66
     1
 10
0.0
 20
0.0
 30
0.0
  0
VERTEX
  5
32E
  8
0
 10
1514.760832527211
 20
-776.0241848020277
 30
0.0
  0
VERTEX
  5
32F
  8
0
 10
1515.048412128443
 20
-779.0033431191487
 30
0.0
  0
VERTEX
  5
330
  8
0
 10
1515.900099380805
 20
-781.9404772981217
 30
0.0
  0
VERTEX
  5
331
  8
0
 10
1517.283164421103
 20
-784.7227149205861
 30
0.0
  0
VERTEX
  5
332
  8
0
 10
1519.144456835929
 20
-787.2431361559294
 30
0.0
  0
VERTEX
  5
333
  8
0
 10
1521.412448202222
 20
-789.404882630381
 30
0.0
  0
VERTEX
  5
334
  8
0
 10
1523.999980884432
 20
-791.1248796399659
 30
0.0
  0
VERTEX
  5
335
  8
0
 10
1526.807617453544
 20
-792.337028664761
 30
0.0
  0
VERTEX
  5
336
  8
0
 10
1529.727462011679
 20
-792.9947474979259
 30
0.0
  0
SEQEND
  5
3E5
  8
0
  0
POLYLINE
  5
1B7
  8
0
 66
     1
 10
0.0
 20
0.0
 30
0.0
  0
VERTEX
  5
337
  8
0
 10
1564.72590458
 20
-772.9261654716238
 30
0.0
  0
VERTEX
  5
338
  8
0
 10
1564.867632511549
 20
-773.3933204858987
 30
0.0
  0
VERTEX
  5
339
  8
0
 10
1565.28707722846
 20
-773.8415586673024
 30
0.0
  0
VERTEX
  5
33A
  8
0
 10
1565.967253863809
 20
-774.2527291951072
 30
0.0
  0
VERTEX
  5
33B
  8
0
 10
1566.880619551583
 20
-774.6101822548881
 30
0.0
  0
VERTEX
  5
33C
  8
0
 10
1567.990188739135
 20
-774.8994432510484
 30
0.0
  0
VERTEX
  5
33D
  8
0
 10
1569.251030868909
 20
-775.1087989366973
 30
0.0
  0
SEQEND
  5
3E6
  8
0
  0
POLYLINE
  5
1B8
  8
0
 66
     1
 10
0.0
 20
0.0
 30
0.0
  0
VERTEX
  5
33E
  8
0
 10
1574.200778333064
 20
-770.7435320285908
 30
0.0
  0
VERTEX
  5
33F
  8
0
 10
1572.897421076805
 20
-770.6257416508096
 30
0.0
  0
VERTEX
  5
340
  8
0
 10
1571.55046400995
 20
-770.593565127818
 30
0.0
  0
VERTEX
  5
341
  8
0
 10
1570.210036237087
 20
-770.6481999590212
 30
0.0
  0
VERTEX
  5
342
  8
0
 10
1568.926023864963
 20
-770.7876128241043
 30
0.0
  0
VERTEX
  5
343
  8
0
 10
1567.746213413338
 20
-771.0066152562133
 30
0.0
  0
VERTEX
  5
344
  8
0
 10
1566.714513365252
 20
-771.2970567388294
 30
0.0
  0
VERTEX
  5
345
  8
0
 10
1565.869320044452
 20
-771.6481280399307
 30
0.0
  0
VERTEX
  5
346
  8
0
 10
1565.242088636421
 20
-772.0467634943943
 30
0.0
  0
VERTEX
  5
347
  8
0
 10
1564.856162534669
 20
-772.4781272630677
 30
0.0
  0
VERTEX
  5
348
  8
0
 10
1564.72590458
 20
-772.9261654716238
 30
0.0
  0
SEQEND
  5
3E7
  8
0
  0
POLYLINE
  5
1B9
  8
0
 66
     1
 10
0.0
 20
0.0
 30
0.0
  0
VERTEX
  5
1BA
  8
0
 10
1574.20077831
 20
-770.743532
 30
0.0
  0
VERTEX
  5
1BB
  8
0
 10
1635.9381252
 20
-778.5217066
 30
0.0
  0
SEQEND
  5
1BC
  8
0
  0
POLYLINE
  5
1BD
  8
0
 66
     1
 10
0.0
 20
0.0
 30
0.0
  0
VERTEX
  5
349
  8
0
 10
1640.46325146
 20
-780.70434007
 30
0.0
  0
VERTEX
  5
34A
  8
0
 10
1640.321523525756
 20
-780.2371850597048
 30
0.0
  0
VERTEX
  5
34B
  8
0
 10
1639.902078810835
 20
-779.7889468821471
 30
0.0
  0
VERTEX
  5
34C
  8
0
 10
1639.221902181803
 20
-779.3777763575996
 30
0.0
  0
VERTEX
  5
34D
  8
0
 10
1638.308536503961
 20
-779.0203233000814
 30
0.0
  0
VERTEX
  5
34E
  8
0
 10
1637.198967328946
 20
-778.7310623048584
 30
0.0
  0
VERTEX
  5
34F
  8
0
 10
1635.938125213064
 20
-778.5217066185908
 30
0.0
  0
SEQEND
  5
3E8
  8
0
  0
POLYLINE
  5
1BE
  8
0
 66
     1
 10
0.0
 20
0.0
 30
0.0
  0
VERTEX
  5
350
  8
0
 10
1630.988377748909
 20
-782.8869735266973
 30
0.0
  0
VERTEX
  5
351
  8
0
 10
1632.291735005487
 20
-783.0047639015835
 30
0.0
  0
VERTEX
  5
352
  8
0
 10
1633.63869207096
 20
-783.0369404218401
 30
0.0
  0
VERTEX
  5
353
  8
0
 10
1634.979119840937
 20
-782.9823055881673
 30
0.0
  0
VERTEX
  5
354
  8
0
 10
1636.263132208925
 20
-782.842892720966
 30
0.0
  0
VERTEX
  5
355
  8
0
 10
1637.442942655455
 20
-782.6238902871538
 30
0.0
  0
VERTEX
  5
356
  8
0
 10
1638.474642697806
 20
-782.3334488032895
 30
0.0
  0
VERTEX
  5
357
  8
0
 10
1639.319836012556
 20
-781.9823775014095
 30
0.0
  0
VERTEX
  5
358
  8
0
 10
1639.947067414538
 20
-781.583742046628
 30
0.0
  0
VERTEX
  5
359
  8
0
 10
1640.332993510535
 20
-781.1523782780661
 30
0.0
  0
VERTEX
  5
35A
  8
0
 10
1640.46325146
 20
-780.70434007
 30
0.0
  0
SEQEND
  5
3E9
  8
0
  0
LINE
  5
1BF
  8
0
 10
1630.98837773
 20
-782.88697355
 30
0.0
 11
1569.25103085
 21
-775.10879896
 31
0.0
  0
LINE
  5
1C0
  8
0
 10
1655.07298449
 20
-801.24432665
 30
0.0
 11
1529.72746204
 21
-785.45227521
 31
0.0
  0
LINE
  5
1C1
  8
0
 10
1565.0828011
 20
-754.27179698
 30
0.0
 11
1529.72746204
 21
-785.45227521
 31
0.0
  0
POLYLINE
  5
1C2
  8
0
 66
     1
 10
0.0
 20
0.0
 30
0.0
  0
VERTEX
  5
1C3
  8
0
 10
1565.0828011
 20
-754.27179698
 30
0.0
  0
VERTEX
  5
1C4
  8
0
 10
1690.42832355
 20
-770.06384843
 30
0.0
  0
VERTEX
  5
1C5
  8
0
 10
1655.07298449
 20
-801.24432665
 30
0.0
  0
VERTEX
  5
1C6
  8
0
 10
1655.07298449
 20
-808.78679899
 30
0.0
  0
VERTEX
  5
1C7
  8
0
 10
1529.72746204
 20
-792.99474754
 30
0.0
  0
SEQEND
  5
1C8
  8
0
  0
LINE
  5
1C9
  8
0
 10
1529.72746204
 20
-785.45227521
 30
0.0
 11
1529.72746204
 21
-792.99474754
 31
0.0
  0
LINE
  5
1CA
  8
0
 10
1690.42832355
 20
-777.60632076
 30
0.0
 11
1655.07298449
 21
-808.78679899
 31
0.0
  0
LINE
  5
1CB
  8
0
 10
1690.42832355
 20
-770.06384843
 30
0.0
 11
1690.42832355
 21
-777.60632076
 31
0.0
  0
LINE
  5
1CC
  8
0
  6
STRICHPUNKT2
 62
     1
 10
1571.72590458
 20
-769.62633383
 30
0.0
 11
1571.72590458
 21
-775.42060374
 31
0.0
  0
LINE
  5
1CD
  8
0
  6
STRICHPUNKT2
 62
     1
 10
1633.46325146
 20
-777.40450843
 30
0.0
 11
1633.46325146
 21
-783.03767341
 31
0.0
  0
LINE
  5
1CE
  8
0
  6
STRICHPUNKT2
 62
     1
 10
1561.90405394
 20
-771.68872861
 30
0.0
 11
1643.2851021
 21
-781.94177694
 31
0.0
  0
LINE
  5
1CF
  8
0
  6
STRICHPUNKT2
 62
     1
 10
1568.01359398
 20
-776.20011569
 30
0.0
 11
1575.43821518
 21
-769.65221527
 31
0.0
  0
LINE
  5
1D0
  8
0
  6
STRICHPUNKT2
 62
     1
 10
1629.75094086
 20
-783.97829029
 30
0.0
 11
1637.17556206
 21
-777.43038986
 31
0.0
  0
POLYLINE
  5
1D1
  8
0
 66
     1
 10
0.0
 20
0.0
 30
0.0
  0
VERTEX
  5
35B
  8
0
 10
1549.19631173
 20
-720.83745191
 30
0.0
  0
VERTEX
  5
35C
  8
0
 10
1549.530921223276
 20
-720.7827756588837
 30
0.0
  0
VERTEX
  5
35D
  8
0
 10
1549.876690260847
 20
-720.5395604499288
 30
0.0
  0
VERTEX
  5
35E
  8
0
 10
1550.22033113254
 20
-720.1171529071974
 30
0.0
  0
VERTEX
  5
35F
  8
0
 10
1550.5486379124
 20
-719.5317859156307
 30
0.0
  0
VERTEX
  5
360
  8
0
 10
1550.848993955024
 20
-718.8059548003861
 30
0.0
  0
VERTEX
  5
361
  8
0
 10
1551.10985674616
 20
-717.9675528441078
 30
0.0
  0
VERTEX
  5
362
  8
0
 10
1551.321201475063
 20
-717.0487993637212
 30
0.0
  0
VERTEX
  5
363
  8
0
 10
1551.474906282342
 20
-716.085001540154
 30
0.0
  0
VERTEX
  5
364
  8
0
 10
1551.565064378466
 20
-715.1131975831778
 30
0.0
  0
VERTEX
  5
365
  8
0
 10
1551.58821103837
 20
-714.1707333737799
 30
0.0
  0
VERTEX
  5
366
  8
0
 10
1551.543456748896
 20
-713.2938272829051
 30
0.0
  0
VERTEX
  5
367
  8
0
 10
1551.432521392287
 20
-712.5161783197742
 30
0.0
  0
VERTEX
  5
368
  8
0
 10
1551.259668152074
 20
-711.8676710978617
 30
0.0
  0
VERTEX
  5
369
  8
0
 10
1551.031539681327
 20
-711.373227385962
 30
0.0
  0
VERTEX
  5
36A
  8
0
 10
1550.756902829219
 20
-711.0518483785929
 30
0.0
  0
VERTEX
  5
36B
  8
0
 10
1550.446311735936
 20
-710.9158844907479
 30
0.0
  0
SEQEND
  5
3EA
  8
0
  0
POLYLINE
  5
1D2
  8
0
 66
     1
 10
0.0
 20
0.0
 30
0.0
  0
VERTEX
  5
36C
  8
0
 10
1550.446311735936
 20
-710.9158844907479
 30
0.0
  0
VERTEX
  5
36D
  8
0
 10
1550.111702242201
 20
-710.9705607387183
 30
0.0
  0
VERTEX
  5
36E
  8
0
 10
1549.76593320391
 20
-711.2137759454785
 30
0.0
  0
VERTEX
  5
36F
  8
0
 10
1549.422292331324
 20
-711.6361834870079
 30
0.0
  0
VERTEX
  5
370
  8
0
 10
1549.093985550492
 20
-712.2215504783377
 30
0.0
  0
VERTEX
  5
371
  8
0
 10
1548.793629506913
 20
-712.9473815942172
 30
0.0
  0
VERTEX
  5
372
  8
0
 10
1548.532766714926
 20
-713.7857835518506
 30
0.0
  0
VERTEX
  5
373
  8
0
 10
1548.321421985357
 20
-714.7045370341137
 30
0.0
  0
VERTEX
  5
374
  8
0
 10
1548.167717177658
 20
-715.668334859846
 30
0.0
  0
VERTEX
  5
375
  8
0
 10
1548.077559081403
 20
-716.6401388190237
 30
0.0
  0
VERTEX
  5
376
  8
0
 10
1548.05441242168
 20
-717.5826030304048
 30
0.0
  0
VERTEX
  5
377
  8
0
 10
1548.099166711641
 20
-718.4595091228035
 30
0.0
  0
VERTEX
  5
378
  8
0
 10
1548.210102069018
 20
-719.2371580867864
 30
0.0
  0
VERTEX
  5
379
  8
0
 10
1548.382955310231
 20
-719.8856653087105
 30
0.0
  0
VERTEX
  5
37A
  8
0
 10
1548.611083782142
 20
-720.3801090196674
 30
0.0
  0
VERTEX
  5
37B
  8
0
 10
1548.885720635492
 20
-720.701488025089
 30
0.0
  0
VERTEX
  5
37C
  8
0
 10
1549.19631173
 20
-720.83745191
 30
0.0
  0
SEQEND
  5
3EB
  8
0
  0
POLYLINE
  5
1D3
  8
0
 66
     1
 10
0.0
 20
0.0
 30
0.0
  0
VERTEX
  5
37D
  8
0
 10
1549.19631173
 20
-749.12172315
 30
0.0
  0
VERTEX
  5
37E
  8
0
 10
1549.530921223276
 20
-749.0670468988836
 30
0.0
  0
VERTEX
  5
37F
  8
0
 10
1549.876690260847
 20
-748.8238316899287
 30
0.0
  0
VERTEX
  5
380
  8
0
 10
1550.22033113254
 20
-748.4014241471973
 30
0.0
  0
VERTEX
  5
381
  8
0
 10
1550.5486379124
 20
-747.8160571556307
 30
0.0
  0
VERTEX
  5
382
  8
0
 10
1550.848993955024
 20
-747.090226040386
 30
0.0
  0
VERTEX
  5
383
  8
0
 10
1551.10985674616
 20
-746.2518240841077
 30
0.0
  0
VERTEX
  5
384
  8
0
 10
1551.321201475063
 20
-745.3330706037211
 30
0.0
  0
VERTEX
  5
385
  8
0
 10
1551.474906282342
 20
-744.369272780154
 30
0.0
  0
VERTEX
  5
386
  8
0
 10
1551.565064378466
 20
-743.3974688231777
 30
0.0
  0
VERTEX
  5
387
  8
0
 10
1551.58821103837
 20
-742.4550046137798
 30
0.0
  0
VERTEX
  5
388
  8
0
 10
1551.543456748896
 20
-741.5780985229051
 30
0.0
  0
VERTEX
  5
389
  8
0
 10
1551.432521392287
 20
-740.8004495597742
 30
0.0
  0
VERTEX
  5
38A
  8
0
 10
1551.259668152074
 20
-740.1519423378617
 30
0.0
  0
VERTEX
  5
38B
  8
0
 10
1551.031539681327
 20
-739.6574986259619
 30
0.0
  0
VERTEX
  5
38C
  8
0
 10
1550.756902829219
 20
-739.3361196185929
 30
0.0
  0
VERTEX
  5
38D
  8
0
 10
1550.446311735936
 20
-739.2001557307478
 30
0.0
  0
SEQEND
  5
3EC
  8
0
  0
POLYLINE
  5
1D4
  8
0
 66
     1
 10
0.0
 20
0.0
 30
0.0
  0
VERTEX
  5
38E
  8
0
 10
1550.446311735936
 20
-739.2001557307478
 30
0.0
  0
VERTEX
  5
38F
  8
0
 10
1550.111702242201
 20
-739.2548319787182
 30
0.0
  0
VERTEX
  5
390
  8
0
 10
1549.76593320391
 20
-739.4980471854784
 30
0.0
  0
VERTEX
  5
391
  8
0
 10
1549.422292331324
 20
-739.9204547270078
 30
0.0
  0
VERTEX
  5
392
  8
0
 10
1549.093985550492
 20
-740.5058217183376
 30
0.0
  0
VERTEX
  5
393
  8
0
 10
1548.793629506913
 20
-741.2316528342171
 30
0.0
  0
VERTEX
  5
394
  8
0
 10
1548.532766714926
 20
-742.0700547918506
 30
0.0
  0
VERTEX
  5
395
  8
0
 10
1548.321421985357
 20
-742.9888082741137
 30
0.0
  0
VERTEX
  5
396
  8
0
 10
1548.167717177658
 20
-743.952606099846
 30
0.0
  0
VERTEX
  5
397
  8
0
 10
1548.077559081403
 20
-744.9244100590237
 30
0.0
  0
VERTEX
  5
398
  8
0
 10
1548.05441242168
 20
-745.8668742704048
 30
0.0
  0
VERTEX
  5
399
  8
0
 10
1548.099166711641
 20
-746.7437803628035
 30
0.0
  0
VERTEX
  5
39A
  8
0
 10
1548.210102069018
 20
-747.5214293267863
 30
0.0
  0
VERTEX
  5
39B
  8
0
 10
1548.382955310231
 20
-748.1699365487104
 30
0.0
  0
VERTEX
  5
39C
  8
0
 10
1548.611083782142
 20
-748.6643802596674
 30
0.0
  0
VERTEX
  5
39D
  8
0
 10
1548.885720635492
 20
-748.985759265089
 30
0.0
  0
VERTEX
  5
39E
  8
0
 10
1549.19631173
 20
-749.12172315
 30
0.0
  0
SEQEND
  5
3ED
  8
0
  0
POLYLINE
  5
1D5
  8
0
 66
     1
 10
0.0
 20
0.0
 30
0.0
  0
VERTEX
  5
39F
  8
0
 10
1529.39732186
 20
-766.58279096
 30
0.0
  0
VERTEX
  5
3A0
  8
0
 10
1529.731931353276
 20
-766.5281147088837
 30
0.0
  0
VERTEX
  5
3A1
  8
0
 10
1530.077700390847
 20
-766.2848994999288
 30
0.0
  0
VERTEX
  5
3A2
  8
0
 10
1530.421341262539
 20
-765.8624919571973
 30
0.0
  0
VERTEX
  5
3A3
  8
0
 10
1530.7496480424
 20
-765.2771249656307
 30
0.0
  0
VERTEX
  5
3A4
  8
0
 10
1531.050004085024
 20
-764.5512938503861
 30
0.0
  0
VERTEX
  5
3A5
  8
0
 10
1531.31086687616
 20
-763.7128918941078
 30
0.0
  0
VERTEX
  5
3A6
  8
0
 10
1531.522211605063
 20
-762.7941384137212
 30
0.0
  0
VERTEX
  5
3A7
  8
0
 10
1531.675916412342
 20
-761.830340590154
 30
0.0
  0
VERTEX
  5
3A8
  8
0
 10
1531.766074508466
 20
-760.8585366331778
 30
0.0
  0
VERTEX
  5
3A9
  8
0
 10
1531.78922116837
 20
-759.9160724237798
 30
0.0
  0
VERTEX
  5
3AA
  8
0
 10
1531.744466878896
 20
-759.0391663329051
 30
0.0
  0
VERTEX
  5
3AB
  8
0
 10
1531.633531522287
 20
-758.2615173697742
 30
0.0
  0
VERTEX
  5
3AC
  8
0
 10
1531.460678282074
 20
-757.6130101478617
 30
0.0
  0
VERTEX
  5
3AD
  8
0
 10
1531.232549811327
 20
-757.118566435962
 30
0.0
  0
VERTEX
  5
3AE
  8
0
 10
1530.957912959219
 20
-756.7971874285929
 30
0.0
  0
VERTEX
  5
3AF
  8
0
 10
1530.647321865936
 20
-756.6612235407479
 30
0.0
  0
SEQEND
  5
3EE
  8
0
  0
POLYLINE
  5
1D6
  8
0
 66
     1
 10
0.0
 20
0.0
 30
0.0
  0
VERTEX
  5
3B0
  8
0
 10
1530.647321865936
 20
-756.6612235407479
 30
0.0
  0
VERTEX
  5
3B1
  8
0
 10
1530.312712372201
 20
-756.7158997887183
 30
0.0
  0
VERTEX
  5
3B2
  8
0
 10
1529.96694333391
 20
-756.9591149954784
 30
0.0
  0
VERTEX
  5
3B3
  8
0
 10
1529.623302461324
 20
-757.3815225370079
 30
0.0
  0
VERTEX
  5
3B4
  8
0
 10
1529.294995680492
 20
-757.9668895283377
 30
0.0
  0
VERTEX
  5
3B5
  8
0
 10
1528.994639636913
 20
-758.6927206442172
 30
0.0
  0
VERTEX
  5
3B6
  8
0
 10
1528.733776844926
 20
-759.5311226018506
 30
0.0
  0
VERTEX
  5
3B7
  8
0
 10
1528.522432115357
 20
-760.4498760841137
 30
0.0
  0
VERTEX
  5
3B8
  8
0
 10
1528.368727307658
 20
-761.413673909846
 30
0.0
  0
VERTEX
  5
3B9
  8
0
 10
1528.278569211403
 20
-762.3854778690237
 30
0.0
  0
VERTEX
  5
3BA
  8
0
 10
1528.25542255168
 20
-763.3279420804048
 30
0.0
  0
VERTEX
  5
3BB
  8
0
 10
1528.300176841641
 20
-764.2048481728035
 30
0.0
  0
VERTEX
  5
3BC
  8
0
 10
1528.411112199018
 20
-764.9824971367864
 30
0.0
  0
VERTEX
  5
3BD
  8
0
 10
1528.583965440231
 20
-765.6310043587105
 30
0.0
  0
VERTEX
  5
3BE
  8
0
 10
1528.812093912142
 20
-766.1254480696674
 30
0.0
  0
VERTEX
  5
3BF
  8
0
 10
1529.086730765492
 20
-766.446827075089
 30
0.0
  0
VERTEX
  5
3C0
  8
0
 10
1529.39732186
 20
-766.58279096
 30
0.0
  0
SEQEND
  5
3EF
  8
0
  0
POLYLINE
  5
1D7
  8
0
 66
     1
 10
0.0
 20
0.0
 30
0.0
  0
VERTEX
  5
3C1
  8
0
 10
1529.39732186
 20
-738.2985197099999
 30
0.0
  0
VERTEX
  5
3C2
  8
0
 10
1529.731931353276
 20
-738.2438434588836
 30
0.0
  0
VERTEX
  5
3C3
  8
0
 10
1530.077700390847
 20
-738.0006282499287
 30
0.0
  0
VERTEX
  5
3C4
  8
0
 10
1530.421341262539
 20
-737.5782207071973
 30
0.0
  0
VERTEX
  5
3C5
  8
0
 10
1530.7496480424
 20
-736.9928537156306
 30
0.0
  0
VERTEX
  5
3C6
  8
0
 10
1531.050004085024
 20
-736.267022600386
 30
0.0
  0
VERTEX
  5
3C7
  8
0
 10
1531.31086687616
 20
-735.4286206441077
 30
0.0
  0
VERTEX
  5
3C8
  8
0
 10
1531.522211605063
 20
-734.5098671637211
 30
0.0
  0
VERTEX
  5
3C9
  8
0
 10
1531.675916412342
 20
-733.546069340154
 30
0.0
  0
VERTEX
  5
3CA
  8
0
 10
1531.766074508466
 20
-732.5742653831777
 30
0.0
  0
VERTEX
  5
3CB
  8
0
 10
1531.78922116837
 20
-731.6318011737798
 30
0.0
  0
VERTEX
  5
3CC
  8
0
 10
1531.744466878896
 20
-730.754895082905
 30
0.0
  0
VERTEX
  5
3CD
  8
0
 10
1531.633531522287
 20
-729.9772461197741
 30
0.0
  0
VERTEX
  5
3CE
  8
0
 10
1531.460678282074
 20
-729.3287388978616
 30
0.0
  0
VERTEX
  5
3CF
  8
0
 10
1531.232549811327
 20
-728.8342951859619
 30
0.0
  0
VERTEX
  5
3D0
  8
0
 10
1530.957912959219
 20
-728.5129161785928
 30
0.0
  0
VERTEX
  5
3D1
  8
0
 10
1530.647321865936
 20
-728.3769522907478
 30
0.0
  0
SEQEND
  5
3F0
  8
0
  0
POLYLINE
  5
1D8
  8
0
 66
     1
 10
0.0
 20
0.0
 30
0.0
  0
VERTEX
  5
3D2
  8
0
 10
1530.647321865936
 20
-728.3769522907478
 30
0.0
  0
VERTEX
  5
3D3
  8
0
 10
1530.312712372201
 20
-728.4316285387182
 30
0.0
  0
VERTEX
  5
3D4
  8
0
 10
1529.96694333391
 20
-728.6748437454784
 30
0.0
  0
VERTEX
  5
3D5
  8
0
 10
1529.623302461324
 20
-729.0972512870078
 30
0.0
  0
VERTEX
  5
3D6
  8
0
 10
1529.294995680492
 20
-729.6826182783376
 30
0.0
  0
VERTEX
  5
3D7
  8
0
 10
1528.994639636913
 20
-730.4084493942171
 30
0.0
  0
VERTEX
  5
3D8
  8
0
 10
1528.733776844926
 20
-731.2468513518505
 30
0.0
  0
VERTEX
  5
3D9
  8
0
 10
1528.522432115357
 20
-732.1656048341137
 30
0.0
  0
VERTEX
  5
3DA
  8
0
 10
1528.368727307658
 20
-733.1294026598459
 30
0.0
  0
VERTEX
  5
3DB
  8
0
 10
1528.278569211403
 20
-734.1012066190236
 30
0.0
  0
VERTEX
  5
3DC
  8
0
 10
1528.25542255168
 20
-735.0436708304047
 30
0.0
  0
VERTEX
  5
3DD
  8
0
 10
1528.300176841641
 20
-735.9205769228034
 30
0.0
  0
VERTEX
  5
3DE
  8
0
 10
1528.411112199018
 20
-736.6982258867863
 30
0.0
  0
VERTEX
  5
3DF
  8
0
 10
1528.583965440231
 20
-737.3467331087104
 30
0.0
  0
VERTEX
  5
3E0
  8
0
 10
1528.812093912142
 20
-737.8411768196673
 30
0.0
  0
VERTEX
  5
3E1
  8
0
 10
1529.086730765492
 20
-738.1625558250889
 30
0.0
  0
VERTEX
  5
3E2
  8
0
 10
1529.39732186
 20
-738.2985197099999
 30
0.0
  0
SEQEND
  5
3F1
  8
0
  0
POLYLINE
  5
1D9
  8
0
 66
     1
 10
0.0
 20
0.0
 30
0.0
  0
VERTEX
  5
1DA
  8
0
 10
1557.59948632
 20
-694.87482736
 30
0.0
  0
VERTEX
  5
1DB
  8
0
 10
1522.24414726
 20
-726.05530559
 30
0.0
  0
VERTEX
  5
1DC
  8
0
 10
1514.76083249
 20
-725.11249655
 30
0.0
  0
SEQEND
  5
1DD
  8
0
  0
LINE
  5
1DE
  8
0
 10
1550.11617155
 20
-693.93201832
 30
0.0
 11
1514.76083249
 21
-725.11249655
 31
0.0
  0
LINE
  5
1DF
  8
0
 10
1557.59948632
 20
-694.87482736
 30
0.0
 11
1550.11617155
 21
-693.93201832
 31
0.0
  0
POLYLINE
  5
1E0
  8
0
 66
     1
 10
0.0
 20
0.0
 30
0.0
  0
VERTEX
  5
1E1
  8
0
 10
1557.59948632
 20
-694.87482736
 30
0.0
  0
VERTEX
  5
1E2
  8
0
 10
1557.59948632
 20
-745.78651561
 30
0.0
  0
VERTEX
  5
1E3
  8
0
 10
1522.24414726
 20
-776.96699383
 30
0.0
  0
VERTEX
  5
1E4
  8
0
 10
1522.24414726
 20
-726.05530559
 30
0.0
  0
SEQEND
  5
1E5
  8
0
  0
POLYLINE
  5
1E6
  8
0
 66
     1
 10
0.0
 20
0.0
 30
0.0
  0
VERTEX
  5
1E7
  8
0
 10
1522.24414726
 20
-776.96699383
 30
0.0
  0
VERTEX
  5
1E8
  8
0
 10
1514.76083249
 20
-776.02418479
 30
0.0
  0
VERTEX
  5
1E9
  8
0
 10
1514.76083249
 20
-725.11249655
 30
0.0
  0
SEQEND
  5
1EA
  8
0
  0
LINE
  5
1EB
  8
0
  6
STRICHPUNKT2
 62
     1
 10
1532.36085772
 20
-733.63236383
 30
0.0
 11
1528.36872729
 21
-733.12940267
 31
0.0
  0
LINE
  5
1EC
  8
0
  6
STRICHPUNKT2
 62
     1
 10
1530.02232186
 20
-733.337736
 30
0.0
 11
1532.67397228
 21
-730.99920013
 31
0.0
  0
LINE
  5
1ED
  8
0
  6
STRICHPUNKT2
 62
     1
 10
1530.02232186
 20
-733.337736
 30
0.0
 11
1527.37067143
 21
-735.67627187
 31
0.0
  0
LINE
  5
1EE
  8
0
  6
STRICHPUNKT2
 62
     1
 10
1530.02232186
 20
-733.337736
 30
0.0
 11
1530.02232186
 21
-726.26666819
 31
0.0
  0
LINE
  5
1EF
  8
0
  6
STRICHPUNKT2
 62
     1
 10
1530.02232186
 20
-733.337736
 30
0.0
 11
1530.02232186
 21
-740.40880381
 31
0.0
  0
LINE
  5
1F0
  8
0
  6
STRICHPUNKT2
 62
     1
 10
1532.36085772
 20
-761.91663507
 30
0.0
 11
1528.36872729
 21
-761.41367392
 31
0.0
  0
LINE
  5
1F1
  8
0
  6
STRICHPUNKT2
 62
     1
 10
1530.02232186
 20
-761.62200725
 30
0.0
 11
1532.67397228
 21
-759.28347138
 31
0.0
  0
LINE
  5
1F2
  8
0
  6
STRICHPUNKT2
 62
     1
 10
1530.02232186
 20
-761.62200725
 30
0.0
 11
1527.37067143
 21
-763.96054312
 31
0.0
  0
LINE
  5
1F3
  8
0
  6
STRICHPUNKT2
 62
     1
 10
1530.02232186
 20
-761.62200725
 30
0.0
 11
1530.02232186
 21
-754.55093944
 31
0.0
  0
LINE
  5
1F4
  8
0
  6
STRICHPUNKT2
 62
     1
 10
1530.02232186
 20
-761.62200725
 30
0.0
 11
1530.02232186
 21
-768.69307506
 31
0.0
  0
LINE
  5
1F5
  8
0
  6
STRICHPUNKT2
 62
     1
 10
1552.1598476
 20
-744.45556727
 30
0.0
 11
1548.16771716
 21
-743.95260611
 31
0.0
  0
LINE
  5
1F6
  8
0
  6
STRICHPUNKT2
 62
     1
 10
1549.82131173
 20
-744.16093944
 30
0.0
 11
1552.47296216
 21
-741.82240358
 31
0.0
  0
LINE
  5
1F7
  8
0
  6
STRICHPUNKT2
 62
     1
 10
1549.82131173
 20
-744.16093944
 30
0.0
 11
1547.1696613
 21
-746.49947531
 31
0.0
  0
LINE
  5
1F8
  8
0
  6
STRICHPUNKT2
 62
     1
 10
1549.82131173
 20
-744.16093944
 30
0.0
 11
1549.82131173
 21
-737.08987163
 31
0.0
  0
LINE
  5
1F9
  8
0
  6
STRICHPUNKT2
 62
     1
 10
1549.82131173
 20
-744.16093944
 30
0.0
 11
1549.82131173
 21
-751.23200726
 31
0.0
  0
LINE
  5
1FA
  8
0
  6
STRICHPUNKT2
 62
     1
 10
1552.1598476
 20
-716.17129602
 30
0.0
 11
1548.16771716
 21
-715.66833486
 31
0.0
  0
LINE
  5
1FB
  8
0
  6
STRICHPUNKT2
 62
     1
 10
1549.82131173
 20
-715.8766682
 30
0.0
 11
1552.47296216
 21
-713.53813233
 31
0.0
  0
LINE
  5
1FC
  8
0
  6
STRICHPUNKT2
 62
     1
 10
1549.82131173
 20
-715.8766682
 30
0.0
 11
1547.1696613
 21
-718.21520406
 31
0.0
  0
LINE
  5
1FD
  8
0
  6
STRICHPUNKT2
 62
     1
 10
1549.82131173
 20
-715.8766682
 30
0.0
 11
1549.82131173
 21
-708.80560038
 31
0.0
  0
LINE
  5
1FE
  8
0
  6
STRICHPUNKT2
 62
     1
 10
1549.82131173
 20
-715.8766682
 30
0.0
 11
1549.82131173
 21
-722.94773601
 31
0.0
  0
POLYLINE
  5
1FF
  8
0
 66
     1
 10
0.0
 20
0.0
 30
0.0
  0
VERTEX
  5
200
  8
0
 10
1738.8124268
 20
-635.73520468
 30
0.0
 42
-0.414213562
  0
VERTEX
  5
201
  8
0
 10
1730.8124268
 20
-627.73520468
 30
0.0
  0
VERTEX
  5
202
  8
0
 10
1722.8124268
 20
-627.73520468
 30
0.0
  0
SEQEND
  5
203
  8
0
  0
ARC
  5
204
  8
0
 10
1738.8124268
 20
-627.73520468
 30
0.0
 40
16.0
 50
180.0
 51
-90.0
  0
LINE
  5
205
  8
0
 10
1738.8124268
 20
-635.73520468
 30
0.0
 11
1738.8124268
 21
-643.73520468
 31
0.0
  0
POLYLINE
  5
206
  8
0
 66
     1
 10
0.0
 20
0.0
 30
0.0
  0
VERTEX
  5
207
  8
0
 10
1872.8124268
 20
-635.73520468
 30
0.0
  0
VERTEX
  5
208
  8
0
 10
1738.8124268
 20
-635.73520468
 30
0.0
  0
VERTEX
  5
209
  8
0
 10
1738.8124268
 20
-643.73520468
 30
0.0
  0
SEQEND
  5
20A
  8
0
  0
LINE
  5
20B
  8
0
 10
1872.8124268
 20
-643.73520468
 30
0.0
 11
1738.8124268
 21
-643.73520468
 31
0.0
  0
LINE
  5
20C
  8
0
 10
1872.8124268
 20
-635.73520468
 30
0.0
 11
1872.8124268
 21
-643.73520468
 31
0.0
  0
LINE
  5
20D
  8
0
  6
STRICHPUNKT2
 62
     1
 10
1764.8124268
 20
-643.73520468
 30
0.0
 11
1764.8124268
 21
-647.23520468
 31
0.0
  0
LINE
  5
20E
  8
0
  6
STRICHPUNKT2
 62
     1
 10
1764.8124268
 20
-632.23520468
 30
0.0
 11
1764.8124268
 21
-635.73520468
 31
0.0
  0
LINE
  5
20F
  8
0
  6
STRICHPUNKT2
 62
     1
 10
1830.8124268
 20
-643.73520468
 30
0.0
 11
1830.8124268
 21
-647.23520468
 31
0.0
  0
LINE
  5
210
  8
0
  6
STRICHPUNKT2
 62
     1
 10
1830.8124268
 20
-632.23520468
 30
0.0
 11
1830.8124268
 21
-635.73520468
 31
0.0
  0
POLYLINE
  5
211
  8
0
 66
     1
 10
0.0
 20
0.0
 30
0.0
  0
VERTEX
  5
212
  8
0
 10
1730.8124268
 20
-627.73520468
 30
0.0
  0
VERTEX
  5
213
  8
0
 10
1730.8124268
 20
-573.73520468
 30
0.0
  0
VERTEX
  5
214
  8
0
 10
1722.8124268
 20
-573.73520468
 30
0.0
  0
SEQEND
  5
215
  8
0
  0
LINE
  5
216
  8
0
 10
1722.8124268
 20
-627.73520468
 30
0.0
 11
1722.8124268
 21
-573.73520468
 31
0.0
  0
LINE
  5
217
  8
0
 10
1730.8124268
 20
-627.73520468
 30
0.0
 11
1722.8124268
 21
-627.73520468
 31
0.0
  0
LINE
  5
218
  8
0
  6
STRICHPUNKT2
 62
     1
 10
1722.8124268
 20
-588.73520468
 30
0.0
 11
1720.3124268
 21
-588.73520468
 31
0.0
  0
LINE
  5
219
  8
0
  6
STRICHPUNKT2
 62
     1
 10
1733.3124268
 20
-588.73520468
 30
0.0
 11
1730.8124268
 21
-588.73520468
 31
0.0
  0
LINE
  5
21A
  8
0
  6
STRICHPUNKT2
 62
     1
 10
1722.8124268
 20
-618.73520468
 30
0.0
 11
1720.3124268
 21
-618.73520468
 31
0.0
  0
LINE
  5
21B
  8
0
  6
STRICHPUNKT2
 62
     1
 10
1733.3124268
 20
-618.73520468
 30
0.0
 11
1730.8124268
 21
-618.73520468
 31
0.0
  0
LINE
  5
21C
  8
0
 10
1557.59907457
 20
-627.73520468
 30
0.0
 11
1657.59907457
 21
-627.73520468
 31
0.0
  0
LINE
  5
21D
  8
0
 10
1657.59907457
 20
-643.73520468
 30
0.0
 11
1657.59907457
 21
-627.73520468
 31
0.0
  0
LINE
  5
21E
  8
0
 10
1557.59907457
 20
-643.73520468
 30
0.0
 11
1657.59907457
 21
-643.73520468
 31
0.0
  0
LINE
  5
21F
  8
0
 10
1557.59907457
 20
-627.73520468
 30
0.0
 11
1557.59907457
 21
-643.73520468
 31
0.0
  0
LINE
  5
220
  8
0
 10
1557.59907457
 20
-643.73520468
 30
0.0
 11
1657.59907457
 21
-643.73520468
 31
0.0
  0
LINE
  5
221
  8
0
  6
STRICHPUNKT2
 62
     1
 10
1607.59907457
 20
-643.73520468
 30
0.0
 11
1607.59907457
 21
-647.23520468
 31
0.0
  0
CIRCLE
  5
222
  8
0
 10
1579.59907457
 20
-588.73520468
 30
0.0
 40
5.0
  0
CIRCLE
  5
223
  8
0
 10
1579.59907457
 20
-618.73520468
 30
0.0
 40
5.0
  0
CIRCLE
  5
224
  8
0
 10
1635.59907457
 20
-618.73520468
 30
0.0
 40
5.0
  0
CIRCLE
  5
225
  8
0
 10
1635.59907457
 20
-588.73520468
 30
0.0
 40
5.0
  0
LINE
  5
226
  8
0
 10
1557.59907457
 20
-573.73520468
 30
0.0
 11
1657.59907457
 21
-573.73520468
 31
0.0
  0
LINE
  5
227
  8
0
 10
1657.59907457
 20
-627.73520468
 30
0.0
 11
1657.59907457
 21
-573.73520468
 31
0.0
  0
LINE
  5
228
  8
0
 10
1557.59907457
 20
-627.73520468
 30
0.0
 11
1657.59907457
 21
-627.73520468
 31
0.0
  0
LINE
  5
229
  8
0
 10
1557.59907457
 20
-573.73520468
 30
0.0
 11
1557.59907457
 21
-627.73520468
 31
0.0
  0
LINE
  5
22A
  8
0
  6
STRICHPUNKT2
 62
     1
 10
1635.59907457
 20
-588.73520468
 30
0.0
 11
1628.09907457
 21
-588.73520468
 31
0.0
  0
LINE
  5
22B
  8
0
  6
STRICHPUNKT2
 62
     1
 10
1635.59907457
 20
-588.73520468
 30
0.0
 11
1643.09907457
 21
-588.73520468
 31
0.0
  0
LINE
  5
22C
  8
0
  6
STRICHPUNKT2
 62
     1
 10
1635.59907457
 20
-588.73520468
 30
0.0
 11
1635.59907457
 21
-581.23520468
 31
0.0
  0
LINE
  5
22D
  8
0
  6
STRICHPUNKT2
 62
     1
 10
1635.59907457
 20
-588.73520468
 30
0.0
 11
1635.59907457
 21
-596.23520468
 31
0.0
  0
LINE
  5
22E
  8
0
  6
STRICHPUNKT2
 62
     1
 10
1635.59907457
 20
-618.73520468
 30
0.0
 11
1628.09907457
 21
-618.73520468
 31
0.0
  0
LINE
  5
22F
  8
0
  6
STRICHPUNKT2
 62
     1
 10
1635.59907457
 20
-618.73520468
 30
0.0
 11
1643.09907457
 21
-618.73520468
 31
0.0
  0
LINE
  5
230
  8
0
  6
STRICHPUNKT2
 62
     1
 10
1635.59907457
 20
-618.73520468
 30
0.0
 11
1635.59907457
 21
-611.23520468
 31
0.0
  0
LINE
  5
231
  8
0
  6
STRICHPUNKT2
 62
     1
 10
1635.59907457
 20
-618.73520468
 30
0.0
 11
1635.59907457
 21
-626.23520468
 31
0.0
  0
LINE
  5
232
  8
0
  6
STRICHPUNKT2
 62
     1
 10
1579.59907457
 20
-618.73520468
 30
0.0
 11
1572.09907457
 21
-618.73520468
 31
0.0
  0
LINE
  5
233
  8
0
  6
STRICHPUNKT2
 62
     1
 10
1579.59907457
 20
-618.73520468
 30
0.0
 11
1587.09907457
 21
-618.73520468
 31
0.0
  0
LINE
  5
234
  8
0
  6
STRICHPUNKT2
 62
     1
 10
1579.59907457
 20
-618.73520468
 30
0.0
 11
1579.59907457
 21
-611.23520468
 31
0.0
  0
LINE
  5
235
  8
0
  6
STRICHPUNKT2
 62
     1
 10
1579.59907457
 20
-618.73520468
 30
0.0
 11
1579.59907457
 21
-626.23520468
 31
0.0
  0
LINE
  5
236
  8
0
  6
STRICHPUNKT2
 62
     1
 10
1579.59907457
 20
-588.73520468
 30
0.0
 11
1572.09907457
 21
-588.73520468
 31
0.0
  0
LINE
  5
237
  8
0
  6
STRICHPUNKT2
 62
     1
 10
1579.59907457
 20
-588.73520468
 30
0.0
 11
1587.09907457
 21
-588.73520468
 31
0.0
  0
LINE
  5
238
  8
0
  6
STRICHPUNKT2
 62
     1
 10
1579.59907457
 20
-588.73520468
 30
0.0
 11
1579.59907457
 21
-581.23520468
 31
0.0
  0
LINE
  5
239
  8
0
  6
STRICHPUNKT2
 62
     1
 10
1579.59907457
 20
-588.73520468
 30
0.0
 11
1579.59907457
 21
-596.23520468
 31
0.0
  0
LINE
  5
23A
  8
0
 10
1722.8124268
 20
-772.90370755
 30
0.0
 11
1722.8124268
 21
-672.90370755
 31
0.0
  0
LINE
  5
23B
  8
0
 10
1738.8124268
 20
-672.90370755
 30
0.0
 11
1722.8124268
 21
-672.90370755
 31
0.0
  0
LINE
  5
23C
  8
0
 10
1738.8124268
 20
-772.90370755
 30
0.0
 11
1738.8124268
 21
-672.90370755
 31
0.0
  0
LINE
  5
23D
  8
0
 10
1722.8124268
 20
-772.90370755
 30
0.0
 11
1738.8124268
 21
-772.90370755
 31
0.0
  0
POLYLINE
  5
23E
  8
0
 66
     1
 10
0.0
 20
0.0
 30
0.0
 70
     1
  0
VERTEX
  5
23F
  8
0
 10
1764.8124268
 20
-715.90370755
 30
0.0
  0
VERTEX
  5
240
  8
0
 10
1830.8124268
 20
-715.90370755
 30
0.0
 42
-1.0
  0
VERTEX
  5
241
  8
0
 10
1830.8124268
 20
-729.90370755
 30
0.0
  0
VERTEX
  5
242
  8
0
 10
1764.8124268
 20
-729.90370755
 30
0.0
 42
-1.0
  0
SEQEND
  5
243
  8
0
  0
LINE
  5
244
  8
0
 10
1738.8124268
 20
-772.90370755
 30
0.0
 11
1738.8124268
 21
-672.90370755
 31
0.0
  0
LINE
  5
245
  8
0
 10
1872.8124268
 20
-672.90370755
 30
0.0
 11
1738.8124268
 21
-672.90370755
 31
0.0
  0
LINE
  5
246
  8
0
 10
1872.8124268
 20
-772.90370755
 30
0.0
 11
1872.8124268
 21
-672.90370755
 31
0.0
  0
LINE
  5
247
  8
0
 10
1738.8124268
 20
-772.90370755
 30
0.0
 11
1872.8124268
 21
-772.90370755
 31
0.0
  0
LINE
  5
248
  8
0
  6
STRICHPUNKT2
 62
     1
 10
1754.3124268
 20
-722.90370755
 30
0.0
 11
1841.3124268
 21
-722.90370755
 31
0.0
  0
LINE
  5
249
  8
0
  6
STRICHPUNKT2
 62
     1
 10
1764.8124268
 20
-712.40370755
 30
0.0
 11
1764.8124268
 21
-733.40370755
 31
0.0
  0
LINE
  5
24A
  8
0
  6
STRICHPUNKT2
 62
     1
 10
1830.8124268
 20
-712.40370755
 30
0.0
 11
1830.8124268
 21
-733.40370755
 31
0.0
  0
LINE
  5
24B
  8
0
 10
1722.8124268
 20
-772.90370755
 30
0.0
 11
1722.8124268
 21
-672.90370755
 31
0.0
  0
LINE
  5
24C
  8
0
  6
STRICHPUNKT2
 62
     1
 10
1722.8124268
 20
-750.90370755
 30
0.0
 11
1720.3124268
 21
-750.90370755
 31
0.0
  0
LINE
  5
24D
  8
0
  6
STRICHPUNKT2
 62
     1
 10
1722.8124268
 20
-694.90370755
 30
0.0
 11
1720.3124268
 21
-694.90370755
 31
0.0
  0
TEXT
  5
24E
  8
TXT_DIM49
 10
1795.03016686
 20
-651.99650876
 30
0.0
 40
2.5
  1
150
  7
ARIAL
  0
LINE
  5
24F
  8
0
 62
     4
 10
1723.8124268
 20
-652.49650876
 30
0.0
 11
1721.8124268
 21
-654.49650876
 31
0.0
  0
LINE
  5
250
  8
0
 62
     4
 10
1872.0624268
 20
-654.24650876
 30
0.0
 11
1873.5624268
 21
-652.74650876
 31
0.0
  0
LINE
  5
251
  8
0
 62
     4
 10
1722.8124268
 20
-653.49650876
 30
0.0
 11
1872.8124268
 21
-653.49650876
 31
0.0
  0
LINE
  5
252
  8
0
 62
     4
 10
1722.8124268
 20
-651.49650876
 30
0.0
 11
1722.8124268
 21
-655.49650876
 31
0.0
  0
LINE
  5
253
  8
0
 62
     4
 10
1872.8124268
 20
-651.49650876
 30
0.0
 11
1872.8124268
 21
-655.49650876
 31
0.0
  0
TEXT
  5
254
  8
TXT_DIM49
 10
1711.3124268
 20
-610.59004472
 30
0.0
 40
2.5
  1
70
 50
90.00020741
  7
ARIAL
  0
LINE
  5
255
  8
0
 62
     4
 10
1713.8124268
 20
-574.73520468
 30
0.0
 11
1711.8124268
 21
-572.73520468
 31
0.0
  0
LINE
  5
256
  8
0
 62
     4
 10
1712.0624268
 20
-642.98520468
 30
0.0
 11
1713.5624268
 21
-644.48520468
 31
0.0
  0
LINE
  5
257
  8
0
 62
     4
 10
1712.8124268
 20
-573.73520468
 30
0.0
 11
1712.8124268
 21
-643.73520468
 31
0.0
  0
LINE
  5
258
  8
0
 62
     4
 10
1714.8124268
 20
-573.73520468
 30
0.0
 11
1710.8124268
 21
-573.73520468
 31
0.0
  0
LINE
  5
259
  8
0
 62
     4
 10
1714.8124268
 20
-643.73520468
 30
0.0
 11
1710.8124268
 21
-643.73520468
 31
0.0
  0
TEXT
  5
25A
  8
TXT_DIM49
 10
1725.88500678
 20
-563.83079332
 30
0.0
 40
2.5
  1
8
  7
ARIAL
  0
LINE
  5
25B
  8
0
 62
     4
 10
1723.8124268
 20
-564.33079332
 30
0.0
 11
1721.8124268
 21
-566.33079332
 31
0.0
  0
LINE
  5
25C
  8
0
 62
     4
 10
1730.0624268
 20
-566.08079332
 30
0.0
 11
1731.5624268
 21
-564.58079332
 31
0.0
  0
LINE
  5
25D
  8
0
 62
     4
 10
1722.8124268
 20
-565.33079332
 30
0.0
 11
1730.8124268
 21
-565.33079332
 31
0.0
  0
LINE
  5
25E
  8
0
 62
     4
 10
1722.8124268
 20
-567.33079332
 30
0.0
 11
1722.8124268
 21
-563.33079332
 31
0.0
  0
LINE
  5
25F
  8
0
 62
     4
 10
1730.8124268
 20
-567.33079332
 30
0.0
 11
1730.8124268
 21
-563.33079332
 31
0.0
  0
TEXT
  5
260
  8
TXT_DIM49
 10
1881.3124268
 20
-640.6626247
 30
0.0
 40
2.5
  1
8
 50
90.00020741
  7
ARIAL
  0
LINE
  5
261
  8
0
 62
     4
 10
1883.8124268
 20
-636.73520468
 30
0.0
 11
1881.8124268
 21
-634.73520468
 31
0.0
  0
LINE
  5
262
  8
0
 62
     4
 10
1882.0624268
 20
-642.98520468
 30
0.0
 11
1883.5624268
 21
-644.48520468
 31
0.0
  0
LINE
  5
263
  8
0
 62
     4
 10
1882.8124268
 20
-635.73520468
 30
0.0
 11
1882.8124268
 21
-643.73520468
 31
0.0
  0
LINE
  5
264
  8
0
 62
     4
 10
1880.8124268
 20
-635.73520468
 30
0.0
 11
1884.8124268
 21
-635.73520468
 31
0.0
  0
LINE
  5
265
  8
0
 62
     4
 10
1880.8124268
 20
-643.73520468
 30
0.0
 11
1884.8124268
 21
-643.73520468
 31
0.0
  0
TEXT
  5
266
  8
TXT_DIM49
 10
1644.74423453
 20
-567.1372917
 30
0.0
 40
2.5
  1
22
  7
ARIAL
  0
LINE
  5
267
  8
0
 62
     4
 10
1656.59907457
 20
-569.6372917
 30
0.0
 11
1658.59907457
 21
-567.6372917
 31
0.0
  0
LINE
  5
268
  8
0
 62
     4
 10
1636.34907457
 20
-567.8872917
 30
0.0
 11
1634.84907457
 21
-569.3872917
 31
0.0
  0
LINE
  5
269
  8
0
 62
     4
 10
1657.59907457
 20
-568.6372917
 30
0.0
 11
1635.59907457
 21
-568.6372917
 31
0.0
  0
LINE
  5
26A
  8
0
 62
     4
 10
1657.59907457
 20
-570.6372917
 30
0.0
 11
1657.59907457
 21
-566.6372917
 31
0.0
  0
LINE
  5
26B
  8
0
 62
     4
 10
1635.59907457
 20
-570.6372917
 30
0.0
 11
1635.59907457
 21
-566.6372917
 31
0.0
  0
TEXT
  5
26C
  8
TXT_DIM49
 10
1605.74423453
 20
-567.1372917
 30
0.0
 40
2.5
  1
56
  7
ARIAL
  0
LINE
  5
26D
  8
0
 62
     4
 10
1634.59907457
 20
-569.6372917
 30
0.0
 11
1636.59907457
 21
-567.6372917
 31
0.0
  0
LINE
  5
26E
  8
0
 62
     4
 10
1580.34907457
 20
-567.8872917
 30
0.0
 11
1578.84907457
 21
-569.3872917
 31
0.0
  0
LINE
  5
26F
  8
0
 62
     4
 10
1635.59907457
 20
-568.6372917
 30
0.0
 11
1579.59907457
 21
-568.6372917
 31
0.0
  0
LINE
  5
270
  8
0
 62
     4
 10
1635.59907457
 20
-570.6372917
 30
0.0
 11
1635.59907457
 21
-566.6372917
 31
0.0
  0
LINE
  5
271
  8
0
 62
     4
 10
1579.59907457
 20
-570.6372917
 30
0.0
 11
1579.59907457
 21
-566.6372917
 31
0.0
  0
TEXT
  5
272
  8
TXT_DIM49
 10
1566.74423453
 20
-567.1372917
 30
0.0
 40
2.5
  1
22
  7
ARIAL
  0
LINE
  5
273
  8
0
 62
     4
 10
1578.59907457
 20
-569.6372917
 30
0.0
 11
1580.59907457
 21
-567.6372917
 31
0.0
  0
LINE
  5
274
  8
0
 62
     4
 10
1558.34907457
 20
-567.8872917
 30
0.0
 11
1556.84907457
 21
-569.3872917
 31
0.0
  0
LINE
  5
275
  8
0
 62
     4
 10
1579.59907457
 20
-568.6372917
 30
0.0
 11
1557.59907457
 21
-568.6372917
 31
0.0
  0
LINE
  5
276
  8
0
 62
     4
 10
1579.59907457
 20
-570.6372917
 30
0.0
 11
1579.59907457
 21
-566.6372917
 31
0.0
  0
LINE
  5
277
  8
0
 62
     4
 10
1557.59907457
 20
-570.6372917
 30
0.0
 11
1557.59907457
 21
-566.6372917
 31
0.0
  0
TEXT
  5
278
  8
TXT_DIM49
 10
1666.09907457
 20
-583.09004472
 30
0.0
 40
2.5
  1
15
 50
90.00020741
  7
ARIAL
  0
LINE
  5
279
  8
0
 62
     4
 10
1668.59907457
 20
-574.73520468
 30
0.0
 11
1666.59907457
 21
-572.73520468
 31
0.0
  0
LINE
  5
27A
  8
0
 62
     4
 10
1666.84907457
 20
-587.98520468
 30
0.0
 11
1668.34907457
 21
-589.48520468
 31
0.0
  0
LINE
  5
27B
  8
0
 62
     4
 10
1667.59907457
 20
-573.73520468
 30
0.0
 11
1667.59907457
 21
-588.73520468
 31
0.0
  0
LINE
  5
27C
  8
0
 62
     4
 10
1665.59907457
 20
-573.73520468
 30
0.0
 11
1669.59907457
 21
-573.73520468
 31
0.0
  0
LINE
  5
27D
  8
0
 62
     4
 10
1665.59907457
 20
-588.73520468
 30
0.0
 11
1669.59907457
 21
-588.73520468
 31
0.0
  0
TEXT
  5
27E
  8
TXT_DIM49
 10
1666.09907457
 20
-605.59004472
 30
0.0
 40
2.5
  1
30
 50
90.00020741
  7
ARIAL
  0
LINE
  5
27F
  8
0
 62
     4
 10
1668.59907457
 20
-589.73520468
 30
0.0
 11
1666.59907457
 21
-587.73520468
 31
0.0
  0
LINE
  5
280
  8
0
 62
     4
 10
1666.84907457
 20
-617.98520468
 30
0.0
 11
1668.34907457
 21
-619.48520468
 31
0.0
  0
LINE
  5
281
  8
0
 62
     4
 10
1667.59907457
 20
-588.73520468
 30
0.0
 11
1667.59907457
 21
-618.73520468
 31
0.0
  0
LINE
  5
282
  8
0
 62
     4
 10
1665.59907457
 20
-588.73520468
 30
0.0
 11
1669.59907457
 21
-588.73520468
 31
0.0
  0
LINE
  5
283
  8
0
 62
     4
 10
1665.59907457
 20
-618.73520468
 30
0.0
 11
1669.59907457
 21
-618.73520468
 31
0.0
  0
TEXT
  5
284
  8
TXT_DIM49
 10
1666.09907457
 20
-633.09004472
 30
0.0
 40
2.5
  1
25
 50
90.00020741
  7
ARIAL
  0
LINE
  5
285
  8
0
 62
     4
 10
1668.59907457
 20
-619.73520468
 30
0.0
 11
1666.59907457
 21
-617.73520468
 31
0.0
  0
LINE
  5
286
  8
0
 62
     4
 10
1666.84907457
 20
-642.98520468
 30
0.0
 11
1668.34907457
 21
-644.48520468
 31
0.0
  0
LINE
  5
287
  8
0
 62
     4
 10
1667.59907457
 20
-618.73520468
 30
0.0
 11
1667.59907457
 21
-643.73520468
 31
0.0
  0
LINE
  5
288
  8
0
 62
     4
 10
1665.59907457
 20
-618.73520468
 30
0.0
 11
1669.59907457
 21
-618.73520468
 31
0.0
  0
LINE
  5
289
  8
0
 62
     4
 10
1665.59907457
 20
-643.73520468
 30
0.0
 11
1669.59907457
 21
-643.73520468
 31
0.0
  0
TEXT
  5
28A
  8
TXT_DIM49
 10
1604.81681463
 20
-652.39040165
 30
0.0
 40
2.5
  1
100
  7
ARIAL
  0
LINE
  5
28B
  8
0
 62
     4
 10
1558.59907457
 20
-652.89040165
 30
0.0
 11
1556.59907457
 21
-654.89040165
 31
0.0
  0
LINE
  5
28C
  8
0
 62
     4
 10
1656.84907457
 20
-654.64040165
 30
0.0
 11
1658.34907457
 21
-653.14040165
 31
0.0
  0
LINE
  5
28D
  8
0
 62
     4
 10
1557.59907457
 20
-653.89040165
 30
0.0
 11
1657.59907457
 21
-653.89040165
 31
0.0
  0
LINE
  5
28E
  8
0
 62
     4
 10
1557.59907457
 20
-651.89040165
 30
0.0
 11
1557.59907457
 21
-655.89040165
 31
0.0
  0
LINE
  5
28F
  8
0
 62
     4
 10
1657.59907457
 20
-651.89040165
 30
0.0
 11
1657.59907457
 21
-655.89040165
 31
0.0
  0
LINE
  5
290
  8
0
 62
     5
 10
1584.59907457
 20
-588.73520468
 30
0.0
 11
1587.94631442
 21
-585.2686074
 31
0.0
  0
TEXT
  5
291
  8
TXT_DIM49
 10
1587.94631442
 20
-586.5186074
 30
0.0
 40
2.5
  1
Ø10
  7
ARIAL
  0
LINE
  5
292
  8
0
 62
     5
 10
1630.59907457
 20
-588.73520468
 30
0.0
 11
1626.93566945
 21
-586.30485185
 31
0.0
  0
TEXT
  5
293
  8
TXT_DIM49
 10
1620.65202773
 20
-587.55485185
 30
0.0
 40
2.5
  1
Ø10
  7
ARIAL
  0
LINE
  5
294
  8
0
 62
     5
 10
1584.59907457
 20
-618.73520468
 30
0.0
 11
1587.16913108
 21
-615.18950844
 31
0.0
  0
TEXT
  5
295
  8
TXT_DIM49
 10
1587.16913108
 20
-616.43950844
 30
0.0
 40
2.5
  1
Ø10
  7
ARIAL
  0
LINE
  5
296
  8
0
 62
     5
 10
1630.59907457
 20
-618.73520468
 30
0.0
 11
1627.84172583
 21
-615.18950844
 31
0.0
  0
TEXT
  5
297
  8
TXT_DIM49
 10
1621.55808411
 20
-616.43950844
 30
0.0
 40
2.5
  1
Ø10
  7
ARIAL
  0
TEXT
  5
298
  8
TXT_DIM49
 10
1849.95758676
 20
-661.40370755
 30
0.0
 40
2.5
  1
42
  7
ARIAL
  0
LINE
  5
299
  8
0
 62
     4
 10
1871.8124268
 20
-663.90370755
 30
0.0
 11
1873.8124268
 21
-661.90370755
 31
0.0
  0
LINE
  5
29A
  8
0
 62
     4
 10
1831.5624268
 20
-662.15370755
 30
0.0
 11
1830.0624268
 21
-663.65370755
 31
0.0
  0
LINE
  5
29B
  8
0
 62
     4
 10
1872.8124268
 20
-662.90370755
 30
0.0
 11
1830.8124268
 21
-662.90370755
 31
0.0
  0
LINE
  5
29C
  8
0
 62
     4
 10
1872.8124268
 20
-664.90370755
 30
0.0
 11
1872.8124268
 21
-660.90370755
 31
0.0
  0
LINE
  5
29D
  8
0
 62
     4
 10
1830.8124268
 20
-664.90370755
 30
0.0
 11
1830.8124268
 21
-660.90370755
 31
0.0
  0
TEXT
  5
29E
  8
TXT_DIM49
 10
1795.95758676
 20
-661.40370755
 30
0.0
 40
2.5
  1
66
  7
ARIAL
  0
LINE
  5
29F
  8
0
 62
     4
 10
1829.8124268
 20
-663.90370755
 30
0.0
 11
1831.8124268
 21
-661.90370755
 31
0.0
  0
LINE
  5
2A0
  8
0
 62
     4
 10
1765.5624268
 20
-662.15370755
 30
0.0
 11
1764.0624268
 21
-663.65370755
 31
0.0
  0
LINE
  5
2A1
  8
0
 62
     4
 10
1830.8124268
 20
-662.90370755
 30
0.0
 11
1764.8124268
 21
-662.90370755
 31
0.0
  0
LINE
  5
2A2
  8
0
 62
     4
 10
1830.8124268
 20
-664.90370755
 30
0.0
 11
1830.8124268
 21
-660.90370755
 31
0.0
  0
LINE
  5
2A3
  8
0
 62
     4
 10
1764.8124268
 20
-664.90370755
 30
0.0
 11
1764.8124268
 21
-660.90370755
 31
0.0
  0
TEXT
  5
2A4
  8
TXT_DIM49
 10
1741.95758676
 20
-661.40370755
 30
0.0
 40
2.5
  1
42
  7
ARIAL
  0
LINE
  5
2A5
  8
0
 62
     4
 10
1763.8124268
 20
-663.90370755
 30
0.0
 11
1765.8124268
 21
-661.90370755
 31
0.0
  0
LINE
  5
2A6
  8
0
 62
     4
 10
1723.5624268
 20
-662.15370755
 30
0.0
 11
1722.0624268
 21
-663.65370755
 31
0.0
  0
LINE
  5
2A7
  8
0
 62
     4
 10
1764.8124268
 20
-662.90370755
 30
0.0
 11
1722.8124268
 21
-662.90370755
 31
0.0
  0
LINE
  5
2A8
  8
0
 62
     4
 10
1764.8124268
 20
-664.90370755
 30
0.0
 11
1764.8124268
 21
-660.90370755
 31
0.0
  0
LINE
  5
2A9
  8
0
 62
     4
 10
1722.8124268
 20
-664.90370755
 30
0.0
 11
1722.8124268
 21
-660.90370755
 31
0.0
  0
TEXT
  5
2AA
  8
TXT_DIM49
 10
1881.3124268
 20
-699.75854759
 30
0.0
 40
2.5
  1
50
 50
90.00020741
  7
ARIAL
  0
LINE
  5
2AB
  8
0
 62
     4
 10
1883.8124268
 20
-673.90370755
 30
0.0
 11
1881.8124268
 21
-671.90370755
 31
0.0
  0
LINE
  5
2AC
  8
0
 62
     4
 10
1882.0624268
 20
-722.15370755
 30
0.0
 11
1883.5624268
 21
-723.65370755
 31
0.0
  0
LINE
  5
2AD
  8
0
 62
     4
 10
1882.8124268
 20
-672.90370755
 30
0.0
 11
1882.8124268
 21
-722.90370755
 31
0.0
  0
LINE
  5
2AE
  8
0
 62
     4
 10
1880.8124268
 20
-672.90370755
 30
0.0
 11
1884.8124268
 21
-672.90370755
 31
0.0
  0
LINE
  5
2AF
  8
0
 62
     4
 10
1880.8124268
 20
-722.90370755
 30
0.0
 11
1884.8124268
 21
-722.90370755
 31
0.0
  0
TEXT
  5
2B0
  8
TXT_DIM49
 10
1881.3124268
 20
-749.75854759
 30
0.0
 40
2.5
  1
50
 50
90.00020741
  7
ARIAL
  0
LINE
  5
2B1
  8
0
 62
     4
 10
1883.8124268
 20
-723.90370755
 30
0.0
 11
1881.8124268
 21
-721.90370755
 31
0.0
  0
LINE
  5
2B2
  8
0
 62
     4
 10
1882.0624268
 20
-772.15370755
 30
0.0
 11
1883.5624268
 21
-773.65370755
 31
0.0
  0
LINE
  5
2B3
  8
0
 62
     4
 10
1882.8124268
 20
-722.90370755
 30
0.0
 11
1882.8124268
 21
-772.90370755
 31
0.0
  0
LINE
  5
2B4
  8
0
 62
     4
 10
1880.8124268
 20
-722.90370755
 30
0.0
 11
1884.8124268
 21
-722.90370755
 31
0.0
  0
LINE
  5
2B5
  8
0
 62
     4
 10
1880.8124268
 20
-772.90370755
 30
0.0
 11
1884.8124268
 21
-772.90370755
 31
0.0
  0
LINE
  5
2B6
  8
0
 62
     5
 10
1797.8124268
 20
-715.90370755
 30
0.0
 11
1802.87766236
 21
-705.83449721
 31
0.0
  0
TEXT
  5
2B7
  8
TXT_DIM49
 10
1802.87766236
 20
-707.08449721
 30
0.0
 40
2.5
  1
Slobgat 14 x 80
  7
ARIAL
  0
ENDSEC
  0
EOF
