  0
SECTION
  2
HEADER
  9
$ACADVER
  1
AC1006
  9
$DWGCODEPAGE
  3
ansi_1252
  9
$INSBASE
 10
0.0
 20
0.0
 30
0.0
  9
$EXTMIN
 10
1173.96304074
 20
-190.51371081
  9
$EXTMAX
 10
2443.66535303
 20
420.98682625
  9
$LIMMIN
 10
1173.96304074
 20
-190.51371081
  9
$LIMMAX
 10
2443.66535303
 20
420.98682625
  9
$ORTHOMODE
 70
     0
  9
$REGENMODE
 70
     1
  9
$FILLMODE
 70
     1
  9
$QTEXTMODE
 70
     0
  9
$MIRRTEXT
 70
     1
  9
$DRAGMODE
 70
     2
  9
$LTSCALE
 40
1.0
  9
$OSMODE
 70
    37
  9
$ATTMODE
 70
     1
  9
$TEXTSIZE
 40
1.0
  9
$TRACEWID
 40
0.05
  9
$TEXTSTYLE
  7
STANDARD
  9
$CLAYER
  8
0
  9
$CELTYPE
  6
BYBLOCK
  9
$CECOLOR
 62
   256
  9
$DIMSCALE
 40
1.0
  9
$DIMASZ
 40
0.18
  9
$DIMEXO
 40
0.0625
  9
$DIMDLI
 40
0.38
  9
$DIMRND
 40
0.0
  9
$DIMDLE
 40
0.0
  9
$DIMEXE
 40
0.18
  9
$DIMTP
 40
0.0
  9
$DIMTM
 40
0.0
  9
$DIMTXT
 40
0.18
  9
$DIMCEN
 40
0.09
  9
$DIMTSZ
 40
0.0
  9
$DIMTOL
 70
     0
  9
$DIMLIM
 70
     0
  9
$DIMTIH
 70
     1
  9
$DIMTOH
 70
     1
  9
$DIMSE1
 70
     0
  9
$DIMSE2
 70
     0
  9
$DIMTAD
 70
     0
  9
$DIMZIN
 70
     0
  9
$DIMBLK
  1

  9
$DIMASO
 70
     1
  9
$DIMSHO
 70
     1
  9
$DIMPOST
  1

  9
$DIMAPOST
  1

  9
$DIMALT
 70
     0
  9
$DIMALTD
 70
     2
  9
$DIMALTF
 40
25.4
  9
$DIMLFAC
 40
1.0
  9
$DIMTOFL
 70
     0
  9
$DIMTVP
 40
0.0
  9
$DIMTIX
 70
     0
  9
$DIMSOXD
 70
     0
  9
$DIMSAH
 70
     0
  9
$DIMBLK1
  1

  9
$DIMBLK2
  1

  9
$LUNITS
 70
     2
  9
$LUPREC
 70
     4
  9
$SKETCHINC
 40
0.1
  9
$FILLETRAD
 40
0.5
  9
$AUNITS
 70
     0
  9
$AUPREC
 70
     0
  9
$MENU
  1
.
  9
$ELEVATION
 40
0.0
  9
$THICKNESS
 40
0.0
  9
$LIMCHECK
 70
     0
  9
$CHAMFERA
 40
0.0
  9
$CHAMFERB
 40
0.0
  9
$SKPOLY
 70
     0
  9
$TDCREATE
 40
2447893.125
  9
$TDUPDATE
 40
2460791.503149583
  9
$TDINDWG
 40
0.0
  9
$TDUSRTIMER
 40
0.0
  9
$USRTIMER
 70
     1
  9
$ANGBASE
 50
0.0
  9
$ANGDIR
 70
     0
  9
$PDMODE
 70
     0
  9
$PDSIZE
 40
0.0
  9
$PLINEWID
 40
0.0
  9
$COORDS
 70
     1
  9
$SPLFRAME
 70
     0
  9
$SPLINETYPE
 70
     6
  9
$SPLINESEGS
 70
     8
  9
$ATTDIA
 70
     0
  9
$ATTREQ
 70
     1
  9
$HANDLING
 70
     1
  9
$HANDSEED
  5
3CF
  9
$SURFTAB1
 70
     6
  9
$SURFTAB2
 70
     6
  9
$SURFTYPE
 70
     6
  9
$SURFU
 70
     6
  9
$SURFV
 70
     6
  9
$UCSNAME
  2

  9
$UCSORG
 10
0.0
 20
0.0
 30
0.0
  9
$UCSXDIR
 10
1.0
 20
0.0
 30
0.0
  9
$UCSYDIR
 10
0.0
 20
1.0
 30
0.0
  9
$USERI1
 70
     0
  9
$USERI2
 70
     0
  9
$USERI3
 70
     0
  9
$USERI4
 70
     0
  9
$USERI5
 70
     0
  9
$USERR1
 40
0.0
  9
$USERR2
 40
0.0
  9
$USERR3
 40
0.0
  9
$USERR4
 40
0.0
  9
$USERR5
 40
0.0
  9
$WORLDVIEW
 70
     1
  0
ENDSEC
  0
SECTION
  2
TABLES
  0
TABLE
  2
VPORT
 70
     1
  0
VPORT
  2
*ACTIVE
 70
     0
 10
0.0
 20
0.0
 11
1.0
 21
1.0
 12
1808.81419689
 22
115.23655772
 13
0.0
 23
0.0
 14
1.0
 24
1.0
 15
0.0
 25
0.0
 16
0.0
 26
0.0
 36
1.0
 17
0.0
 27
0.0
 37
0.0
 40
611.500537061
 41
2.076371541
 42
50.0
 43
0.0
 44
0.0
 50
0.0
 51
0.0
 71
     0
 72
   100
 73
     1
 74
     1
 75
     0
 76
     0
 77
     0
 78
     0
  0
ENDTAB
  0
TABLE
  2
LTYPE
 70
    19
  0
LTYPE
  2
CONTINUOUS
 70
     0
  3
Solid line
 72
    65
 73
     0
 40
0.0
  0
LTYPE
  2
DOT
 70
     0
  3
..............
 72
    65
 73
     2
 40
2.0
 49
0.5
 49
-1.5
  0
LTYPE
  2
HIDDEN
 70
     0
  3
-- -- -- -- --
 72
    65
 73
     2
 40
7.0
 49
4.0
 49
-3.0
  0
LTYPE
  2
DASHDOT
 70
     0
  3
--.--.--.--.--
 72
    65
 73
     4
 40
8.5
 49
4.0
 49
-2.0
 49
0.5
 49
-2.0
  0
LTYPE
  2
STRICHPUNKT2
 70
     0
  3
--.--.--.--.--
 72
    65
 73
     4
 40
18.5
 49
10.0
 49
-4.0
 49
0.5
 49
-4.0
  0
LTYPE
  2
STRICHPUNKT3
 70
     0
  3
--.--.--.--.--
 72
    65
 73
     4
 40
35.5
 49
25.0
 49
-5.0
 49
0.5
 49
-5.0
  0
LTYPE
  2
PHANTOM
 70
     0
  3
--..--..--..--
 72
    65
 73
     6
 40
23.0
 49
10.0
 49
-4.0
 49
0.5
 49
-4.0
 49
0.5
 49
-4.0
  0
LTYPE
  2
PHANTOM2
 70
     0
  3
--..--..--..--
 72
    65
 73
     6
 40
33.0
 49
20.0
 49
-4.0
 49
0.5
 49
-4.0
 49
0.5
 49
-4.0
  0
LTYPE
  2
PHANTOM3
 70
     0
  3
--..--..--..--
 72
    65
 73
     6
 40
50.0
 49
37.0
 49
-4.0
 49
0.5
 49
-4.0
 49
0.5
 49
-4.0
  0
LTYPE
  2
STR3PKT
 70
     0
  3
--...--...--...
 72
    65
 73
     8
 40
31.5
 49
20.0
 49
-2.5
 49
0.5
 49
-2.5
 49
0.5
 49
-2.5
 49
0.5
 49
-2.5
  0
LTYPE
  2
2STRPKT
 70
     0
  3
--.--.--.--.--
 72
    65
 73
     6
 40
28.0
 49
10.0
 49
-2.5
 49
10.0
 49
-2.5
 49
0.5
 49
-2.5
  0
LTYPE
  2
GESTRICHELT2
 70
     0
  3
-- -- -- -- --
 72
    65
 73
     2
 40
25.0
 49
10.0
 49
-15.0
  0
LTYPE
  2
2STR2PKT
 70
     0
  3
--..--..--..--
 72
    65
 73
     8
 40
31.0
 49
10.0
 49
-2.5
 49
10.0
 49
-2.5
 49
0.5
 49
-2.5
 49
0.5
 49
-2.5
  0
LTYPE
  2
STR3PKT2
 70
     0
  3
--...--...--...
 72
    65
 73
     8
 40
21.0
 49
10.0
 49
-2.5
 49
0.5
 49
-2.5
 49
0.5
 49
-2.5
 49
0.5
 49
-2.0
  0
LTYPE
  2
2STR3PKT
 70
     0
  3
--...--...--...
 72
    65
 73
    10
 40
34.0
 49
10.0
 49
-2.5
 49
10.0
 49
-2.5
 49
0.5
 49
-2.5
 49
0.5
 49
-2.5
 49
0.5
 49
-2.5
  0
LTYPE
  2
STRKSTR
 70
     0
  3
-- - -- - -- -
 72
    65
 73
     4
 40
30.0
 49
20.0
 49
-2.5
 49
5.0
 49
-2.5
  0
LTYPE
  2
STRKSTR2
 70
     0
  3
-- - -- - -- -
 72
    65
 73
     6
 40
37.5
 49
20.0
 49
-2.5
 49
5.0
 49
-2.5
 49
5.0
 49
-2.5
  0
LTYPE
  2
STRKSTR3
 70
     0
  3
-- - -- - -- -
 72
    65
 73
     8
 40
45.0
 49
20.0
 49
-2.5
 49
5.0
 49
-2.5
 49
5.0
 49
-2.5
 49
5.0
 49
-2.5
  0
LTYPE
  2
PUNKT2
 70
     0
  3
..............
 72
    65
 73
     2
 40
3.5
 49
0.5
 49
-3.0
  0
ENDTAB
  0
TABLE
  2
LAYER
 70
    15
  0
LAYER
  2
0
 70
     0
 62
     7
  6
CONTINUOUS
  0
LAYER
  2
LE_GREEN
 70
     0
 62
     3
  6
CONTINUOUS
  0
LAYER
  2
LE_RED
 70
     0
 62
     1
  6
CONTINUOUS
  0
LAYER
  2
LE_ALL
 70
     0
 62
     7
  6
CONTINUOUS
  0
LAYER
  2
LE_HIDDEN1
 70
     0
 62
     3
  6
HIDDEN
  0
LAYER
  2
LE_HIDDEN
 70
     0
 62
     7
  6
CONTINUOUS
  0
LAYER
  2
LE_MIDDLE
 70
     0
 62
     7
  6
CONTINUOUS
  0
LAYER
  2
TXT_YELLOW
 70
     0
 62
     2
  6
CONTINUOUS
  0
LAYER
  2
TXT_DIM49
 70
     0
 62
     2
  6
CONTINUOUS
  0
LAYER
  2
TXT_ALL
 70
     0
 62
     7
  6
CONTINUOUS
  0
LAYER
  2
DIM49
 70
     0
 62
     4
  6
CONTINUOUS
  0
LAYER
  2
HATCH
 70
     0
 62
     3
  6
CONTINUOUS
  0
LAYER
  2
APPLE
 70
     0
 62
     7
  6
CONTINUOUS
  0
LAYER
  2
10
 70
     0
 62
     7
  6
CONTINUOUS
  0
LAYER
  2
49
 70
     0
 62
     7
  6
CONTINUOUS
  0
ENDTAB
  0
TABLE
  2
STYLE
 70
     5
  0
STYLE
  2
MONOTXT
 70
     0
 40
0.0
 41
1.0
 50
0.0
 71
     0
 42
1.0
  3
monotxt.shx
  4

  0
STYLE
  2
STANDARD
 70
     0
 40
0.0
 41
1.0
 50
0.0
 71
     0
 42
1.0
  3
txt
  4

  0
STYLE
  2
ARIAL
 70
     0
 40
0.0
 41
1.0
 50
0.0
 71
     0
 42
1.0
  3
arial.ttf
  4

  0
STYLE
  2
ARIAL_NARROW
 70
     0
 40
0.0
 41
1.0
 50
0.0
 71
     0
 42
1.0
  3
ArialN.ttf
  4

  0
STYLE
  2
ISOCPEUR
 70
     0
 40
0.0
 41
1.0
 50
0.0
 71
     0
 42
1.0
  3
ISOCPEUR.ttf
  4

  0
ENDTAB
  0
TABLE
  2
VIEW
 70
     0
  0
ENDTAB
  0
TABLE
  2
UCS
 70
     0
  0
ENDTAB
  0
ENDSEC
  0
SECTION
  2
BLOCKS
  0
ENDSEC
  0
SECTION
  2
ENTITIES
  0
POLYLINE
  5
16C
  8
0
 66
     1
 10
0.0
 20
0.0
 30
0.0
 70
     1
  0
VERTEX
  5
16D
  8
0
 10
1457.08038148
 20
-33.36628878
 30
0.0
  0
VERTEX
  5
16E
  8
0
 10
1877.08038148
 20
-33.36628878
 30
0.0
  0
VERTEX
  5
16F
  8
0
 10
1877.08038148
 20
263.63371122
 30
0.0
  0
VERTEX
  5
170
  8
0
 10
1457.08038148
 20
263.63371122
 30
0.0
  0
SEQEND
  5
171
  8
0
  0
POLYLINE
  5
172
  8
0
 66
     1
 10
0.0
 20
0.0
 30
0.0
 70
     1
  0
VERTEX
  5
173
  8
0
 10
1462.08038148
 20
-28.36628878
 30
0.0
  0
VERTEX
  5
174
  8
0
 10
1872.08038148
 20
-28.36628878
 30
0.0
  0
VERTEX
  5
175
  8
0
 10
1872.08038148
 20
258.63371122
 30
0.0
  0
VERTEX
  5
176
  8
0
 10
1462.08038148
 20
258.63371122
 30
0.0
  0
SEQEND
  5
177
  8
0
  0
LINE
  5
178
  8
0
 10
1687.08038148
 20
-28.36628878
 30
0.0
 11
1687.08038148
 21
-33.36628878
 31
0.0
  0
LINE
  5
179
  8
0
 10
1687.08038148
 20
258.63371122
 30
0.0
 11
1687.08038148
 21
263.63371122
 31
0.0
  0
LINE
  5
17A
  8
0
 10
1477.08038148
 20
-28.36628878
 30
0.0
 11
1477.08038148
 21
-33.36628878
 31
0.0
  0
LINE
  5
17B
  8
0
 10
1477.08038148
 20
258.63371122
 30
0.0
 11
1477.08038148
 21
263.63371122
 31
0.0
  0
TEXT
  5
17C
  8
TXT_ALL
 62
     4
 10
1876.08038148
 20
-32.36628878
 30
0.0
 40
2.5
  1

 50
90.00020741
  0
POLYLINE
  5
17D
  8
0
 66
     1
 10
0.0
 20
0.0
 30
0.0
  0
VERTEX
  5
17E
  8
0
 10
1872.08038148
 20
248.63371122
 30
0.0
  0
VERTEX
  5
17F
  8
0
 10
1803.08708148
 20
248.63371122
 30
0.0
  0
VERTEX
  5
180
  8
0
 10
1803.08708148
 20
258.63371122
 30
0.0
  0
SEQEND
  5
181
  8
0
  0
LINE
  5
182
  8
0
 10
1804.99038148
 20
-8.86628878
 30
0.0
 11
1665.10038148
 21
-8.86628878
 31
0.0
  0
LINE
  5
183
  8
0
 10
1665.10038148
 20
-18.61628878
 30
0.0
 11
1804.99038148
 21
-18.61628878
 31
0.0
  0
POLYLINE
  5
184
  8
0
 66
     1
 10
0.0
 20
0.0
 30
0.0
  0
VERTEX
  5
185
  8
0
 10
1665.10038148
 20
-8.86628878
 30
0.0
  0
VERTEX
  5
186
  8
0
 10
1665.10038148
 20
-18.61628878
 30
0.0
  0
VERTEX
  5
187
  8
0
 10
1665.10038148
 20
-28.36628878
 30
0.0
  0
SEQEND
  5
188
  8
0
  0
POLYLINE
  5
189
  8
0
 66
     1
 10
0.0
 20
0.0
 30
0.0
  0
VERTEX
  5
18A
  8
0
 10
1735.04538148
 20
-8.86628878
 30
0.0
  0
VERTEX
  5
18B
  8
0
 10
1735.04538148
 20
-18.61628878
 30
0.0
  0
VERTEX
  5
18C
  8
0
 10
1735.04538148
 20
-28.36628878
 30
0.0
  0
SEQEND
  5
18D
  8
0
  0
TEXT
  5
18E
  8
TXT_ALL
 10
1667.10038148
 20
-15.04128873
 30
0.0
 40
2.5999999
  1
E-mail: verkoop@jonkers-bouwmetaal.nl
  7
ARIAL
  0
TEXT
  5
18F
  8
TXT_ALL
 10
1667.10038148
 20
-24.79128873
 30
0.0
 40
2.5999999
  1
Telefoon: 0527-685156
  7
ARIAL
  0
TEXT
  5
190
  8
TXT_ALL
 10
1737.04538148
 20
-24.79128873
 30
0.0
 40
2.5999999
  1
Website: www.jonkers-bouwmetaal.nl
  7
ARIAL
  0
TEXT
  5
191
  8
TXT_ALL
 10
1737.04538148
 20
-15.04128873
 30
0.0
 40
2.5999999
  1
Adres: Hoornse Hop 10, 8321 WX Urk
  7
ARIAL
  0
TEXT
  5
192
  8
TXT_ALL
 10
1465.52234173
 20
252.38371122
 30
0.0
 40
2.5
  1
Art. nr. 91007702
  7
ARIAL
  0
TEXT
  5
193
  8
TXT_ALL
 10
1508.26037855
 20
252.38371122
 30
0.0
 40
2.5
  1
Omschrijving: S03-anker 100x8 L=300
  7
ARIAL
  0
LINE
  5
194
  8
0
 10
1872.08038148
 20
248.63371122
 30
0.0
 11
1462.08038148
 21
248.63371122
 31
0.0
  0
LINE
  5
195
  8
0
 10
1505.10038148
 20
248.63371122
 30
0.0
 11
1505.10038148
 21
258.63371122
 31
0.0
  0
LINE
  5
196
  8
0
 10
1665.10038148
 20
248.63371122
 30
0.0
 11
1665.10038148
 21
258.63371122
 31
0.0
  0
TEXT
  5
197
  8
TXT_ALL
 10
1736.09408148
 20
252.38371122
 30
0.0
 40
2.5
  1
Behandeling: Thermisch Verzinkt
  7
ARIAL
  0
LINE
  5
198
  8
0
 10
1804.99038148
 20
-8.86628878
 30
0.0
 11
1872.08038148
 21
-8.86628878
 31
0.0
  0
LINE
  5
199
  8
0
 10
1804.99038148
 20
-28.36628878
 30
0.0
 11
1804.99038148
 21
-8.86628878
 31
0.0
  0
LINE
  5
19A
  8
0
 10
1804.99038148
 20
-28.36628878
 30
0.0
 11
1804.99038148
 21
-8.86628878
 31
0.0
  0
TEXT
  5
19B
  8
TXT_ALL
 10
1599.44557957
 20
-27.21175537
 30
0.0
 40
2.5
  1

  0
TEXT
  5
19C
  8
TXT_ALL
 10
1720.58076254
 20
-17.11628878
 30
0.0
 40
2.5
  1

  0
POLYLINE
  5
19D
  8
0
 66
     1
 10
0.0
 20
0.0
 30
0.0
  0
VERTEX
  5
19E
  8
0
 10
1803.08708148
 20
248.63371122
 30
0.0
  0
VERTEX
  5
19F
  8
0
 10
1734.09408148
 20
248.63371122
 30
0.0
  0
VERTEX
  5
1A0
  8
0
 10
1734.09408148
 20
258.63371122
 30
0.0
  0
SEQEND
  5
1A1
  8
0
  0
TEXT
  5
1A2
  8
TXT_ALL
 10
1805.08708148
 20
252.38371122
 30
0.0
 40
2.5
  1
Verpakkingshoeveelheid: 1 st.
  7
ARIAL
  0
TEXT
  5
1A3
  8
TXT_ALL
 10
1667.10038148
 20
252.38371122
 30
0.0
 40
2.5
  1
Materiaal: S355
  7
ARIAL
  0
TEXT
  5
1A4
  8
TXT_ALL
 10
1839.3009294
 20
-31.61579863
 30
0.0
 40
1.5
  1
Onderdeel van
  7
ARIAL
  0
POLYLINE
  5
1A5
  8
0
 66
     1
 10
0.0
 20
0.0
 30
0.0
  0
VERTEX
  5
2E3
  8
0
 10
1602.50022289
 20
42.37228508711128
 30
0.0
  0
VERTEX
  5
2E4
  8
0
 10
1602.562895110197
 20
41.99908296069885
 30
0.0
  0
VERTEX
  5
2E5
  8
0
 10
1602.74866731419
 20
41.63924620930489
 30
0.0
  0
VERTEX
  5
2E6
  8
0
 10
1603.050886498027
 20
41.30566155805521
 30
0.0
  0
VERTEX
  5
2E7
  8
0
 10
1603.458729377164
 20
41.01027557352535
 30
0.0
  0
VERTEX
  5
2E8
  8
0
 10
1603.957589997491
 20
40.76366682495233
 30
0.0
  0
SEQEND
  5
3BF
  8
0
  0
POLYLINE
  5
1A6
  8
0
 66
     1
 10
0.0
 20
0.0
 30
0.0
  0
VERTEX
  5
2E9
  8
0
 10
1608.042855772306
 20
43.98090333919787
 30
0.0
  0
VERTEX
  5
2EA
  8
0
 10
1607.43924812521
 20
44.17807578608192
 30
0.0
  0
VERTEX
  5
2EB
  8
0
 10
1606.778584470551
 20
44.30365031677817
 30
0.0
  0
VERTEX
  5
2EC
  8
0
 10
1606.087059505652
 20
44.35264801834072
 30
0.0
  0
VERTEX
  5
2ED
  8
0
 10
1605.392091549985
 20
44.32312617763119
 30
0.0
  0
VERTEX
  5
2EE
  8
0
 10
1604.721235434394
 20
44.21625530808156
 30
0.0
  0
VERTEX
  5
2EF
  8
0
 10
1604.101089977763
 20
44.03627273992905
 30
0.0
  0
VERTEX
  5
2F0
  8
0
 10
1603.556243368681
 20
43.79031461402676
 30
0.0
  0
VERTEX
  5
2F1
  8
0
 10
1603.108298266701
 20
43.48813294051892
 30
0.0
  0
VERTEX
  5
2F2
  8
0
 10
1602.77501527706
 20
43.14170894073999
 30
0.0
  0
VERTEX
  5
2F3
  8
0
 10
1602.569608759249
 20
42.76477800297063
 30
0.0
  0
VERTEX
  5
2F4
  8
0
 10
1602.50022289
 20
42.37228508711128
 30
0.0
  0
SEQEND
  5
3C0
  8
0
  0
POLYLINE
  5
1A7
  8
0
 66
     1
 10
0.0
 20
0.0
 30
0.0
  0
VERTEX
  5
1A8
  8
0
 10
1608.04285578
 20
43.98090334
 30
0.0
  0
VERTEX
  5
1A9
  8
0
 10
1618.59930461
 20
39.68676447
 30
0.0
  0
SEQEND
  5
1AA
  8
0
  0
POLYLINE
  5
1AB
  8
0
 66
     1
 10
0.0
 20
0.0
 30
0.0
  0
VERTEX
  5
2F5
  8
0
 10
1620.05667171
 20
38.07814621
 30
0.0
  0
VERTEX
  5
2F6
  8
0
 10
1619.993999487436
 20
38.45134833628509
 30
0.0
  0
VERTEX
  5
2F7
  8
0
 10
1619.80822728116
 20
38.8111850873016
 30
0.0
  0
VERTEX
  5
2F8
  8
0
 10
1619.506008095208
 20
39.14476973793723
 30
0.0
  0
VERTEX
  5
2F9
  8
0
 10
1619.098165214197
 20
39.44015572163845
 30
0.0
  0
VERTEX
  5
2FA
  8
0
 10
1618.599304592306
 20
39.68676446919788
 30
0.0
  0
SEQEND
  5
3C1
  8
0
  0
POLYLINE
  5
1AC
  8
0
 66
     1
 10
0.0
 20
0.0
 30
0.0
  0
VERTEX
  5
2FB
  8
0
 10
1614.514038817491
 20
36.46952795495233
 30
0.0
  0
VERTEX
  5
2FC
  8
0
 10
1615.11764646542
 20
36.27235550631028
 30
0.0
  0
VERTEX
  5
2FD
  8
0
 10
1615.778310121654
 20
36.14678097422822
 30
0.0
  0
VERTEX
  5
2FE
  8
0
 10
1616.469835088639
 20
36.09778327173948
 30
0.0
  0
VERTEX
  5
2FF
  8
0
 10
1617.16480304664
 20
36.12730511203183
 30
0.0
  0
VERTEX
  5
300
  8
0
 10
1617.835659164543
 20
36.23417598168219
 30
0.0
  0
VERTEX
  5
301
  8
0
 10
1618.455804623196
 20
36.41415855042173
 30
0.0
  0
VERTEX
  5
302
  8
0
 10
1619.000651233772
 20
36.66011667732751
 30
0.0
  0
VERTEX
  5
303
  8
0
 10
1619.448596336516
 20
36.9622983521519
 30
0.0
  0
VERTEX
  5
304
  8
0
 10
1619.781879326046
 20
37.30872235343007
 30
0.0
  0
VERTEX
  5
305
  8
0
 10
1619.987285842788
 20
37.68565329273234
 30
0.0
  0
VERTEX
  5
306
  8
0
 10
1620.05667171
 20
38.07814621
 30
0.0
  0
SEQEND
  5
3C2
  8
0
  0
LINE
  5
1AD
  8
0
 10
1614.51403881
 20
36.46952796
 30
0.0
 11
1603.95758999
 21
40.76366682
 31
0.0
  0
POLYLINE
  5
1AE
  8
0
 66
     1
 10
0.0
 20
0.0
 30
0.0
  0
VERTEX
  5
1AF
  8
0
 10
1618.49863711
 20
36.43007152
 30
0.0
  0
VERTEX
  5
1B0
  8
0
 10
1608.04285578
 20
40.68326099
 30
0.0
  0
SEQEND
  5
1B1
  8
0
  0
POLYLINE
  5
1B2
  8
0
 66
     1
 10
0.0
 20
0.0
 30
0.0
  0
VERTEX
  5
307
  8
0
 10
1608.042855772306
 20
40.68326098919788
 30
0.0
  0
VERTEX
  5
308
  8
0
 10
1607.431459661886
 20
40.88241523037581
 30
0.0
  0
VERTEX
  5
309
  8
0
 10
1606.761924270399
 20
41.00813466637754
 30
0.0
  0
VERTEX
  5
30A
  8
0
 10
1606.061447268472
 20
41.05531235908571
 30
0.0
  0
VERTEX
  5
30B
  8
0
 10
1605.358483227769
 20
41.02203187008124
 30
0.0
  0
VERTEX
  5
30C
  8
0
 10
1604.681587747717
 20
40.90964510964361
 30
0.0
  0
VERTEX
  5
30D
  8
0
 10
1604.058257478306
 20
40.72271741984734
 30
0.0
  0
SEQEND
  5
3C3
  8
0
  0
POLYLINE
  5
1B3
  8
0
 66
     1
 10
0.0
 20
0.0
 30
0.0
  0
VERTEX
  5
30E
  8
0
 10
1567.17672106
 20
56.74113436711128
 30
0.0
  0
VERTEX
  5
30F
  8
0
 10
1567.243972576291
 20
56.3546657577624
 30
0.0
  0
VERTEX
  5
310
  8
0
 10
1567.443142692003
 20
55.98304892009726
 30
0.0
  0
VERTEX
  5
311
  8
0
 10
1567.76657741127
 20
55.64056488081473
 30
0.0
  0
VERTEX
  5
312
  8
0
 10
1568.201847319184
 20
55.34037510950716
 30
0.0
  0
VERTEX
  5
313
  8
0
 10
1568.732225237249
 20
55.09401573076382
 30
0.0
  0
VERTEX
  5
314
  8
0
 10
1569.337329039467
 20
54.91095419737145
 30
0.0
  0
VERTEX
  5
315
  8
0
 10
1569.993904926012
 20
54.79822546141225
 30
0.0
  0
VERTEX
  5
316
  8
0
 10
1570.676721053718
 20
54.76016162499999
 30
0.0
  0
VERTEX
  5
317
  8
0
 10
1571.359537181665
 20
54.7982254600249
 30
0.0
  0
VERTEX
  5
318
  8
0
 10
1572.016113068925
 20
54.91095419465007
 30
0.0
  0
VERTEX
  5
319
  8
0
 10
1572.621216872304
 20
55.09401572681301
 30
0.0
  0
VERTEX
  5
31A
  8
0
 10
1573.151594791932
 20
55.34037510447872
 30
0.0
  0
VERTEX
  5
31B
  8
0
 10
1573.58686470175
 20
55.64056487490191
 30
0.0
  0
VERTEX
  5
31C
  8
0
 10
1573.910299423189
 20
55.98304891352729
 30
0.0
  0
VERTEX
  5
31D
  8
0
 10
1574.109469541258
 20
56.35466575078776
 30
0.0
  0
VERTEX
  5
31E
  8
0
 10
1574.17672106
 20
56.74113436
 30
0.0
  0
SEQEND
  5
3C4
  8
0
  0
POLYLINE
  5
1B4
  8
0
 66
     1
 10
0.0
 20
0.0
 30
0.0
  0
VERTEX
  5
31F
  8
0
 10
1574.17672106
 20
56.74113436
 30
0.0
  0
VERTEX
  5
320
  8
0
 10
1574.109469541565
 20
57.1276029683404
 30
0.0
  0
VERTEX
  5
321
  8
0
 10
1573.910299424391
 20
57.49921980483021
 30
0.0
  0
VERTEX
  5
322
  8
0
 10
1573.586864704368
 20
57.84170384288078
 30
0.0
  0
VERTEX
  5
323
  8
0
 10
1573.151594796374
 20
58.14189361300705
 30
0.0
  0
VERTEX
  5
324
  8
0
 10
1572.621216878833
 20
58.38825299071773
 30
0.0
  0
VERTEX
  5
325
  8
0
 10
1572.016113077631
 20
58.57131452330889
 30
0.0
  0
VERTEX
  5
326
  8
0
 10
1571.359537192448
 20
58.68404325876116
 30
0.0
  0
VERTEX
  5
327
  8
0
 10
1570.676721066282
 20
58.722107095
 30
0.0
  0
VERTEX
  5
328
  8
0
 10
1569.993904939875
 20
58.68404326014851
 30
0.0
  0
VERTEX
  5
329
  8
0
 10
1569.337329053977
 20
58.57131452603026
 30
0.0
  0
VERTEX
  5
32A
  8
0
 10
1568.732225251614
 20
58.38825299466855
 30
0.0
  0
VERTEX
  5
32B
  8
0
 10
1568.20184733251
 20
58.14189361803548
 30
0.0
  0
VERTEX
  5
32C
  8
0
 10
1567.766577422613
 20
57.84170384879359
 30
0.0
  0
VERTEX
  5
32D
  8
0
 10
1567.443142700418
 20
57.49921981140018
 30
0.0
  0
VERTEX
  5
32E
  8
0
 10
1567.243972580887
 20
57.12760297531504
 30
0.0
  0
VERTEX
  5
32F
  8
0
 10
1567.17672106
 20
56.74113436711128
 30
0.0
  0
SEQEND
  5
3C5
  8
0
  0
POLYLINE
  5
1B5
  8
0
 66
     1
 10
0.0
 20
0.0
 30
0.0
  0
VERTEX
  5
330
  8
0
 10
1572.616707443584
 20
55.09231317916552
 30
0.0
  0
VERTEX
  5
331
  8
0
 10
1572.012773679805
 20
55.27445392432348
 30
0.0
  0
VERTEX
  5
332
  8
0
 10
1571.357764937266
 20
55.38660016515026
 30
0.0
  0
VERTEX
  5
333
  8
0
 10
1570.676721066282
 20
55.424464745
 30
0.0
  0
VERTEX
  5
334
  8
0
 10
1569.995677195058
 20
55.386600166534
 30
0.0
  0
VERTEX
  5
335
  8
0
 10
1569.340668451808
 20
55.27445392703807
 30
0.0
  0
VERTEX
  5
336
  8
0
 10
1568.736734686874
 20
55.09231318310718
 30
0.0
  0
SEQEND
  5
3C6
  8
0
  0
POLYLINE
  5
1B6
  8
0
 66
     1
 10
0.0
 20
0.0
 30
0.0
  0
VERTEX
  5
337
  8
0
 10
1526.37013627
 20
65.03460006507949
 30
0.0
  0
VERTEX
  5
338
  8
0
 10
1526.418173067351
 20
64.75855105840172
 30
0.0
  0
VERTEX
  5
339
  8
0
 10
1526.560437435717
 20
64.49311046006947
 30
0.0
  0
VERTEX
  5
33A
  8
0
 10
1526.791462235193
 20
64.2484790034391
 30
0.0
  0
VERTEX
  5
33B
  8
0
 10
1527.102369312274
 20
64.0340577382194
 30
0.0
  0
VERTEX
  5
33C
  8
0
 10
1527.481210682321
 20
63.85808675340273
 30
0.0
  0
VERTEX
  5
33D
  8
0
 10
1527.913427683905
 20
63.72732851526533
 30
0.0
  0
VERTEX
  5
33E
  8
0
 10
1528.382410460009
 20
63.64680798958018
 30
0.0
  0
VERTEX
  5
33F
  8
0
 10
1528.870136265513
 20
63.61961953500001
 30
0.0
  0
VERTEX
  5
340
  8
0
 10
1529.35786207119
 20
63.64680798858922
 30
0.0
  0
VERTEX
  5
341
  8
0
 10
1529.826844847804
 20
63.72732851332149
 30
0.0
  0
VERTEX
  5
342
  8
0
 10
1530.259061850217
 20
63.85808675058072
 30
0.0
  0
VERTEX
  5
343
  8
0
 10
1530.63790322138
 20
64.03405773462767
 30
0.0
  0
VERTEX
  5
344
  8
0
 10
1530.948810299822
 20
64.24847899921566
 30
0.0
  0
VERTEX
  5
345
  8
0
 10
1531.179835100849
 20
64.49311045537664
 30
0.0
  0
VERTEX
  5
346
  8
0
 10
1531.322099470899
 20
64.75855105341984
 30
0.0
  0
VERTEX
  5
347
  8
0
 10
1531.37013627
 20
65.03460006
 30
0.0
  0
SEQEND
  5
3C7
  8
0
  0
POLYLINE
  5
1B7
  8
0
 66
     1
 10
0.0
 20
0.0
 30
0.0
  0
VERTEX
  5
348
  8
0
 10
1531.37013627
 20
65.03460006
 30
0.0
  0
VERTEX
  5
349
  8
0
 10
1531.322099471118
 20
65.31064906595743
 30
0.0
  0
VERTEX
  5
34A
  8
0
 10
1531.179835101708
 20
65.57608966345015
 30
0.0
  0
VERTEX
  5
34B
  8
0
 10
1530.948810301691
 20
65.82072111920056
 30
0.0
  0
VERTEX
  5
34C
  8
0
 10
1530.637903224553
 20
66.03514238357647
 30
0.0
  0
VERTEX
  5
34D
  8
0
 10
1530.259061854881
 20
66.21111336765553
 30
0.0
  0
VERTEX
  5
34E
  8
0
 10
1529.826844854022
 20
66.34187160522065
 30
0.0
  0
VERTEX
  5
34F
  8
0
 10
1529.357862078891
 20
66.4223921305437
 30
0.0
  0
VERTEX
  5
350
  8
0
 10
1528.870136274487
 20
66.449580585
 30
0.0
  0
VERTEX
  5
351
  8
0
 10
1528.382410469911
 20
66.42239213153465
 30
0.0
  0
VERTEX
  5
352
  8
0
 10
1527.91342769427
 20
66.34187160716448
 30
0.0
  0
VERTEX
  5
353
  8
0
 10
1527.481210692581
 20
66.21111337047753
 30
0.0
  0
VERTEX
  5
354
  8
0
 10
1527.102369321793
 20
66.03514238716821
 30
0.0
  0
VERTEX
  5
355
  8
0
 10
1526.791462243295
 20
65.820721123424
 30
0.0
  0
VERTEX
  5
356
  8
0
 10
1526.560437441727
 20
65.57608966814298
 30
0.0
  0
VERTEX
  5
357
  8
0
 10
1526.418173070633
 20
65.31064907093932
 30
0.0
  0
VERTEX
  5
358
  8
0
 10
1526.37013627
 20
65.03460006507949
 30
0.0
  0
SEQEND
  5
3C8
  8
0
  0
POLYLINE
  5
1B8
  8
0
 66
     1
 10
0.0
 20
0.0
 30
0.0
  0
VERTEX
  5
359
  8
0
 10
1540.96037124
 20
76.52473047507948
 30
0.0
  0
VERTEX
  5
35A
  8
0
 10
1541.008408037351
 20
76.24868146840171
 30
0.0
  0
VERTEX
  5
35B
  8
0
 10
1541.150672405717
 20
75.98324087006947
 30
0.0
  0
VERTEX
  5
35C
  8
0
 10
1541.381697205193
 20
75.7386094134391
 30
0.0
  0
VERTEX
  5
35D
  8
0
 10
1541.692604282274
 20
75.5241881482194
 30
0.0
  0
VERTEX
  5
35E
  8
0
 10
1542.071445652321
 20
75.34821716340272
 30
0.0
  0
VERTEX
  5
35F
  8
0
 10
1542.503662653905
 20
75.21745892526532
 30
0.0
  0
VERTEX
  5
360
  8
0
 10
1542.972645430009
 20
75.13693839958017
 30
0.0
  0
VERTEX
  5
361
  8
0
 10
1543.460371235513
 20
75.10974994499999
 30
0.0
  0
VERTEX
  5
362
  8
0
 10
1543.94809704119
 20
75.13693839858921
 30
0.0
  0
VERTEX
  5
363
  8
0
 10
1544.417079817804
 20
75.21745892332149
 30
0.0
  0
VERTEX
  5
364
  8
0
 10
1544.849296820217
 20
75.34821716058072
 30
0.0
  0
VERTEX
  5
365
  8
0
 10
1545.22813819138
 20
75.52418814462766
 30
0.0
  0
VERTEX
  5
366
  8
0
 10
1545.539045269822
 20
75.73860940921566
 30
0.0
  0
VERTEX
  5
367
  8
0
 10
1545.770070070849
 20
75.98324086537663
 30
0.0
  0
VERTEX
  5
368
  8
0
 10
1545.912334440899
 20
76.24868146341983
 30
0.0
  0
VERTEX
  5
369
  8
0
 10
1545.96037124
 20
76.52473047
 30
0.0
  0
SEQEND
  5
3C9
  8
0
  0
POLYLINE
  5
1B9
  8
0
 66
     1
 10
0.0
 20
0.0
 30
0.0
  0
VERTEX
  5
36A
  8
0
 10
1545.96037124
 20
76.52473047
 30
0.0
  0
VERTEX
  5
36B
  8
0
 10
1545.912334441118
 20
76.80077947595743
 30
0.0
  0
VERTEX
  5
36C
  8
0
 10
1545.770070071708
 20
77.06622007345015
 30
0.0
  0
VERTEX
  5
36D
  8
0
 10
1545.539045271691
 20
77.31085152920055
 30
0.0
  0
VERTEX
  5
36E
  8
0
 10
1545.228138194553
 20
77.52527279357646
 30
0.0
  0
VERTEX
  5
36F
  8
0
 10
1544.849296824881
 20
77.70124377765552
 30
0.0
  0
VERTEX
  5
370
  8
0
 10
1544.417079824022
 20
77.83200201522064
 30
0.0
  0
VERTEX
  5
371
  8
0
 10
1543.948097048891
 20
77.91252254054369
 30
0.0
  0
VERTEX
  5
372
  8
0
 10
1543.460371244487
 20
77.939710995
 30
0.0
  0
VERTEX
  5
373
  8
0
 10
1542.972645439911
 20
77.91252254153464
 30
0.0
  0
VERTEX
  5
374
  8
0
 10
1542.50366266427
 20
77.83200201716447
 30
0.0
  0
VERTEX
  5
375
  8
0
 10
1542.071445662581
 20
77.70124378047753
 30
0.0
  0
VERTEX
  5
376
  8
0
 10
1541.692604291793
 20
77.5252727971682
 30
0.0
  0
VERTEX
  5
377
  8
0
 10
1541.381697213295
 20
77.31085153342399
 30
0.0
  0
VERTEX
  5
378
  8
0
 10
1541.150672411727
 20
77.06622007814298
 30
0.0
  0
VERTEX
  5
379
  8
0
 10
1541.008408040633
 20
76.80077948093931
 30
0.0
  0
VERTEX
  5
37A
  8
0
 10
1540.96037124
 20
76.52473047507948
 30
0.0
  0
SEQEND
  5
3CA
  8
0
  0
POLYLINE
  5
1BA
  8
0
 66
     1
 10
0.0
 20
0.0
 30
0.0
  0
VERTEX
  5
37B
  8
0
 10
1520.65950812
 20
84.78268982507949
 30
0.0
  0
VERTEX
  5
37C
  8
0
 10
1520.707544917351
 20
84.50664081840172
 30
0.0
  0
VERTEX
  5
37D
  8
0
 10
1520.849809285717
 20
84.24120022006947
 30
0.0
  0
VERTEX
  5
37E
  8
0
 10
1521.080834085193
 20
83.9965687634391
 30
0.0
  0
VERTEX
  5
37F
  8
0
 10
1521.391741162274
 20
83.7821474982194
 30
0.0
  0
VERTEX
  5
380
  8
0
 10
1521.770582532321
 20
83.60617651340273
 30
0.0
  0
VERTEX
  5
381
  8
0
 10
1522.202799533905
 20
83.47541827526533
 30
0.0
  0
VERTEX
  5
382
  8
0
 10
1522.671782310009
 20
83.39489774958018
 30
0.0
  0
VERTEX
  5
383
  8
0
 10
1523.159508115513
 20
83.367709295
 30
0.0
  0
VERTEX
  5
384
  8
0
 10
1523.64723392119
 20
83.39489774858922
 30
0.0
  0
VERTEX
  5
385
  8
0
 10
1524.116216697804
 20
83.4754182733215
 30
0.0
  0
VERTEX
  5
386
  8
0
 10
1524.548433700217
 20
83.60617651058072
 30
0.0
  0
VERTEX
  5
387
  8
0
 10
1524.92727507138
 20
83.78214749462767
 30
0.0
  0
VERTEX
  5
388
  8
0
 10
1525.238182149822
 20
83.99656875921566
 30
0.0
  0
VERTEX
  5
389
  8
0
 10
1525.469206950849
 20
84.24120021537664
 30
0.0
  0
VERTEX
  5
38A
  8
0
 10
1525.611471320899
 20
84.50664081341984
 30
0.0
  0
VERTEX
  5
38B
  8
0
 10
1525.65950812
 20
84.78268982
 30
0.0
  0
SEQEND
  5
3CB
  8
0
  0
POLYLINE
  5
1BB
  8
0
 66
     1
 10
0.0
 20
0.0
 30
0.0
  0
VERTEX
  5
38C
  8
0
 10
1525.65950812
 20
84.78268982
 30
0.0
  0
VERTEX
  5
38D
  8
0
 10
1525.611471321118
 20
85.05873882595743
 30
0.0
  0
VERTEX
  5
38E
  8
0
 10
1525.469206951708
 20
85.32417942345015
 30
0.0
  0
VERTEX
  5
38F
  8
0
 10
1525.238182151691
 20
85.56881087920056
 30
0.0
  0
VERTEX
  5
390
  8
0
 10
1524.927275074553
 20
85.78323214357647
 30
0.0
  0
VERTEX
  5
391
  8
0
 10
1524.548433704881
 20
85.95920312765553
 30
0.0
  0
VERTEX
  5
392
  8
0
 10
1524.116216704022
 20
86.08996136522065
 30
0.0
  0
VERTEX
  5
393
  8
0
 10
1523.647233928891
 20
86.1704818905437
 30
0.0
  0
VERTEX
  5
394
  8
0
 10
1523.159508124487
 20
86.197670345
 30
0.0
  0
VERTEX
  5
395
  8
0
 10
1522.671782319911
 20
86.17048189153465
 30
0.0
  0
VERTEX
  5
396
  8
0
 10
1522.20279954427
 20
86.08996136716448
 30
0.0
  0
VERTEX
  5
397
  8
0
 10
1521.770582542581
 20
85.95920313047753
 30
0.0
  0
VERTEX
  5
398
  8
0
 10
1521.391741171793
 20
85.7832321471682
 30
0.0
  0
VERTEX
  5
399
  8
0
 10
1521.080834093295
 20
85.56881088342399
 30
0.0
  0
VERTEX
  5
39A
  8
0
 10
1520.849809291727
 20
85.32417942814298
 30
0.0
  0
VERTEX
  5
39B
  8
0
 10
1520.707544920633
 20
85.05873883093932
 30
0.0
  0
VERTEX
  5
39C
  8
0
 10
1520.65950812
 20
84.78268982507949
 30
0.0
  0
SEQEND
  5
3CC
  8
0
  0
POLYLINE
  5
1BC
  8
0
 66
     1
 10
0.0
 20
0.0
 30
0.0
  0
VERTEX
  5
39D
  8
0
 10
1506.06927315
 20
73.29255941507948
 30
0.0
  0
VERTEX
  5
39E
  8
0
 10
1506.117309947351
 20
73.01651040840171
 30
0.0
  0
VERTEX
  5
39F
  8
0
 10
1506.259574315717
 20
72.75106981006947
 30
0.0
  0
VERTEX
  5
3A0
  8
0
 10
1506.490599115193
 20
72.5064383534391
 30
0.0
  0
VERTEX
  5
3A1
  8
0
 10
1506.801506192274
 20
72.2920170882194
 30
0.0
  0
VERTEX
  5
3A2
  8
0
 10
1507.180347562321
 20
72.11604610340272
 30
0.0
  0
VERTEX
  5
3A3
  8
0
 10
1507.612564563905
 20
71.98528786526532
 30
0.0
  0
VERTEX
  5
3A4
  8
0
 10
1508.081547340009
 20
71.90476733958018
 30
0.0
  0
VERTEX
  5
3A5
  8
0
 10
1508.569273145513
 20
71.87757888499999
 30
0.0
  0
VERTEX
  5
3A6
  8
0
 10
1509.05699895119
 20
71.90476733858921
 30
0.0
  0
VERTEX
  5
3A7
  8
0
 10
1509.525981727804
 20
71.98528786332149
 30
0.0
  0
VERTEX
  5
3A8
  8
0
 10
1509.958198730217
 20
72.11604610058072
 30
0.0
  0
VERTEX
  5
3A9
  8
0
 10
1510.33704010138
 20
72.29201708462766
 30
0.0
  0
VERTEX
  5
3AA
  8
0
 10
1510.647947179822
 20
72.50643834921566
 30
0.0
  0
VERTEX
  5
3AB
  8
0
 10
1510.878971980849
 20
72.75106980537663
 30
0.0
  0
VERTEX
  5
3AC
  8
0
 10
1511.021236350899
 20
73.01651040341983
 30
0.0
  0
VERTEX
  5
3AD
  8
0
 10
1511.06927315
 20
73.29255941
 30
0.0
  0
SEQEND
  5
3CD
  8
0
  0
POLYLINE
  5
1BD
  8
0
 66
     1
 10
0.0
 20
0.0
 30
0.0
  0
VERTEX
  5
3AE
  8
0
 10
1511.06927315
 20
73.29255941
 30
0.0
  0
VERTEX
  5
3AF
  8
0
 10
1511.021236351118
 20
73.56860841595743
 30
0.0
  0
VERTEX
  5
3B0
  8
0
 10
1510.878971981708
 20
73.83404901345014
 30
0.0
  0
VERTEX
  5
3B1
  8
0
 10
1510.647947181691
 20
74.07868046920055
 30
0.0
  0
VERTEX
  5
3B2
  8
0
 10
1510.337040104553
 20
74.29310173357646
 30
0.0
  0
VERTEX
  5
3B3
  8
0
 10
1509.958198734881
 20
74.46907271765552
 30
0.0
  0
VERTEX
  5
3B4
  8
0
 10
1509.525981734022
 20
74.59983095522064
 30
0.0
  0
VERTEX
  5
3B5
  8
0
 10
1509.056998958891
 20
74.68035148054369
 30
0.0
  0
VERTEX
  5
3B6
  8
0
 10
1508.569273154487
 20
74.707539935
 30
0.0
  0
VERTEX
  5
3B7
  8
0
 10
1508.081547349911
 20
74.68035148153464
 30
0.0
  0
VERTEX
  5
3B8
  8
0
 10
1507.61256457427
 20
74.59983095716447
 30
0.0
  0
VERTEX
  5
3B9
  8
0
 10
1507.180347572581
 20
74.46907272047753
 30
0.0
  0
VERTEX
  5
3BA
  8
0
 10
1506.801506201793
 20
74.2931017371682
 30
0.0
  0
VERTEX
  5
3BB
  8
0
 10
1506.490599123295
 20
74.07868047342399
 30
0.0
  0
VERTEX
  5
3BC
  8
0
 10
1506.259574321727
 20
73.83404901814298
 30
0.0
  0
VERTEX
  5
3BD
  8
0
 10
1506.117309950633
 20
73.56860842093931
 30
0.0
  0
VERTEX
  5
3BE
  8
0
 10
1506.06927315
 20
73.29255941507948
 30
0.0
  0
SEQEND
  5
3CE
  8
0
  0
POLYLINE
  5
1BE
  8
0
 66
     1
 10
0.0
 20
0.0
 30
0.0
  0
VERTEX
  5
1BF
  8
0
 10
1642.10937277
 20
41.81133622
 30
0.0
  0
VERTEX
  5
1C0
  8
0
 10
1612.92890282
 20
18.8310754
 30
0.0
  0
VERTEX
  5
1C1
  8
0
 10
1612.92890282
 20
22.12871775
 30
0.0
  0
SEQEND
  5
1C2
  8
0
  0
LINE
  5
1C3
  8
0
 10
1642.10937277
 20
45.10897857
 30
0.0
 11
1612.92890282
 21
22.12871775
 31
0.0
  0
POLYLINE
  5
1C4
  8
0
 66
     1
 10
0.0
 20
0.0
 30
0.0
  0
VERTEX
  5
1C5
  8
0
 10
1642.10937277
 20
41.81133622
 30
0.0
  0
VERTEX
  5
1C6
  8
0
 10
1642.10937277
 20
45.10897857
 30
0.0
  0
VERTEX
  5
1C7
  8
0
 10
1520.30419405
 20
94.65673471
 30
0.0
  0
VERTEX
  5
1C8
  8
0
 10
1491.1237241
 20
71.67647389
 30
0.0
  0
VERTEX
  5
1C9
  8
0
 10
1612.92890282
 20
22.12871775
 30
0.0
  0
SEQEND
  5
1CA
  8
0
  0
LINE
  5
1CB
  8
0
 10
1491.1237241
 20
68.37883154
 30
0.0
 11
1491.1237241
 21
71.67647389
 31
0.0
  0
LINE
  5
1CC
  8
0
 10
1491.1237241
 20
68.37883154
 30
0.0
 11
1612.92890282
 21
18.8310754
 31
0.0
  0
LINE
  5
1CD
  8
0
  6
STRICHPUNKT2
 62
     1
 10
1508.56927315
 20
74.32307265
 30
0.0
 11
1508.56927315
 21
71.87757889
 31
0.0
  0
LINE
  5
1CE
  8
0
  6
STRICHPUNKT2
 62
     1
 10
1508.56927315
 20
73.29255941
 30
0.0
 11
1511.61440262
 21
72.05386551
 31
0.0
  0
LINE
  5
1CF
  8
0
  6
STRICHPUNKT2
 62
     1
 10
1508.56927315
 20
73.29255941
 30
0.0
 11
1505.52414368
 21
74.53125332
 31
0.0
  0
LINE
  5
1D0
  8
0
  6
STRICHPUNKT2
 62
     1
 10
1508.56927315
 20
73.29255941
 30
0.0
 11
1510.75780839
 21
75.01607898
 31
0.0
  0
LINE
  5
1D1
  8
0
  6
STRICHPUNKT2
 62
     1
 10
1508.56927315
 20
73.29255941
 30
0.0
 11
1506.3807379
 21
71.56903985
 31
0.0
  0
LINE
  5
1D2
  8
0
  6
STRICHPUNKT2
 62
     1
 10
1523.15950812
 20
85.81320306
 30
0.0
 11
1523.15950812
 21
83.36770929
 31
0.0
  0
LINE
  5
1D3
  8
0
  6
STRICHPUNKT2
 62
     1
 10
1523.15950812
 20
84.78268982
 30
0.0
 11
1526.20463759
 21
83.54399592
 31
0.0
  0
LINE
  5
1D4
  8
0
  6
STRICHPUNKT2
 62
     1
 10
1523.15950812
 20
84.78268982
 30
0.0
 11
1520.11437865
 21
86.02138373
 31
0.0
  0
LINE
  5
1D5
  8
0
  6
STRICHPUNKT2
 62
     1
 10
1523.15950812
 20
84.78268982
 30
0.0
 11
1525.34804337
 21
86.50620938
 31
0.0
  0
LINE
  5
1D6
  8
0
  6
STRICHPUNKT2
 62
     1
 10
1523.15950812
 20
84.78268982
 30
0.0
 11
1520.97097288
 21
83.05917026
 31
0.0
  0
LINE
  5
1D7
  8
0
  6
STRICHPUNKT2
 62
     1
 10
1543.46037124
 20
77.5552437
 30
0.0
 11
1543.46037124
 21
75.10974994
 31
0.0
  0
LINE
  5
1D8
  8
0
  6
STRICHPUNKT2
 62
     1
 10
1543.46037124
 20
76.52473047
 30
0.0
 11
1546.50550071
 21
75.28603656
 31
0.0
  0
LINE
  5
1D9
  8
0
  6
STRICHPUNKT2
 62
     1
 10
1543.46037124
 20
76.52473047
 30
0.0
 11
1540.41524177
 21
77.76342437
 31
0.0
  0
LINE
  5
1DA
  8
0
  6
STRICHPUNKT2
 62
     1
 10
1543.46037124
 20
76.52473047
 30
0.0
 11
1545.64890649
 21
78.24825003
 31
0.0
  0
LINE
  5
1DB
  8
0
  6
STRICHPUNKT2
 62
     1
 10
1543.46037124
 20
76.52473047
 30
0.0
 11
1541.271836
 21
74.80121091
 31
0.0
  0
LINE
  5
1DC
  8
0
  6
STRICHPUNKT2
 62
     1
 10
1528.87013627
 20
66.06511329
 30
0.0
 11
1528.87013627
 21
63.61961953
 31
0.0
  0
LINE
  5
1DD
  8
0
  6
STRICHPUNKT2
 62
     1
 10
1528.87013627
 20
65.03460006
 30
0.0
 11
1531.91526574
 21
63.79590616
 31
0.0
  0
LINE
  5
1DE
  8
0
  6
STRICHPUNKT2
 62
     1
 10
1528.87013627
 20
65.03460006
 30
0.0
 11
1525.8250068
 21
66.27329396
 31
0.0
  0
LINE
  5
1DF
  8
0
  6
STRICHPUNKT2
 62
     1
 10
1528.87013627
 20
65.03460006
 30
0.0
 11
1531.05867151
 21
66.75811962
 31
0.0
  0
LINE
  5
1E0
  8
0
  6
STRICHPUNKT2
 62
     1
 10
1528.87013627
 20
65.03460006
 30
0.0
 11
1526.68160102
 21
63.3110805
 31
0.0
  0
LINE
  5
1E1
  8
0
  6
STRICHPUNKT2
 62
     1
 10
1570.67672106
 20
58.18385289
 30
0.0
 11
1570.67672106
 21
54.76016162
 31
0.0
  0
LINE
  5
1E2
  8
0
  6
STRICHPUNKT2
 62
     1
 10
1570.67672106
 20
56.74113436
 30
0.0
 11
1574.93990231
 21
55.00696289
 31
0.0
  0
LINE
  5
1E3
  8
0
  6
STRICHPUNKT2
 62
     1
 10
1570.67672106
 20
56.74113436
 30
0.0
 11
1566.4135398
 21
58.47530582
 31
0.0
  0
LINE
  5
1E4
  8
0
  6
STRICHPUNKT2
 62
     1
 10
1570.67672106
 20
56.74113436
 30
0.0
 11
1573.7406704
 21
59.15406174
 31
0.0
  0
LINE
  5
1E5
  8
0
  6
STRICHPUNKT2
 62
     1
 10
1570.67672106
 20
56.74113436
 30
0.0
 11
1567.61277171
 21
54.32820697
 31
0.0
  0
LINE
  5
1E6
  8
0
  6
STRICHPUNKT2
 62
     1
 10
1606.00022289
 20
43.81500361
 30
0.0
 11
1606.00022289
 21
39.9327672
 31
0.0
  0
LINE
  5
1E7
  8
0
  6
STRICHPUNKT2
 62
     1
 10
1616.55667171
 20
39.52086474
 30
0.0
 11
1616.55667171
 21
36.09717347
 31
0.0
  0
LINE
  5
1E8
  8
0
  6
STRICHPUNKT2
 62
     1
 10
1601.73704163
 20
44.10645654
 30
0.0
 11
1620.81985297
 21
36.34397475
 31
0.0
  0
LINE
  5
1E9
  8
0
  6
STRICHPUNKT2
 62
     1
 10
1602.93627354
 20
39.95935769
 30
0.0
 11
1609.06417223
 21
44.78521247
 31
0.0
  0
LINE
  5
1EA
  8
0
  6
STRICHPUNKT2
 62
     1
 10
1613.49272237
 20
35.66521883
 30
0.0
 11
1619.62062106
 21
40.4910736
 31
0.0
  0
LINE
  5
1EB
  8
0
  6
STRICHPUNKT2
 62
     1
 10
1606.71873916
 20
39.64049007
 30
0.0
 11
1608.04285578
 21
40.68326099
 31
0.0
  0
POLYLINE
  5
1EC
  8
0
 66
     1
 10
0.0
 20
0.0
 30
0.0
 70
     1
  0
VERTEX
  5
1ED
  8
0
 10
1816.53703886
 20
145.11480174
 30
0.0
 42
-1.0
  0
VERTEX
  5
1EE
  8
0
 10
1816.53703886
 20
152.11480174
 30
0.0
  0
VERTEX
  5
1EF
  8
0
 10
1829.53703886
 20
152.11480174
 30
0.0
 42
-1.0
  0
VERTEX
  5
1F0
  8
0
 10
1829.53703886
 20
145.11480174
 30
0.0
  0
SEQEND
  5
1F1
  8
0
  0
CIRCLE
  5
1F2
  8
0
 10
1773.03703886
 20
148.61480174
 30
0.0
 40
3.5
  0
CIRCLE
  5
1F3
  8
0
 10
1730.53703886
 20
136.11480174
 30
0.0
 40
2.5
  0
CIRCLE
  5
1F4
  8
0
 10
1730.53703886
 20
161.11480174
 30
0.0
 40
2.5
  0
CIRCLE
  5
1F5
  8
0
 10
1705.53703886
 20
161.11480174
 30
0.0
 40
2.5
  0
CIRCLE
  5
1F6
  8
0
 10
1705.53703886
 20
136.11480174
 30
0.0
 40
2.5
  0
LINE
  5
1F7
  8
0
 10
1843.03703886
 20
173.61480174
 30
0.0
 11
1843.03703886
 21
123.61480174
 31
0.0
  0
LINE
  5
1F8
  8
0
 10
1693.03703886
 20
123.61480174
 30
0.0
 11
1843.03703886
 21
123.61480174
 31
0.0
  0
LINE
  5
1F9
  8
0
 10
1693.03703886
 20
173.61480174
 30
0.0
 11
1693.03703886
 21
123.61480174
 31
0.0
  0
LINE
  5
1FA
  8
0
 10
1843.03703886
 20
173.61480174
 30
0.0
 11
1693.03703886
 21
173.61480174
 31
0.0
  0
LINE
  5
1FB
  8
0
  6
STRICHPUNKT2
 62
     1
 10
1705.53703886
 20
136.11480174
 30
0.0
 11
1709.28703886
 21
136.11480174
 31
0.0
  0
LINE
  5
1FC
  8
0
  6
STRICHPUNKT2
 62
     1
 10
1705.53703886
 20
136.11480174
 30
0.0
 11
1701.78703886
 21
136.11480174
 31
0.0
  0
LINE
  5
1FD
  8
0
  6
STRICHPUNKT2
 62
     1
 10
1705.53703886
 20
136.11480174
 30
0.0
 11
1705.53703886
 21
139.86480174
 31
0.0
  0
LINE
  5
1FE
  8
0
  6
STRICHPUNKT2
 62
     1
 10
1705.53703886
 20
136.11480174
 30
0.0
 11
1705.53703886
 21
132.36480174
 31
0.0
  0
LINE
  5
1FF
  8
0
  6
STRICHPUNKT2
 62
     1
 10
1705.53703886
 20
161.11480174
 30
0.0
 11
1709.28703886
 21
161.11480174
 31
0.0
  0
LINE
  5
200
  8
0
  6
STRICHPUNKT2
 62
     1
 10
1705.53703886
 20
161.11480174
 30
0.0
 11
1701.78703886
 21
161.11480174
 31
0.0
  0
LINE
  5
201
  8
0
  6
STRICHPUNKT2
 62
     1
 10
1705.53703886
 20
161.11480174
 30
0.0
 11
1705.53703886
 21
164.86480174
 31
0.0
  0
LINE
  5
202
  8
0
  6
STRICHPUNKT2
 62
     1
 10
1705.53703886
 20
161.11480174
 30
0.0
 11
1705.53703886
 21
157.36480174
 31
0.0
  0
LINE
  5
203
  8
0
  6
STRICHPUNKT2
 62
     1
 10
1730.53703886
 20
161.11480174
 30
0.0
 11
1734.28703886
 21
161.11480174
 31
0.0
  0
LINE
  5
204
  8
0
  6
STRICHPUNKT2
 62
     1
 10
1730.53703886
 20
161.11480174
 30
0.0
 11
1726.78703886
 21
161.11480174
 31
0.0
  0
LINE
  5
205
  8
0
  6
STRICHPUNKT2
 62
     1
 10
1730.53703886
 20
161.11480174
 30
0.0
 11
1730.53703886
 21
164.86480174
 31
0.0
  0
LINE
  5
206
  8
0
  6
STRICHPUNKT2
 62
     1
 10
1730.53703886
 20
161.11480174
 30
0.0
 11
1730.53703886
 21
157.36480174
 31
0.0
  0
LINE
  5
207
  8
0
  6
STRICHPUNKT2
 62
     1
 10
1730.53703886
 20
136.11480174
 30
0.0
 11
1734.28703886
 21
136.11480174
 31
0.0
  0
LINE
  5
208
  8
0
  6
STRICHPUNKT2
 62
     1
 10
1730.53703886
 20
136.11480174
 30
0.0
 11
1726.78703886
 21
136.11480174
 31
0.0
  0
LINE
  5
209
  8
0
  6
STRICHPUNKT2
 62
     1
 10
1730.53703886
 20
136.11480174
 30
0.0
 11
1730.53703886
 21
139.86480174
 31
0.0
  0
LINE
  5
20A
  8
0
  6
STRICHPUNKT2
 62
     1
 10
1730.53703886
 20
136.11480174
 30
0.0
 11
1730.53703886
 21
132.36480174
 31
0.0
  0
LINE
  5
20B
  8
0
  6
STRICHPUNKT2
 62
     1
 10
1773.03703886
 20
148.61480174
 30
0.0
 11
1778.28703886
 21
148.61480174
 31
0.0
  0
LINE
  5
20C
  8
0
  6
STRICHPUNKT2
 62
     1
 10
1773.03703886
 20
148.61480174
 30
0.0
 11
1767.78703886
 21
148.61480174
 31
0.0
  0
LINE
  5
20D
  8
0
  6
STRICHPUNKT2
 62
     1
 10
1773.03703886
 20
148.61480174
 30
0.0
 11
1773.03703886
 21
153.86480174
 31
0.0
  0
LINE
  5
20E
  8
0
  6
STRICHPUNKT2
 62
     1
 10
1773.03703886
 20
148.61480174
 30
0.0
 11
1773.03703886
 21
143.36480174
 31
0.0
  0
LINE
  5
20F
  8
0
  6
STRICHPUNKT2
 62
     1
 10
1811.28703886
 20
148.61480174
 30
0.0
 11
1834.78703886
 21
148.61480174
 31
0.0
  0
LINE
  5
210
  8
0
  6
STRICHPUNKT2
 62
     1
 10
1816.53703886
 20
143.36480174
 30
0.0
 11
1816.53703886
 21
153.86480174
 31
0.0
  0
LINE
  5
211
  8
0
  6
STRICHPUNKT2
 62
     1
 10
1829.53703886
 20
143.36480174
 30
0.0
 11
1829.53703886
 21
153.86480174
 31
0.0
  0
POLYLINE
  5
212
  8
0
 66
     1
 10
0.0
 20
0.0
 30
0.0
  0
VERTEX
  5
213
  8
0
 10
1843.03703886
 20
209.68634703
 30
0.0
  0
VERTEX
  5
214
  8
0
 10
1693.03703886
 20
209.68634703
 30
0.0
  0
VERTEX
  5
215
  8
0
 10
1693.03703886
 20
205.68634703
 30
0.0
  0
SEQEND
  5
216
  8
0
  0
LINE
  5
217
  8
0
 10
1843.03703886
 20
205.68634703
 30
0.0
 11
1693.03703886
 21
205.68634703
 31
0.0
  0
LINE
  5
218
  8
0
 10
1843.03703886
 20
209.68634703
 30
0.0
 11
1843.03703886
 21
205.68634703
 31
0.0
  0
LINE
  5
219
  8
0
  6
STRICHPUNKT2
 62
     1
 10
1773.03703886
 20
209.68634703
 30
0.0
 11
1773.03703886
 21
211.43634703
 31
0.0
  0
LINE
  5
21A
  8
0
  6
STRICHPUNKT2
 62
     1
 10
1773.03703886
 20
203.93634703
 30
0.0
 11
1773.03703886
 21
205.68634703
 31
0.0
  0
LINE
  5
21B
  8
0
  6
STRICHPUNKT2
 62
     1
 10
1730.53703886
 20
209.68634703
 30
0.0
 11
1730.53703886
 21
210.93634703
 31
0.0
  0
LINE
  5
21C
  8
0
  6
STRICHPUNKT2
 62
     1
 10
1730.53703886
 20
204.43634703
 30
0.0
 11
1730.53703886
 21
205.68634703
 31
0.0
  0
LINE
  5
21D
  8
0
  6
STRICHPUNKT2
 62
     1
 10
1705.53703886
 20
209.68634703
 30
0.0
 11
1705.53703886
 21
210.93634703
 31
0.0
  0
LINE
  5
21E
  8
0
  6
STRICHPUNKT2
 62
     1
 10
1705.53703886
 20
204.43634703
 30
0.0
 11
1705.53703886
 21
205.68634703
 31
0.0
  0
LINE
  5
21F
  8
0
  6
STRICHPUNKT2
 62
     1
 10
1816.53703886
 20
209.68634703
 30
0.0
 11
1816.53703886
 21
211.43634703
 31
0.0
  0
LINE
  5
220
  8
0
  6
STRICHPUNKT2
 62
     1
 10
1816.53703886
 20
203.93634703
 30
0.0
 11
1816.53703886
 21
205.68634703
 31
0.0
  0
LINE
  5
221
  8
0
  6
STRICHPUNKT2
 62
     1
 10
1829.53703886
 20
209.68634703
 30
0.0
 11
1829.53703886
 21
211.43634703
 31
0.0
  0
LINE
  5
222
  8
0
  6
STRICHPUNKT2
 62
     1
 10
1829.53703886
 20
203.93634703
 30
0.0
 11
1829.53703886
 21
205.68634703
 31
0.0
  0
POLYLINE
  5
223
  8
0
 66
     1
 10
0.0
 20
0.0
 30
0.0
  0
VERTEX
  5
224
  8
0
 10
1643.2427563
 20
209.68634703
 30
0.0
  0
VERTEX
  5
225
  8
0
 10
1593.2427563
 20
209.68634703
 30
0.0
  0
VERTEX
  5
226
  8
0
 10
1593.2427563
 20
205.68634703
 30
0.0
  0
SEQEND
  5
227
  8
0
  0
LINE
  5
228
  8
0
 10
1643.2427563
 20
205.68634703
 30
0.0
 11
1593.2427563
 21
205.68634703
 31
0.0
  0
LINE
  5
229
  8
0
 10
1643.2427563
 20
209.68634703
 30
0.0
 11
1643.2427563
 21
205.68634703
 31
0.0
  0
LINE
  5
22A
  8
0
  6
STRICHPUNKT2
 62
     1
 10
1605.7427563
 20
209.68634703
 30
0.0
 11
1605.7427563
 21
210.93634703
 31
0.0
  0
LINE
  5
22B
  8
0
  6
STRICHPUNKT2
 62
     1
 10
1605.7427563
 20
204.43634703
 30
0.0
 11
1605.7427563
 21
205.68634703
 31
0.0
  0
LINE
  5
22C
  8
0
  6
STRICHPUNKT2
 62
     1
 10
1618.2427563
 20
209.68634703
 30
0.0
 11
1618.2427563
 21
211.43634703
 31
0.0
  0
LINE
  5
22D
  8
0
  6
STRICHPUNKT2
 62
     1
 10
1618.2427563
 20
203.93634703
 30
0.0
 11
1618.2427563
 21
205.68634703
 31
0.0
  0
LINE
  5
22E
  8
0
  6
STRICHPUNKT2
 62
     1
 10
1630.7427563
 20
209.68634703
 30
0.0
 11
1630.7427563
 21
210.93634703
 31
0.0
  0
LINE
  5
22F
  8
0
  6
STRICHPUNKT2
 62
     1
 10
1630.7427563
 20
204.43634703
 30
0.0
 11
1630.7427563
 21
205.68634703
 31
0.0
  0
TEXT
  5
230
  8
TXT_DIM49
 10
1697.43213457
 20
180.78047706
 30
0.0
 40
2.5
  1
25
  7
ARIAL
  0
LINE
  5
231
  8
0
 62
     4
 10
1694.03703886
 20
180.28047706
 30
0.0
 11
1692.03703886
 21
178.28047706
 31
0.0
  0
LINE
  5
232
  8
0
 62
     4
 10
1704.78703886
 20
178.53047706
 30
0.0
 11
1706.28703886
 21
180.03047706
 31
0.0
  0
LINE
  5
233
  8
0
 62
     4
 10
1693.03703886
 20
179.28047706
 30
0.0
 11
1705.53703886
 21
179.28047706
 31
0.0
  0
LINE
  5
234
  8
0
 62
     4
 10
1693.03703886
 20
177.28047706
 30
0.0
 11
1693.03703886
 21
181.28047706
 31
0.0
  0
LINE
  5
235
  8
0
 62
     4
 10
1705.53703886
 20
177.28047706
 30
0.0
 11
1705.53703886
 21
181.28047706
 31
0.0
  0
TEXT
  5
236
  8
TXT_DIM49
 10
1716.18213457
 20
180.78047706
 30
0.0
 40
2.5
  1
50
  7
ARIAL
  0
LINE
  5
237
  8
0
 62
     4
 10
1706.53703886
 20
180.28047706
 30
0.0
 11
1704.53703886
 21
178.28047706
 31
0.0
  0
LINE
  5
238
  8
0
 62
     4
 10
1729.78703886
 20
178.53047706
 30
0.0
 11
1731.28703886
 21
180.03047706
 31
0.0
  0
LINE
  5
239
  8
0
 62
     4
 10
1705.53703886
 20
179.28047706
 30
0.0
 11
1730.53703886
 21
179.28047706
 31
0.0
  0
LINE
  5
23A
  8
0
 62
     4
 10
1705.53703886
 20
177.28047706
 30
0.0
 11
1705.53703886
 21
181.28047706
 31
0.0
  0
LINE
  5
23B
  8
0
 62
     4
 10
1730.53703886
 20
177.28047706
 30
0.0
 11
1730.53703886
 21
181.28047706
 31
0.0
  0
TEXT
  5
23C
  8
TXT_DIM49
 10
1749.93213457
 20
180.78047706
 30
0.0
 40
2.5
  1
85
  7
ARIAL
  0
LINE
  5
23D
  8
0
 62
     4
 10
1731.53703886
 20
180.28047706
 30
0.0
 11
1729.53703886
 21
178.28047706
 31
0.0
  0
LINE
  5
23E
  8
0
 62
     4
 10
1772.28703886
 20
178.53047706
 30
0.0
 11
1773.78703886
 21
180.03047706
 31
0.0
  0
LINE
  5
23F
  8
0
 62
     4
 10
1730.53703886
 20
179.28047706
 30
0.0
 11
1773.03703886
 21
179.28047706
 31
0.0
  0
LINE
  5
240
  8
0
 62
     4
 10
1730.53703886
 20
177.28047706
 30
0.0
 11
1730.53703886
 21
181.28047706
 31
0.0
  0
LINE
  5
241
  8
0
 62
     4
 10
1773.03703886
 20
177.28047706
 30
0.0
 11
1773.03703886
 21
181.28047706
 31
0.0
  0
TEXT
  5
242
  8
TXT_DIM49
 10
1795.25468236
 20
180.78047706
 30
0.0
 40
2.5
  1
100
  7
ARIAL
  0
LINE
  5
243
  8
0
 62
     4
 10
1774.03703886
 20
180.28047706
 30
0.0
 11
1772.03703886
 21
178.28047706
 31
0.0
  0
LINE
  5
244
  8
0
 62
     4
 10
1822.28703886
 20
178.53047706
 30
0.0
 11
1823.78703886
 21
180.03047706
 31
0.0
  0
LINE
  5
245
  8
0
 62
     4
 10
1773.03703886
 20
179.28047706
 30
0.0
 11
1823.03703886
 21
179.28047706
 31
0.0
  0
LINE
  5
246
  8
0
 62
     4
 10
1773.03703886
 20
177.28047706
 30
0.0
 11
1773.03703886
 21
181.28047706
 31
0.0
  0
LINE
  5
247
  8
0
 62
     4
 10
1823.03703886
 20
177.28047706
 30
0.0
 11
1823.03703886
 21
181.28047706
 31
0.0
  0
TEXT
  5
248
  8
TXT_DIM49
 10
1831.18213457
 20
180.78047706
 30
0.0
 40
2.5
  1
40
  7
ARIAL
  0
LINE
  5
249
  8
0
 62
     4
 10
1824.03703886
 20
180.28047706
 30
0.0
 11
1822.03703886
 21
178.28047706
 31
0.0
  0
LINE
  5
24A
  8
0
 62
     4
 10
1842.28703886
 20
178.53047706
 30
0.0
 11
1843.78703886
 21
180.03047706
 31
0.0
  0
LINE
  5
24B
  8
0
 62
     4
 10
1823.03703886
 20
179.28047706
 30
0.0
 11
1843.03703886
 21
179.28047706
 31
0.0
  0
LINE
  5
24C
  8
0
 62
     4
 10
1823.03703886
 20
177.28047706
 30
0.0
 11
1823.03703886
 21
181.28047706
 31
0.0
  0
LINE
  5
24D
  8
0
 62
     4
 10
1843.03703886
 20
177.28047706
 30
0.0
 11
1843.03703886
 21
181.28047706
 31
0.0
  0
TEXT
  5
24E
  8
TXT_DIM49
 10
1682.22322986
 20
165.50989745
 30
0.0
 40
2.5
  1
25
 50
90.00020741
  7
ARIAL
  0
LINE
  5
24F
  8
0
 62
     4
 10
1684.72322986
 20
172.61480174
 30
0.0
 11
1682.72322986
 21
174.61480174
 31
0.0
  0
LINE
  5
250
  8
0
 62
     4
 10
1682.97322986
 20
161.86480174
 30
0.0
 11
1684.47322986
 21
160.36480174
 31
0.0
  0
LINE
  5
251
  8
0
 62
     4
 10
1683.72322986
 20
173.61480174
 30
0.0
 11
1683.72322986
 21
161.11480174
 31
0.0
  0
LINE
  5
252
  8
0
 62
     4
 10
1685.72322986
 20
173.61480174
 30
0.0
 11
1681.72322986
 21
173.61480174
 31
0.0
  0
LINE
  5
253
  8
0
 62
     4
 10
1685.72322986
 20
161.11480174
 30
0.0
 11
1681.72322986
 21
161.11480174
 31
0.0
  0
TEXT
  5
254
  8
TXT_DIM49
 10
1682.22322986
 20
146.75989745
 30
0.0
 40
2.5
  1
50
 50
90.00020741
  7
ARIAL
  0
LINE
  5
255
  8
0
 62
     4
 10
1684.72322986
 20
160.11480174
 30
0.0
 11
1682.72322986
 21
162.11480174
 31
0.0
  0
LINE
  5
256
  8
0
 62
     4
 10
1682.97322986
 20
136.86480174
 30
0.0
 11
1684.47322986
 21
135.36480174
 31
0.0
  0
LINE
  5
257
  8
0
 62
     4
 10
1683.72322986
 20
161.11480174
 30
0.0
 11
1683.72322986
 21
136.11480174
 31
0.0
  0
LINE
  5
258
  8
0
 62
     4
 10
1685.72322986
 20
161.11480174
 30
0.0
 11
1681.72322986
 21
161.11480174
 31
0.0
  0
LINE
  5
259
  8
0
 62
     4
 10
1685.72322986
 20
136.11480174
 30
0.0
 11
1681.72322986
 21
136.11480174
 31
0.0
  0
TEXT
  5
25A
  8
TXT_DIM49
 10
1682.22322986
 20
128.00989745
 30
0.0
 40
2.5
  1
25
 50
90.00020741
  7
ARIAL
  0
LINE
  5
25B
  8
0
 62
     4
 10
1684.72322986
 20
135.11480174
 30
0.0
 11
1682.72322986
 21
137.11480174
 31
0.0
  0
LINE
  5
25C
  8
0
 62
     4
 10
1682.97322986
 20
124.36480174
 30
0.0
 11
1684.47322986
 21
122.86480174
 31
0.0
  0
LINE
  5
25D
  8
0
 62
     4
 10
1683.72322986
 20
136.11480174
 30
0.0
 11
1683.72322986
 21
123.61480174
 31
0.0
  0
LINE
  5
25E
  8
0
 62
     4
 10
1685.72322986
 20
136.11480174
 30
0.0
 11
1681.72322986
 21
136.11480174
 31
0.0
  0
LINE
  5
25F
  8
0
 62
     4
 10
1685.72322986
 20
123.61480174
 30
0.0
 11
1681.72322986
 21
123.61480174
 31
0.0
  0
TEXT
  5
260
  8
TXT_DIM49
 10
1850.52373202
 20
159.25989745
 30
0.0
 40
2.5
  1
50
 50
90.00020741
  7
ARIAL
  0
LINE
  5
261
  8
0
 62
     4
 10
1853.02373202
 20
172.61480174
 30
0.0
 11
1851.02373202
 21
174.61480174
 31
0.0
  0
LINE
  5
262
  8
0
 62
     4
 10
1851.27373202
 20
149.36480174
 30
0.0
 11
1852.77373202
 21
147.86480174
 31
0.0
  0
LINE
  5
263
  8
0
 62
     4
 10
1852.02373202
 20
173.61480174
 30
0.0
 11
1852.02373202
 21
148.61480174
 31
0.0
  0
LINE
  5
264
  8
0
 62
     4
 10
1850.02373202
 20
173.61480174
 30
0.0
 11
1854.02373202
 21
173.61480174
 31
0.0
  0
LINE
  5
265
  8
0
 62
     4
 10
1850.02373202
 20
148.61480174
 30
0.0
 11
1854.02373202
 21
148.61480174
 31
0.0
  0
TEXT
  5
266
  8
TXT_DIM49
 10
1850.52373202
 20
134.25989745
 30
0.0
 40
2.5
  1
50
 50
90.00020741
  7
ARIAL
  0
LINE
  5
267
  8
0
 62
     4
 10
1853.02373202
 20
147.61480174
 30
0.0
 11
1851.02373202
 21
149.61480174
 31
0.0
  0
LINE
  5
268
  8
0
 62
     4
 10
1851.27373202
 20
124.36480174
 30
0.0
 11
1852.77373202
 21
122.86480174
 31
0.0
  0
LINE
  5
269
  8
0
 62
     4
 10
1852.02373202
 20
148.61480174
 30
0.0
 11
1852.02373202
 21
123.61480174
 31
0.0
  0
LINE
  5
26A
  8
0
 62
     4
 10
1850.02373202
 20
148.61480174
 30
0.0
 11
1854.02373202
 21
148.61480174
 31
0.0
  0
LINE
  5
26B
  8
0
 62
     4
 10
1850.02373202
 20
123.61480174
 30
0.0
 11
1854.02373202
 21
123.61480174
 31
0.0
  0
TEXT
  5
26C
  8
TXT_DIM49
 10
1765.25468236
 20
221.18634703
 30
0.0
 40
2.5
  1
300
  7
ARIAL
  0
LINE
  5
26D
  8
0
 62
     4
 10
1694.03703886
 20
220.68634703
 30
0.0
 11
1692.03703886
 21
218.68634703
 31
0.0
  0
LINE
  5
26E
  8
0
 62
     4
 10
1842.28703886
 20
218.93634703
 30
0.0
 11
1843.78703886
 21
220.43634703
 31
0.0
  0
LINE
  5
26F
  8
0
 62
     4
 10
1693.03703886
 20
219.68634703
 30
0.0
 11
1843.03703886
 21
219.68634703
 31
0.0
  0
LINE
  5
270
  8
0
 62
     4
 10
1693.03703886
 20
217.68634703
 30
0.0
 11
1693.03703886
 21
221.68634703
 31
0.0
  0
LINE
  5
271
  8
0
 62
     4
 10
1843.03703886
 20
217.68634703
 30
0.0
 11
1843.03703886
 21
221.68634703
 31
0.0
  0
TEXT
  5
272
  8
TXT_DIM49
 10
1615.4603998
 20
221.18634703
 30
0.0
 40
2.5
  1
100
  7
ARIAL
  0
LINE
  5
273
  8
0
 62
     4
 10
1594.2427563
 20
220.68634703
 30
0.0
 11
1592.2427563
 21
218.68634703
 31
0.0
  0
LINE
  5
274
  8
0
 62
     4
 10
1642.4927563
 20
218.93634703
 30
0.0
 11
1643.9927563
 21
220.43634703
 31
0.0
  0
LINE
  5
275
  8
0
 62
     4
 10
1593.2427563
 20
219.68634703
 30
0.0
 11
1643.2427563
 21
219.68634703
 31
0.0
  0
LINE
  5
276
  8
0
 62
     4
 10
1593.2427563
 20
217.68634703
 30
0.0
 11
1593.2427563
 21
221.68634703
 31
0.0
  0
LINE
  5
277
  8
0
 62
     4
 10
1643.2427563
 20
217.68634703
 30
0.0
 11
1643.2427563
 21
221.68634703
 31
0.0
  0
TEXT
  5
278
  8
TXT_DIM49
 10
1582.54901284
 20
206.75889488
 30
0.0
 40
2.5
  1
8
 50
90.00020741
  7
ARIAL
  0
LINE
  5
279
  8
0
 62
     4
 10
1585.04901284
 20
208.68634703
 30
0.0
 11
1583.04901284
 21
210.68634703
 31
0.0
  0
LINE
  5
27A
  8
0
 62
     4
 10
1583.29901284
 20
206.43634703
 30
0.0
 11
1584.79901284
 21
204.93634703
 31
0.0
  0
LINE
  5
27B
  8
0
 62
     4
 10
1584.04901284
 20
209.68634703
 30
0.0
 11
1584.04901284
 21
205.68634703
 31
0.0
  0
LINE
  5
27C
  8
0
 62
     4
 10
1586.04901284
 20
209.68634703
 30
0.0
 11
1582.04901284
 21
209.68634703
 31
0.0
  0
LINE
  5
27D
  8
0
 62
     4
 10
1586.04901284
 20
205.68634703
 30
0.0
 11
1582.04901284
 21
205.68634703
 31
0.0
  0
POINT
  5
27E
  8
0
 10
1667.08038148
 20
142.76371122
 30
0.0
  0
POINT
  5
27F
  8
0
 62
     3
 10
1805.7497488
 20
-27.57360673
 30
0.0
  0
POINT
  5
280
  8
0
 62
     3
 10
1871.6141625
 20
-9.65461182
 30
0.0
  0
POINT
  5
281
  8
0
 62
     3
 10
1805.7497488
 20
-9.65461182
 30
0.0
  0
POINT
  5
282
  8
0
 62
     3
 10
1871.6141625
 20
-27.57360673
 30
0.0
  0
POINT
  5
283
  8
0
 62
     3
 10
1853.92280756
 20
-33.25628878
 30
0.0
  0
POINT
  5
284
  8
0
 62
     3
 10
1871.61483953
 20
-28.44301538
 30
0.0
  0
POINT
  5
285
  8
0
 62
     3
 10
1853.92280756
 20
-28.44301538
 30
0.0
  0
POINT
  5
286
  8
0
 62
     3
 10
1871.61483953
 20
-33.25628878
 30
0.0
  0
ENDSEC
  0
EOF
