  0
SECTION
  2
HEADER
  9
$ACADVER
  1
AC1006
  9
$DWGCODEPAGE
  3
ansi_1252
  9
$INSBASE
 10
0.0
 20
0.0
 30
0.0
  9
$EXTMIN
 10
1299.88127096
 20
-842.21715
  9
$EXTMAX
 10
2253.15036446
 20
-403.01331
  9
$LIMMIN
 10
1299.88127096
 20
-842.21715
  9
$LIMMAX
 10
2253.15036446
 20
-403.01331
  9
$ORTHOMODE
 70
     0
  9
$REGENMODE
 70
     1
  9
$FILLMODE
 70
     1
  9
$QTEXTMODE
 70
     0
  9
$MIRRTEXT
 70
     1
  9
$DRAGMODE
 70
     2
  9
$LTSCALE
 40
1.0
  9
$OSMODE
 70
    37
  9
$ATTMODE
 70
     1
  9
$TEXTSIZE
 40
1.0
  9
$TRACEWID
 40
0.05
  9
$TEXTSTYLE
  7
STANDARD
  9
$CLAYER
  8
0
  9
$CELTYPE
  6
BYBLOCK
  9
$CECOLOR
 62
   256
  9
$DIMSCALE
 40
1.0
  9
$DIMASZ
 40
0.18
  9
$DIMEXO
 40
0.0625
  9
$DIMDLI
 40
0.38
  9
$DIMRND
 40
0.0
  9
$DIMDLE
 40
0.0
  9
$DIMEXE
 40
0.18
  9
$DIMTP
 40
0.0
  9
$DIMTM
 40
0.0
  9
$DIMTXT
 40
0.18
  9
$DIMCEN
 40
0.09
  9
$DIMTSZ
 40
0.0
  9
$DIMTOL
 70
     0
  9
$DIMLIM
 70
     0
  9
$DIMTIH
 70
     1
  9
$DIMTOH
 70
     1
  9
$DIMSE1
 70
     0
  9
$DIMSE2
 70
     0
  9
$DIMTAD
 70
     0
  9
$DIMZIN
 70
     0
  9
$DIMBLK
  1

  9
$DIMASO
 70
     1
  9
$DIMSHO
 70
     1
  9
$DIMPOST
  1

  9
$DIMAPOST
  1

  9
$DIMALT
 70
     0
  9
$DIMALTD
 70
     2
  9
$DIMALTF
 40
25.4
  9
$DIMLFAC
 40
1.0
  9
$DIMTOFL
 70
     0
  9
$DIMTVP
 40
0.0
  9
$DIMTIX
 70
     0
  9
$DIMSOXD
 70
     0
  9
$DIMSAH
 70
     0
  9
$DIMBLK1
  1

  9
$DIMBLK2
  1

  9
$LUNITS
 70
     2
  9
$LUPREC
 70
     4
  9
$SKETCHINC
 40
0.1
  9
$FILLETRAD
 40
0.5
  9
$AUNITS
 70
     0
  9
$AUPREC
 70
     0
  9
$MENU
  1
.
  9
$ELEVATION
 40
0.0
  9
$THICKNESS
 40
0.0
  9
$LIMCHECK
 70
     0
  9
$CHAMFERA
 40
0.0
  9
$CHAMFERB
 40
0.0
  9
$SKPOLY
 70
     0
  9
$TDCREATE
 40
2447893.125
  9
$TDUPDATE
 40
2460791.47751787
  9
$TDINDWG
 40
0.0
  9
$TDUSRTIMER
 40
0.0
  9
$USRTIMER
 70
     1
  9
$ANGBASE
 50
0.0
  9
$ANGDIR
 70
     0
  9
$PDMODE
 70
     0
  9
$PDSIZE
 40
0.0
  9
$PLINEWID
 40
0.0
  9
$COORDS
 70
     1
  9
$SPLFRAME
 70
     0
  9
$SPLINETYPE
 70
     6
  9
$SPLINESEGS
 70
     8
  9
$ATTDIA
 70
     0
  9
$ATTREQ
 70
     1
  9
$HANDLING
 70
     1
  9
$HANDSEED
  5
403
  9
$SURFTAB1
 70
     6
  9
$SURFTAB2
 70
     6
  9
$SURFTYPE
 70
     6
  9
$SURFU
 70
     6
  9
$SURFV
 70
     6
  9
$UCSNAME
  2

  9
$UCSORG
 10
0.0
 20
0.0
 30
0.0
  9
$UCSXDIR
 10
1.0
 20
0.0
 30
0.0
  9
$UCSYDIR
 10
0.0
 20
1.0
 30
0.0
  9
$USERI1
 70
     0
  9
$USERI2
 70
     0
  9
$USERI3
 70
     0
  9
$USERI4
 70
     0
  9
$USERI5
 70
     0
  9
$USERR1
 40
0.0
  9
$USERR2
 40
0.0
  9
$USERR3
 40
0.0
  9
$USERR4
 40
0.0
  9
$USERR5
 40
0.0
  9
$WORLDVIEW
 70
     1
  0
ENDSEC
  0
SECTION
  2
TABLES
  0
TABLE
  2
VPORT
 70
     1
  0
VPORT
  2
*ACTIVE
 70
     0
 10
0.0
 20
0.0
 11
1.0
 21
1.0
 12
1776.51581771
 22
-622.61523
 13
0.0
 23
0.0
 14
1.0
 24
1.0
 15
0.0
 25
0.0
 16
0.0
 26
0.0
 36
1.0
 17
0.0
 27
0.0
 37
0.0
 40
439.20384
 41
2.170447994
 42
50.0
 43
0.0
 44
0.0
 50
0.0
 51
0.0
 71
     0
 72
   100
 73
     1
 74
     1
 75
     0
 76
     0
 77
     0
 78
     0
  0
ENDTAB
  0
TABLE
  2
LTYPE
 70
    19
  0
LTYPE
  2
CONTINUOUS
 70
     0
  3
Solid line
 72
    65
 73
     0
 40
0.0
  0
LTYPE
  2
DOT
 70
     0
  3
..............
 72
    65
 73
     2
 40
2.0
 49
0.5
 49
-1.5
  0
LTYPE
  2
HIDDEN
 70
     0
  3
-- -- -- -- --
 72
    65
 73
     2
 40
7.0
 49
4.0
 49
-3.0
  0
LTYPE
  2
DASHDOT
 70
     0
  3
--.--.--.--.--
 72
    65
 73
     4
 40
8.5
 49
4.0
 49
-2.0
 49
0.5
 49
-2.0
  0
LTYPE
  2
STRICHPUNKT2
 70
     0
  3
--.--.--.--.--
 72
    65
 73
     4
 40
18.5
 49
10.0
 49
-4.0
 49
0.5
 49
-4.0
  0
LTYPE
  2
STRICHPUNKT3
 70
     0
  3
--.--.--.--.--
 72
    65
 73
     4
 40
35.5
 49
25.0
 49
-5.0
 49
0.5
 49
-5.0
  0
LTYPE
  2
PHANTOM
 70
     0
  3
--..--..--..--
 72
    65
 73
     6
 40
23.0
 49
10.0
 49
-4.0
 49
0.5
 49
-4.0
 49
0.5
 49
-4.0
  0
LTYPE
  2
PHANTOM2
 70
     0
  3
--..--..--..--
 72
    65
 73
     6
 40
33.0
 49
20.0
 49
-4.0
 49
0.5
 49
-4.0
 49
0.5
 49
-4.0
  0
LTYPE
  2
PHANTOM3
 70
     0
  3
--..--..--..--
 72
    65
 73
     6
 40
50.0
 49
37.0
 49
-4.0
 49
0.5
 49
-4.0
 49
0.5
 49
-4.0
  0
LTYPE
  2
STR3PKT
 70
     0
  3
--...--...--...
 72
    65
 73
     8
 40
31.5
 49
20.0
 49
-2.5
 49
0.5
 49
-2.5
 49
0.5
 49
-2.5
 49
0.5
 49
-2.5
  0
LTYPE
  2
2STRPKT
 70
     0
  3
--.--.--.--.--
 72
    65
 73
     6
 40
28.0
 49
10.0
 49
-2.5
 49
10.0
 49
-2.5
 49
0.5
 49
-2.5
  0
LTYPE
  2
GESTRICHELT2
 70
     0
  3
-- -- -- -- --
 72
    65
 73
     2
 40
25.0
 49
10.0
 49
-15.0
  0
LTYPE
  2
2STR2PKT
 70
     0
  3
--..--..--..--
 72
    65
 73
     8
 40
31.0
 49
10.0
 49
-2.5
 49
10.0
 49
-2.5
 49
0.5
 49
-2.5
 49
0.5
 49
-2.5
  0
LTYPE
  2
STR3PKT2
 70
     0
  3
--...--...--...
 72
    65
 73
     8
 40
21.0
 49
10.0
 49
-2.5
 49
0.5
 49
-2.5
 49
0.5
 49
-2.5
 49
0.5
 49
-2.0
  0
LTYPE
  2
2STR3PKT
 70
     0
  3
--...--...--...
 72
    65
 73
    10
 40
34.0
 49
10.0
 49
-2.5
 49
10.0
 49
-2.5
 49
0.5
 49
-2.5
 49
0.5
 49
-2.5
 49
0.5
 49
-2.5
  0
LTYPE
  2
STRKSTR
 70
     0
  3
-- - -- - -- -
 72
    65
 73
     4
 40
30.0
 49
20.0
 49
-2.5
 49
5.0
 49
-2.5
  0
LTYPE
  2
STRKSTR2
 70
     0
  3
-- - -- - -- -
 72
    65
 73
     6
 40
37.5
 49
20.0
 49
-2.5
 49
5.0
 49
-2.5
 49
5.0
 49
-2.5
  0
LTYPE
  2
STRKSTR3
 70
     0
  3
-- - -- - -- -
 72
    65
 73
     8
 40
45.0
 49
20.0
 49
-2.5
 49
5.0
 49
-2.5
 49
5.0
 49
-2.5
 49
5.0
 49
-2.5
  0
LTYPE
  2
PUNKT2
 70
     0
  3
..............
 72
    65
 73
     2
 40
3.5
 49
0.5
 49
-3.0
  0
ENDTAB
  0
TABLE
  2
LAYER
 70
    17
  0
LAYER
  2
0
 70
     0
 62
     7
  6
CONTINUOUS
  0
LAYER
  2
LE_GREEN
 70
     0
 62
     3
  6
CONTINUOUS
  0
LAYER
  2
LE_RED
 70
     0
 62
     1
  6
CONTINUOUS
  0
LAYER
  2
LE_ALL
 70
     0
 62
     7
  6
CONTINUOUS
  0
LAYER
  2
LE_HIDDEN1
 70
     0
 62
     3
  6
HIDDEN
  0
LAYER
  2
LE_HIDDEN
 70
     0
 62
     7
  6
CONTINUOUS
  0
LAYER
  2
LE_MIDDLE
 70
     0
 62
     7
  6
CONTINUOUS
  0
LAYER
  2
TXT_YELLOW
 70
     0
 62
     2
  6
CONTINUOUS
  0
LAYER
  2
TXT_DIM49
 70
     0
 62
     2
  6
CONTINUOUS
  0
LAYER
  2
TXT_ALL
 70
     0
 62
     7
  6
CONTINUOUS
  0
LAYER
  2
DIM49
 70
     0
 62
     4
  6
CONTINUOUS
  0
LAYER
  2
HATCH
 70
     0
 62
     3
  6
CONTINUOUS
  0
LAYER
  2
APPLE
 70
     0
 62
     7
  6
CONTINUOUS
  0
LAYER
  2
10
 70
     0
 62
     7
  6
CONTINUOUS
  0
LAYER
  2
20
 70
     0
 62
     7
  6
CONTINUOUS
  0
LAYER
  2
47
 70
     0
 62
     7
  6
CONTINUOUS
  0
LAYER
  2
49
 70
     0
 62
     7
  6
CONTINUOUS
  0
ENDTAB
  0
TABLE
  2
STYLE
 70
     5
  0
STYLE
  2
MONOTXT
 70
     0
 40
0.0
 41
1.0
 50
0.0
 71
     0
 42
1.0
  3
monotxt.shx
  4

  0
STYLE
  2
STANDARD
 70
     0
 40
0.0
 41
1.0
 50
0.0
 71
     0
 42
1.0
  3
txt
  4

  0
STYLE
  2
ARIAL
 70
     0
 40
0.0
 41
1.0
 50
0.0
 71
     0
 42
1.0
  3
arial.ttf
  4

  0
STYLE
  2
ARIAL_NARROW
 70
     0
 40
0.0
 41
1.0
 50
0.0
 71
     0
 42
1.0
  3
ArialN.ttf
  4

  0
STYLE
  2
ISOCPEUR
 70
     0
 40
0.0
 41
1.0
 50
0.0
 71
     0
 42
1.0
  3
ISOCPEUR.ttf
  4

  0
ENDTAB
  0
TABLE
  2
VIEW
 70
     0
  0
ENDTAB
  0
TABLE
  2
UCS
 70
     0
  0
ENDTAB
  0
ENDSEC
  0
SECTION
  2
BLOCKS
  0
ENDSEC
  0
SECTION
  2
ENTITIES
  0
POLYLINE
  5
16E
  8
0
 66
     1
 10
0.0
 20
0.0
 30
0.0
 70
     1
  0
VERTEX
  5
16F
  8
0
 10
1509.2217316
 20
-792.35090472
 30
0.0
  0
VERTEX
  5
170
  8
0
 10
1929.2217316
 20
-792.35090472
 30
0.0
  0
VERTEX
  5
171
  8
0
 10
1929.2217316
 20
-495.35090472
 30
0.0
  0
VERTEX
  5
172
  8
0
 10
1509.2217316
 20
-495.35090472
 30
0.0
  0
SEQEND
  5
173
  8
0
  0
POLYLINE
  5
174
  8
0
 66
     1
 10
0.0
 20
0.0
 30
0.0
 70
     1
  0
VERTEX
  5
175
  8
0
 10
1514.2217316
 20
-787.35090472
 30
0.0
  0
VERTEX
  5
176
  8
0
 10
1924.2217316
 20
-787.35090472
 30
0.0
  0
VERTEX
  5
177
  8
0
 10
1924.2217316
 20
-500.35090472
 30
0.0
  0
VERTEX
  5
178
  8
0
 10
1514.2217316
 20
-500.35090472
 30
0.0
  0
SEQEND
  5
179
  8
0
  0
LINE
  5
17A
  8
0
 10
1739.2217316
 20
-787.35090472
 30
0.0
 11
1739.2217316
 21
-792.35090472
 31
0.0
  0
LINE
  5
17B
  8
0
 10
1739.2217316
 20
-500.35090472
 30
0.0
 11
1739.2217316
 21
-495.35090472
 31
0.0
  0
LINE
  5
17C
  8
0
 10
1529.2217316
 20
-787.35090472
 30
0.0
 11
1529.2217316
 21
-792.35090472
 31
0.0
  0
LINE
  5
17D
  8
0
 10
1529.2217316
 20
-500.35090472
 30
0.0
 11
1529.2217316
 21
-495.35090472
 31
0.0
  0
TEXT
  5
17E
  8
TXT_ALL
 62
     4
 10
1928.2217316
 20
-791.35090472
 30
0.0
 40
2.5
  1

 50
90.00020741
  0
POLYLINE
  5
17F
  8
0
 66
     1
 10
0.0
 20
0.0
 30
0.0
  0
VERTEX
  5
180
  8
0
 10
1924.2217316
 20
-510.35090472
 30
0.0
  0
VERTEX
  5
181
  8
0
 10
1855.2284316
 20
-510.35090472
 30
0.0
  0
VERTEX
  5
182
  8
0
 10
1855.2284316
 20
-500.35090472
 30
0.0
  0
SEQEND
  5
183
  8
0
  0
LINE
  5
184
  8
0
 10
1857.1317316
 20
-767.85090472
 30
0.0
 11
1717.2417316
 21
-767.85090472
 31
0.0
  0
LINE
  5
185
  8
0
 10
1717.2417316
 20
-777.60090472
 30
0.0
 11
1857.1317316
 21
-777.60090472
 31
0.0
  0
POLYLINE
  5
186
  8
0
 66
     1
 10
0.0
 20
0.0
 30
0.0
  0
VERTEX
  5
187
  8
0
 10
1717.2417316
 20
-767.85090472
 30
0.0
  0
VERTEX
  5
188
  8
0
 10
1717.2417316
 20
-777.60090472
 30
0.0
  0
VERTEX
  5
189
  8
0
 10
1717.2417316
 20
-787.35090472
 30
0.0
  0
SEQEND
  5
18A
  8
0
  0
POLYLINE
  5
18B
  8
0
 66
     1
 10
0.0
 20
0.0
 30
0.0
  0
VERTEX
  5
18C
  8
0
 10
1787.1867316
 20
-767.85090472
 30
0.0
  0
VERTEX
  5
18D
  8
0
 10
1787.1867316
 20
-777.60090472
 30
0.0
  0
VERTEX
  5
18E
  8
0
 10
1787.1867316
 20
-787.35090472
 30
0.0
  0
SEQEND
  5
18F
  8
0
  0
TEXT
  5
190
  8
TXT_ALL
 10
1719.2417316
 20
-774.02590467
 30
0.0
 40
2.5999999
  1
E-mail: verkoop@jonkers-bouwmetaal.nl
  7
ARIAL
  0
TEXT
  5
191
  8
TXT_ALL
 10
1719.2417316
 20
-783.77590467
 30
0.0
 40
2.5999999
  1
Telefoon: 0527-685156
  7
ARIAL
  0
TEXT
  5
192
  8
TXT_ALL
 10
1789.1867316
 20
-783.77590467
 30
0.0
 40
2.5999999
  1
Website: www.jonkers-bouwmetaal.nl
  7
ARIAL
  0
TEXT
  5
193
  8
TXT_ALL
 10
1789.1867316
 20
-774.02590467
 30
0.0
 40
2.5999999
  1
Adres: Hoornse Hop 10, 8321 WX Urk
  7
ARIAL
  0
TEXT
  5
194
  8
TXT_ALL
 10
1517.66369185
 20
-506.60090472
 30
0.0
 40
2.5
  1
Art. nr. 91007582
  7
ARIAL
  0
TEXT
  5
195
  8
TXT_ALL
 10
1560.40172867
 20
-506.60090472
 30
0.0
 40
2.5
  1
Omschrijving: H2001-anker 200x80 100x10
  7
ARIAL
  0
LINE
  5
196
  8
0
 10
1924.2217316
 20
-510.35090472
 30
0.0
 11
1514.2217316
 21
-510.35090472
 31
0.0
  0
LINE
  5
197
  8
0
 10
1557.2417316
 20
-510.35090472
 30
0.0
 11
1557.2417316
 21
-500.35090472
 31
0.0
  0
LINE
  5
198
  8
0
 10
1717.2417316
 20
-510.35090472
 30
0.0
 11
1717.2417316
 21
-500.35090472
 31
0.0
  0
TEXT
  5
199
  8
TXT_ALL
 10
1788.2354316
 20
-506.60090472
 30
0.0
 40
2.5
  1
Behandeling: Thermisch Verzinkt
  7
ARIAL
  0
LINE
  5
19A
  8
0
 10
1857.1317316
 20
-767.85090472
 30
0.0
 11
1924.2217316
 21
-767.85090472
 31
0.0
  0
LINE
  5
19B
  8
0
 10
1857.1317316
 20
-787.35090472
 30
0.0
 11
1857.1317316
 21
-767.85090472
 31
0.0
  0
LINE
  5
19C
  8
0
 10
1857.1317316
 20
-787.35090472
 30
0.0
 11
1857.1317316
 21
-767.85090472
 31
0.0
  0
TEXT
  5
19D
  8
TXT_ALL
 10
1651.58692969
 20
-786.1963713
 30
0.0
 40
2.5
  1

  0
TEXT
  5
19E
  8
TXT_ALL
 10
1772.72211266
 20
-776.10090472
 30
0.0
 40
2.5
  1

  0
POLYLINE
  5
19F
  8
0
 66
     1
 10
0.0
 20
0.0
 30
0.0
  0
VERTEX
  5
1A0
  8
0
 10
1855.2284316
 20
-510.35090472
 30
0.0
  0
VERTEX
  5
1A1
  8
0
 10
1786.2354316
 20
-510.35090472
 30
0.0
  0
VERTEX
  5
1A2
  8
0
 10
1786.2354316
 20
-500.35090472
 30
0.0
  0
SEQEND
  5
1A3
  8
0
  0
TEXT
  5
1A4
  8
TXT_ALL
 10
1857.2284316
 20
-506.60090472
 30
0.0
 40
2.5
  1
Verpakkingshoeveelheid: 1 st.
  7
ARIAL
  0
TEXT
  5
1A5
  8
TXT_ALL
 10
1719.2417316
 20
-506.60090472
 30
0.0
 40
2.5
  1
Materiaal: S355
  7
ARIAL
  0
TEXT
  5
1A6
  8
TXT_ALL
 10
1891.71415451
 20
-790.60041457
 30
0.0
 40
1.5
  1
Onderdeel van
  7
ARIAL
  0
POLYLINE
  5
1A7
  8
0
 66
     1
 10
0.0
 20
0.0
 30
0.0
  0
VERTEX
  5
1A8
  8
0
 10
1566.01347004
 20
-702.20245737
 30
0.0
  0
VERTEX
  5
1A9
  8
0
 10
1542.443244
 20
-722.98944285
 30
0.0
  0
VERTEX
  5
1AA
  8
0
 10
1536.20714836
 20
-722.20376865
 30
0.0
  0
SEQEND
  5
1AB
  8
0
  0
POLYLINE
  5
1AC
  8
0
 66
     1
 10
0.0
 20
0.0
 30
0.0
  0
VERTEX
  5
329
  8
0
 10
1566.013470057314
 20
-702.2024573770902
 30
0.0
  0
VERTEX
  5
32A
  8
0
 10
1566.133294891666
 20
-703.4437733429229
 30
0.0
  0
VERTEX
  5
32B
  8
0
 10
1566.488164580727
 20
-704.6675792510999
 30
0.0
  0
VERTEX
  5
32C
  8
0
 10
1567.064441681476
 20
-705.826844927294
 30
0.0
  0
VERTEX
  5
32D
  8
0
 10
1567.839980188304
 20
-706.8770204420769
 30
0.0
  0
VERTEX
  5
32E
  8
0
 10
1568.784976591576
 20
-707.7777481397087
 30
0.0
  0
VERTEX
  5
32F
  8
0
 10
1569.863115209789
 20
-708.4944135602017
 30
0.0
  0
VERTEX
  5
330
  8
0
 10
1571.032963780829
 20
-708.9994756535946
 30
0.0
  0
VERTEX
  5
331
  8
0
 10
1572.249565680557
 20
-709.2735251670478
 30
0.0
  0
SEQEND
  5
3F2
  8
0
  0
POLYLINE
  5
1AD
  8
0
 66
     1
 10
0.0
 20
0.0
 30
0.0
  0
VERTEX
  5
1AE
  8
0
 10
1572.24956569
 20
-709.27352518
 30
0.0
  0
VERTEX
  5
1AF
  8
0
 10
1548.67933965
 20
-730.06051066
 30
0.0
  0
SEQEND
  5
1B0
  8
0
  0
POLYLINE
  5
1B1
  8
0
 66
     1
 10
0.0
 20
0.0
 30
0.0
  0
VERTEX
  5
332
  8
0
 10
1542.443244017314
 20
-722.9894428570902
 30
0.0
  0
VERTEX
  5
333
  8
0
 10
1542.563068851666
 20
-724.2307588229229
 30
0.0
  0
VERTEX
  5
334
  8
0
 10
1542.917938540726
 20
-725.4545647310999
 30
0.0
  0
VERTEX
  5
335
  8
0
 10
1543.494215641476
 20
-726.613830407294
 30
0.0
  0
VERTEX
  5
336
  8
0
 10
1544.269754148303
 20
-727.6640059220769
 30
0.0
  0
VERTEX
  5
337
  8
0
 10
1545.214750551576
 20
-728.5647336197087
 30
0.0
  0
VERTEX
  5
338
  8
0
 10
1546.292889169789
 20
-729.2813990402017
 30
0.0
  0
VERTEX
  5
339
  8
0
 10
1547.462737740829
 20
-729.7864611335946
 30
0.0
  0
VERTEX
  5
33A
  8
0
 10
1548.679339640556
 20
-730.0605106470477
 30
0.0
  0
SEQEND
  5
3F3
  8
0
  0
POLYLINE
  5
1B2
  8
0
 66
     1
 10
0.0
 20
0.0
 30
0.0
  0
VERTEX
  5
1B3
  8
0
 10
1548.67933965
 20
-730.06051066
 30
0.0
  0
VERTEX
  5
1B4
  8
0
 10
1548.67933965
 20
-736.34590427
 30
0.0
  0
SEQEND
  5
1B5
  8
0
  0
POLYLINE
  5
1B6
  8
0
 66
     1
 10
0.0
 20
0.0
 30
0.0
  0
VERTEX
  5
33B
  8
0
 10
1536.207148384628
 20
-722.2037686641804
 30
0.0
  0
VERTEX
  5
33C
  8
0
 10
1536.446798053332
 20
-724.6864005958457
 30
0.0
  0
VERTEX
  5
33D
  8
0
 10
1537.156537431453
 20
-727.1340124121999
 30
0.0
  0
VERTEX
  5
33E
  8
0
 10
1538.309091632952
 20
-729.4525437645882
 30
0.0
  0
VERTEX
  5
33F
  8
0
 10
1539.860168646607
 20
-731.5528947941538
 30
0.0
  0
VERTEX
  5
340
  8
0
 10
1541.750161453152
 20
-733.3543501894172
 30
0.0
  0
VERTEX
  5
341
  8
0
 10
1543.906438689578
 20
-734.7876810304033
 30
0.0
  0
VERTEX
  5
342
  8
0
 10
1546.246135831657
 20
-735.7978052171892
 30
0.0
  0
VERTEX
  5
343
  8
0
 10
1548.679339631112
 20
-736.3459042440955
 30
0.0
  0
SEQEND
  5
3F4
  8
0
  0
POLYLINE
  5
1B7
  8
0
 66
     1
 10
0.0
 20
0.0
 30
0.0
  0
VERTEX
  5
344
  8
0
 10
1566.39914859
 20
-721.002664054416
 30
0.0
  0
VERTEX
  5
345
  8
0
 10
1566.493633877767
 20
-721.3141007308216
 30
0.0
  0
VERTEX
  5
346
  8
0
 10
1566.773263689241
 20
-721.6129261853042
 30
0.0
  0
VERTEX
  5
347
  8
0
 10
1567.226714779797
 20
-721.8870398707032
 30
0.0
  0
VERTEX
  5
348
  8
0
 10
1567.835625238748
 20
-722.1253419107273
 30
0.0
  0
VERTEX
  5
349
  8
0
 10
1568.575338030978
 20
-722.318182574972
 30
0.0
  0
VERTEX
  5
34A
  8
0
 10
1569.415899451427
 20
-722.4577530321709
 30
0.0
  0
SEQEND
  5
3F5
  8
0
  0
POLYLINE
  5
1B8
  8
0
 66
     1
 10
0.0
 20
0.0
 30
0.0
  0
VERTEX
  5
34B
  8
0
 10
1572.715731096555
 20
-719.5475750913546
 30
0.0
  0
VERTEX
  5
34C
  8
0
 10
1571.846826258428
 20
-719.4690481727777
 30
0.0
  0
VERTEX
  5
34D
  8
0
 10
1570.948854879883
 20
-719.4475971574346
 30
0.0
  0
VERTEX
  5
34E
  8
0
 10
1570.055236364003
 20
-719.4840203782628
 30
0.0
  0
VERTEX
  5
34F
  8
0
 10
1569.199228115309
 20
-719.5769622883845
 30
0.0
  0
VERTEX
  5
350
  8
0
 10
1568.412687813664
 20
-719.7229639098948
 30
0.0
  0
VERTEX
  5
351
  8
0
 10
1567.724887781115
 20
-719.9165915651105
 30
0.0
  0
VERTEX
  5
352
  8
0
 10
1567.161425566846
 20
-720.1506390993452
 30
0.0
  0
VERTEX
  5
353
  8
0
 10
1566.743271294526
 20
-720.4163960691775
 30
0.0
  0
VERTEX
  5
354
  8
0
 10
1566.485987226508
 20
-720.7039719151651
 30
0.0
  0
VERTEX
  5
355
  8
0
 10
1566.39914859
 20
-721.002664054416
 30
0.0
  0
SEQEND
  5
3F6
  8
0
  0
POLYLINE
  5
1B9
  8
0
 66
     1
 10
0.0
 20
0.0
 30
0.0
  0
VERTEX
  5
1BA
  8
0
 10
1572.71573108
 20
-719.54757508
 30
0.0
  0
VERTEX
  5
1BB
  8
0
 10
1638.81834492
 20
-727.87572161
 30
0.0
  0
SEQEND
  5
1BC
  8
0
  0
POLYLINE
  5
1BD
  8
0
 66
     1
 10
0.0
 20
0.0
 30
0.0
  0
VERTEX
  5
356
  8
0
 10
1641.83509576
 20
-729.3308106
 30
0.0
  0
VERTEX
  5
357
  8
0
 10
1641.740610470436
 20
-729.0193739262475
 30
0.0
  0
VERTEX
  5
358
  8
0
 10
1641.46098066029
 20
-728.7205484743288
 30
0.0
  0
VERTEX
  5
359
  8
0
 10
1641.007529573944
 20
-728.4464347911014
 30
0.0
  0
VERTEX
  5
35A
  8
0
 10
1640.398619121615
 20
-728.2081327525857
 30
0.0
  0
VERTEX
  5
35B
  8
0
 10
1639.658906337743
 20
-728.0152920889659
 30
0.0
  0
VERTEX
  5
35C
  8
0
 10
1638.818344926555
 20
-727.8757216313545
 30
0.0
  0
SEQEND
  5
3F7
  8
0
  0
POLYLINE
  5
1BE
  8
0
 66
     1
 10
0.0
 20
0.0
 30
0.0
  0
VERTEX
  5
35D
  8
0
 10
1635.518513281427
 20
-730.7858995721708
 30
0.0
  0
VERTEX
  5
35E
  8
0
 10
1636.387418119767
 20
-730.8644264888177
 30
0.0
  0
VERTEX
  5
35F
  8
0
 10
1637.28538949739
 20
-730.8858775023375
 30
0.0
  0
VERTEX
  5
360
  8
0
 10
1638.179008011346
 20
-730.8494542798629
 30
0.0
  0
VERTEX
  5
361
  8
0
 10
1639.035016257283
 20
-730.756512368329
 30
0.0
  0
VERTEX
  5
362
  8
0
 10
1639.821556555532
 20
-730.6105107456832
 30
0.0
  0
VERTEX
  5
363
  8
0
 10
1640.509356584257
 20
-730.4168830896353
 30
0.0
  0
VERTEX
  5
364
  8
0
 10
1641.072818794493
 20
-730.1828355548815
 30
0.0
  0
VERTEX
  5
365
  8
0
 10
1641.49097306278
 20
-729.9170785848374
 30
0.0
  0
VERTEX
  5
366
  8
0
 10
1641.748257126961
 20
-729.6295027389241
 30
0.0
  0
VERTEX
  5
367
  8
0
 10
1641.83509576
 20
-729.3308106
 30
0.0
  0
SEQEND
  5
3F8
  8
0
  0
LINE
  5
1BF
  8
0
 10
1635.51851327
 20
-730.78589958
 30
0.0
 11
1569.41589944
 21
-722.45775305
 31
0.0
  0
LINE
  5
1C0
  8
0
 10
1660.92906125
 20
-744.20264629
 30
0.0
 11
1548.67933965
 21
-730.06051066
 31
0.0
  0
LINE
  5
1C1
  8
0
 10
1572.24956569
 20
-709.27352518
 30
0.0
 11
1548.67933965
 21
-730.06051066
 31
0.0
  0
POLYLINE
  5
1C2
  8
0
 66
     1
 10
0.0
 20
0.0
 30
0.0
  0
VERTEX
  5
1C3
  8
0
 10
1572.24956569
 20
-709.27352518
 30
0.0
  0
VERTEX
  5
1C4
  8
0
 10
1684.49928729
 20
-723.4156608
 30
0.0
  0
VERTEX
  5
1C5
  8
0
 10
1660.92906125
 20
-744.20264629
 30
0.0
  0
VERTEX
  5
1C6
  8
0
 10
1660.92906125
 20
-750.4880399
 30
0.0
  0
VERTEX
  5
1C7
  8
0
 10
1548.67933965
 20
-736.34590427
 30
0.0
  0
SEQEND
  5
1C8
  8
0
  0
LINE
  5
1C9
  8
0
 10
1548.67933965
 20
-730.06051066
 30
0.0
 11
1548.67933965
 21
-736.34590427
 31
0.0
  0
LINE
  5
1CA
  8
0
 10
1684.49928729
 20
-729.70105441
 30
0.0
 11
1660.92906125
 21
-750.4880399
 31
0.0
  0
LINE
  5
1CB
  8
0
 10
1684.49928729
 20
-723.4156608
 30
0.0
 11
1684.49928729
 21
-729.70105441
 31
0.0
  0
LINE
  5
1CC
  8
0
  6
STRICHPUNKT2
 62
     1
 10
1571.06581526
 20
-718.8027763
 30
0.0
 11
1571.06581526
 21
-722.6656229
 31
0.0
  0
LINE
  5
1CD
  8
0
  6
STRICHPUNKT2
 62
     1
 10
1637.16842909
 20
-727.13092283
 30
0.0
 11
1637.16842909
 21
-730.88636615
 31
0.0
  0
LINE
  5
1CE
  8
0
  6
STRICHPUNKT2
 62
     1
 10
1564.51791483
 20
-720.17770615
 30
0.0
 11
1643.71632952
 21
-730.15576851
 31
0.0
  0
LINE
  5
1CF
  8
0
  6
STRICHPUNKT2
 62
     1
 10
1568.59094153
 20
-723.18529754
 30
0.0
 11
1573.540689
 21
-718.82003059
 31
0.0
  0
LINE
  5
1D0
  8
0
  6
STRICHPUNKT2
 62
     1
 10
1634.69355536
 20
-731.51344407
 30
0.0
 11
1639.64330283
 21
-727.14817712
 31
0.0
  0
POLYLINE
  5
1D1
  8
0
 66
     1
 10
0.0
 20
0.0
 30
0.0
  0
VERTEX
  5
368
  8
0
 10
1560.41135364
 20
-681.79851207
 30
0.0
  0
VERTEX
  5
369
  8
0
 10
1560.634426635582
 20
-681.7620612361392
 30
0.0
  0
VERTEX
  5
36A
  8
0
 10
1560.864939327485
 20
-681.599917763711
 30
0.0
  0
VERTEX
  5
36B
  8
0
 10
1561.094033242255
 20
-681.3183127354155
 30
0.0
  0
VERTEX
  5
36C
  8
0
 10
1561.312904429243
 20
-680.9280680745395
 30
0.0
  0
VERTEX
  5
36D
  8
0
 10
1561.513141791497
 20
-680.4441806645145
 30
0.0
  0
VERTEX
  5
36E
  8
0
 10
1561.687050319498
 20
-679.8852460270984
 30
0.0
  0
VERTEX
  5
36F
  8
0
 10
1561.827946806058
 20
-679.272743706904
 30
0.0
  0
VERTEX
  5
370
  8
0
 10
1561.930416678228
 20
-678.6302118245471
 30
0.0
  0
VERTEX
  5
371
  8
0
 10
1561.990522076294
 20
-677.982342519875
 30
0.0
  0
VERTEX
  5
372
  8
0
 10
1562.005953183522
 20
-677.3540330468799
 30
0.0
  0
VERTEX
  5
373
  8
0
 10
1561.976116991116
 20
-676.7694289861938
 30
0.0
  0
VERTEX
  5
374
  8
0
 10
1561.902160087215
 20
-676.2509963439684
 30
0.0
  0
VERTEX
  5
375
  8
0
 10
1561.786924594155
 20
-675.8186581958585
 30
0.0
  0
VERTEX
  5
376
  8
0
 10
1561.634838947298
 20
-675.4890290543999
 30
0.0
  0
VERTEX
  5
377
  8
0
 10
1561.451747712749
 20
-675.2747763826121
 30
0.0
  0
VERTEX
  5
378
  8
0
 10
1561.244686983958
 20
-675.1841337904987
 30
0.0
  0
SEQEND
  5
3F9
  8
0
  0
POLYLINE
  5
1D2
  8
0
 66
     1
 10
0.0
 20
0.0
 30
0.0
  0
VERTEX
  5
379
  8
0
 10
1561.244686983958
 20
-675.1841337904987
 30
0.0
  0
VERTEX
  5
37A
  8
0
 10
1561.02161398807
 20
-675.220584622262
 30
0.0
  0
VERTEX
  5
37B
  8
0
 10
1560.791101295686
 20
-675.3827280932271
 30
0.0
  0
VERTEX
  5
37C
  8
0
 10
1560.562007380321
 20
-675.6643331207213
 30
0.0
  0
VERTEX
  5
37D
  8
0
 10
1560.343136192685
 20
-676.0545777814393
 30
0.0
  0
VERTEX
  5
37E
  8
0
 10
1560.142898829794
 20
-676.5384651918877
 30
0.0
  0
VERTEX
  5
37F
  8
0
 10
1559.968990301226
 20
-677.0973998302072
 30
0.0
  0
VERTEX
  5
380
  8
0
 10
1559.828093814221
 20
-677.7099021516528
 30
0.0
  0
VERTEX
  5
381
  8
0
 10
1559.725623941772
 20
-678.3524340354529
 30
0.0
  0
VERTEX
  5
382
  8
0
 10
1559.665518543619
 20
-679.0003033415927
 30
0.0
  0
VERTEX
  5
383
  8
0
 10
1559.650087436511
 20
-679.6286128159101
 30
0.0
  0
VERTEX
  5
384
  8
0
 10
1559.679923629242
 20
-680.2132168776117
 30
0.0
  0
VERTEX
  5
385
  8
0
 10
1559.753880533655
 20
-680.7316495204053
 30
0.0
  0
VERTEX
  5
386
  8
0
 10
1559.869116027383
 20
-681.1639876685231
 30
0.0
  0
VERTEX
  5
387
  8
0
 10
1560.021201675015
 20
-681.4936168093531
 30
0.0
  0
VERTEX
  5
388
  8
0
 10
1560.204292910392
 20
-681.7078694798425
 30
0.0
  0
VERTEX
  5
389
  8
0
 10
1560.41135364
 20
-681.79851207
 30
0.0
  0
SEQEND
  5
3FA
  8
0
  0
POLYLINE
  5
1D3
  8
0
 66
     1
 10
0.0
 20
0.0
 30
0.0
  0
VERTEX
  5
38A
  8
0
 10
1547.21202706
 20
-693.43922394
 30
0.0
  0
VERTEX
  5
38B
  8
0
 10
1547.435100055581
 20
-693.4027731061392
 30
0.0
  0
VERTEX
  5
38C
  8
0
 10
1547.665612747485
 20
-693.240629633711
 30
0.0
  0
VERTEX
  5
38D
  8
0
 10
1547.894706662255
 20
-692.9590246054155
 30
0.0
  0
VERTEX
  5
38E
  8
0
 10
1548.113577849243
 20
-692.5687799445395
 30
0.0
  0
VERTEX
  5
38F
  8
0
 10
1548.313815211497
 20
-692.0848925345146
 30
0.0
  0
VERTEX
  5
390
  8
0
 10
1548.487723739498
 20
-691.5259578970985
 30
0.0
  0
VERTEX
  5
391
  8
0
 10
1548.628620226058
 20
-690.913455576904
 30
0.0
  0
VERTEX
  5
392
  8
0
 10
1548.731090098228
 20
-690.2709236945472
 30
0.0
  0
VERTEX
  5
393
  8
0
 10
1548.791195496294
 20
-689.623054389875
 30
0.0
  0
VERTEX
  5
394
  8
0
 10
1548.806626603522
 20
-688.9947449168799
 30
0.0
  0
VERTEX
  5
395
  8
0
 10
1548.776790411116
 20
-688.4101408561938
 30
0.0
  0
VERTEX
  5
396
  8
0
 10
1548.702833507215
 20
-687.8917082139684
 30
0.0
  0
VERTEX
  5
397
  8
0
 10
1548.587598014155
 20
-687.4593700658585
 30
0.0
  0
VERTEX
  5
398
  8
0
 10
1548.435512367297
 20
-687.1297409243999
 30
0.0
  0
VERTEX
  5
399
  8
0
 10
1548.252421132749
 20
-686.9154882526121
 30
0.0
  0
VERTEX
  5
39A
  8
0
 10
1548.045360403957
 20
-686.8248456604987
 30
0.0
  0
SEQEND
  5
3FB
  8
0
  0
POLYLINE
  5
1D4
  8
0
 66
     1
 10
0.0
 20
0.0
 30
0.0
  0
VERTEX
  5
39B
  8
0
 10
1548.045360403957
 20
-686.8248456604987
 30
0.0
  0
VERTEX
  5
39C
  8
0
 10
1547.82228740807
 20
-686.861296492262
 30
0.0
  0
VERTEX
  5
39D
  8
0
 10
1547.591774715686
 20
-687.0234399632271
 30
0.0
  0
VERTEX
  5
39E
  8
0
 10
1547.362680800321
 20
-687.3050449907213
 30
0.0
  0
VERTEX
  5
39F
  8
0
 10
1547.143809612685
 20
-687.6952896514393
 30
0.0
  0
VERTEX
  5
3A0
  8
0
 10
1546.943572249794
 20
-688.1791770618877
 30
0.0
  0
VERTEX
  5
3A1
  8
0
 10
1546.769663721226
 20
-688.7381117002072
 30
0.0
  0
VERTEX
  5
3A2
  8
0
 10
1546.628767234221
 20
-689.3506140216529
 30
0.0
  0
VERTEX
  5
3A3
  8
0
 10
1546.526297361772
 20
-689.9931459054529
 30
0.0
  0
VERTEX
  5
3A4
  8
0
 10
1546.466191963619
 20
-690.6410152115927
 30
0.0
  0
VERTEX
  5
3A5
  8
0
 10
1546.450760856511
 20
-691.2693246859101
 30
0.0
  0
VERTEX
  5
3A6
  8
0
 10
1546.480597049242
 20
-691.8539287476117
 30
0.0
  0
VERTEX
  5
3A7
  8
0
 10
1546.554553953655
 20
-692.3723613904053
 30
0.0
  0
VERTEX
  5
3A8
  8
0
 10
1546.669789447383
 20
-692.8046995385231
 30
0.0
  0
VERTEX
  5
3A9
  8
0
 10
1546.821875095015
 20
-693.1343286793531
 30
0.0
  0
VERTEX
  5
3AA
  8
0
 10
1547.004966330392
 20
-693.3485813498426
 30
0.0
  0
VERTEX
  5
3AB
  8
0
 10
1547.21202706
 20
-693.43922394
 30
0.0
  0
SEQEND
  5
3FC
  8
0
  0
POLYLINE
  5
1D5
  8
0
 66
     1
 10
0.0
 20
0.0
 30
0.0
  0
VERTEX
  5
1D6
  8
0
 10
1566.01347004
 20
-664.49009571
 30
0.0
  0
VERTEX
  5
1D7
  8
0
 10
1542.443244
 20
-685.27708119
 30
0.0
  0
VERTEX
  5
1D8
  8
0
 10
1536.20714836
 20
-684.49140699
 30
0.0
  0
SEQEND
  5
1D9
  8
0
  0
LINE
  5
1DA
  8
0
 10
1559.7773744
 20
-663.7044215
 30
0.0
 11
1536.20714836
 21
-684.49140699
 31
0.0
  0
LINE
  5
1DB
  8
0
 10
1566.01347004
 20
-664.49009571
 30
0.0
 11
1559.7773744
 21
-663.7044215
 31
0.0
  0
POLYLINE
  5
1DC
  8
0
 66
     1
 10
0.0
 20
0.0
 30
0.0
  0
VERTEX
  5
1DD
  8
0
 10
1566.01347004
 20
-664.49009571
 30
0.0
  0
VERTEX
  5
1DE
  8
0
 10
1566.01347004
 20
-702.20245737
 30
0.0
  0
VERTEX
  5
1DF
  8
0
 10
1560.82801826
 20
-706.77559598
 30
0.0
  0
VERTEX
  5
1E0
  8
0
 10
1547.62869163
 20
-718.4163079
 30
0.0
  0
VERTEX
  5
1E1
  8
0
 10
1542.443244
 20
-722.98944285
 30
0.0
  0
VERTEX
  5
1E2
  8
0
 10
1542.443244
 20
-685.27708119
 30
0.0
  0
SEQEND
  5
1E3
  8
0
  0
POLYLINE
  5
1E4
  8
0
 66
     1
 10
0.0
 20
0.0
 30
0.0
  0
VERTEX
  5
1E5
  8
0
 10
1542.443244
 20
-722.98944285
 30
0.0
  0
VERTEX
  5
1E6
  8
0
 10
1536.20714836
 20
-722.20376865
 30
0.0
  0
VERTEX
  5
1E7
  8
0
 10
1536.20714836
 20
-684.49140699
 30
0.0
  0
SEQEND
  5
1E8
  8
0
  0
POLYLINE
  5
1E9
  8
0
 66
     1
 10
0.0
 20
0.0
 30
0.0
  0
VERTEX
  5
3AC
  8
0
 10
1547.21202706
 20
-718.58079838
 30
0.0
  0
VERTEX
  5
3AD
  8
0
 10
1547.416911794228
 20
-718.5519199557477
 30
0.0
  0
VERTEX
  5
3AE
  8
0
 10
1547.628691620768
 20
-718.4163079003663
 30
0.0
  0
SEQEND
  5
3FD
  8
0
  0
POLYLINE
  5
1EA
  8
0
 66
     1
 10
0.0
 20
0.0
 30
0.0
  0
VERTEX
  5
3AF
  8
0
 10
1548.045360403957
 20
-711.9664201004987
 30
0.0
  0
VERTEX
  5
3B0
  8
0
 10
1547.82228740807
 20
-712.002870932262
 30
0.0
  0
VERTEX
  5
3B1
  8
0
 10
1547.591774715686
 20
-712.1650144032271
 30
0.0
  0
VERTEX
  5
3B2
  8
0
 10
1547.362680800321
 20
-712.4466194307213
 30
0.0
  0
VERTEX
  5
3B3
  8
0
 10
1547.143809612685
 20
-712.8368640914393
 30
0.0
  0
VERTEX
  5
3B4
  8
0
 10
1546.943572249794
 20
-713.3207515018877
 30
0.0
  0
VERTEX
  5
3B5
  8
0
 10
1546.769663721226
 20
-713.8796861402072
 30
0.0
  0
VERTEX
  5
3B6
  8
0
 10
1546.628767234221
 20
-714.4921884616529
 30
0.0
  0
VERTEX
  5
3B7
  8
0
 10
1546.526297361772
 20
-715.1347203454529
 30
0.0
  0
VERTEX
  5
3B8
  8
0
 10
1546.466191963619
 20
-715.7825896515927
 30
0.0
  0
VERTEX
  5
3B9
  8
0
 10
1546.450760856511
 20
-716.4108991259101
 30
0.0
  0
VERTEX
  5
3BA
  8
0
 10
1546.480597049242
 20
-716.9955031876117
 30
0.0
  0
VERTEX
  5
3BB
  8
0
 10
1546.554553953655
 20
-717.5139358304053
 30
0.0
  0
VERTEX
  5
3BC
  8
0
 10
1546.669789447383
 20
-717.9462739785231
 30
0.0
  0
VERTEX
  5
3BD
  8
0
 10
1546.821875095015
 20
-718.2759031193531
 30
0.0
  0
VERTEX
  5
3BE
  8
0
 10
1547.004966330392
 20
-718.4901557898426
 30
0.0
  0
VERTEX
  5
3BF
  8
0
 10
1547.21202706
 20
-718.58079838
 30
0.0
  0
SEQEND
  5
3FE
  8
0
  0
POLYLINE
  5
1EB
  8
0
 66
     1
 10
0.0
 20
0.0
 30
0.0
  0
VERTEX
  5
3C0
  8
0
 10
1547.628691620768
 20
-718.4163079003663
 30
0.0
  0
VERTEX
  5
3C1
  8
0
 10
1547.8611942047
 20
-718.1494950270254
 30
0.0
  0
VERTEX
  5
3C2
  8
0
 10
1548.084557747362
 20
-717.769637916115
 30
0.0
  0
VERTEX
  5
3C3
  8
0
 10
1548.290002358572
 20
-717.2916678481755
 30
0.0
  0
VERTEX
  5
3C4
  8
0
 10
1548.469452498775
 20
-716.734372690985
 30
0.0
  0
VERTEX
  5
3C5
  8
0
 10
1548.615854409306
 20
-716.1196583931138
 30
0.0
  0
VERTEX
  5
3C6
  8
0
 10
1548.723453378895
 20
-715.4716879131331
 30
0.0
  0
VERTEX
  5
3C7
  8
0
 10
1548.788019947688
 20
-714.8159314311198
 30
0.0
  0
VERTEX
  5
3C8
  8
0
 10
1548.807016157267
 20
-714.1781651763924
 30
0.0
  0
VERTEX
  5
3C9
  8
0
 10
1548.779695311767
 20
-713.5834582251778
 30
0.0
  0
VERTEX
  5
3CA
  8
0
 10
1548.707131328712
 20
-713.0551870947836
 30
0.0
  0
VERTEX
  5
3CB
  8
0
 10
1548.592176525874
 20
-712.614116868245
 30
0.0
  0
VERTEX
  5
3CC
  8
0
 10
1548.439349503436
 20
-712.2775849682433
 30
0.0
  0
VERTEX
  5
3CD
  8
0
 10
1548.254657528554
 20
-712.058819664213
 30
0.0
  0
VERTEX
  5
3CE
  8
0
 10
1548.045360403957
 20
-711.9664201004987
 30
0.0
  0
SEQEND
  5
3FF
  8
0
  0
POLYLINE
  5
1EC
  8
0
 66
     1
 10
0.0
 20
0.0
 30
0.0
  0
VERTEX
  5
3CF
  8
0
 10
1560.41135364
 20
-706.94008651
 30
0.0
  0
VERTEX
  5
3D0
  8
0
 10
1560.616238397414
 20
-706.9112080765942
 30
0.0
  0
VERTEX
  5
3D1
  8
0
 10
1560.828018247908
 20
-706.7755959887925
 30
0.0
  0
SEQEND
  5
400
  8
0
  0
POLYLINE
  5
1ED
  8
0
 66
     1
 10
0.0
 20
0.0
 30
0.0
  0
VERTEX
  5
3D2
  8
0
 10
1561.244686983958
 20
-700.3257082304987
 30
0.0
  0
VERTEX
  5
3D3
  8
0
 10
1561.02161398807
 20
-700.362159062262
 30
0.0
  0
VERTEX
  5
3D4
  8
0
 10
1560.791101295686
 20
-700.5243025332271
 30
0.0
  0
VERTEX
  5
3D5
  8
0
 10
1560.562007380321
 20
-700.8059075607213
 30
0.0
  0
VERTEX
  5
3D6
  8
0
 10
1560.343136192685
 20
-701.1961522214393
 30
0.0
  0
VERTEX
  5
3D7
  8
0
 10
1560.142898829794
 20
-701.6800396318877
 30
0.0
  0
VERTEX
  5
3D8
  8
0
 10
1559.968990301226
 20
-702.2389742702072
 30
0.0
  0
VERTEX
  5
3D9
  8
0
 10
1559.828093814221
 20
-702.8514765916528
 30
0.0
  0
VERTEX
  5
3DA
  8
0
 10
1559.725623941772
 20
-703.4940084754529
 30
0.0
  0
VERTEX
  5
3DB
  8
0
 10
1559.665518543619
 20
-704.1418777815927
 30
0.0
  0
VERTEX
  5
3DC
  8
0
 10
1559.650087436511
 20
-704.7701872559101
 30
0.0
  0
VERTEX
  5
3DD
  8
0
 10
1559.679923629242
 20
-705.3547913176117
 30
0.0
  0
VERTEX
  5
3DE
  8
0
 10
1559.753880533655
 20
-705.8732239604053
 30
0.0
  0
VERTEX
  5
3DF
  8
0
 10
1559.869116027383
 20
-706.3055621085231
 30
0.0
  0
VERTEX
  5
3E0
  8
0
 10
1560.021201675015
 20
-706.635191249353
 30
0.0
  0
VERTEX
  5
3E1
  8
0
 10
1560.204292910392
 20
-706.8494439198425
 30
0.0
  0
VERTEX
  5
3E2
  8
0
 10
1560.41135364
 20
-706.94008651
 30
0.0
  0
SEQEND
  5
401
  8
0
  0
POLYLINE
  5
1EE
  8
0
 66
     1
 10
0.0
 20
0.0
 30
0.0
  0
VERTEX
  5
3E3
  8
0
 10
1560.828018247908
 20
-706.7755959887925
 30
0.0
  0
VERTEX
  5
3E4
  8
0
 10
1561.060520827613
 20
-706.5087830961511
 30
0.0
  0
VERTEX
  5
3E5
  8
0
 10
1561.283884364623
 20
-706.1289259715751
 30
0.0
  0
VERTEX
  5
3E6
  8
0
 10
1561.48932896923
 20
-705.6509558957138
 30
0.0
  0
VERTEX
  5
3E7
  8
0
 10
1561.66877910237
 20
-705.0936607361178
 30
0.0
  0
VERTEX
  5
3E8
  8
0
 10
1561.81518100586
 20
-704.4789464408241
 30
0.0
  0
VERTEX
  5
3E9
  8
0
 10
1561.922779968869
 20
-703.8309759676091
 30
0.0
  0
VERTEX
  5
3EA
  8
0
 10
1561.987346531924
 20
-703.1752194955535
 30
0.0
  0
VERTEX
  5
3EB
  8
0
 10
1562.006342736906
 20
-702.5374532528452
 30
0.0
  0
VERTEX
  5
3EC
  8
0
 10
1561.97902188815
 20
-701.9427463145194
 30
0.0
  0
VERTEX
  5
3ED
  8
0
 10
1561.90645790328
 20
-701.4144751967071
 30
0.0
  0
VERTEX
  5
3EE
  8
0
 10
1561.791503100057
 20
-700.9734049813528
 30
0.0
  0
VERTEX
  5
3EF
  8
0
 10
1561.638676078549
 20
-700.6368730902013
 30
0.0
  0
VERTEX
  5
3F0
  8
0
 10
1561.453984105702
 20
-700.4181077919599
 30
0.0
  0
VERTEX
  5
3F1
  8
0
 10
1561.244686983958
 20
-700.3257082304987
 30
0.0
  0
SEQEND
  5
402
  8
0
  0
LINE
  5
1EF
  8
0
  6
STRICHPUNKT2
 62
     1
 10
1549.18771764
 20
-690.32845335
 30
0.0
 11
1546.52629735
 21
-689.99314591
 31
0.0
  0
LINE
  5
1F0
  8
0
  6
STRICHPUNKT2
 62
     1
 10
1547.62869373
 20
-690.1320348
 30
0.0
 11
1549.39646068
 21
-688.57301089
 31
0.0
  0
LINE
  5
1F1
  8
0
  6
STRICHPUNKT2
 62
     1
 10
1547.62869373
 20
-690.1320348
 30
0.0
 11
1545.86092678
 21
-691.69105871
 31
0.0
  0
LINE
  5
1F2
  8
0
  6
STRICHPUNKT2
 62
     1
 10
1547.62869373
 20
-690.1320348
 30
0.0
 11
1547.62869373
 21
-685.41798959
 31
0.0
  0
LINE
  5
1F3
  8
0
  6
STRICHPUNKT2
 62
     1
 10
1547.62869373
 20
-690.1320348
 30
0.0
 11
1547.62869373
 21
-694.84608001
 31
0.0
  0
LINE
  5
1F4
  8
0
  6
STRICHPUNKT2
 62
     1
 10
1549.18771764
 20
-715.47002779
 30
0.0
 11
1546.52629735
 21
-715.13472035
 31
0.0
  0
LINE
  5
1F5
  8
0
  6
STRICHPUNKT2
 62
     1
 10
1547.62869373
 20
-715.27360924
 30
0.0
 11
1549.39646068
 21
-713.71458533
 31
0.0
  0
LINE
  5
1F6
  8
0
  6
STRICHPUNKT2
 62
     1
 10
1547.62869373
 20
-715.27360924
 30
0.0
 11
1545.86092678
 21
-716.83263315
 31
0.0
  0
LINE
  5
1F7
  8
0
  6
STRICHPUNKT2
 62
     1
 10
1547.62869373
 20
-715.27360924
 30
0.0
 11
1547.62869373
 21
-710.55956403
 31
0.0
  0
LINE
  5
1F8
  8
0
  6
STRICHPUNKT2
 62
     1
 10
1547.62869373
 20
-715.27360924
 30
0.0
 11
1547.62869373
 21
-719.98765445
 31
0.0
  0
LINE
  5
1F9
  8
0
  6
STRICHPUNKT2
 62
     1
 10
1562.38704422
 20
-703.82931592
 30
0.0
 11
1559.72562393
 21
-703.49400848
 31
0.0
  0
LINE
  5
1FA
  8
0
  6
STRICHPUNKT2
 62
     1
 10
1560.82802031
 20
-703.63289737
 30
0.0
 11
1562.59578727
 21
-702.07387346
 31
0.0
  0
LINE
  5
1FB
  8
0
  6
STRICHPUNKT2
 62
     1
 10
1560.82802031
 20
-703.63289737
 30
0.0
 11
1559.06025336
 21
-705.19192128
 31
0.0
  0
LINE
  5
1FC
  8
0
  6
STRICHPUNKT2
 62
     1
 10
1560.82802031
 20
-703.63289737
 30
0.0
 11
1560.82802031
 21
-698.91885216
 31
0.0
  0
LINE
  5
1FD
  8
0
  6
STRICHPUNKT2
 62
     1
 10
1560.82802031
 20
-703.63289737
 30
0.0
 11
1560.82802031
 21
-708.34694258
 31
0.0
  0
LINE
  5
1FE
  8
0
  6
STRICHPUNKT2
 62
     1
 10
1562.38704422
 20
-678.68774148
 30
0.0
 11
1559.72562393
 21
-678.35243404
 31
0.0
  0
LINE
  5
1FF
  8
0
  6
STRICHPUNKT2
 62
     1
 10
1560.82802031
 20
-678.49132293
 30
0.0
 11
1562.59578727
 21
-676.93229902
 31
0.0
  0
LINE
  5
200
  8
0
  6
STRICHPUNKT2
 62
     1
 10
1560.82802031
 20
-678.49132293
 30
0.0
 11
1559.06025336
 21
-680.05034684
 31
0.0
  0
LINE
  5
201
  8
0
  6
STRICHPUNKT2
 62
     1
 10
1560.82802031
 20
-678.49132293
 30
0.0
 11
1560.82802031
 21
-673.77727772
 31
0.0
  0
LINE
  5
202
  8
0
  6
STRICHPUNKT2
 62
     1
 10
1560.82802031
 20
-678.49132293
 30
0.0
 11
1560.82802031
 21
-683.20536814
 31
0.0
  0
POLYLINE
  5
203
  8
0
 66
     1
 10
0.0
 20
0.0
 30
0.0
  0
VERTEX
  5
204
  8
0
 10
1738.22542548
 20
-582.31241725
 30
0.0
 42
-0.414213562
  0
VERTEX
  5
205
  8
0
 10
1731.55875881
 20
-575.64575058
 30
0.0
  0
VERTEX
  5
206
  8
0
 10
1724.89209215
 20
-575.64575058
 30
0.0
  0
SEQEND
  5
207
  8
0
  0
ARC
  5
208
  8
0
 10
1738.22542548
 20
-575.64575058
 30
0.0
 40
13.33333333
 50
180.0
 51
-90.0
  0
LINE
  5
209
  8
0
 10
1738.22542548
 20
-582.31241725
 30
0.0
 11
1738.22542548
 21
-588.97908392
 31
0.0
  0
POLYLINE
  5
20A
  8
0
 66
     1
 10
0.0
 20
0.0
 30
0.0
  0
VERTEX
  5
20B
  8
0
 10
1858.22542548
 20
-582.31241725
 30
0.0
  0
VERTEX
  5
20C
  8
0
 10
1738.22542548
 20
-582.31241725
 30
0.0
  0
VERTEX
  5
20D
  8
0
 10
1738.22542548
 20
-588.97908392
 30
0.0
  0
SEQEND
  5
20E
  8
0
  0
LINE
  5
20F
  8
0
 10
1858.22542548
 20
-588.97908392
 30
0.0
 11
1738.22542548
 21
-588.97908392
 31
0.0
  0
LINE
  5
210
  8
0
 10
1858.22542548
 20
-582.31241725
 30
0.0
 11
1858.22542548
 21
-588.97908392
 31
0.0
  0
LINE
  5
211
  8
0
  6
STRICHPUNKT2
 62
     1
 10
1749.55875881
 20
-588.97908392
 30
0.0
 11
1749.55875881
 21
-591.31241725
 31
0.0
  0
LINE
  5
212
  8
0
  6
STRICHPUNKT2
 62
     1
 10
1749.55875881
 20
-579.97908392
 30
0.0
 11
1749.55875881
 21
-582.31241725
 31
0.0
  0
LINE
  5
213
  8
0
  6
STRICHPUNKT2
 62
     1
 10
1820.22542548
 20
-588.97908392
 30
0.0
 11
1820.22542548
 21
-591.31241725
 31
0.0
  0
LINE
  5
214
  8
0
  6
STRICHPUNKT2
 62
     1
 10
1820.22542548
 20
-579.97908392
 30
0.0
 11
1820.22542548
 21
-582.31241725
 31
0.0
  0
POLYLINE
  5
215
  8
0
 66
     1
 10
0.0
 20
0.0
 30
0.0
  0
VERTEX
  5
216
  8
0
 10
1731.55875881
 20
-575.64575058
 30
0.0
  0
VERTEX
  5
217
  8
0
 10
1731.55875881
 20
-535.64575058
 30
0.0
  0
VERTEX
  5
218
  8
0
 10
1724.89209215
 20
-535.64575058
 30
0.0
  0
SEQEND
  5
219
  8
0
  0
LINE
  5
21A
  8
0
 10
1724.89209215
 20
-575.64575058
 30
0.0
 11
1724.89209215
 21
-535.64575058
 31
0.0
  0
LINE
  5
21B
  8
0
 10
1731.55875881
 20
-575.64575058
 30
0.0
 11
1724.89209215
 21
-575.64575058
 31
0.0
  0
LINE
  5
21C
  8
0
  6
STRICHPUNKT2
 62
     1
 10
1724.89209215
 20
-545.64575058
 30
0.0
 11
1723.22542548
 21
-545.64575058
 31
0.0
  0
LINE
  5
21D
  8
0
  6
STRICHPUNKT2
 62
     1
 10
1733.22542548
 20
-545.64575058
 30
0.0
 11
1731.55875881
 21
-545.64575058
 31
0.0
  0
LINE
  5
21E
  8
0
  6
STRICHPUNKT2
 62
     1
 10
1724.89209215
 20
-572.31241725
 30
0.0
 11
1723.22542548
 21
-572.31241725
 31
0.0
  0
LINE
  5
21F
  8
0
  6
STRICHPUNKT2
 62
     1
 10
1733.22542548
 20
-572.31241725
 30
0.0
 11
1731.55875881
 21
-572.31241725
 31
0.0
  0
LINE
  5
220
  8
0
 10
1621.26391295
 20
-575.64575058
 30
0.0
 11
1687.93057962
 21
-575.64575058
 31
0.0
  0
LINE
  5
221
  8
0
 10
1687.93057962
 20
-588.97908392
 30
0.0
 11
1687.93057962
 21
-575.64575058
 31
0.0
  0
LINE
  5
222
  8
0
 10
1621.26391295
 20
-588.97908392
 30
0.0
 11
1687.93057962
 21
-588.97908392
 31
0.0
  0
LINE
  5
223
  8
0
 10
1621.26391295
 20
-575.64575058
 30
0.0
 11
1621.26391295
 21
-588.97908392
 31
0.0
  0
LINE
  5
224
  8
0
 10
1621.26391295
 20
-588.97908392
 30
0.0
 11
1687.93057962
 21
-588.97908392
 31
0.0
  0
LINE
  5
225
  8
0
  6
STRICHPUNKT2
 62
     1
 10
1654.59724628
 20
-588.97908392
 30
0.0
 11
1654.59724628
 21
-591.31241725
 31
0.0
  0
CIRCLE
  5
226
  8
0
 10
1635.93057962
 20
-545.64575058
 30
0.0
 40
3.33333333
  0
CIRCLE
  5
227
  8
0
 10
1673.26391295
 20
-545.64575058
 30
0.0
 40
3.33333333
  0
LINE
  5
228
  8
0
 10
1621.26391295
 20
-535.64575058
 30
0.0
 11
1687.93057962
 21
-535.64575058
 31
0.0
  0
LINE
  5
229
  8
0
 10
1687.93057962
 20
-575.64575058
 30
0.0
 11
1687.93057962
 21
-535.64575058
 31
0.0
  0
LINE
  5
22A
  8
0
 10
1673.26390701
 20
-575.64575058
 30
0.0
 11
1687.93057962
 21
-575.64575058
 31
0.0
  0
LINE
  5
22B
  8
0
 10
1635.93057382
 20
-575.64575058
 30
0.0
 11
1673.26390701
 21
-575.64575058
 31
0.0
  0
LINE
  5
22C
  8
0
 10
1621.26391295
 20
-575.64575058
 30
0.0
 11
1635.93057382
 21
-575.64575058
 31
0.0
  0
LINE
  5
22D
  8
0
 10
1621.26391295
 20
-535.64575058
 30
0.0
 11
1621.26391295
 21
-575.64575058
 31
0.0
  0
CIRCLE
  5
22E
  8
0
 10
1635.93057962
 20
-572.31241725
 30
0.0
 40
3.33333333
  0
CIRCLE
  5
22F
  8
0
 10
1673.26391295
 20
-572.31241725
 30
0.0
 40
3.33333333
  0
LINE
  5
230
  8
0
  6
STRICHPUNKT2
 62
     1
 10
1673.26391295
 20
-545.64575058
 30
0.0
 11
1668.26391295
 21
-545.64575058
 31
0.0
  0
LINE
  5
231
  8
0
  6
STRICHPUNKT2
 62
     1
 10
1673.26391295
 20
-545.64575058
 30
0.0
 11
1678.26391295
 21
-545.64575058
 31
0.0
  0
LINE
  5
232
  8
0
  6
STRICHPUNKT2
 62
     1
 10
1673.26391295
 20
-545.64575058
 30
0.0
 11
1673.26391295
 21
-540.64575058
 31
0.0
  0
LINE
  5
233
  8
0
  6
STRICHPUNKT2
 62
     1
 10
1673.26391295
 20
-545.64575058
 30
0.0
 11
1673.26391295
 21
-550.64575058
 31
0.0
  0
LINE
  5
234
  8
0
  6
STRICHPUNKT2
 62
     1
 10
1673.26391295
 20
-572.31241725
 30
0.0
 11
1668.26391295
 21
-572.31241725
 31
0.0
  0
LINE
  5
235
  8
0
  6
STRICHPUNKT2
 62
     1
 10
1673.26391295
 20
-572.31241725
 30
0.0
 11
1678.26391295
 21
-572.31241725
 31
0.0
  0
LINE
  5
236
  8
0
  6
STRICHPUNKT2
 62
     1
 10
1673.26391295
 20
-572.31241725
 30
0.0
 11
1673.26391295
 21
-567.31241725
 31
0.0
  0
LINE
  5
237
  8
0
  6
STRICHPUNKT2
 62
     1
 10
1673.26391295
 20
-572.31241725
 30
0.0
 11
1673.26391295
 21
-577.31241725
 31
0.0
  0
LINE
  5
238
  8
0
  6
STRICHPUNKT2
 62
     1
 10
1635.93057962
 20
-572.31241725
 30
0.0
 11
1630.93057962
 21
-572.31241725
 31
0.0
  0
LINE
  5
239
  8
0
  6
STRICHPUNKT2
 62
     1
 10
1635.93057962
 20
-572.31241725
 30
0.0
 11
1640.93057962
 21
-572.31241725
 31
0.0
  0
LINE
  5
23A
  8
0
  6
STRICHPUNKT2
 62
     1
 10
1635.93057962
 20
-572.31241725
 30
0.0
 11
1635.93057962
 21
-567.31241725
 31
0.0
  0
LINE
  5
23B
  8
0
  6
STRICHPUNKT2
 62
     1
 10
1635.93057962
 20
-572.31241725
 30
0.0
 11
1635.93057962
 21
-577.31241725
 31
0.0
  0
LINE
  5
23C
  8
0
  6
STRICHPUNKT2
 62
     1
 10
1635.93057962
 20
-545.64575058
 30
0.0
 11
1630.93057962
 21
-545.64575058
 31
0.0
  0
LINE
  5
23D
  8
0
  6
STRICHPUNKT2
 62
     1
 10
1635.93057962
 20
-545.64575058
 30
0.0
 11
1640.93057962
 21
-545.64575058
 31
0.0
  0
LINE
  5
23E
  8
0
  6
STRICHPUNKT2
 62
     1
 10
1635.93057962
 20
-545.64575058
 30
0.0
 11
1635.93057962
 21
-540.64575058
 31
0.0
  0
LINE
  5
23F
  8
0
  6
STRICHPUNKT2
 62
     1
 10
1635.93057962
 20
-545.64575058
 30
0.0
 11
1635.93057962
 21
-550.64575058
 31
0.0
  0
POLYLINE
  5
240
  8
0
 66
     1
 10
0.0
 20
0.0
 30
0.0
  0
VERTEX
  5
241
  8
0
 10
1731.55875881
 20
-626.60726311
 30
0.0
  0
VERTEX
  5
242
  8
0
 10
1738.22542548
 20
-626.60726311
 30
0.0
  0
VERTEX
  5
243
  8
0
 10
1738.22542548
 20
-693.27392978
 30
0.0
  0
VERTEX
  5
244
  8
0
 10
1731.55875881
 20
-693.27392978
 30
0.0
  0
SEQEND
  5
245
  8
0
  0
POLYLINE
  5
246
  8
0
 66
     1
 10
0.0
 20
0.0
 30
0.0
 70
     1
  0
VERTEX
  5
247
  8
0
 10
1749.55875881
 20
-664.60726311
 30
0.0
 42
-1.0
  0
VERTEX
  5
248
  8
0
 10
1749.55875881
 20
-655.27392978
 30
0.0
  0
VERTEX
  5
249
  8
0
 10
1820.22542548
 20
-655.27392978
 30
0.0
 42
-1.0
  0
VERTEX
  5
24A
  8
0
 10
1820.22542548
 20
-664.60726311
 30
0.0
  0
SEQEND
  5
24B
  8
0
  0
LINE
  5
24C
  8
0
 10
1858.22542548
 20
-693.27392978
 30
0.0
 11
1738.22542548
 21
-693.27392978
 31
0.0
  0
LINE
  5
24D
  8
0
 10
1738.22542548
 20
-626.60726311
 30
0.0
 11
1738.22542548
 21
-693.27392978
 31
0.0
  0
POLYLINE
  5
24E
  8
0
 66
     1
 10
0.0
 20
0.0
 30
0.0
  0
VERTEX
  5
24F
  8
0
 10
1738.22542548
 20
-626.60726311
 30
0.0
  0
VERTEX
  5
250
  8
0
 10
1858.22542548
 20
-626.60726311
 30
0.0
  0
VERTEX
  5
251
  8
0
 10
1858.22542548
 20
-693.27392978
 30
0.0
  0
SEQEND
  5
252
  8
0
  0
LINE
  5
253
  8
0
  6
STRICHPUNKT2
 62
     1
 10
1742.55875881
 20
-659.94059645
 30
0.0
 11
1827.22542548
 21
-659.94059645
 31
0.0
  0
LINE
  5
254
  8
0
  6
STRICHPUNKT2
 62
     1
 10
1749.55875881
 20
-666.94059645
 30
0.0
 11
1749.55875881
 21
-652.94059645
 31
0.0
  0
LINE
  5
255
  8
0
  6
STRICHPUNKT2
 62
     1
 10
1820.22542548
 20
-666.94059645
 30
0.0
 11
1820.22542548
 21
-652.94059645
 31
0.0
  0
POLYLINE
  5
256
  8
0
 66
     1
 10
0.0
 20
0.0
 30
0.0
  0
VERTEX
  5
257
  8
0
 10
1731.55875881
 20
-626.60726311
 30
0.0
  0
VERTEX
  5
258
  8
0
 10
1731.55875881
 20
-693.27392978
 30
0.0
  0
VERTEX
  5
259
  8
0
 10
1724.89209215
 20
-693.27392978
 30
0.0
  0
SEQEND
  5
25A
  8
0
  0
LINE
  5
25B
  8
0
 10
1724.89209215
 20
-626.60726311
 30
0.0
 11
1724.89209215
 21
-693.27392978
 31
0.0
  0
LINE
  5
25C
  8
0
 10
1731.55875881
 20
-626.60726311
 30
0.0
 11
1724.89209215
 21
-626.60726311
 31
0.0
  0
LINE
  5
25D
  8
0
  6
STRICHPUNKT2
 62
     1
 10
1724.89209215
 20
-678.60726311
 30
0.0
 11
1723.22542548
 21
-678.60726311
 31
0.0
  0
LINE
  5
25E
  8
0
  6
STRICHPUNKT2
 62
     1
 10
1733.22542548
 20
-678.60726311
 30
0.0
 11
1731.55875881
 21
-678.60726311
 31
0.0
  0
LINE
  5
25F
  8
0
  6
STRICHPUNKT2
 62
     1
 10
1724.89209215
 20
-641.27392978
 30
0.0
 11
1723.22542548
 21
-641.27392978
 31
0.0
  0
LINE
  5
260
  8
0
  6
STRICHPUNKT2
 62
     1
 10
1733.22542548
 20
-641.27392978
 30
0.0
 11
1731.55875881
 21
-641.27392978
 31
0.0
  0
TEXT
  5
261
  8
TXT_DIM49
 10
1788.77649887
 20
-595.76996579
 30
0.0
 40
2.5
  1
200
  7
ARIAL
  0
LINE
  5
262
  8
0
 62
     4
 10
1725.89209215
 20
-596.26996579
 30
0.0
 11
1723.89209215
 21
-598.26996579
 31
0.0
  0
LINE
  5
263
  8
0
 62
     4
 10
1857.47542548
 20
-598.01996579
 30
0.0
 11
1858.97542548
 21
-596.51996579
 31
0.0
  0
LINE
  5
264
  8
0
 62
     4
 10
1724.89209215
 20
-597.26996579
 30
0.0
 11
1858.22542548
 21
-597.26996579
 31
0.0
  0
LINE
  5
265
  8
0
 62
     4
 10
1724.89209215
 20
-595.26996579
 30
0.0
 11
1724.89209215
 21
-599.26996579
 31
0.0
  0
LINE
  5
266
  8
0
 62
     4
 10
1858.22542548
 20
-595.26996579
 30
0.0
 11
1858.22542548
 21
-599.26996579
 31
0.0
  0
TEXT
  5
267
  8
TXT_DIM49
 10
1716.72542548
 20
-564.16729258
 30
0.0
 40
2.5
  1
80
 50
90.00020741
  7
ARIAL
  0
LINE
  5
268
  8
0
 62
     4
 10
1717.22542548
 20
-587.97908392
 30
0.0
 11
1719.22542548
 21
-589.97908392
 31
0.0
  0
LINE
  5
269
  8
0
 62
     4
 10
1718.97542548
 20
-536.39575058
 30
0.0
 11
1717.47542548
 21
-534.89575058
 31
0.0
  0
LINE
  5
26A
  8
0
 62
     4
 10
1718.22542548
 20
-588.97908392
 30
0.0
 11
1718.22542548
 21
-535.64575058
 31
0.0
  0
LINE
  5
26B
  8
0
 62
     4
 10
1720.22542548
 20
-588.97908392
 30
0.0
 11
1716.22542548
 21
-588.97908392
 31
0.0
  0
LINE
  5
26C
  8
0
 62
     4
 10
1720.22542548
 20
-535.64575058
 30
0.0
 11
1716.22542548
 21
-535.64575058
 31
0.0
  0
TEXT
  5
26D
  8
TXT_DIM49
 10
1726.37058544
 20
-528.55539759
 30
0.0
 40
2.5
  1
10
  7
ARIAL
  0
LINE
  5
26E
  8
0
 62
     4
 10
1725.89209215
 20
-529.05539759
 30
0.0
 11
1723.89209215
 21
-531.05539759
 31
0.0
  0
LINE
  5
26F
  8
0
 62
     4
 10
1730.80875881
 20
-530.80539759
 30
0.0
 11
1732.30875881
 21
-529.30539759
 31
0.0
  0
LINE
  5
270
  8
0
 62
     4
 10
1724.89209215
 20
-530.05539759
 30
0.0
 11
1731.55875881
 21
-530.05539759
 31
0.0
  0
LINE
  5
271
  8
0
 62
     4
 10
1724.89209215
 20
-532.05539759
 30
0.0
 11
1724.89209215
 21
-528.05539759
 31
0.0
  0
LINE
  5
272
  8
0
 62
     4
 10
1731.55875881
 20
-532.05539759
 30
0.0
 11
1731.55875881
 21
-528.05539759
 31
0.0
  0
TEXT
  5
273
  8
TXT_DIM49
 10
1864.16048905
 20
-587.50059062
 30
0.0
 40
2.5
  1
10
 50
90.00020741
  7
ARIAL
  0
LINE
  5
274
  8
0
 62
     4
 10
1866.66048905
 20
-583.31241725
 30
0.0
 11
1864.66048905
 21
-581.31241725
 31
0.0
  0
LINE
  5
275
  8
0
 62
     4
 10
1864.91048905
 20
-588.22908392
 30
0.0
 11
1866.41048905
 21
-589.72908392
 31
0.0
  0
LINE
  5
276
  8
0
 62
     4
 10
1865.66048905
 20
-582.31241725
 30
0.0
 11
1865.66048905
 21
-588.97908392
 31
0.0
  0
LINE
  5
277
  8
0
 62
     4
 10
1863.66048905
 20
-582.31241725
 30
0.0
 11
1867.66048905
 21
-582.31241725
 31
0.0
  0
LINE
  5
278
  8
0
 62
     4
 10
1863.66048905
 20
-588.97908392
 30
0.0
 11
1867.66048905
 21
-588.97908392
 31
0.0
  0
TEXT
  5
279
  8
TXT_DIM49
 10
1678.74240624
 20
-529.56692849
 30
0.0
 40
2.5
  1
22
  7
ARIAL
  0
LINE
  5
27A
  8
0
 62
     4
 10
1686.93057962
 20
-532.06692849
 30
0.0
 11
1688.93057962
 21
-530.06692849
 31
0.0
  0
LINE
  5
27B
  8
0
 62
     4
 10
1674.01391295
 20
-530.31692849
 30
0.0
 11
1672.51391295
 21
-531.81692849
 31
0.0
  0
LINE
  5
27C
  8
0
 62
     4
 10
1687.93057962
 20
-531.06692849
 30
0.0
 11
1673.26391295
 21
-531.06692849
 31
0.0
  0
LINE
  5
27D
  8
0
 62
     4
 10
1687.93057962
 20
-533.06692849
 30
0.0
 11
1687.93057962
 21
-529.06692849
 31
0.0
  0
LINE
  5
27E
  8
0
 62
     4
 10
1673.26391295
 20
-533.06692849
 30
0.0
 11
1673.26391295
 21
-529.06692849
 31
0.0
  0
TEXT
  5
27F
  8
TXT_DIM49
 10
1652.74240624
 20
-529.56692849
 30
0.0
 40
2.5
  1
56
  7
ARIAL
  0
LINE
  5
280
  8
0
 62
     4
 10
1672.26391295
 20
-532.06692849
 30
0.0
 11
1674.26391295
 21
-530.06692849
 31
0.0
  0
LINE
  5
281
  8
0
 62
     4
 10
1636.68057962
 20
-530.31692849
 30
0.0
 11
1635.18057962
 21
-531.81692849
 31
0.0
  0
LINE
  5
282
  8
0
 62
     4
 10
1673.26391295
 20
-531.06692849
 30
0.0
 11
1635.93057962
 21
-531.06692849
 31
0.0
  0
LINE
  5
283
  8
0
 62
     4
 10
1673.26391295
 20
-533.06692849
 30
0.0
 11
1673.26391295
 21
-529.06692849
 31
0.0
  0
LINE
  5
284
  8
0
 62
     4
 10
1635.93057962
 20
-533.06692849
 30
0.0
 11
1635.93057962
 21
-529.06692849
 31
0.0
  0
TEXT
  5
285
  8
TXT_DIM49
 10
1626.74240624
 20
-529.56692849
 30
0.0
 40
2.5
  1
22
  7
ARIAL
  0
LINE
  5
286
  8
0
 62
     4
 10
1634.93057962
 20
-532.06692849
 30
0.0
 11
1636.93057962
 21
-530.06692849
 31
0.0
  0
LINE
  5
287
  8
0
 62
     4
 10
1622.01391295
 20
-530.31692849
 30
0.0
 11
1620.51391295
 21
-531.81692849
 31
0.0
  0
LINE
  5
288
  8
0
 62
     4
 10
1635.93057962
 20
-531.06692849
 30
0.0
 11
1621.26391295
 21
-531.06692849
 31
0.0
  0
LINE
  5
289
  8
0
 62
     4
 10
1635.93057962
 20
-533.06692849
 30
0.0
 11
1635.93057962
 21
-529.06692849
 31
0.0
  0
LINE
  5
28A
  8
0
 62
     4
 10
1621.26391295
 20
-533.06692849
 30
0.0
 11
1621.26391295
 21
-529.06692849
 31
0.0
  0
TEXT
  5
28B
  8
TXT_DIM49
 10
1615.60229926
 20
-542.50059062
 30
0.0
 40
2.5
  1
15
 50
90.00020741
  7
ARIAL
  0
LINE
  5
28C
  8
0
 62
     4
 10
1618.10229926
 20
-536.64575058
 30
0.0
 11
1616.10229926
 21
-534.64575058
 31
0.0
  0
LINE
  5
28D
  8
0
 62
     4
 10
1616.35229926
 20
-544.89575058
 30
0.0
 11
1617.85229926
 21
-546.39575058
 31
0.0
  0
LINE
  5
28E
  8
0
 62
     4
 10
1617.10229926
 20
-535.64575058
 30
0.0
 11
1617.10229926
 21
-545.64575058
 31
0.0
  0
LINE
  5
28F
  8
0
 62
     4
 10
1619.10229926
 20
-535.64575058
 30
0.0
 11
1615.10229926
 21
-535.64575058
 31
0.0
  0
LINE
  5
290
  8
0
 62
     4
 10
1619.10229926
 20
-545.64575058
 30
0.0
 11
1615.10229926
 21
-545.64575058
 31
0.0
  0
TEXT
  5
291
  8
TXT_DIM49
 10
1615.60229926
 20
-560.83392396
 30
0.0
 40
2.5
  1
40
 50
90.00020741
  7
ARIAL
  0
LINE
  5
292
  8
0
 62
     4
 10
1618.10229926
 20
-546.64575058
 30
0.0
 11
1616.10229926
 21
-544.64575058
 31
0.0
  0
LINE
  5
293
  8
0
 62
     4
 10
1616.35229926
 20
-571.56241725
 30
0.0
 11
1617.85229926
 21
-573.06241725
 31
0.0
  0
LINE
  5
294
  8
0
 62
     4
 10
1617.10229926
 20
-545.64575058
 30
0.0
 11
1617.10229926
 21
-572.31241725
 31
0.0
  0
LINE
  5
295
  8
0
 62
     4
 10
1619.10229926
 20
-545.64575058
 30
0.0
 11
1615.10229926
 21
-545.64575058
 31
0.0
  0
LINE
  5
296
  8
0
 62
     4
 10
1619.10229926
 20
-572.31241725
 30
0.0
 11
1615.10229926
 21
-572.31241725
 31
0.0
  0
TEXT
  5
297
  8
TXT_DIM49
 10
1615.60229926
 20
-582.50059062
 30
0.0
 40
2.5
  1
25
 50
90.00020741
  7
ARIAL
  0
LINE
  5
298
  8
0
 62
     4
 10
1618.10229926
 20
-573.31241725
 30
0.0
 11
1616.10229926
 21
-571.31241725
 31
0.0
  0
LINE
  5
299
  8
0
 62
     4
 10
1616.35229926
 20
-588.22908392
 30
0.0
 11
1617.85229926
 21
-589.72908392
 31
0.0
  0
LINE
  5
29A
  8
0
 62
     4
 10
1617.10229926
 20
-572.31241725
 30
0.0
 11
1617.10229926
 21
-588.97908392
 31
0.0
  0
LINE
  5
29B
  8
0
 62
     4
 10
1619.10229926
 20
-572.31241725
 30
0.0
 11
1615.10229926
 21
-572.31241725
 31
0.0
  0
LINE
  5
29C
  8
0
 62
     4
 10
1619.10229926
 20
-588.97908392
 30
0.0
 11
1615.10229926
 21
-588.97908392
 31
0.0
  0
TEXT
  5
29D
  8
TXT_DIM49
 10
1651.81498634
 20
-596.69197893
 30
0.0
 40
2.5
  1
100
  7
ARIAL
  0
LINE
  5
29E
  8
0
 62
     4
 10
1622.26391295
 20
-597.19197893
 30
0.0
 11
1620.26391295
 21
-599.19197893
 31
0.0
  0
LINE
  5
29F
  8
0
 62
     4
 10
1687.18057962
 20
-598.94197893
 30
0.0
 11
1688.68057962
 21
-597.44197893
 31
0.0
  0
LINE
  5
2A0
  8
0
 62
     4
 10
1621.26391295
 20
-598.19197893
 30
0.0
 11
1687.93057962
 21
-598.19197893
 31
0.0
  0
LINE
  5
2A1
  8
0
 62
     4
 10
1621.26391295
 20
-596.19197893
 30
0.0
 11
1621.26391295
 21
-600.19197893
 31
0.0
  0
LINE
  5
2A2
  8
0
 62
     4
 10
1687.93057962
 20
-596.19197893
 30
0.0
 11
1687.93057962
 21
-600.19197893
 31
0.0
  0
LINE
  5
2A3
  8
0
 62
     5
 10
1639.26391295
 20
-545.64575058
 30
0.0
 11
1659.07179185
 21
-559.02352746
 31
0.0
  0
LINE
  5
2A4
  8
0
 62
     5
 10
1669.93057962
 20
-545.64575058
 30
0.0
 11
1659.07179185
 21
-559.02352746
 31
0.0
  0
LINE
  5
2A5
  8
0
 62
     5
 10
1669.93057962
 20
-572.31241725
 30
0.0
 11
1659.07179185
 21
-559.02352746
 31
0.0
  0
LINE
  5
2A6
  8
0
 62
     5
 10
1639.26391295
 20
-572.31241725
 30
0.0
 11
1659.07179185
 21
-559.02352746
 31
0.0
  0
TEXT
  5
2A7
  8
TXT_DIM49
 10
1659.07179185
 20
-560.27352746
 30
0.0
 40
2.5
  1
Ø10
  7
ARIAL
  0
TEXT
  5
2A8
  8
TXT_DIM49
 10
1837.37058544
 20
-617.39318917
 30
0.0
 40
2.5
  1
57
  7
ARIAL
  0
LINE
  5
2A9
  8
0
 62
     4
 10
1857.22542548
 20
-619.89318917
 30
0.0
 11
1859.22542548
 21
-617.89318917
 31
0.0
  0
LINE
  5
2AA
  8
0
 62
     4
 10
1820.97542548
 20
-618.14318917
 30
0.0
 11
1819.47542548
 21
-619.64318917
 31
0.0
  0
LINE
  5
2AB
  8
0
 62
     4
 10
1858.22542548
 20
-618.89318917
 30
0.0
 11
1820.22542548
 21
-618.89318917
 31
0.0
  0
LINE
  5
2AC
  8
0
 62
     4
 10
1858.22542548
 20
-620.89318917
 30
0.0
 11
1858.22542548
 21
-616.89318917
 31
0.0
  0
LINE
  5
2AD
  8
0
 62
     4
 10
1820.22542548
 20
-620.89318917
 30
0.0
 11
1820.22542548
 21
-616.89318917
 31
0.0
  0
TEXT
  5
2AE
  8
TXT_DIM49
 10
1782.10983221
 20
-617.39318917
 30
0.0
 40
2.5
  1
106
  7
ARIAL
  0
LINE
  5
2AF
  8
0
 62
     4
 10
1819.22542548
 20
-619.89318917
 30
0.0
 11
1821.22542548
 21
-617.89318917
 31
0.0
  0
LINE
  5
2B0
  8
0
 62
     4
 10
1750.30875881
 20
-618.14318917
 30
0.0
 11
1748.80875881
 21
-619.64318917
 31
0.0
  0
LINE
  5
2B1
  8
0
 62
     4
 10
1820.22542548
 20
-618.89318917
 30
0.0
 11
1749.55875881
 21
-618.89318917
 31
0.0
  0
LINE
  5
2B2
  8
0
 62
     4
 10
1820.22542548
 20
-620.89318917
 30
0.0
 11
1820.22542548
 21
-616.89318917
 31
0.0
  0
LINE
  5
2B3
  8
0
 62
     4
 10
1749.55875881
 20
-620.89318917
 30
0.0
 11
1749.55875881
 21
-616.89318917
 31
0.0
  0
TEXT
  5
2B4
  8
TXT_DIM49
 10
1735.37058544
 20
-617.39318917
 30
0.0
 40
2.5
  1
37
  7
ARIAL
  0
LINE
  5
2B5
  8
0
 62
     4
 10
1748.55875881
 20
-619.89318917
 30
0.0
 11
1750.55875881
 21
-617.89318917
 31
0.0
  0
LINE
  5
2B6
  8
0
 62
     4
 10
1725.64209215
 20
-618.14318917
 30
0.0
 11
1724.14209215
 21
-619.64318917
 31
0.0
  0
LINE
  5
2B7
  8
0
 62
     4
 10
1749.55875881
 20
-618.89318917
 30
0.0
 11
1724.89209215
 21
-618.89318917
 31
0.0
  0
LINE
  5
2B8
  8
0
 62
     4
 10
1749.55875881
 20
-620.89318917
 30
0.0
 11
1749.55875881
 21
-616.89318917
 31
0.0
  0
LINE
  5
2B9
  8
0
 62
     4
 10
1724.89209215
 20
-620.89318917
 30
0.0
 11
1724.89209215
 21
-616.89318917
 31
0.0
  0
TEXT
  5
2BA
  8
TXT_DIM49
 10
1862.21671363
 20
-645.12876982
 30
0.0
 40
2.5
  1
50
 50
90.00020741
  7
ARIAL
  0
LINE
  5
2BB
  8
0
 62
     4
 10
1864.71671363
 20
-627.60726311
 30
0.0
 11
1862.71671363
 21
-625.60726311
 31
0.0
  0
LINE
  5
2BC
  8
0
 62
     4
 10
1862.96671363
 20
-659.19059645
 30
0.0
 11
1864.46671363
 21
-660.69059645
 31
0.0
  0
LINE
  5
2BD
  8
0
 62
     4
 10
1863.71671363
 20
-626.60726311
 30
0.0
 11
1863.71671363
 21
-659.94059645
 31
0.0
  0
LINE
  5
2BE
  8
0
 62
     4
 10
1861.71671363
 20
-626.60726311
 30
0.0
 11
1865.71671363
 21
-626.60726311
 31
0.0
  0
LINE
  5
2BF
  8
0
 62
     4
 10
1861.71671363
 20
-659.94059645
 30
0.0
 11
1865.71671363
 21
-659.94059645
 31
0.0
  0
TEXT
  5
2C0
  8
TXT_DIM49
 10
1862.21671363
 20
-678.46210315
 30
0.0
 40
2.5
  1
50
 50
90.00020741
  7
ARIAL
  0
LINE
  5
2C1
  8
0
 62
     4
 10
1864.71671363
 20
-660.94059645
 30
0.0
 11
1862.71671363
 21
-658.94059645
 31
0.0
  0
LINE
  5
2C2
  8
0
 62
     4
 10
1862.96671363
 20
-692.52392978
 30
0.0
 11
1864.46671363
 21
-694.02392978
 31
0.0
  0
LINE
  5
2C3
  8
0
 62
     4
 10
1863.71671363
 20
-659.94059645
 30
0.0
 11
1863.71671363
 21
-693.27392978
 31
0.0
  0
LINE
  5
2C4
  8
0
 62
     4
 10
1861.71671363
 20
-659.94059645
 30
0.0
 11
1865.71671363
 21
-659.94059645
 31
0.0
  0
LINE
  5
2C5
  8
0
 62
     4
 10
1861.71671363
 20
-693.27392978
 30
0.0
 11
1865.71671363
 21
-693.27392978
 31
0.0
  0
LINE
  5
2C6
  8
0
 62
     5
 10
1784.89209215
 20
-655.27392978
 30
0.0
 11
1789.3381488
 21
-647.71604616
 31
0.0
  0
TEXT
  5
2C7
  8
TXT_DIM49
 10
1789.3381488
 20
-648.96604616
 30
0.0
 40
2.5
  1
Slobgat 14 x 120
  7
ARIAL
  0
ENDSEC
  0
EOF
