  0
SECTION
  2
HEADER
  9
$ACADVER
  1
AC1006
  9
$DWGCODEPAGE
  3
ansi_1252
  9
$INSBASE
 10
0.0
 20
0.0
 30
0.0
  9
$EXTMIN
 10
438.40840626
 20
-319.11672136
  9
$EXTMAX
 10
1224.67839945
 20
59.55827864
  9
$LIMMIN
 10
438.40840626
 20
-319.11672136
  9
$LIMMAX
 10
1224.67839945
 20
59.55827864
  9
$ORTHOMODE
 70
     0
  9
$REGENMODE
 70
     1
  9
$FILLMODE
 70
     1
  9
$QTEXTMODE
 70
     0
  9
$MIRRTEXT
 70
     1
  9
$DRAGMODE
 70
     2
  9
$LTSCALE
 40
1.0
  9
$OSMODE
 70
    37
  9
$ATTMODE
 70
     1
  9
$TEXTSIZE
 40
1.0
  9
$TRACEWID
 40
0.05
  9
$TEXTSTYLE
  7
STANDARD
  9
$CLAYER
  8
0
  9
$CELTYPE
  6
BYBLOCK
  9
$CECOLOR
 62
   256
  9
$DIMSCALE
 40
1.0
  9
$DIMASZ
 40
0.18
  9
$DIMEXO
 40
0.0625
  9
$DIMDLI
 40
0.38
  9
$DIMRND
 40
0.0
  9
$DIMDLE
 40
0.0
  9
$DIMEXE
 40
0.18
  9
$DIMTP
 40
0.0
  9
$DIMTM
 40
0.0
  9
$DIMTXT
 40
0.18
  9
$DIMCEN
 40
0.09
  9
$DIMTSZ
 40
0.0
  9
$DIMTOL
 70
     0
  9
$DIMLIM
 70
     0
  9
$DIMTIH
 70
     1
  9
$DIMTOH
 70
     1
  9
$DIMSE1
 70
     0
  9
$DIMSE2
 70
     0
  9
$DIMTAD
 70
     0
  9
$DIMZIN
 70
     0
  9
$DIMBLK
  1

  9
$DIMASO
 70
     1
  9
$DIMSHO
 70
     1
  9
$DIMPOST
  1

  9
$DIMAPOST
  1

  9
$DIMALT
 70
     0
  9
$DIMALTD
 70
     2
  9
$DIMALTF
 40
25.4
  9
$DIMLFAC
 40
1.0
  9
$DIMTOFL
 70
     0
  9
$DIMTVP
 40
0.0
  9
$DIMTIX
 70
     0
  9
$DIMSOXD
 70
     0
  9
$DIMSAH
 70
     0
  9
$DIMBLK1
  1

  9
$DIMBLK2
  1

  9
$LUNITS
 70
     2
  9
$LUPREC
 70
     4
  9
$SKETCHINC
 40
0.1
  9
$FILLETRAD
 40
0.5
  9
$AUNITS
 70
     0
  9
$AUPREC
 70
     0
  9
$MENU
  1
.
  9
$ELEVATION
 40
0.0
  9
$THICKNESS
 40
0.0
  9
$LIMCHECK
 70
     0
  9
$CHAMFERA
 40
0.0
  9
$CHAMFERB
 40
0.0
  9
$SKPOLY
 70
     0
  9
$TDCREATE
 40
2447893.125
  9
$TDUPDATE
 40
2460791.5025486
  9
$TDINDWG
 40
0.0
  9
$TDUSRTIMER
 40
0.0
  9
$USRTIMER
 70
     1
  9
$ANGBASE
 50
0.0
  9
$ANGDIR
 70
     0
  9
$PDMODE
 70
     0
  9
$PDSIZE
 40
0.0
  9
$PLINEWID
 40
0.0
  9
$COORDS
 70
     1
  9
$SPLFRAME
 70
     0
  9
$SPLINETYPE
 70
     6
  9
$SPLINESEGS
 70
     8
  9
$ATTDIA
 70
     0
  9
$ATTREQ
 70
     1
  9
$HANDLING
 70
     1
  9
$HANDSEED
  5
3EE
  9
$SURFTAB1
 70
     6
  9
$SURFTAB2
 70
     6
  9
$SURFTYPE
 70
     6
  9
$SURFU
 70
     6
  9
$SURFV
 70
     6
  9
$UCSNAME
  2

  9
$UCSORG
 10
0.0
 20
0.0
 30
0.0
  9
$UCSXDIR
 10
1.0
 20
0.0
 30
0.0
  9
$UCSYDIR
 10
0.0
 20
1.0
 30
0.0
  9
$USERI1
 70
     0
  9
$USERI2
 70
     0
  9
$USERI3
 70
     0
  9
$USERI4
 70
     0
  9
$USERI5
 70
     0
  9
$USERR1
 40
0.0
  9
$USERR2
 40
0.0
  9
$USERR3
 40
0.0
  9
$USERR4
 40
0.0
  9
$USERR5
 40
0.0
  9
$WORLDVIEW
 70
     1
  0
ENDSEC
  0
SECTION
  2
TABLES
  0
TABLE
  2
VPORT
 70
     1
  0
VPORT
  2
*ACTIVE
 70
     0
 10
0.0
 20
0.0
 11
1.0
 21
1.0
 12
831.54340286
 22
-129.77922136
 13
0.0
 23
0.0
 14
1.0
 24
1.0
 15
0.0
 25
0.0
 16
0.0
 26
0.0
 36
1.0
 17
0.0
 27
0.0
 37
0.0
 40
378.675
 41
2.076371541
 42
50.0
 43
0.0
 44
0.0
 50
0.0
 51
0.0
 71
     0
 72
   100
 73
     1
 74
     1
 75
     0
 76
     0
 77
     0
 78
     0
  0
ENDTAB
  0
TABLE
  2
LTYPE
 70
    19
  0
LTYPE
  2
CONTINUOUS
 70
     0
  3
Solid line
 72
    65
 73
     0
 40
0.0
  0
LTYPE
  2
DOT
 70
     0
  3
..............
 72
    65
 73
     2
 40
2.0
 49
0.5
 49
-1.5
  0
LTYPE
  2
HIDDEN
 70
     0
  3
-- -- -- -- --
 72
    65
 73
     2
 40
7.0
 49
4.0
 49
-3.0
  0
LTYPE
  2
DASHDOT
 70
     0
  3
--.--.--.--.--
 72
    65
 73
     4
 40
8.5
 49
4.0
 49
-2.0
 49
0.5
 49
-2.0
  0
LTYPE
  2
STRICHPUNKT2
 70
     0
  3
--.--.--.--.--
 72
    65
 73
     4
 40
18.5
 49
10.0
 49
-4.0
 49
0.5
 49
-4.0
  0
LTYPE
  2
STRICHPUNKT3
 70
     0
  3
--.--.--.--.--
 72
    65
 73
     4
 40
35.5
 49
25.0
 49
-5.0
 49
0.5
 49
-5.0
  0
LTYPE
  2
PHANTOM
 70
     0
  3
--..--..--..--
 72
    65
 73
     6
 40
23.0
 49
10.0
 49
-4.0
 49
0.5
 49
-4.0
 49
0.5
 49
-4.0
  0
LTYPE
  2
PHANTOM2
 70
     0
  3
--..--..--..--
 72
    65
 73
     6
 40
33.0
 49
20.0
 49
-4.0
 49
0.5
 49
-4.0
 49
0.5
 49
-4.0
  0
LTYPE
  2
PHANTOM3
 70
     0
  3
--..--..--..--
 72
    65
 73
     6
 40
50.0
 49
37.0
 49
-4.0
 49
0.5
 49
-4.0
 49
0.5
 49
-4.0
  0
LTYPE
  2
STR3PKT
 70
     0
  3
--...--...--...
 72
    65
 73
     8
 40
31.5
 49
20.0
 49
-2.5
 49
0.5
 49
-2.5
 49
0.5
 49
-2.5
 49
0.5
 49
-2.5
  0
LTYPE
  2
2STRPKT
 70
     0
  3
--.--.--.--.--
 72
    65
 73
     6
 40
28.0
 49
10.0
 49
-2.5
 49
10.0
 49
-2.5
 49
0.5
 49
-2.5
  0
LTYPE
  2
GESTRICHELT2
 70
     0
  3
-- -- -- -- --
 72
    65
 73
     2
 40
25.0
 49
10.0
 49
-15.0
  0
LTYPE
  2
2STR2PKT
 70
     0
  3
--..--..--..--
 72
    65
 73
     8
 40
31.0
 49
10.0
 49
-2.5
 49
10.0
 49
-2.5
 49
0.5
 49
-2.5
 49
0.5
 49
-2.5
  0
LTYPE
  2
STR3PKT2
 70
     0
  3
--...--...--...
 72
    65
 73
     8
 40
21.0
 49
10.0
 49
-2.5
 49
0.5
 49
-2.5
 49
0.5
 49
-2.5
 49
0.5
 49
-2.0
  0
LTYPE
  2
2STR3PKT
 70
     0
  3
--...--...--...
 72
    65
 73
    10
 40
34.0
 49
10.0
 49
-2.5
 49
10.0
 49
-2.5
 49
0.5
 49
-2.5
 49
0.5
 49
-2.5
 49
0.5
 49
-2.5
  0
LTYPE
  2
STRKSTR
 70
     0
  3
-- - -- - -- -
 72
    65
 73
     4
 40
30.0
 49
20.0
 49
-2.5
 49
5.0
 49
-2.5
  0
LTYPE
  2
STRKSTR2
 70
     0
  3
-- - -- - -- -
 72
    65
 73
     6
 40
37.5
 49
20.0
 49
-2.5
 49
5.0
 49
-2.5
 49
5.0
 49
-2.5
  0
LTYPE
  2
STRKSTR3
 70
     0
  3
-- - -- - -- -
 72
    65
 73
     8
 40
45.0
 49
20.0
 49
-2.5
 49
5.0
 49
-2.5
 49
5.0
 49
-2.5
 49
5.0
 49
-2.5
  0
LTYPE
  2
PUNKT2
 70
     0
  3
..............
 72
    65
 73
     2
 40
3.5
 49
0.5
 49
-3.0
  0
ENDTAB
  0
TABLE
  2
LAYER
 70
    15
  0
LAYER
  2
0
 70
     0
 62
     7
  6
CONTINUOUS
  0
LAYER
  2
LE_GREEN
 70
     0
 62
     3
  6
CONTINUOUS
  0
LAYER
  2
LE_RED
 70
     0
 62
     1
  6
CONTINUOUS
  0
LAYER
  2
LE_ALL
 70
     0
 62
     7
  6
CONTINUOUS
  0
LAYER
  2
LE_HIDDEN1
 70
     0
 62
     3
  6
HIDDEN
  0
LAYER
  2
LE_HIDDEN
 70
     0
 62
     7
  6
CONTINUOUS
  0
LAYER
  2
LE_MIDDLE
 70
     0
 62
     7
  6
CONTINUOUS
  0
LAYER
  2
TXT_YELLOW
 70
     0
 62
     2
  6
CONTINUOUS
  0
LAYER
  2
TXT_DIM49
 70
     0
 62
     2
  6
CONTINUOUS
  0
LAYER
  2
TXT_ALL
 70
     0
 62
     7
  6
CONTINUOUS
  0
LAYER
  2
DIM49
 70
     0
 62
     4
  6
CONTINUOUS
  0
LAYER
  2
HATCH
 70
     0
 62
     3
  6
CONTINUOUS
  0
LAYER
  2
APPLE
 70
     0
 62
     7
  6
CONTINUOUS
  0
LAYER
  2
10
 70
     0
 62
     7
  6
CONTINUOUS
  0
LAYER
  2
49
 70
     0
 62
     7
  6
CONTINUOUS
  0
ENDTAB
  0
TABLE
  2
STYLE
 70
     5
  0
STYLE
  2
MONOTXT
 70
     0
 40
0.0
 41
1.0
 50
0.0
 71
     0
 42
1.0
  3
monotxt.shx
  4

  0
STYLE
  2
STANDARD
 70
     0
 40
0.0
 41
1.0
 50
0.0
 71
     0
 42
1.0
  3
txt
  4

  0
STYLE
  2
ARIAL
 70
     0
 40
0.0
 41
1.0
 50
0.0
 71
     0
 42
1.0
  3
arial.ttf
  4

  0
STYLE
  2
ARIAL_NARROW
 70
     0
 40
0.0
 41
1.0
 50
0.0
 71
     0
 42
1.0
  3
ArialN.ttf
  4

  0
STYLE
  2
ISOCPEUR
 70
     0
 40
0.0
 41
1.0
 50
0.0
 71
     0
 42
1.0
  3
ISOCPEUR.ttf
  4

  0
ENDTAB
  0
TABLE
  2
VIEW
 70
     0
  0
ENDTAB
  0
TABLE
  2
UCS
 70
     0
  0
ENDTAB
  0
ENDSEC
  0
SECTION
  2
BLOCKS
  0
ENDSEC
  0
SECTION
  2
ENTITIES
  0
POLYLINE
  5
16C
  8
0
 66
     1
 10
0.0
 20
0.0
 30
0.0
 70
     1
  0
VERTEX
  5
16D
  8
0
 10
522.07659492
 20
-283.52807383
 30
0.0
  0
VERTEX
  5
16E
  8
0
 10
942.07659492
 20
-283.52807383
 30
0.0
  0
VERTEX
  5
16F
  8
0
 10
942.07659492
 20
13.47192617
 30
0.0
  0
VERTEX
  5
170
  8
0
 10
522.07659492
 20
13.47192617
 30
0.0
  0
SEQEND
  5
171
  8
0
  0
POLYLINE
  5
172
  8
0
 66
     1
 10
0.0
 20
0.0
 30
0.0
 70
     1
  0
VERTEX
  5
173
  8
0
 10
527.07659492
 20
-278.52807383
 30
0.0
  0
VERTEX
  5
174
  8
0
 10
937.07659492
 20
-278.52807383
 30
0.0
  0
VERTEX
  5
175
  8
0
 10
937.07659492
 20
8.47192617
 30
0.0
  0
VERTEX
  5
176
  8
0
 10
527.07659492
 20
8.47192617
 30
0.0
  0
SEQEND
  5
177
  8
0
  0
LINE
  5
178
  8
0
 10
752.07659492
 20
-278.52807383
 30
0.0
 11
752.07659492
 21
-283.52807383
 31
0.0
  0
LINE
  5
179
  8
0
 10
752.07659492
 20
8.47192617
 30
0.0
 11
752.07659492
 21
13.47192617
 31
0.0
  0
LINE
  5
17A
  8
0
 10
542.07659492
 20
-278.52807383
 30
0.0
 11
542.07659492
 21
-283.52807383
 31
0.0
  0
LINE
  5
17B
  8
0
 10
542.07659492
 20
8.47192617
 30
0.0
 11
542.07659492
 21
13.47192617
 31
0.0
  0
TEXT
  5
17C
  8
TXT_ALL
 62
     4
 10
941.07659492
 20
-282.52807383
 30
0.0
 40
2.5
  1

 50
90.00020741
  0
POLYLINE
  5
17D
  8
0
 66
     1
 10
0.0
 20
0.0
 30
0.0
  0
VERTEX
  5
17E
  8
0
 10
937.07659492
 20
-1.52807383
 30
0.0
  0
VERTEX
  5
17F
  8
0
 10
868.08329492
 20
-1.52807383
 30
0.0
  0
VERTEX
  5
180
  8
0
 10
868.08329492
 20
8.47192617
 30
0.0
  0
SEQEND
  5
181
  8
0
  0
LINE
  5
182
  8
0
 10
869.98659492
 20
-259.02807383
 30
0.0
 11
730.09659492
 21
-259.02807383
 31
0.0
  0
LINE
  5
183
  8
0
 10
730.09659492
 20
-268.77807383
 30
0.0
 11
869.98659492
 21
-268.77807383
 31
0.0
  0
POLYLINE
  5
184
  8
0
 66
     1
 10
0.0
 20
0.0
 30
0.0
  0
VERTEX
  5
185
  8
0
 10
730.09659492
 20
-259.02807383
 30
0.0
  0
VERTEX
  5
186
  8
0
 10
730.09659492
 20
-268.77807383
 30
0.0
  0
VERTEX
  5
187
  8
0
 10
730.09659492
 20
-278.52807383
 30
0.0
  0
SEQEND
  5
188
  8
0
  0
POLYLINE
  5
189
  8
0
 66
     1
 10
0.0
 20
0.0
 30
0.0
  0
VERTEX
  5
18A
  8
0
 10
800.04159492
 20
-259.02807383
 30
0.0
  0
VERTEX
  5
18B
  8
0
 10
800.04159492
 20
-268.77807383
 30
0.0
  0
VERTEX
  5
18C
  8
0
 10
800.04159492
 20
-278.52807383
 30
0.0
  0
SEQEND
  5
18D
  8
0
  0
TEXT
  5
18E
  8
TXT_ALL
 10
732.09659492
 20
-265.20307378
 30
0.0
 40
2.5999999
  1
E-mail: verkoop@jonkers-bouwmetaal.nl
  7
ARIAL
  0
TEXT
  5
18F
  8
TXT_ALL
 10
732.09659492
 20
-274.95307378
 30
0.0
 40
2.5999999
  1
Telefoon: 0527-685156
  7
ARIAL
  0
TEXT
  5
190
  8
TXT_ALL
 10
802.04159492
 20
-274.95307378
 30
0.0
 40
2.5999999
  1
Website: www.jonkers-bouwmetaal.nl
  7
ARIAL
  0
TEXT
  5
191
  8
TXT_ALL
 10
802.04159492
 20
-265.20307378
 30
0.0
 40
2.5999999
  1
Adres: Hoornse Hop 10, 8321 WX Urk
  7
ARIAL
  0
TEXT
  5
192
  8
TXT_ALL
 10
530.51855517
 20
2.22192617
 30
0.0
 40
2.5
  1
Art. nr. 91007513
  7
ARIAL
  0
TEXT
  5
193
  8
TXT_ALL
 10
573.25659199
 20
2.22192617
 30
0.0
 40
2.5
  1
Omschrijving: S05-anker 100x10 L=400, TV
  7
ARIAL
  0
LINE
  5
194
  8
0
 10
937.07659492
 20
-1.52807383
 30
0.0
 11
527.07659492
 21
-1.52807383
 31
0.0
  0
LINE
  5
195
  8
0
 10
570.09659492
 20
-1.52807383
 30
0.0
 11
570.09659492
 21
8.47192617
 31
0.0
  0
LINE
  5
196
  8
0
 10
730.09659492
 20
-1.52807383
 30
0.0
 11
730.09659492
 21
8.47192617
 31
0.0
  0
TEXT
  5
197
  8
TXT_ALL
 10
801.09029492
 20
2.22192617
 30
0.0
 40
2.5
  1
Behandeling: Thermisch Verzinkt
  7
ARIAL
  0
LINE
  5
198
  8
0
 10
869.98659492
 20
-259.02807383
 30
0.0
 11
937.07659492
 21
-259.02807383
 31
0.0
  0
LINE
  5
199
  8
0
 10
869.98659492
 20
-278.52807383
 30
0.0
 11
869.98659492
 21
-259.02807383
 31
0.0
  0
LINE
  5
19A
  8
0
 10
869.98659492
 20
-278.52807383
 30
0.0
 11
869.98659492
 21
-259.02807383
 31
0.0
  0
TEXT
  5
19B
  8
TXT_ALL
 10
664.44179301
 20
-277.37354042
 30
0.0
 40
2.5
  1

  0
TEXT
  5
19C
  8
TXT_ALL
 10
785.57697598
 20
-267.27807383
 30
0.0
 40
2.5
  1

  0
POLYLINE
  5
19D
  8
0
 66
     1
 10
0.0
 20
0.0
 30
0.0
  0
VERTEX
  5
19E
  8
0
 10
868.08329492
 20
-1.52807383
 30
0.0
  0
VERTEX
  5
19F
  8
0
 10
799.09029492
 20
-1.52807383
 30
0.0
  0
VERTEX
  5
1A0
  8
0
 10
799.09029492
 20
8.47192617
 30
0.0
  0
SEQEND
  5
1A1
  8
0
  0
TEXT
  5
1A2
  8
TXT_ALL
 10
870.08329492
 20
2.22192617
 30
0.0
 40
2.5
  1
Verpakkingshoeveelheid: 1 st.
  7
ARIAL
  0
TEXT
  5
1A3
  8
TXT_ALL
 10
732.09659492
 20
2.22192617
 30
0.0
 40
2.5
  1
Materiaal: S355
  7
ARIAL
  0
TEXT
  5
1A4
  8
TXT_ALL
 10
905.19308034
 20
-281.77758368
 30
0.0
 40
1.5
  1
Onderdeel van
  7
ARIAL
  0
POLYLINE
  5
1A5
  8
0
 66
     1
 10
0.0
 20
0.0
 30
0.0
  0
VERTEX
  5
2EE
  8
0
 10
676.03799772
 20
-207.7554348638994
 30
0.0
  0
VERTEX
  5
2EF
  8
0
 10
676.1164493955745
 20
-208.1132352549238
 30
0.0
  0
VERTEX
  5
2F0
  8
0
 10
676.3482874758123
 20
-208.4549956227112
 30
0.0
  0
VERTEX
  5
2F1
  8
0
 10
676.723118768445
 20
-208.7653950104603
 30
0.0
  0
VERTEX
  5
2F2
  8
0
 10
677.2241397626404
 20
-209.0305183593786
 30
0.0
  0
VERTEX
  5
2F3
  8
0
 10
677.8288899225028
 20
-209.2384803142329
 30
0.0
  0
SEQEND
  5
3DE
  8
0
  0
POLYLINE
  5
1A6
  8
0
 66
     1
 10
0.0
 20
0.0
 30
0.0
  0
VERTEX
  5
2F4
  8
0
 10
681.2471055065329
 20
-206.2723894227881
 30
0.0
  0
VERTEX
  5
2F5
  8
0
 10
680.6422419014008
 20
-206.1427908380913
 30
0.0
  0
VERTEX
  5
2F6
  8
0
 10
679.9979770556764
 20
-206.0707340331579
 30
0.0
  0
VERTEX
  5
2F7
  8
0
 10
679.3372993940388
 20
-206.0587901127808
 30
0.0
  0
VERTEX
  5
2F8
  8
0
 10
678.6837829773152
 20
-206.1073852555972
 30
0.0
  0
VERTEX
  5
2F9
  8
0
 10
678.0607463413871
 20
-206.2147855073369
 30
0.0
  0
VERTEX
  5
2FA
  8
0
 10
677.4904204536474
 20
-206.37715865115
 30
0.0
  0
VERTEX
  5
2FB
  8
0
 10
676.993155475679
 20
-206.588710947379
 30
0.0
  0
VERTEX
  5
2FC
  8
0
 10
676.5866946361675
 20
-206.8418938636777
 30
0.0
  0
VERTEX
  5
2FD
  8
0
 10
676.2855411234461
 20
-207.1276734190055
 30
0.0
  0
VERTEX
  5
2FE
  8
0
 10
676.1004405879879
 20
-207.4358525308642
 30
0.0
  0
VERTEX
  5
2FF
  8
0
 10
676.03799772
 20
-207.7554348638994
 30
0.0
  0
SEQEND
  5
3DF
  8
0
  0
POLYLINE
  5
1A7
  8
0
 66
     1
 10
0.0
 20
0.0
 30
0.0
  0
VERTEX
  5
1A8
  8
0
 10
681.24710552
 20
-206.27238943
 30
0.0
  0
VERTEX
  5
1A9
  8
0
 10
692.59177122
 20
-209.35474565
 30
0.0
  0
SEQEND
  5
1AA
  8
0
  0
POLYLINE
  5
1AB
  8
0
 66
     1
 10
0.0
 20
0.0
 30
0.0
  0
VERTEX
  5
300
  8
0
 10
694.38266342
 20
-210.8377911
 30
0.0
  0
VERTEX
  5
301
  8
0
 10
694.3042117417803
 20
-210.4799907091123
 30
0.0
  0
VERTEX
  5
302
  8
0
 10
694.0723736590157
 20
-210.138230341729
 30
0.0
  0
VERTEX
  5
303
  8
0
 10
693.6975423640881
 20
-209.8278309546332
 30
0.0
  0
VERTEX
  5
304
  8
0
 10
693.1965213679325
 20
-209.5627076065882
 30
0.0
  0
VERTEX
  5
305
  8
0
 10
692.5917712065328
 20
-209.3547456527881
 30
0.0
  0
SEQEND
  5
3E0
  8
0
  0
POLYLINE
  5
1AC
  8
0
 66
     1
 10
0.0
 20
0.0
 30
0.0
  0
VERTEX
  5
306
  8
0
 10
689.1735556225027
 20
-212.3208365442329
 30
0.0
  0
VERTEX
  5
307
  8
0
 10
689.7784192288443
 20
-212.4504351303339
 30
0.0
  0
VERTEX
  5
308
  8
0
 10
690.4226840763974
 20
-212.5224919363319
 30
0.0
  0
VERTEX
  5
309
  8
0
 10
691.0833617402594
 20
-212.5344358573782
 30
0.0
  0
VERTEX
  5
30A
  8
0
 10
691.7368781593618
 20
-212.4858407148089
 30
0.0
  0
VERTEX
  5
30B
  8
0
 10
692.3599147975773
 20
-212.3784404628971
 30
0.0
  0
VERTEX
  5
30C
  8
0
 10
692.9302406872789
 20
-212.2160673185256
 30
0.0
  0
VERTEX
  5
30D
  8
0
 10
693.4275056666735
 20
-212.0045150214112
 30
0.0
  0
VERTEX
  5
30E
  8
0
 10
693.8339665069025
 20
-211.751332103984
 30
0.0
  0
VERTEX
  5
30F
  8
0
 10
694.1351200195072
 20
-211.4655525473869
 30
0.0
  0
VERTEX
  5
310
  8
0
 10
694.3202205539452
 20
-211.1573734342334
 30
0.0
  0
VERTEX
  5
311
  8
0
 10
694.38266342
 20
-210.8377911
 30
0.0
  0
SEQEND
  5
3E1
  8
0
  0
LINE
  5
1AD
  8
0
 10
689.17355562
 20
-212.32083654
 30
0.0
 11
677.82888992
 21
-209.23848031
 31
0.0
  0
LINE
  5
1AE
  8
0
 10
681.24710552
 20
-210.16721267
 30
0.0
 11
681.24710552
 21
-206.27238943
 31
0.0
  0
LINE
  5
1AF
  8
0
 10
692.59177122
 20
-212.32083654
 30
0.0
 11
692.59177122
 21
-209.35474565
 31
0.0
  0
POLYLINE
  5
1B0
  8
0
 66
     1
 10
0.0
 20
0.0
 30
0.0
  0
VERTEX
  5
312
  8
0
 10
716.61699427
 20
-218.7807859738994
 30
0.0
  0
VERTEX
  5
313
  8
0
 10
716.6842457862907
 20
-219.1123304790088
 30
0.0
  0
VERTEX
  5
314
  8
0
 10
716.8834159020033
 20
-219.4311339149247
 30
0.0
  0
VERTEX
  5
315
  8
0
 10
717.2068506212695
 20
-219.7249448443637
 30
0.0
  0
VERTEX
  5
316
  8
0
 10
717.6421205291838
 20
-219.982472278053
 30
0.0
  0
VERTEX
  5
317
  8
0
 10
718.1724984472492
 20
-220.1938195811164
 30
0.0
  0
VERTEX
  5
318
  8
0
 10
718.7776022494672
 20
-220.3508647952035
 30
0.0
  0
VERTEX
  5
319
  8
0
 10
719.434178136012
 20
-220.4475727607953
 30
0.0
  0
VERTEX
  5
31A
  8
0
 10
720.1169942637179
 20
-220.480227045
 30
0.0
  0
VERTEX
  5
31B
  8
0
 10
720.7998103916651
 20
-220.4475727619855
 30
0.0
  0
VERTEX
  5
31C
  8
0
 10
721.4563862789248
 20
-220.3508647975382
 30
0.0
  0
VERTEX
  5
31D
  8
0
 10
722.061490082304
 20
-220.1938195845057
 30
0.0
  0
VERTEX
  5
31E
  8
0
 10
722.5918680019319
 20
-219.9824722823668
 30
0.0
  0
VERTEX
  5
31F
  8
0
 10
723.0271379117501
 20
-219.7249448494362
 30
0.0
  0
VERTEX
  5
320
  8
0
 10
723.3505726331884
 20
-219.4311339205609
 30
0.0
  0
VERTEX
  5
321
  8
0
 10
723.5497427512581
 20
-219.1123304849922
 30
0.0
  0
VERTEX
  5
322
  8
0
 10
723.61699427
 20
-218.78078598
 30
0.0
  0
SEQEND
  5
3E2
  8
0
  0
POLYLINE
  5
1B1
  8
0
 66
     1
 10
0.0
 20
0.0
 30
0.0
  0
VERTEX
  5
323
  8
0
 10
723.61699427
 20
-218.78078598
 30
0.0
  0
VERTEX
  5
324
  8
0
 10
723.5497427515645
 20
-218.4492414757557
 30
0.0
  0
VERTEX
  5
325
  8
0
 10
723.3505726343905
 20
-218.1304380408481
 30
0.0
  0
VERTEX
  5
326
  8
0
 10
723.0271379143677
 20
-217.8366271124659
 30
0.0
  0
VERTEX
  5
327
  8
0
 10
722.5918680063739
 20
-217.5790996797901
 30
0.0
  0
VERTEX
  5
328
  8
0
 10
722.0614900888332
 20
-217.3677523776126
 30
0.0
  0
VERTEX
  5
329
  8
0
 10
721.4563862876307
 20
-217.2107071642128
 30
0.0
  0
VERTEX
  5
32A
  8
0
 10
720.7998104024476
 20
-217.1139991990559
 30
0.0
  0
VERTEX
  5
32B
  8
0
 10
720.1169942762821
 20
-217.081344915
 30
0.0
  0
VERTEX
  5
32C
  8
0
 10
719.4341781498752
 20
-217.1139991978657
 30
0.0
  0
VERTEX
  5
32D
  8
0
 10
718.7776022639771
 20
-217.2107071618782
 30
0.0
  0
VERTEX
  5
32E
  8
0
 10
718.1724984616135
 20
-217.3677523742232
 30
0.0
  0
VERTEX
  5
32F
  8
0
 10
717.6421205425103
 20
-217.5790996754762
 30
0.0
  0
VERTEX
  5
330
  8
0
 10
717.2068506326126
 20
-217.8366271073935
 30
0.0
  0
VERTEX
  5
331
  8
0
 10
716.8834159104176
 20
-218.1304380352119
 30
0.0
  0
VERTEX
  5
332
  8
0
 10
716.6842457908866
 20
-218.4492414697723
 30
0.0
  0
VERTEX
  5
333
  8
0
 10
716.61699427
 20
-218.7807859738994
 30
0.0
  0
SEQEND
  5
3E3
  8
0
  0
POLYLINE
  5
1B2
  8
0
 66
     1
 10
0.0
 20
0.0
 30
0.0
  0
VERTEX
  5
334
  8
0
 10
646.80366688
 20
-199.8124399838994
 30
0.0
  0
VERTEX
  5
335
  8
0
 10
646.8709183962908
 20
-200.1439844890088
 30
0.0
  0
VERTEX
  5
336
  8
0
 10
647.0700885120034
 20
-200.4627879249247
 30
0.0
  0
VERTEX
  5
337
  8
0
 10
647.3935232312696
 20
-200.7565988543637
 30
0.0
  0
VERTEX
  5
338
  8
0
 10
647.8287931391839
 20
-201.014126288053
 30
0.0
  0
VERTEX
  5
339
  8
0
 10
648.3591710572492
 20
-201.2254735911164
 30
0.0
  0
VERTEX
  5
33A
  8
0
 10
648.9642748594673
 20
-201.3825188052035
 30
0.0
  0
VERTEX
  5
33B
  8
0
 10
649.620850746012
 20
-201.4792267707953
 30
0.0
  0
VERTEX
  5
33C
  8
0
 10
650.3036668737179
 20
-201.511881055
 30
0.0
  0
VERTEX
  5
33D
  8
0
 10
650.9864830016652
 20
-201.4792267719855
 30
0.0
  0
VERTEX
  5
33E
  8
0
 10
651.6430588889249
 20
-201.3825188075382
 30
0.0
  0
VERTEX
  5
33F
  8
0
 10
652.248162692304
 20
-201.2254735945058
 30
0.0
  0
VERTEX
  5
340
  8
0
 10
652.7785406119319
 20
-201.0141262923669
 30
0.0
  0
VERTEX
  5
341
  8
0
 10
653.2138105217501
 20
-200.7565988594362
 30
0.0
  0
VERTEX
  5
342
  8
0
 10
653.5372452431885
 20
-200.4627879305609
 30
0.0
  0
VERTEX
  5
343
  8
0
 10
653.7364153612582
 20
-200.1439844949923
 30
0.0
  0
VERTEX
  5
344
  8
0
 10
653.80366688
 20
-199.81243999
 30
0.0
  0
SEQEND
  5
3E4
  8
0
  0
POLYLINE
  5
1B3
  8
0
 66
     1
 10
0.0
 20
0.0
 30
0.0
  0
VERTEX
  5
345
  8
0
 10
653.80366688
 20
-199.81243999
 30
0.0
  0
VERTEX
  5
346
  8
0
 10
653.7364153615646
 20
-199.4808954857557
 30
0.0
  0
VERTEX
  5
347
  8
0
 10
653.5372452443905
 20
-199.1620920508481
 30
0.0
  0
VERTEX
  5
348
  8
0
 10
653.2138105243678
 20
-198.868281122466
 30
0.0
  0
VERTEX
  5
349
  8
0
 10
652.778540616374
 20
-198.6107536897901
 30
0.0
  0
VERTEX
  5
34A
  8
0
 10
652.2481626988333
 20
-198.3994063876126
 30
0.0
  0
VERTEX
  5
34B
  8
0
 10
651.6430588976308
 20
-198.2423611742128
 30
0.0
  0
VERTEX
  5
34C
  8
0
 10
650.9864830124477
 20
-198.1456532090559
 30
0.0
  0
VERTEX
  5
34D
  8
0
 10
650.3036668862821
 20
-198.112998925
 30
0.0
  0
VERTEX
  5
34E
  8
0
 10
649.6208507598752
 20
-198.1456532078657
 30
0.0
  0
VERTEX
  5
34F
  8
0
 10
648.9642748739772
 20
-198.2423611718782
 30
0.0
  0
VERTEX
  5
350
  8
0
 10
648.3591710716136
 20
-198.3994063842233
 30
0.0
  0
VERTEX
  5
351
  8
0
 10
647.8287931525103
 20
-198.6107536854763
 30
0.0
  0
VERTEX
  5
352
  8
0
 10
647.3935232426127
 20
-198.8682811173935
 30
0.0
  0
VERTEX
  5
353
  8
0
 10
647.0700885204177
 20
-199.1620920452119
 30
0.0
  0
VERTEX
  5
354
  8
0
 10
646.8709184008867
 20
-199.4808954797723
 30
0.0
  0
VERTEX
  5
355
  8
0
 10
646.80366688
 20
-199.8124399838994
 30
0.0
  0
SEQEND
  5
3E5
  8
0
  0
POLYLINE
  5
1B4
  8
0
 66
     1
 10
0.0
 20
0.0
 30
0.0
  0
VERTEX
  5
356
  8
0
 10
600.58675258
 20
-178.6375106456424
 30
0.0
  0
VERTEX
  5
357
  8
0
 10
600.6347893773506
 20
-178.874328149292
 30
0.0
  0
VERTEX
  5
358
  8
0
 10
600.7770537457168
 20
-179.1020448892319
 30
0.0
  0
VERTEX
  5
359
  8
0
 10
601.0080785451926
 20
-179.3119098388312
 30
0.0
  0
VERTEX
  5
35A
  8
0
 10
601.3189856222742
 20
-179.4958580057522
 30
0.0
  0
VERTEX
  5
35B
  8
0
 10
601.6978269923209
 20
-179.6468203650831
 30
0.0
  0
VERTEX
  5
35C
  8
0
 10
602.1300439939052
 20
-179.7589955180025
 30
0.0
  0
VERTEX
  5
35D
  8
0
 10
602.5990267700085
 20
-179.8280726362824
 30
0.0
  0
VERTEX
  5
35E
  8
0
 10
603.0867525755128
 20
-179.851397125
 30
0.0
  0
VERTEX
  5
35F
  8
0
 10
603.5744783811895
 20
-179.8280726371325
 30
0.0
  0
VERTEX
  5
360
  8
0
 10
604.0434611578036
 20
-179.7589955196701
 30
0.0
  0
VERTEX
  5
361
  8
0
 10
604.4756781602172
 20
-179.6468203675041
 30
0.0
  0
VERTEX
  5
362
  8
0
 10
604.85451953138
 20
-179.4958580088335
 30
0.0
  0
VERTEX
  5
363
  8
0
 10
605.1654266098216
 20
-179.3119098424544
 30
0.0
  0
VERTEX
  5
364
  8
0
 10
605.396451410849
 20
-179.1020448932578
 30
0.0
  0
VERTEX
  5
365
  8
0
 10
605.5387157808987
 20
-178.8743281535659
 30
0.0
  0
VERTEX
  5
366
  8
0
 10
605.58675258
 20
-178.63751065
 30
0.0
  0
SEQEND
  5
3E6
  8
0
  0
POLYLINE
  5
1B5
  8
0
 66
     1
 10
0.0
 20
0.0
 30
0.0
  0
VERTEX
  5
367
  8
0
 10
605.58675258
 20
-178.63751065
 30
0.0
  0
VERTEX
  5
368
  8
0
 10
605.5387157811175
 20
-178.4006931469683
 30
0.0
  0
VERTEX
  5
369
  8
0
 10
605.3964514117075
 20
-178.1729764077487
 30
0.0
  0
VERTEX
  5
36A
  8
0
 10
605.1654266116913
 20
-177.9631114589043
 30
0.0
  0
VERTEX
  5
36B
  8
0
 10
604.8545195345529
 20
-177.7791632927072
 30
0.0
  0
VERTEX
  5
36C
  8
0
 10
604.475678164881
 20
-177.628200934009
 30
0.0
  0
VERTEX
  5
36D
  8
0
 10
604.043461164022
 20
-177.5160257815806
 30
0.0
  0
VERTEX
  5
36E
  8
0
 10
603.5744783888913
 20
-177.4469486636114
 30
0.0
  0
VERTEX
  5
36F
  8
0
 10
603.0867525844873
 20
-177.423624175
 30
0.0
  0
VERTEX
  5
370
  8
0
 10
602.5990267799109
 20
-177.4469486627612
 30
0.0
  0
VERTEX
  5
371
  8
0
 10
602.1300440042694
 20
-177.516025779913
 30
0.0
  0
VERTEX
  5
372
  8
0
 10
601.6978270025812
 20
-177.628200931588
 30
0.0
  0
VERTEX
  5
373
  8
0
 10
601.3189856317931
 20
-177.7791632896259
 30
0.0
  0
VERTEX
  5
374
  8
0
 10
601.0080785532948
 20
-177.9631114552811
 30
0.0
  0
VERTEX
  5
375
  8
0
 10
600.777053751727
 20
-178.1729764037228
 30
0.0
  0
VERTEX
  5
376
  8
0
 10
600.6347893806334
 20
-178.4006931426945
 30
0.0
  0
VERTEX
  5
377
  8
0
 10
600.58675258
 20
-178.6375106456424
 30
0.0
  0
SEQEND
  5
3E7
  8
0
  0
POLYLINE
  5
1B6
  8
0
 66
     1
 10
0.0
 20
0.0
 30
0.0
  0
VERTEX
  5
378
  8
0
 10
585.93725713
 20
-191.3493287156424
 30
0.0
  0
VERTEX
  5
379
  8
0
 10
585.9852939273505
 20
-191.586146219292
 30
0.0
  0
VERTEX
  5
37A
  8
0
 10
586.1275582957168
 20
-191.8138629592319
 30
0.0
  0
VERTEX
  5
37B
  8
0
 10
586.3585830951926
 20
-192.0237279088312
 30
0.0
  0
VERTEX
  5
37C
  8
0
 10
586.6694901722742
 20
-192.2076760757521
 30
0.0
  0
VERTEX
  5
37D
  8
0
 10
587.0483315423209
 20
-192.3586384350831
 30
0.0
  0
VERTEX
  5
37E
  8
0
 10
587.4805485439052
 20
-192.4708135880025
 30
0.0
  0
VERTEX
  5
37F
  8
0
 10
587.9495313200085
 20
-192.5398907062824
 30
0.0
  0
VERTEX
  5
380
  8
0
 10
588.4372571255128
 20
-192.563215195
 30
0.0
  0
VERTEX
  5
381
  8
0
 10
588.9249829311894
 20
-192.5398907071325
 30
0.0
  0
VERTEX
  5
382
  8
0
 10
589.3939657078035
 20
-192.4708135896701
 30
0.0
  0
VERTEX
  5
383
  8
0
 10
589.8261827102172
 20
-192.3586384375041
 30
0.0
  0
VERTEX
  5
384
  8
0
 10
590.20502408138
 20
-192.2076760788335
 30
0.0
  0
VERTEX
  5
385
  8
0
 10
590.5159311598215
 20
-192.0237279124544
 30
0.0
  0
VERTEX
  5
386
  8
0
 10
590.7469559608489
 20
-191.8138629632578
 30
0.0
  0
VERTEX
  5
387
  8
0
 10
590.8892203308986
 20
-191.5861462235659
 30
0.0
  0
VERTEX
  5
388
  8
0
 10
590.93725713
 20
-191.34932872
 30
0.0
  0
SEQEND
  5
3E8
  8
0
  0
POLYLINE
  5
1B7
  8
0
 66
     1
 10
0.0
 20
0.0
 30
0.0
  0
VERTEX
  5
389
  8
0
 10
590.93725713
 20
-191.34932872
 30
0.0
  0
VERTEX
  5
38A
  8
0
 10
590.8892203311175
 20
-191.1125112169683
 30
0.0
  0
VERTEX
  5
38B
  8
0
 10
590.7469559617075
 20
-190.8847944777487
 30
0.0
  0
VERTEX
  5
38C
  8
0
 10
590.5159311616912
 20
-190.6749295289042
 30
0.0
  0
VERTEX
  5
38D
  8
0
 10
590.2050240845529
 20
-190.4909813627072
 30
0.0
  0
VERTEX
  5
38E
  8
0
 10
589.8261827148809
 20
-190.340019004009
 30
0.0
  0
VERTEX
  5
38F
  8
0
 10
589.393965714022
 20
-190.2278438515806
 30
0.0
  0
VERTEX
  5
390
  8
0
 10
588.9249829388913
 20
-190.1587667336113
 30
0.0
  0
VERTEX
  5
391
  8
0
 10
588.4372571344873
 20
-190.135442245
 30
0.0
  0
VERTEX
  5
392
  8
0
 10
587.9495313299109
 20
-190.1587667327612
 30
0.0
  0
VERTEX
  5
393
  8
0
 10
587.4805485542694
 20
-190.227843849913
 30
0.0
  0
VERTEX
  5
394
  8
0
 10
587.0483315525812
 20
-190.340019001588
 30
0.0
  0
VERTEX
  5
395
  8
0
 10
586.6694901817931
 20
-190.4909813596259
 30
0.0
  0
VERTEX
  5
396
  8
0
 10
586.3585831032948
 20
-190.674929525281
 30
0.0
  0
VERTEX
  5
397
  8
0
 10
586.1275583017269
 20
-190.8847944737228
 30
0.0
  0
VERTEX
  5
398
  8
0
 10
585.9852939306334
 20
-191.1125112126945
 30
0.0
  0
VERTEX
  5
399
  8
0
 10
585.93725713
 20
-191.3493287156424
 30
0.0
  0
SEQEND
  5
3E9
  8
0
  0
POLYLINE
  5
1B8
  8
0
 66
     1
 10
0.0
 20
0.0
 30
0.0
  0
VERTEX
  5
39A
  8
0
 10
578.77008777
 20
-172.7099025256424
 30
0.0
  0
VERTEX
  5
39B
  8
0
 10
578.8181245673505
 20
-172.946720029292
 30
0.0
  0
VERTEX
  5
39C
  8
0
 10
578.9603889357168
 20
-173.1744367692319
 30
0.0
  0
VERTEX
  5
39D
  8
0
 10
579.1914137351926
 20
-173.3843017188312
 30
0.0
  0
VERTEX
  5
39E
  8
0
 10
579.5023208122742
 20
-173.5682498857522
 30
0.0
  0
VERTEX
  5
39F
  8
0
 10
579.8811621823208
 20
-173.7192122450831
 30
0.0
  0
VERTEX
  5
3A0
  8
0
 10
580.3133791839052
 20
-173.8313873980025
 30
0.0
  0
VERTEX
  5
3A1
  8
0
 10
580.7823619600085
 20
-173.9004645162824
 30
0.0
  0
VERTEX
  5
3A2
  8
0
 10
581.2700877655128
 20
-173.923789005
 30
0.0
  0
VERTEX
  5
3A3
  8
0
 10
581.7578135711894
 20
-173.9004645171325
 30
0.0
  0
VERTEX
  5
3A4
  8
0
 10
582.2267963478035
 20
-173.8313873996701
 30
0.0
  0
VERTEX
  5
3A5
  8
0
 10
582.6590133502172
 20
-173.7192122475041
 30
0.0
  0
VERTEX
  5
3A6
  8
0
 10
583.03785472138
 20
-173.5682498888335
 30
0.0
  0
VERTEX
  5
3A7
  8
0
 10
583.3487617998215
 20
-173.3843017224544
 30
0.0
  0
VERTEX
  5
3A8
  8
0
 10
583.5797866008489
 20
-173.1744367732578
 30
0.0
  0
VERTEX
  5
3A9
  8
0
 10
583.7220509708986
 20
-172.9467200335659
 30
0.0
  0
VERTEX
  5
3AA
  8
0
 10
583.77008777
 20
-172.70990253
 30
0.0
  0
SEQEND
  5
3EA
  8
0
  0
POLYLINE
  5
1B9
  8
0
 66
     1
 10
0.0
 20
0.0
 30
0.0
  0
VERTEX
  5
3AB
  8
0
 10
583.77008777
 20
-172.70990253
 30
0.0
  0
VERTEX
  5
3AC
  8
0
 10
583.7220509711175
 20
-172.4730850269683
 30
0.0
  0
VERTEX
  5
3AD
  8
0
 10
583.5797866017075
 20
-172.2453682877487
 30
0.0
  0
VERTEX
  5
3AE
  8
0
 10
583.3487618016912
 20
-172.0355033389042
 30
0.0
  0
VERTEX
  5
3AF
  8
0
 10
583.0378547245529
 20
-171.8515551727072
 30
0.0
  0
VERTEX
  5
3B0
  8
0
 10
582.6590133548809
 20
-171.700592814009
 30
0.0
  0
VERTEX
  5
3B1
  8
0
 10
582.226796354022
 20
-171.5884176615806
 30
0.0
  0
VERTEX
  5
3B2
  8
0
 10
581.7578135788913
 20
-171.5193405436113
 30
0.0
  0
VERTEX
  5
3B3
  8
0
 10
581.2700877744873
 20
-171.496016055
 30
0.0
  0
VERTEX
  5
3B4
  8
0
 10
580.7823619699109
 20
-171.5193405427612
 30
0.0
  0
VERTEX
  5
3B5
  8
0
 10
580.3133791942694
 20
-171.588417659913
 30
0.0
  0
VERTEX
  5
3B6
  8
0
 10
579.8811621925812
 20
-171.700592811588
 30
0.0
  0
VERTEX
  5
3B7
  8
0
 10
579.5023208217931
 20
-171.8515551696259
 30
0.0
  0
VERTEX
  5
3B8
  8
0
 10
579.1914137432948
 20
-172.035503335281
 30
0.0
  0
VERTEX
  5
3B9
  8
0
 10
578.9603889417269
 20
-172.2453682837228
 30
0.0
  0
VERTEX
  5
3BA
  8
0
 10
578.8181245706334
 20
-172.4730850226945
 30
0.0
  0
VERTEX
  5
3BB
  8
0
 10
578.77008777
 20
-172.7099025256424
 30
0.0
  0
SEQEND
  5
3EB
  8
0
  0
POLYLINE
  5
1BA
  8
0
 66
     1
 10
0.0
 20
0.0
 30
0.0
  0
VERTEX
  5
3BC
  8
0
 10
564.12059232
 20
-185.4217205956424
 30
0.0
  0
VERTEX
  5
3BD
  8
0
 10
564.1686291173505
 20
-185.658538099292
 30
0.0
  0
VERTEX
  5
3BE
  8
0
 10
564.3108934857167
 20
-185.8862548392319
 30
0.0
  0
VERTEX
  5
3BF
  8
0
 10
564.5419182851925
 20
-186.0961197888312
 30
0.0
  0
VERTEX
  5
3C0
  8
0
 10
564.8528253622742
 20
-186.2800679557521
 30
0.0
  0
VERTEX
  5
3C1
  8
0
 10
565.2316667323208
 20
-186.4310303150831
 30
0.0
  0
VERTEX
  5
3C2
  8
0
 10
565.6638837339052
 20
-186.5432054680025
 30
0.0
  0
VERTEX
  5
3C3
  8
0
 10
566.1328665100085
 20
-186.6122825862824
 30
0.0
  0
VERTEX
  5
3C4
  8
0
 10
566.6205923155128
 20
-186.635607075
 30
0.0
  0
VERTEX
  5
3C5
  8
0
 10
567.1083181211894
 20
-186.6122825871325
 30
0.0
  0
VERTEX
  5
3C6
  8
0
 10
567.5773008978035
 20
-186.5432054696701
 30
0.0
  0
VERTEX
  5
3C7
  8
0
 10
568.0095179002171
 20
-186.4310303175041
 30
0.0
  0
VERTEX
  5
3C8
  8
0
 10
568.38835927138
 20
-186.2800679588335
 30
0.0
  0
VERTEX
  5
3C9
  8
0
 10
568.6992663498215
 20
-186.0961197924544
 30
0.0
  0
VERTEX
  5
3CA
  8
0
 10
568.9302911508489
 20
-185.8862548432578
 30
0.0
  0
VERTEX
  5
3CB
  8
0
 10
569.0725555208986
 20
-185.6585381035659
 30
0.0
  0
VERTEX
  5
3CC
  8
0
 10
569.12059232
 20
-185.4217206
 30
0.0
  0
SEQEND
  5
3EC
  8
0
  0
POLYLINE
  5
1BB
  8
0
 66
     1
 10
0.0
 20
0.0
 30
0.0
  0
VERTEX
  5
3CD
  8
0
 10
569.12059232
 20
-185.4217206
 30
0.0
  0
VERTEX
  5
3CE
  8
0
 10
569.0725555211175
 20
-185.1849030969683
 30
0.0
  0
VERTEX
  5
3CF
  8
0
 10
568.9302911517075
 20
-184.9571863577487
 30
0.0
  0
VERTEX
  5
3D0
  8
0
 10
568.6992663516912
 20
-184.7473214089042
 30
0.0
  0
VERTEX
  5
3D1
  8
0
 10
568.3883592745528
 20
-184.5633732427072
 30
0.0
  0
VERTEX
  5
3D2
  8
0
 10
568.0095179048809
 20
-184.412410884009
 30
0.0
  0
VERTEX
  5
3D3
  8
0
 10
567.577300904022
 20
-184.3002357315806
 30
0.0
  0
VERTEX
  5
3D4
  8
0
 10
567.1083181288913
 20
-184.2311586136113
 30
0.0
  0
VERTEX
  5
3D5
  8
0
 10
566.6205923244872
 20
-184.207834125
 30
0.0
  0
VERTEX
  5
3D6
  8
0
 10
566.1328665199109
 20
-184.2311586127612
 30
0.0
  0
VERTEX
  5
3D7
  8
0
 10
565.6638837442694
 20
-184.300235729913
 30
0.0
  0
VERTEX
  5
3D8
  8
0
 10
565.2316667425812
 20
-184.412410881588
 30
0.0
  0
VERTEX
  5
3D9
  8
0
 10
564.8528253717931
 20
-184.5633732396259
 30
0.0
  0
VERTEX
  5
3DA
  8
0
 10
564.5419182932948
 20
-184.747321405281
 30
0.0
  0
VERTEX
  5
3DB
  8
0
 10
564.3108934917269
 20
-184.9571863537228
 30
0.0
  0
VERTEX
  5
3DC
  8
0
 10
564.1686291206333
 20
-185.1849030926945
 30
0.0
  0
VERTEX
  5
3DD
  8
0
 10
564.12059232
 20
-185.4217205956424
 30
0.0
  0
SEQEND
  5
3ED
  8
0
  0
POLYLINE
  5
1BC
  8
0
 66
     1
 10
0.0
 20
0.0
 30
0.0
  0
VERTEX
  5
1BD
  8
0
 10
743.23323954
 20
-215.52244006
 30
0.0
  0
VERTEX
  5
1BE
  8
0
 10
718.8174138
 20
-236.70880351
 30
0.0
  0
VERTEX
  5
1BF
  8
0
 10
718.8174138
 20
-232.33777177
 30
0.0
  0
SEQEND
  5
1C0
  8
0
  0
LINE
  5
1C1
  8
0
 10
743.23323954
 20
-211.15140831
 30
0.0
 11
718.8174138
 21
-232.33777177
 31
0.0
  0
POLYLINE
  5
1C2
  8
0
 66
     1
 10
0.0
 20
0.0
 30
0.0
  0
VERTEX
  5
1C3
  8
0
 10
743.23323954
 20
-215.52244006
 30
0.0
  0
VERTEX
  5
1C4
  8
0
 10
743.23323954
 20
-211.15140831
 30
0.0
  0
VERTEX
  5
1C5
  8
0
 10
568.69992107
 20
-163.73054334
 30
0.0
  0
VERTEX
  5
1C6
  8
0
 10
544.28409533
 20
-184.91690679
 30
0.0
  0
VERTEX
  5
1C7
  8
0
 10
718.8174138
 20
-232.33777177
 30
0.0
  0
SEQEND
  5
1C8
  8
0
  0
LINE
  5
1C9
  8
0
 10
544.28409533
 20
-189.28793854
 30
0.0
 11
544.28409533
 21
-184.91690679
 31
0.0
  0
LINE
  5
1CA
  8
0
 10
544.28409533
 20
-189.28793854
 30
0.0
 11
718.8174138
 21
-236.70880351
 31
0.0
  0
LINE
  5
1CB
  8
0
  6
STRICHPUNKT2
 62
     1
 10
566.62059232
 20
-185.4217206
 30
0.0
 11
569.89309205
 21
-186.31086182
 31
0.0
  0
LINE
  5
1CC
  8
0
  6
STRICHPUNKT2
 62
     1
 10
566.62059232
 20
-185.4217206
 30
0.0
 11
563.3480926
 21
-184.53257938
 31
0.0
  0
LINE
  5
1CD
  8
0
  6
STRICHPUNKT2
 62
     1
 10
566.62059232
 20
-185.4217206
 30
0.0
 11
568.45177926
 21
-183.83274334
 31
0.0
  0
LINE
  5
1CE
  8
0
  6
STRICHPUNKT2
 62
     1
 10
566.62059232
 20
-185.4217206
 30
0.0
 11
564.78940539
 21
-187.01069786
 31
0.0
  0
LINE
  5
1CF
  8
0
  6
STRICHPUNKT2
 62
     1
 10
581.27008777
 20
-172.70990253
 30
0.0
 11
584.54258749
 21
-173.59904374
 31
0.0
  0
LINE
  5
1D0
  8
0
  6
STRICHPUNKT2
 62
     1
 10
581.27008777
 20
-172.70990253
 30
0.0
 11
577.99758805
 21
-171.82076131
 31
0.0
  0
LINE
  5
1D1
  8
0
  6
STRICHPUNKT2
 62
     1
 10
581.27008777
 20
-172.70990253
 30
0.0
 11
583.1012747
 21
-171.12092527
 31
0.0
  0
LINE
  5
1D2
  8
0
  6
STRICHPUNKT2
 62
     1
 10
581.27008777
 20
-172.70990253
 30
0.0
 11
579.43890084
 21
-174.29887979
 31
0.0
  0
LINE
  5
1D3
  8
0
  6
STRICHPUNKT2
 62
     1
 10
588.43725713
 20
-191.34932872
 30
0.0
 11
591.70975686
 21
-192.23846994
 31
0.0
  0
LINE
  5
1D4
  8
0
  6
STRICHPUNKT2
 62
     1
 10
588.43725713
 20
-191.34932872
 30
0.0
 11
585.16475741
 21
-190.4601875
 31
0.0
  0
LINE
  5
1D5
  8
0
  6
STRICHPUNKT2
 62
     1
 10
588.43725713
 20
-191.34932872
 30
0.0
 11
590.26844406
 21
-189.76035146
 31
0.0
  0
LINE
  5
1D6
  8
0
  6
STRICHPUNKT2
 62
     1
 10
588.43725713
 20
-191.34932872
 30
0.0
 11
586.6060702
 21
-192.93830598
 31
0.0
  0
LINE
  5
1D7
  8
0
  6
STRICHPUNKT2
 62
     1
 10
603.08675258
 20
-178.63751065
 30
0.0
 11
606.3592523
 21
-179.52665187
 31
0.0
  0
LINE
  5
1D8
  8
0
  6
STRICHPUNKT2
 62
     1
 10
603.08675258
 20
-178.63751065
 30
0.0
 11
599.81425285
 21
-177.74836943
 31
0.0
  0
LINE
  5
1D9
  8
0
  6
STRICHPUNKT2
 62
     1
 10
603.08675258
 20
-178.63751065
 30
0.0
 11
604.91793951
 21
-177.04853339
 31
0.0
  0
LINE
  5
1DA
  8
0
  6
STRICHPUNKT2
 62
     1
 10
603.08675258
 20
-178.63751065
 30
0.0
 11
601.25556565
 21
-180.22648791
 31
0.0
  0
LINE
  5
1DB
  8
0
  6
STRICHPUNKT2
 62
     1
 10
650.30366688
 20
-199.81243999
 30
0.0
 11
654.66699984
 21
-200.99796161
 31
0.0
  0
LINE
  5
1DC
  8
0
  6
STRICHPUNKT2
 62
     1
 10
650.30366688
 20
-199.81243999
 30
0.0
 11
645.94033392
 21
-198.62691836
 31
0.0
  0
LINE
  5
1DD
  8
0
  6
STRICHPUNKT2
 62
     1
 10
650.30366688
 20
-199.81243999
 30
0.0
 11
652.74524945
 21
-197.69380364
 31
0.0
  0
LINE
  5
1DE
  8
0
  6
STRICHPUNKT2
 62
     1
 10
650.30366688
 20
-199.81243999
 30
0.0
 11
647.8620843
 21
-201.93107633
 31
0.0
  0
LINE
  5
1DF
  8
0
  6
STRICHPUNKT2
 62
     1
 10
720.11699427
 20
-218.78078598
 30
0.0
 11
724.48032723
 21
-219.9663076
 31
0.0
  0
LINE
  5
1E0
  8
0
  6
STRICHPUNKT2
 62
     1
 10
720.11699427
 20
-218.78078598
 30
0.0
 11
715.75366131
 21
-217.59526435
 31
0.0
  0
LINE
  5
1E1
  8
0
  6
STRICHPUNKT2
 62
     1
 10
720.11699427
 20
-218.78078598
 30
0.0
 11
722.55857684
 21
-216.66214963
 31
0.0
  0
LINE
  5
1E2
  8
0
  6
STRICHPUNKT2
 62
     1
 10
720.11699427
 20
-218.78078598
 30
0.0
 11
717.67541169
 21
-220.89942232
 31
0.0
  0
LINE
  5
1E3
  8
0
  6
STRICHPUNKT2
 62
     1
 10
675.17466476
 20
-206.56991325
 30
0.0
 11
695.24599639
 21
-212.02331272
 31
0.0
  0
LINE
  5
1E4
  8
0
  6
STRICHPUNKT2
 62
     1
 10
677.09641515
 20
-209.87407122
 30
0.0
 11
681.9795803
 21
-205.63679853
 31
0.0
  0
LINE
  5
1E5
  8
0
  6
STRICHPUNKT2
 62
     1
 10
688.44108085
 20
-212.95642744
 30
0.0
 11
693.324246
 21
-208.71915475
 31
0.0
  0
POLYLINE
  5
1E6
  8
0
 66
     1
 10
0.0
 20
0.0
 30
0.0
 70
     1
  0
VERTEX
  5
1E7
  8
0
 10
848.5934744
 20
-112.74742282
 30
0.0
 42
-1.0
  0
VERTEX
  5
1E8
  8
0
 10
848.5934744
 20
-105.74742282
 30
0.0
  0
VERTEX
  5
1E9
  8
0
 10
861.5934744
 20
-105.74742282
 30
0.0
 42
-1.0
  0
VERTEX
  5
1EA
  8
0
 10
861.5934744
 20
-112.74742282
 30
0.0
  0
SEQEND
  5
1EB
  8
0
  0
CIRCLE
  5
1EC
  8
0
 10
895.0934744
 20
-109.24742282
 30
0.0
 40
3.5
  0
CIRCLE
  5
1ED
  8
0
 10
815.0934744
 20
-109.24742282
 30
0.0
 40
3.5
  0
CIRCLE
  5
1EE
  8
0
 10
752.5934744
 20
-94.24742282
 30
0.0
 40
2.5
  0
CIRCLE
  5
1EF
  8
0
 10
752.5934744
 20
-124.24742282
 30
0.0
 40
2.5
  0
CIRCLE
  5
1F0
  8
0
 10
727.5934744
 20
-94.24742282
 30
0.0
 40
2.5
  0
CIRCLE
  5
1F1
  8
0
 10
727.5934744
 20
-124.24742282
 30
0.0
 40
2.5
  0
LINE
  5
1F2
  8
0
 10
907.5934744
 20
-84.24742282
 30
0.0
 11
907.5934744
 21
-134.24742282
 31
0.0
  0
LINE
  5
1F3
  8
0
 10
707.5934744
 20
-134.24742282
 30
0.0
 11
907.5934744
 21
-134.24742282
 31
0.0
  0
LINE
  5
1F4
  8
0
 10
707.5934744
 20
-84.24742282
 30
0.0
 11
707.5934744
 21
-134.24742282
 31
0.0
  0
LINE
  5
1F5
  8
0
 10
907.5934744
 20
-84.24742282
 30
0.0
 11
707.5934744
 21
-84.24742282
 31
0.0
  0
LINE
  5
1F6
  8
0
  6
STRICHPUNKT2
 62
     1
 10
727.5934744
 20
-124.24742282
 30
0.0
 11
731.3434744
 21
-124.24742282
 31
0.0
  0
LINE
  5
1F7
  8
0
  6
STRICHPUNKT2
 62
     1
 10
727.5934744
 20
-124.24742282
 30
0.0
 11
723.8434744
 21
-124.24742282
 31
0.0
  0
LINE
  5
1F8
  8
0
  6
STRICHPUNKT2
 62
     1
 10
727.5934744
 20
-124.24742282
 30
0.0
 11
727.5934744
 21
-120.49742282
 31
0.0
  0
LINE
  5
1F9
  8
0
  6
STRICHPUNKT2
 62
     1
 10
727.5934744
 20
-124.24742282
 30
0.0
 11
727.5934744
 21
-127.99742282
 31
0.0
  0
LINE
  5
1FA
  8
0
  6
STRICHPUNKT2
 62
     1
 10
727.5934744
 20
-94.24742282
 30
0.0
 11
731.3434744
 21
-94.24742282
 31
0.0
  0
LINE
  5
1FB
  8
0
  6
STRICHPUNKT2
 62
     1
 10
727.5934744
 20
-94.24742282
 30
0.0
 11
723.8434744
 21
-94.24742282
 31
0.0
  0
LINE
  5
1FC
  8
0
  6
STRICHPUNKT2
 62
     1
 10
727.5934744
 20
-94.24742282
 30
0.0
 11
727.5934744
 21
-90.49742282
 31
0.0
  0
LINE
  5
1FD
  8
0
  6
STRICHPUNKT2
 62
     1
 10
727.5934744
 20
-94.24742282
 30
0.0
 11
727.5934744
 21
-97.99742282
 31
0.0
  0
LINE
  5
1FE
  8
0
  6
STRICHPUNKT2
 62
     1
 10
752.5934744
 20
-124.24742282
 30
0.0
 11
756.3434744
 21
-124.24742282
 31
0.0
  0
LINE
  5
1FF
  8
0
  6
STRICHPUNKT2
 62
     1
 10
752.5934744
 20
-124.24742282
 30
0.0
 11
748.8434744
 21
-124.24742282
 31
0.0
  0
LINE
  5
200
  8
0
  6
STRICHPUNKT2
 62
     1
 10
752.5934744
 20
-124.24742282
 30
0.0
 11
752.5934744
 21
-120.49742282
 31
0.0
  0
LINE
  5
201
  8
0
  6
STRICHPUNKT2
 62
     1
 10
752.5934744
 20
-124.24742282
 30
0.0
 11
752.5934744
 21
-127.99742282
 31
0.0
  0
LINE
  5
202
  8
0
  6
STRICHPUNKT2
 62
     1
 10
752.5934744
 20
-94.24742282
 30
0.0
 11
756.3434744
 21
-94.24742282
 31
0.0
  0
LINE
  5
203
  8
0
  6
STRICHPUNKT2
 62
     1
 10
752.5934744
 20
-94.24742282
 30
0.0
 11
748.8434744
 21
-94.24742282
 31
0.0
  0
LINE
  5
204
  8
0
  6
STRICHPUNKT2
 62
     1
 10
752.5934744
 20
-94.24742282
 30
0.0
 11
752.5934744
 21
-90.49742282
 31
0.0
  0
LINE
  5
205
  8
0
  6
STRICHPUNKT2
 62
     1
 10
752.5934744
 20
-94.24742282
 30
0.0
 11
752.5934744
 21
-97.99742282
 31
0.0
  0
LINE
  5
206
  8
0
  6
STRICHPUNKT2
 62
     1
 10
815.0934744
 20
-109.24742282
 30
0.0
 11
820.0934744
 21
-109.24742282
 31
0.0
  0
LINE
  5
207
  8
0
  6
STRICHPUNKT2
 62
     1
 10
815.0934744
 20
-109.24742282
 30
0.0
 11
810.0934744
 21
-109.24742282
 31
0.0
  0
LINE
  5
208
  8
0
  6
STRICHPUNKT2
 62
     1
 10
815.0934744
 20
-109.24742282
 30
0.0
 11
815.0934744
 21
-104.24742282
 31
0.0
  0
LINE
  5
209
  8
0
  6
STRICHPUNKT2
 62
     1
 10
815.0934744
 20
-109.24742282
 30
0.0
 11
815.0934744
 21
-114.24742282
 31
0.0
  0
LINE
  5
20A
  8
0
  6
STRICHPUNKT2
 62
     1
 10
895.0934744
 20
-109.24742282
 30
0.0
 11
900.0934744
 21
-109.24742282
 31
0.0
  0
LINE
  5
20B
  8
0
  6
STRICHPUNKT2
 62
     1
 10
895.0934744
 20
-109.24742282
 30
0.0
 11
890.0934744
 21
-109.24742282
 31
0.0
  0
LINE
  5
20C
  8
0
  6
STRICHPUNKT2
 62
     1
 10
895.0934744
 20
-109.24742282
 30
0.0
 11
895.0934744
 21
-104.24742282
 31
0.0
  0
LINE
  5
20D
  8
0
  6
STRICHPUNKT2
 62
     1
 10
895.0934744
 20
-109.24742282
 30
0.0
 11
895.0934744
 21
-114.24742282
 31
0.0
  0
LINE
  5
20E
  8
0
  6
STRICHPUNKT2
 62
     1
 10
843.5934744
 20
-109.24742282
 30
0.0
 11
866.5934744
 21
-109.24742282
 31
0.0
  0
LINE
  5
20F
  8
0
  6
STRICHPUNKT2
 62
     1
 10
848.5934744
 20
-114.24742282
 30
0.0
 11
848.5934744
 21
-104.24742282
 31
0.0
  0
LINE
  5
210
  8
0
  6
STRICHPUNKT2
 62
     1
 10
861.5934744
 20
-114.24742282
 30
0.0
 11
861.5934744
 21
-104.24742282
 31
0.0
  0
POLYLINE
  5
211
  8
0
 66
     1
 10
0.0
 20
0.0
 30
0.0
  0
VERTEX
  5
212
  8
0
 10
907.5934744
 20
-34.48158282
 30
0.0
  0
VERTEX
  5
213
  8
0
 10
707.5934744
 20
-34.48158282
 30
0.0
  0
VERTEX
  5
214
  8
0
 10
707.5934744
 20
-39.48158282
 30
0.0
  0
SEQEND
  5
215
  8
0
  0
LINE
  5
216
  8
0
 10
907.5934744
 20
-39.48158282
 30
0.0
 11
707.5934744
 21
-39.48158282
 31
0.0
  0
LINE
  5
217
  8
0
 10
907.5934744
 20
-34.48158282
 30
0.0
 11
907.5934744
 21
-39.48158282
 31
0.0
  0
POLYLINE
  5
218
  8
0
 66
     1
 10
0.0
 20
0.0
 30
0.0
  0
VERTEX
  5
219
  8
0
 10
661.58810431
 20
-34.48158282
 30
0.0
  0
VERTEX
  5
21A
  8
0
 10
611.58810431
 20
-34.48158282
 30
0.0
  0
VERTEX
  5
21B
  8
0
 10
611.58810431
 20
-39.48158282
 30
0.0
  0
SEQEND
  5
21C
  8
0
  0
LINE
  5
21D
  8
0
 10
661.58810431
 20
-39.48158282
 30
0.0
 11
611.58810431
 21
-39.48158282
 31
0.0
  0
LINE
  5
21E
  8
0
 10
661.58810431
 20
-34.48158282
 30
0.0
 11
661.58810431
 21
-39.48158282
 31
0.0
  0
TEXT
  5
21F
  8
TXT_DIM49
 10
715.73857011
 20
-73.64236527
 30
0.0
 40
2.5
  1
40
  7
ARIAL
  0
LINE
  5
220
  8
0
 62
     4
 10
708.5934744
 20
-74.14236527
 30
0.0
 11
706.5934744
 21
-76.14236527
 31
0.0
  0
LINE
  5
221
  8
0
 62
     4
 10
726.8434744
 20
-75.89236527
 30
0.0
 11
728.3434744
 21
-74.39236527
 31
0.0
  0
LINE
  5
222
  8
0
 62
     4
 10
707.5934744
 20
-75.14236527
 30
0.0
 11
727.5934744
 21
-75.14236527
 31
0.0
  0
LINE
  5
223
  8
0
 62
     4
 10
707.5934744
 20
-77.14236527
 30
0.0
 11
707.5934744
 21
-73.14236527
 31
0.0
  0
LINE
  5
224
  8
0
 62
     4
 10
727.5934744
 20
-77.14236527
 30
0.0
 11
727.5934744
 21
-73.14236527
 31
0.0
  0
TEXT
  5
225
  8
TXT_DIM49
 10
738.23857011
 20
-73.64236527
 30
0.0
 40
2.5
  1
50
  7
ARIAL
  0
LINE
  5
226
  8
0
 62
     4
 10
728.5934744
 20
-74.14236527
 30
0.0
 11
726.5934744
 21
-76.14236527
 31
0.0
  0
LINE
  5
227
  8
0
 62
     4
 10
751.8434744
 20
-75.89236527
 30
0.0
 11
753.3434744
 21
-74.39236527
 31
0.0
  0
LINE
  5
228
  8
0
 62
     4
 10
727.5934744
 20
-75.14236527
 30
0.0
 11
752.5934744
 21
-75.14236527
 31
0.0
  0
LINE
  5
229
  8
0
 62
     4
 10
727.5934744
 20
-77.14236527
 30
0.0
 11
727.5934744
 21
-73.14236527
 31
0.0
  0
LINE
  5
22A
  8
0
 62
     4
 10
752.5934744
 20
-77.14236527
 30
0.0
 11
752.5934744
 21
-73.14236527
 31
0.0
  0
TEXT
  5
22B
  8
TXT_DIM49
 10
781.0611179
 20
-73.64236527
 30
0.0
 40
2.5
  1
125
  7
ARIAL
  0
LINE
  5
22C
  8
0
 62
     4
 10
753.5934744
 20
-74.14236527
 30
0.0
 11
751.5934744
 21
-76.14236527
 31
0.0
  0
LINE
  5
22D
  8
0
 62
     4
 10
814.3434744
 20
-75.89236527
 30
0.0
 11
815.8434744
 21
-74.39236527
 31
0.0
  0
LINE
  5
22E
  8
0
 62
     4
 10
752.5934744
 20
-75.14236527
 30
0.0
 11
815.0934744
 21
-75.14236527
 31
0.0
  0
LINE
  5
22F
  8
0
 62
     4
 10
752.5934744
 20
-77.14236527
 30
0.0
 11
752.5934744
 21
-73.14236527
 31
0.0
  0
LINE
  5
230
  8
0
 62
     4
 10
815.0934744
 20
-77.14236527
 30
0.0
 11
815.0934744
 21
-73.14236527
 31
0.0
  0
TEXT
  5
231
  8
TXT_DIM49
 10
833.23857011
 20
-73.64236527
 30
0.0
 40
2.5
  1
80
  7
ARIAL
  0
LINE
  5
232
  8
0
 62
     4
 10
816.0934744
 20
-74.14236527
 30
0.0
 11
814.0934744
 21
-76.14236527
 31
0.0
  0
LINE
  5
233
  8
0
 62
     4
 10
854.3434744
 20
-75.89236527
 30
0.0
 11
855.8434744
 21
-74.39236527
 31
0.0
  0
LINE
  5
234
  8
0
 62
     4
 10
815.0934744
 20
-75.14236527
 30
0.0
 11
855.0934744
 21
-75.14236527
 31
0.0
  0
LINE
  5
235
  8
0
 62
     4
 10
815.0934744
 20
-77.14236527
 30
0.0
 11
815.0934744
 21
-73.14236527
 31
0.0
  0
LINE
  5
236
  8
0
 62
     4
 10
855.0934744
 20
-77.14236527
 30
0.0
 11
855.0934744
 21
-73.14236527
 31
0.0
  0
TEXT
  5
237
  8
TXT_DIM49
 10
873.23857011
 20
-73.64236527
 30
0.0
 40
2.5
  1
80
  7
ARIAL
  0
LINE
  5
238
  8
0
 62
     4
 10
856.0934744
 20
-74.14236527
 30
0.0
 11
854.0934744
 21
-76.14236527
 31
0.0
  0
LINE
  5
239
  8
0
 62
     4
 10
894.3434744
 20
-75.89236527
 30
0.0
 11
895.8434744
 21
-74.39236527
 31
0.0
  0
LINE
  5
23A
  8
0
 62
     4
 10
855.0934744
 20
-75.14236527
 30
0.0
 11
895.0934744
 21
-75.14236527
 31
0.0
  0
LINE
  5
23B
  8
0
 62
     4
 10
855.0934744
 20
-77.14236527
 30
0.0
 11
855.0934744
 21
-73.14236527
 31
0.0
  0
LINE
  5
23C
  8
0
 62
     4
 10
895.0934744
 20
-77.14236527
 30
0.0
 11
895.0934744
 21
-73.14236527
 31
0.0
  0
TEXT
  5
23D
  8
TXT_DIM49
 10
899.48857011
 20
-73.64236527
 30
0.0
 40
2.5
  1
25
  7
ARIAL
  0
LINE
  5
23E
  8
0
 62
     4
 10
896.0934744
 20
-74.14236527
 30
0.0
 11
894.0934744
 21
-76.14236527
 31
0.0
  0
LINE
  5
23F
  8
0
 62
     4
 10
906.8434744
 20
-75.89236527
 30
0.0
 11
908.3434744
 21
-74.39236527
 31
0.0
  0
LINE
  5
240
  8
0
 62
     4
 10
895.0934744
 20
-75.14236527
 30
0.0
 11
907.5934744
 21
-75.14236527
 31
0.0
  0
LINE
  5
241
  8
0
 62
     4
 10
895.0934744
 20
-77.14236527
 30
0.0
 11
895.0934744
 21
-73.14236527
 31
0.0
  0
LINE
  5
242
  8
0
 62
     4
 10
907.5934744
 20
-77.14236527
 30
0.0
 11
907.5934744
 21
-73.14236527
 31
0.0
  0
TEXT
  5
243
  8
TXT_DIM49
 10
696.0934744
 20
-91.10232711
 30
0.0
 40
2.5
  1
20
 50
90.00020741
  7
ARIAL
  0
LINE
  5
244
  8
0
 62
     4
 10
698.5934744
 20
-85.24742282
 30
0.0
 11
696.5934744
 21
-83.24742282
 31
0.0
  0
LINE
  5
245
  8
0
 62
     4
 10
696.8434744
 20
-93.49742282
 30
0.0
 11
698.3434744
 21
-94.99742282
 31
0.0
  0
LINE
  5
246
  8
0
 62
     4
 10
697.5934744
 20
-84.24742282
 30
0.0
 11
697.5934744
 21
-94.24742282
 31
0.0
  0
LINE
  5
247
  8
0
 62
     4
 10
699.5934744
 20
-84.24742282
 30
0.0
 11
695.5934744
 21
-84.24742282
 31
0.0
  0
LINE
  5
248
  8
0
 62
     4
 10
699.5934744
 20
-94.24742282
 30
0.0
 11
695.5934744
 21
-94.24742282
 31
0.0
  0
TEXT
  5
249
  8
TXT_DIM49
 10
696.0934744
 20
-111.10232711
 30
0.0
 40
2.5
  1
60
 50
90.00020741
  7
ARIAL
  0
LINE
  5
24A
  8
0
 62
     4
 10
698.5934744
 20
-95.24742282
 30
0.0
 11
696.5934744
 21
-93.24742282
 31
0.0
  0
LINE
  5
24B
  8
0
 62
     4
 10
696.8434744
 20
-123.49742282
 30
0.0
 11
698.3434744
 21
-124.99742282
 31
0.0
  0
LINE
  5
24C
  8
0
 62
     4
 10
697.5934744
 20
-94.24742282
 30
0.0
 11
697.5934744
 21
-124.24742282
 31
0.0
  0
LINE
  5
24D
  8
0
 62
     4
 10
699.5934744
 20
-94.24742282
 30
0.0
 11
695.5934744
 21
-94.24742282
 31
0.0
  0
LINE
  5
24E
  8
0
 62
     4
 10
699.5934744
 20
-124.24742282
 30
0.0
 11
695.5934744
 21
-124.24742282
 31
0.0
  0
TEXT
  5
24F
  8
TXT_DIM49
 10
696.0934744
 20
-131.10232711
 30
0.0
 40
2.5
  1
20
 50
90.00020741
  7
ARIAL
  0
LINE
  5
250
  8
0
 62
     4
 10
698.5934744
 20
-125.24742282
 30
0.0
 11
696.5934744
 21
-123.24742282
 31
0.0
  0
LINE
  5
251
  8
0
 62
     4
 10
696.8434744
 20
-133.49742282
 30
0.0
 11
698.3434744
 21
-134.99742282
 31
0.0
  0
LINE
  5
252
  8
0
 62
     4
 10
697.5934744
 20
-124.24742282
 30
0.0
 11
697.5934744
 21
-134.24742282
 31
0.0
  0
LINE
  5
253
  8
0
 62
     4
 10
699.5934744
 20
-124.24742282
 30
0.0
 11
695.5934744
 21
-124.24742282
 31
0.0
  0
LINE
  5
254
  8
0
 62
     4
 10
699.5934744
 20
-134.24742282
 30
0.0
 11
695.5934744
 21
-134.24742282
 31
0.0
  0
TEXT
  5
255
  8
TXT_DIM49
 10
916.0934744
 20
-98.60232711
 30
0.0
 40
2.5
  1
50
 50
90.00020741
  7
ARIAL
  0
LINE
  5
256
  8
0
 62
     4
 10
918.5934744
 20
-85.24742282
 30
0.0
 11
916.5934744
 21
-83.24742282
 31
0.0
  0
LINE
  5
257
  8
0
 62
     4
 10
916.8434744
 20
-108.49742282
 30
0.0
 11
918.3434744
 21
-109.99742282
 31
0.0
  0
LINE
  5
258
  8
0
 62
     4
 10
917.5934744
 20
-84.24742282
 30
0.0
 11
917.5934744
 21
-109.24742282
 31
0.0
  0
LINE
  5
259
  8
0
 62
     4
 10
915.5934744
 20
-84.24742282
 30
0.0
 11
919.5934744
 21
-84.24742282
 31
0.0
  0
LINE
  5
25A
  8
0
 62
     4
 10
915.5934744
 20
-109.24742282
 30
0.0
 11
919.5934744
 21
-109.24742282
 31
0.0
  0
TEXT
  5
25B
  8
TXT_DIM49
 10
916.0934744
 20
-123.60232711
 30
0.0
 40
2.5
  1
50
 50
90.00020741
  7
ARIAL
  0
LINE
  5
25C
  8
0
 62
     4
 10
918.5934744
 20
-110.24742282
 30
0.0
 11
916.5934744
 21
-108.24742282
 31
0.0
  0
LINE
  5
25D
  8
0
 62
     4
 10
916.8434744
 20
-133.49742282
 30
0.0
 11
918.3434744
 21
-134.99742282
 31
0.0
  0
LINE
  5
25E
  8
0
 62
     4
 10
917.5934744
 20
-109.24742282
 30
0.0
 11
917.5934744
 21
-134.24742282
 31
0.0
  0
LINE
  5
25F
  8
0
 62
     4
 10
915.5934744
 20
-109.24742282
 30
0.0
 11
919.5934744
 21
-109.24742282
 31
0.0
  0
LINE
  5
260
  8
0
 62
     4
 10
915.5934744
 20
-134.24742282
 30
0.0
 11
919.5934744
 21
-134.24742282
 31
0.0
  0
LINE
  5
261
  8
0
 62
     5
 10
895.0934744
 20
-109.24742282
 30
0.0
 11
898.12000634
 21
-117.86537674
 31
0.0
  0
TEXT
  5
262
  8
TXT_DIM49
 10
898.12000634
 20
-119.11537674
 30
0.0
 40
2.5
  1
Ø14
  7
ARIAL
  0
LINE
  5
263
  8
0
 62
     4
 10
855.0934744
 20
-109.24742282
 30
0.0
 11
858.05198942
 21
-118.85358603
 31
0.0
  0
TEXT
  5
264
  8
TXT_DIM49
 10
858.05198942
 20
-120.10358603
 30
0.0
 40
2.5
  1
Slobgat 14 x 40
  7
ARIAL
  0
LINE
  5
265
  8
0
 62
     5
 10
815.0934744
 20
-109.24742282
 30
0.0
 11
818.68187832
 21
-118.21073168
 31
0.0
  0
TEXT
  5
266
  8
TXT_DIM49
 10
818.68187832
 20
-119.46073168
 30
0.0
 40
2.5
  1
Ø14
  7
ARIAL
  0
LINE
  5
267
  8
0
 62
     4
 10
752.5934744
 20
-94.24742282
 30
0.0
 11
756.36589276
 21
-103.14949408
 31
0.0
  0
TEXT
  5
268
  8
TXT_DIM49
 10
756.36589276
 20
-104.39949408
 30
0.0
 40
2.5
  1
Ø10
  7
ARIAL
  0
LINE
  5
269
  8
0
 62
     5
 10
727.5934744
 20
-94.24742282
 30
0.0
 11
731.27570276
 21
-102.76327826
 31
0.0
  0
TEXT
  5
26A
  8
TXT_DIM49
 10
731.27570276
 20
-104.01327826
 30
0.0
 40
2.5
  1
Ø10
  7
ARIAL
  0
LINE
  5
26B
  8
0
 62
     5
 10
752.5934744
 20
-124.24742282
 30
0.0
 11
755.85135767
 21
-119.10259774
 31
0.0
  0
TEXT
  5
26C
  8
TXT_DIM49
 10
755.85135767
 20
-120.35259774
 30
0.0
 40
2.5
  1
Ø10
  7
ARIAL
  0
LINE
  5
26D
  8
0
 62
     5
 10
727.5934744
 20
-124.24742282
 30
0.0
 11
731.1473835
 21
-118.20184683
 31
0.0
  0
TEXT
  5
26E
  8
TXT_DIM49
 10
731.1473835
 20
-119.45184683
 30
0.0
 40
2.5
  1
Ø10
  7
ARIAL
  0
TEXT
  5
26F
  8
TXT_DIM49
 10
804.8111179
 20
-23.7220938
 30
0.0
 40
2.5
  1
400
  7
ARIAL
  0
LINE
  5
270
  8
0
 62
     4
 10
708.5934744
 20
-24.2220938
 30
0.0
 11
706.5934744
 21
-26.2220938
 31
0.0
  0
LINE
  5
271
  8
0
 62
     4
 10
906.8434744
 20
-25.9720938
 30
0.0
 11
908.3434744
 21
-24.4720938
 31
0.0
  0
LINE
  5
272
  8
0
 62
     4
 10
707.5934744
 20
-25.2220938
 30
0.0
 11
907.5934744
 21
-25.2220938
 31
0.0
  0
LINE
  5
273
  8
0
 62
     4
 10
707.5934744
 20
-27.2220938
 30
0.0
 11
707.5934744
 21
-23.2220938
 31
0.0
  0
LINE
  5
274
  8
0
 62
     4
 10
907.5934744
 20
-27.2220938
 30
0.0
 11
907.5934744
 21
-23.2220938
 31
0.0
  0
TEXT
  5
275
  8
TXT_DIM49
 10
665.68049586
 20
-38.83648711
 30
0.0
 40
2.5
  1
10
 50
90.00020741
  7
ARIAL
  0
LINE
  5
276
  8
0
 62
     4
 10
668.18049586
 20
-35.48158282
 30
0.0
 11
666.18049586
 21
-33.48158282
 31
0.0
  0
LINE
  5
277
  8
0
 62
     4
 10
666.43049586
 20
-38.73158282
 30
0.0
 11
667.93049586
 21
-40.23158282
 31
0.0
  0
LINE
  5
278
  8
0
 62
     4
 10
667.18049586
 20
-34.48158282
 30
0.0
 11
667.18049586
 21
-39.48158282
 31
0.0
  0
LINE
  5
279
  8
0
 62
     4
 10
665.18049586
 20
-34.48158282
 30
0.0
 11
669.18049586
 21
-34.48158282
 31
0.0
  0
LINE
  5
27A
  8
0
 62
     4
 10
665.18049586
 20
-39.48158282
 30
0.0
 11
669.18049586
 21
-39.48158282
 31
0.0
  0
TEXT
  5
27B
  8
TXT_DIM49
 10
633.81773728
 20
-22.98158282
 30
0.0
 40
2.5
  1
100
  7
ARIAL
  0
LINE
  5
27C
  8
0
 62
     4
 10
612.58810431
 20
-23.48158282
 30
0.0
 11
610.58810431
 21
-25.48158282
 31
0.0
  0
LINE
  5
27D
  8
0
 62
     4
 10
660.83810431
 20
-25.23158282
 30
0.0
 11
662.33810431
 21
-23.73158282
 31
0.0
  0
LINE
  5
27E
  8
0
 62
     4
 10
611.58810431
 20
-24.48158282
 30
0.0
 11
661.58810431
 21
-24.48158282
 31
0.0
  0
LINE
  5
27F
  8
0
 62
     4
 10
611.58810431
 20
-26.48158282
 30
0.0
 11
611.58810431
 21
-22.48158282
 31
0.0
  0
LINE
  5
280
  8
0
 62
     4
 10
661.58810431
 20
-26.48158282
 30
0.0
 11
661.58810431
 21
-22.48158282
 31
0.0
  0
POINT
  5
281
  8
0
 10
732.07659492
 20
-107.39807383
 30
0.0
  0
POINT
  5
282
  8
0
 62
     3
 10
870.74596224
 20
-277.73539177
 30
0.0
  0
POINT
  5
283
  8
0
 62
     3
 10
936.61037594
 20
-259.81639687
 30
0.0
  0
POINT
  5
284
  8
0
 62
     3
 10
870.74596224
 20
-259.81639687
 30
0.0
  0
POINT
  5
285
  8
0
 62
     3
 10
936.61037594
 20
-277.73539177
 30
0.0
  0
POINT
  5
286
  8
0
 62
     3
 10
918.919021
 20
-283.41807383
 30
0.0
  0
POINT
  5
287
  8
0
 62
     3
 10
936.61105297
 20
-278.60480043
 30
0.0
  0
POINT
  5
288
  8
0
 62
     3
 10
918.919021
 20
-278.60480043
 30
0.0
  0
POINT
  5
289
  8
0
 62
     3
 10
936.61105297
 20
-283.41807383
 30
0.0
  0
ENDSEC
  0
EOF
