  0
SECTION
  2
HEADER
  9
$ACADVER
  1
AC1006
  9
$DWGCODEPAGE
  3
ansi_1252
  9
$INSBASE
 10
0.0
 20
0.0
 30
0.0
  9
$EXTMIN
 10
-921.92250087
 20
-393.96015721
  9
$EXTMAX
 10
60.91499061
 20
79.38359279
  9
$LIMMIN
 10
-921.92250087
 20
-393.96015721
  9
$LIMMAX
 10
60.91499061
 20
79.38359279
  9
$ORTHOMODE
 70
     0
  9
$REGENMODE
 70
     1
  9
$FILLMODE
 70
     1
  9
$QTEXTMODE
 70
     0
  9
$MIRRTEXT
 70
     1
  9
$DRAGMODE
 70
     2
  9
$LTSCALE
 40
1.0
  9
$OSMODE
 70
    37
  9
$ATTMODE
 70
     1
  9
$TEXTSIZE
 40
1.0
  9
$TRACEWID
 40
0.05
  9
$TEXTSTYLE
  7
STANDARD
  9
$CLAYER
  8
0
  9
$CELTYPE
  6
BYBLOCK
  9
$CECOLOR
 62
   256
  9
$DIMSCALE
 40
1.0
  9
$DIMASZ
 40
0.18
  9
$DIMEXO
 40
0.0625
  9
$DIMDLI
 40
0.38
  9
$DIMRND
 40
0.0
  9
$DIMDLE
 40
0.0
  9
$DIMEXE
 40
0.18
  9
$DIMTP
 40
0.0
  9
$DIMTM
 40
0.0
  9
$DIMTXT
 40
0.18
  9
$DIMCEN
 40
0.09
  9
$DIMTSZ
 40
0.0
  9
$DIMTOL
 70
     0
  9
$DIMLIM
 70
     0
  9
$DIMTIH
 70
     1
  9
$DIMTOH
 70
     1
  9
$DIMSE1
 70
     0
  9
$DIMSE2
 70
     0
  9
$DIMTAD
 70
     0
  9
$DIMZIN
 70
     0
  9
$DIMBLK
  1

  9
$DIMASO
 70
     1
  9
$DIMSHO
 70
     1
  9
$DIMPOST
  1

  9
$DIMAPOST
  1

  9
$DIMALT
 70
     0
  9
$DIMALTD
 70
     2
  9
$DIMALTF
 40
25.4
  9
$DIMLFAC
 40
1.0
  9
$DIMTOFL
 70
     0
  9
$DIMTVP
 40
0.0
  9
$DIMTIX
 70
     0
  9
$DIMSOXD
 70
     0
  9
$DIMSAH
 70
     0
  9
$DIMBLK1
  1

  9
$DIMBLK2
  1

  9
$LUNITS
 70
     2
  9
$LUPREC
 70
     4
  9
$SKETCHINC
 40
0.1
  9
$FILLETRAD
 40
0.5
  9
$AUNITS
 70
     0
  9
$AUPREC
 70
     0
  9
$MENU
  1
.
  9
$ELEVATION
 40
0.0
  9
$THICKNESS
 40
0.0
  9
$LIMCHECK
 70
     0
  9
$CHAMFERA
 40
0.0
  9
$CHAMFERB
 40
0.0
  9
$SKPOLY
 70
     0
  9
$TDCREATE
 40
2447893.125
  9
$TDUPDATE
 40
2460791.495914398
  9
$TDINDWG
 40
0.0
  9
$TDUSRTIMER
 40
0.0
  9
$USRTIMER
 70
     1
  9
$ANGBASE
 50
0.0
  9
$ANGDIR
 70
     0
  9
$PDMODE
 70
     0
  9
$PDSIZE
 40
0.0
  9
$PLINEWID
 40
0.0
  9
$COORDS
 70
     1
  9
$SPLFRAME
 70
     0
  9
$SPLINETYPE
 70
     6
  9
$SPLINESEGS
 70
     8
  9
$ATTDIA
 70
     0
  9
$ATTREQ
 70
     1
  9
$HANDLING
 70
     1
  9
$HANDSEED
  5
326
  9
$SURFTAB1
 70
     6
  9
$SURFTAB2
 70
     6
  9
$SURFTYPE
 70
     6
  9
$SURFU
 70
     6
  9
$SURFV
 70
     6
  9
$UCSNAME
  2

  9
$UCSORG
 10
0.0
 20
0.0
 30
0.0
  9
$UCSXDIR
 10
1.0
 20
0.0
 30
0.0
  9
$UCSYDIR
 10
0.0
 20
1.0
 30
0.0
  9
$USERI1
 70
     0
  9
$USERI2
 70
     0
  9
$USERI3
 70
     0
  9
$USERI4
 70
     0
  9
$USERI5
 70
     0
  9
$USERR1
 40
0.0
  9
$USERR2
 40
0.0
  9
$USERR3
 40
0.0
  9
$USERR4
 40
0.0
  9
$USERR5
 40
0.0
  9
$WORLDVIEW
 70
     1
  0
ENDSEC
  0
SECTION
  2
TABLES
  0
TABLE
  2
VPORT
 70
     1
  0
VPORT
  2
*ACTIVE
 70
     0
 10
0.0
 20
0.0
 11
1.0
 21
1.0
 12
-430.50375513
 22
-157.28828221
 13
0.0
 23
0.0
 14
1.0
 24
1.0
 15
0.0
 25
0.0
 16
0.0
 26
0.0
 36
1.0
 17
0.0
 27
0.0
 37
0.0
 40
473.34375
 41
2.076371541
 42
50.0
 43
0.0
 44
0.0
 50
0.0
 51
0.0
 71
     0
 72
   100
 73
     1
 74
     1
 75
     0
 76
     0
 77
     0
 78
     0
  0
ENDTAB
  0
TABLE
  2
LTYPE
 70
    19
  0
LTYPE
  2
CONTINUOUS
 70
     0
  3
Solid line
 72
    65
 73
     0
 40
0.0
  0
LTYPE
  2
DOT
 70
     0
  3
..............
 72
    65
 73
     2
 40
2.0
 49
0.5
 49
-1.5
  0
LTYPE
  2
HIDDEN
 70
     0
  3
-- -- -- -- --
 72
    65
 73
     2
 40
7.0
 49
4.0
 49
-3.0
  0
LTYPE
  2
DASHDOT
 70
     0
  3
--.--.--.--.--
 72
    65
 73
     4
 40
8.5
 49
4.0
 49
-2.0
 49
0.5
 49
-2.0
  0
LTYPE
  2
STRICHPUNKT2
 70
     0
  3
--.--.--.--.--
 72
    65
 73
     4
 40
18.5
 49
10.0
 49
-4.0
 49
0.5
 49
-4.0
  0
LTYPE
  2
STRICHPUNKT3
 70
     0
  3
--.--.--.--.--
 72
    65
 73
     4
 40
35.5
 49
25.0
 49
-5.0
 49
0.5
 49
-5.0
  0
LTYPE
  2
PHANTOM
 70
     0
  3
--..--..--..--
 72
    65
 73
     6
 40
23.0
 49
10.0
 49
-4.0
 49
0.5
 49
-4.0
 49
0.5
 49
-4.0
  0
LTYPE
  2
PHANTOM2
 70
     0
  3
--..--..--..--
 72
    65
 73
     6
 40
33.0
 49
20.0
 49
-4.0
 49
0.5
 49
-4.0
 49
0.5
 49
-4.0
  0
LTYPE
  2
PHANTOM3
 70
     0
  3
--..--..--..--
 72
    65
 73
     6
 40
50.0
 49
37.0
 49
-4.0
 49
0.5
 49
-4.0
 49
0.5
 49
-4.0
  0
LTYPE
  2
STR3PKT
 70
     0
  3
--...--...--...
 72
    65
 73
     8
 40
31.5
 49
20.0
 49
-2.5
 49
0.5
 49
-2.5
 49
0.5
 49
-2.5
 49
0.5
 49
-2.5
  0
LTYPE
  2
2STRPKT
 70
     0
  3
--.--.--.--.--
 72
    65
 73
     6
 40
28.0
 49
10.0
 49
-2.5
 49
10.0
 49
-2.5
 49
0.5
 49
-2.5
  0
LTYPE
  2
GESTRICHELT2
 70
     0
  3
-- -- -- -- --
 72
    65
 73
     2
 40
25.0
 49
10.0
 49
-15.0
  0
LTYPE
  2
2STR2PKT
 70
     0
  3
--..--..--..--
 72
    65
 73
     8
 40
31.0
 49
10.0
 49
-2.5
 49
10.0
 49
-2.5
 49
0.5
 49
-2.5
 49
0.5
 49
-2.5
  0
LTYPE
  2
STR3PKT2
 70
     0
  3
--...--...--...
 72
    65
 73
     8
 40
21.0
 49
10.0
 49
-2.5
 49
0.5
 49
-2.5
 49
0.5
 49
-2.5
 49
0.5
 49
-2.0
  0
LTYPE
  2
2STR3PKT
 70
     0
  3
--...--...--...
 72
    65
 73
    10
 40
34.0
 49
10.0
 49
-2.5
 49
10.0
 49
-2.5
 49
0.5
 49
-2.5
 49
0.5
 49
-2.5
 49
0.5
 49
-2.5
  0
LTYPE
  2
STRKSTR
 70
     0
  3
-- - -- - -- -
 72
    65
 73
     4
 40
30.0
 49
20.0
 49
-2.5
 49
5.0
 49
-2.5
  0
LTYPE
  2
STRKSTR2
 70
     0
  3
-- - -- - -- -
 72
    65
 73
     6
 40
37.5
 49
20.0
 49
-2.5
 49
5.0
 49
-2.5
 49
5.0
 49
-2.5
  0
LTYPE
  2
STRKSTR3
 70
     0
  3
-- - -- - -- -
 72
    65
 73
     8
 40
45.0
 49
20.0
 49
-2.5
 49
5.0
 49
-2.5
 49
5.0
 49
-2.5
 49
5.0
 49
-2.5
  0
LTYPE
  2
PUNKT2
 70
     0
  3
..............
 72
    65
 73
     2
 40
3.5
 49
0.5
 49
-3.0
  0
ENDTAB
  0
TABLE
  2
LAYER
 70
    16
  0
LAYER
  2
0
 70
     0
 62
     7
  6
CONTINUOUS
  0
LAYER
  2
LE_GREEN
 70
     0
 62
     3
  6
CONTINUOUS
  0
LAYER
  2
LE_RED
 70
     0
 62
     1
  6
CONTINUOUS
  0
LAYER
  2
LE_ALL
 70
     0
 62
     7
  6
CONTINUOUS
  0
LAYER
  2
LE_HIDDEN1
 70
     0
 62
     3
  6
HIDDEN
  0
LAYER
  2
LE_HIDDEN
 70
     0
 62
     7
  6
CONTINUOUS
  0
LAYER
  2
LE_MIDDLE
 70
     0
 62
     7
  6
CONTINUOUS
  0
LAYER
  2
TXT_YELLOW
 70
     0
 62
     2
  6
CONTINUOUS
  0
LAYER
  2
TXT_DIM49
 70
     0
 62
     2
  6
CONTINUOUS
  0
LAYER
  2
TXT_ALL
 70
     0
 62
     7
  6
CONTINUOUS
  0
LAYER
  2
DIM49
 70
     0
 62
     4
  6
CONTINUOUS
  0
LAYER
  2
HATCH
 70
     0
 62
     3
  6
CONTINUOUS
  0
LAYER
  2
APPLE
 70
     0
 62
     7
  6
CONTINUOUS
  0
LAYER
  2
10
 70
     0
 62
     7
  6
CONTINUOUS
  0
LAYER
  2
20
 70
     0
 62
     7
  6
CONTINUOUS
  0
LAYER
  2
49
 70
     0
 62
     7
  6
CONTINUOUS
  0
ENDTAB
  0
TABLE
  2
STYLE
 70
     5
  0
STYLE
  2
MONOTXT
 70
     0
 40
0.0
 41
1.0
 50
0.0
 71
     0
 42
1.0
  3
monotxt.shx
  4

  0
STYLE
  2
STANDARD
 70
     0
 40
0.0
 41
1.0
 50
0.0
 71
     0
 42
1.0
  3
txt
  4

  0
STYLE
  2
ARIAL
 70
     0
 40
0.0
 41
1.0
 50
0.0
 71
     0
 42
1.0
  3
arial.ttf
  4

  0
STYLE
  2
ARIAL_NARROW
 70
     0
 40
0.0
 41
1.0
 50
0.0
 71
     0
 42
1.0
  3
ArialN.ttf
  4

  0
STYLE
  2
ISOCPEUR
 70
     0
 40
0.0
 41
1.0
 50
0.0
 71
     0
 42
1.0
  3
ISOCPEUR.ttf
  4

  0
ENDTAB
  0
TABLE
  2
VIEW
 70
     0
  0
ENDTAB
  0
TABLE
  2
UCS
 70
     0
  0
ENDTAB
  0
ENDSEC
  0
SECTION
  2
BLOCKS
  0
ENDSEC
  0
SECTION
  2
ENTITIES
  0
POLYLINE
  5
16D
  8
0
 66
     1
 10
0.0
 20
0.0
 30
0.0
 70
     1
  0
VERTEX
  5
16E
  8
0
 10
-751.32312078
 20
-312.68936856
 30
0.0
  0
VERTEX
  5
16F
  8
0
 10
-331.32312078
 20
-312.68936856
 30
0.0
  0
VERTEX
  5
170
  8
0
 10
-331.32312078
 20
-15.68936856
 30
0.0
  0
VERTEX
  5
171
  8
0
 10
-751.32312078
 20
-15.68936856
 30
0.0
  0
SEQEND
  5
172
  8
0
  0
POLYLINE
  5
173
  8
0
 66
     1
 10
0.0
 20
0.0
 30
0.0
 70
     1
  0
VERTEX
  5
174
  8
0
 10
-746.32312078
 20
-307.68936856
 30
0.0
  0
VERTEX
  5
175
  8
0
 10
-336.32312078
 20
-307.68936856
 30
0.0
  0
VERTEX
  5
176
  8
0
 10
-336.32312078
 20
-20.68936856
 30
0.0
  0
VERTEX
  5
177
  8
0
 10
-746.32312078
 20
-20.68936856
 30
0.0
  0
SEQEND
  5
178
  8
0
  0
LINE
  5
179
  8
0
 10
-521.32312078
 20
-307.68936856
 30
0.0
 11
-521.32312078
 21
-312.68936856
 31
0.0
  0
LINE
  5
17A
  8
0
 10
-521.32312078
 20
-20.68936856
 30
0.0
 11
-521.32312078
 21
-15.68936856
 31
0.0
  0
LINE
  5
17B
  8
0
 10
-731.32312078
 20
-307.68936856
 30
0.0
 11
-731.32312078
 21
-312.68936856
 31
0.0
  0
LINE
  5
17C
  8
0
 10
-731.32312078
 20
-20.68936856
 30
0.0
 11
-731.32312078
 21
-15.68936856
 31
0.0
  0
TEXT
  5
17D
  8
TXT_ALL
 62
     4
 10
-332.32312078
 20
-311.68936856
 30
0.0
 40
2.5
  1

 50
90.00020741
  0
POLYLINE
  5
17E
  8
0
 66
     1
 10
0.0
 20
0.0
 30
0.0
  0
VERTEX
  5
17F
  8
0
 10
-336.32312078
 20
-30.68936856
 30
0.0
  0
VERTEX
  5
180
  8
0
 10
-405.31642078
 20
-30.68936856
 30
0.0
  0
VERTEX
  5
181
  8
0
 10
-405.31642078
 20
-20.68936856
 30
0.0
  0
SEQEND
  5
182
  8
0
  0
LINE
  5
183
  8
0
 10
-403.41312078
 20
-288.18936856
 30
0.0
 11
-543.30312078
 21
-288.18936856
 31
0.0
  0
LINE
  5
184
  8
0
 10
-543.30312078
 20
-297.93936856
 30
0.0
 11
-403.41312078
 21
-297.93936856
 31
0.0
  0
POLYLINE
  5
185
  8
0
 66
     1
 10
0.0
 20
0.0
 30
0.0
  0
VERTEX
  5
186
  8
0
 10
-543.30312078
 20
-288.18936856
 30
0.0
  0
VERTEX
  5
187
  8
0
 10
-543.30312078
 20
-297.93936856
 30
0.0
  0
VERTEX
  5
188
  8
0
 10
-543.30312078
 20
-307.68936856
 30
0.0
  0
SEQEND
  5
189
  8
0
  0
POLYLINE
  5
18A
  8
0
 66
     1
 10
0.0
 20
0.0
 30
0.0
  0
VERTEX
  5
18B
  8
0
 10
-473.35812078
 20
-288.18936856
 30
0.0
  0
VERTEX
  5
18C
  8
0
 10
-473.35812078
 20
-297.93936856
 30
0.0
  0
VERTEX
  5
18D
  8
0
 10
-473.35812078
 20
-307.68936856
 30
0.0
  0
SEQEND
  5
18E
  8
0
  0
TEXT
  5
18F
  8
TXT_ALL
 10
-541.30312078
 20
-294.36436851
 30
0.0
 40
2.5999999
  1
E-mail: verkoop@jonkers-bouwmetaal.nl
  7
ARIAL
  0
TEXT
  5
190
  8
TXT_ALL
 10
-541.30312078
 20
-304.11436851
 30
0.0
 40
2.5999999
  1
Telefoon: 0527-685156
  7
ARIAL
  0
TEXT
  5
191
  8
TXT_ALL
 10
-471.35812078
 20
-304.11436851
 30
0.0
 40
2.5999999
  1
Website: www.jonkers-bouwmetaal.nl
  7
ARIAL
  0
TEXT
  5
192
  8
TXT_ALL
 10
-471.35812078
 20
-294.36436851
 30
0.0
 40
2.5999999
  1
Adres: Hoornse Hop 10, 8321 WX Urk
  7
ARIAL
  0
TEXT
  5
193
  8
TXT_ALL
 10
-742.88116053
 20
-26.93936856
 30
0.0
 40
2.5
  1
Art. nr. 91007242
  7
ARIAL
  0
TEXT
  5
194
  8
TXT_ALL
 10
-700.14312371
 20
-26.93936856
 30
0.0
 40
2.5
  1
Omschrijving: L04-anker 700x80 60x8
  7
ARIAL
  0
LINE
  5
195
  8
0
 10
-336.32312078
 20
-30.68936856
 30
0.0
 11
-746.32312078
 21
-30.68936856
 31
0.0
  0
LINE
  5
196
  8
0
 10
-703.30312078
 20
-30.68936856
 30
0.0
 11
-703.30312078
 21
-20.68936856
 31
0.0
  0
LINE
  5
197
  8
0
 10
-543.30312078
 20
-30.68936856
 30
0.0
 11
-543.30312078
 21
-20.68936856
 31
0.0
  0
TEXT
  5
198
  8
TXT_ALL
 10
-472.30942078
 20
-26.93936856
 30
0.0
 40
2.5
  1
Behandeling: Thermisch Verzinkt
  7
ARIAL
  0
LINE
  5
199
  8
0
 10
-403.41312078
 20
-288.18936856
 30
0.0
 11
-336.32312078
 21
-288.18936856
 31
0.0
  0
LINE
  5
19A
  8
0
 10
-403.41312078
 20
-307.68936856
 30
0.0
 11
-403.41312078
 21
-288.18936856
 31
0.0
  0
LINE
  5
19B
  8
0
 10
-403.41312078
 20
-307.68936856
 30
0.0
 11
-403.41312078
 21
-288.18936856
 31
0.0
  0
TEXT
  5
19C
  8
TXT_ALL
 10
-608.95792269
 20
-306.53483514
 30
0.0
 40
2.5
  1

  0
TEXT
  5
19D
  8
TXT_ALL
 10
-487.82273972
 20
-296.43936856
 30
0.0
 40
2.5
  1

  0
POLYLINE
  5
19E
  8
0
 66
     1
 10
0.0
 20
0.0
 30
0.0
  0
VERTEX
  5
19F
  8
0
 10
-405.31642078
 20
-30.68936856
 30
0.0
  0
VERTEX
  5
1A0
  8
0
 10
-474.30942078
 20
-30.68936856
 30
0.0
  0
VERTEX
  5
1A1
  8
0
 10
-474.30942078
 20
-20.68936856
 30
0.0
  0
SEQEND
  5
1A2
  8
0
  0
TEXT
  5
1A3
  8
TXT_ALL
 10
-403.31642078
 20
-26.93936856
 30
0.0
 40
2.5
  1
Verpakkingshoeveelheid: 1 st.
  7
ARIAL
  0
TEXT
  5
1A4
  8
TXT_ALL
 10
-541.30312078
 20
-26.93936856
 30
0.0
 40
2.5
  1
Materiaal: S355
  7
ARIAL
  0
TEXT
  5
1A5
  8
TXT_ALL
 10
-368.20663537
 20
-310.93887841
 30
0.0
 40
1.5
  1
Onderdeel van
  7
ARIAL
  0
POLYLINE
  5
1A6
  8
0
 66
     1
 10
0.0
 20
0.0
 30
0.0
  0
VERTEX
  5
298
  8
0
 10
-534.82102357
 20
-250.95104727
 30
0.0
  0
VERTEX
  5
299
  8
0
 10
-534.8994458539382
 20
-250.6850785485596
 30
0.0
  0
VERTEX
  5
29A
  8
0
 10
-535.1311983888285
 20
-250.4310286126001
 30
0.0
  0
VERTEX
  5
29B
  8
0
 10
-535.5058957100453
 20
-250.2002821342427
 30
0.0
  0
VERTEX
  5
29C
  8
0
 10
-536.0067466063225
 20
-250.0031794939696
 30
0.0
  0
VERTEX
  5
29D
  8
0
 10
-536.6113065798326
 20
-249.8485533999066
 30
0.0
  0
VERTEX
  5
29E
  8
0
 10
-537.2924836454895
 20
-249.7433330700269
 30
0.0
  0
SEQEND
  5
31B
  8
0
  0
POLYLINE
  5
1A7
  8
0
 66
     1
 10
0.0
 20
0.0
 30
0.0
  0
VERTEX
  5
29F
  8
0
 10
-539.34956350652
 20
-252.1587614686402
 30
0.0
  0
VERTEX
  5
2A0
  8
0
 10
-538.7099951884643
 20
-252.2067234216583
 30
0.0
  0
VERTEX
  5
2A1
  8
0
 10
-538.0568779902218
 20
-252.2109469502651
 30
0.0
  0
VERTEX
  5
2A2
  8
0
 10
-537.4129616607378
 20
-252.1712849381149
 30
0.0
  0
VERTEX
  5
2A3
  8
0
 10
-536.8006754590751
 20
-252.0891189149264
 30
0.0
  0
VERTEX
  5
2A4
  8
0
 10
-536.2413468857314
 20
-251.967310934255
 30
0.0
  0
VERTEX
  5
2A5
  8
0
 10
-535.7544587910372
 20
-251.8101038808193
 30
0.0
  0
VERTEX
  5
2A6
  8
0
 10
-535.3569707374548
 20
-251.6229736799321
 30
0.0
  0
VERTEX
  5
2A7
  8
0
 10
-535.0627282544731
 20
-251.4124385569622
 30
0.0
  0
VERTEX
  5
2A8
  8
0
 10
-534.8819805632651
 20
-251.1858319908083
 30
0.0
  0
VERTEX
  5
2A9
  8
0
 10
-534.82102357
 20
-250.95104727
 30
0.0
  0
SEQEND
  5
31C
  8
0
  0
POLYLINE
  5
1A8
  8
0
 66
     1
 10
0.0
 20
0.0
 30
0.0
  0
VERTEX
  5
1A9
  8
0
 10
-539.3495635
 20
-252.15876148
 30
0.0
  0
VERTEX
  5
1AA
  8
0
 10
-551.77555946
 20
-250.77963296
 30
0.0
  0
SEQEND
  5
1AB
  8
0
  0
POLYLINE
  5
1AC
  8
0
 66
     1
 10
0.0
 20
0.0
 30
0.0
  0
VERTEX
  5
2AA
  8
0
 10
-554.24701953
 20
-249.5719187354643
 30
0.0
  0
VERTEX
  5
2AB
  8
0
 10
-554.1685972487065
 20
-249.8378874570063
 30
0.0
  0
VERTEX
  5
2AC
  8
0
 10
-553.9368447163425
 20
-250.0919373932662
 30
0.0
  0
VERTEX
  5
2AD
  8
0
 10
-553.5621473974203
 20
-250.3226838721091
 30
0.0
  0
VERTEX
  5
2AE
  8
0
 10
-553.061296503103
 20
-250.5197865130313
 30
0.0
  0
VERTEX
  5
2AF
  8
0
 10
-552.4567365311306
 20
-250.6744126078777
 30
0.0
  0
VERTEX
  5
2B0
  8
0
 10
-551.77555946652
 20
-250.7796329386402
 30
0.0
  0
SEQEND
  5
31D
  8
0
  0
POLYLINE
  5
1AD
  8
0
 66
     1
 10
0.0
 20
0.0
 30
0.0
  0
VERTEX
  5
2B1
  8
0
 10
-549.7184796054895
 20
-248.3642045400269
 30
0.0
  0
VERTEX
  5
2B2
  8
0
 10
-550.3580479215248
 20
-248.3162425879384
 30
0.0
  0
VERTEX
  5
2B3
  8
0
 10
-551.0111651172953
 20
-248.3120190599403
 30
0.0
  0
VERTEX
  5
2B4
  8
0
 10
-551.6550814441158
 20
-248.3516810723558
 30
0.0
  0
VERTEX
  5
2B5
  8
0
 10
-552.2673676431882
 20
-248.4338470954677
 30
0.0
  0
VERTEX
  5
2B6
  8
0
 10
-552.8266962142685
 20
-248.555655075745
 30
0.0
  0
VERTEX
  5
2B7
  8
0
 10
-553.3135843072542
 20
-248.7128621285155
 30
0.0
  0
VERTEX
  5
2B8
  8
0
 10
-553.7110723598724
 20
-248.8999923285314
 30
0.0
  0
VERTEX
  5
2B9
  8
0
 10
-554.005314842774
 20
-249.1105274505043
 30
0.0
  0
VERTEX
  5
2BA
  8
0
 10
-554.1860625348671
 20
-249.3371340156264
 30
0.0
  0
VERTEX
  5
2BB
  8
0
 10
-554.24701953
 20
-249.5719187354643
 30
0.0
  0
SEQEND
  5
31E
  8
0
  0
LINE
  5
1AE
  8
0
 10
-549.7184796
 20
-248.36420453
 30
0.0
 11
-537.29248364
 21
-249.74333305
 31
0.0
  0
POLYLINE
  5
1AF
  8
0
 66
     1
 10
0.0
 20
0.0
 30
0.0
  0
VERTEX
  5
2BC
  8
0
 10
-421.55329123
 20
-263.5223342
 30
0.0
  0
VERTEX
  5
2BD
  8
0
 10
-421.6205427484355
 20
-263.2758369707043
 30
0.0
  0
VERTEX
  5
2BE
  8
0
 10
-421.8197128656095
 20
-263.0388124916716
 30
0.0
  0
VERTEX
  5
2BF
  8
0
 10
-422.1431475856323
 20
-262.8203694806855
 30
0.0
  0
VERTEX
  5
2C0
  8
0
 10
-422.578417493626
 20
-262.628902580135
 30
0.0
  0
VERTEX
  5
2C1
  8
0
 10
-423.1087954111668
 20
-262.4717697556154
 30
0.0
  0
VERTEX
  5
2C2
  8
0
 10
-423.7138992123693
 20
-262.3550095334381
 30
0.0
  0
VERTEX
  5
2C3
  8
0
 10
-424.3704750975523
 20
-262.2831089434515
 30
0.0
  0
VERTEX
  5
2C4
  8
0
 10
-425.0532912237178
 20
-262.258831085
 30
0.0
  0
VERTEX
  5
2C5
  8
0
 10
-425.7361073501249
 20
-262.2831089425666
 30
0.0
  0
VERTEX
  5
2C6
  8
0
 10
-426.3926832360229
 20
-262.3550095317024
 30
0.0
  0
VERTEX
  5
2C7
  8
0
 10
-426.9977870383864
 20
-262.4717697530954
 30
0.0
  0
VERTEX
  5
2C8
  8
0
 10
-427.5281649574897
 20
-262.6289025769277
 30
0.0
  0
VERTEX
  5
2C9
  8
0
 10
-427.9634348673874
 20
-262.8203694769143
 30
0.0
  0
VERTEX
  5
2CA
  8
0
 10
-428.2868695895824
 20
-263.0388124874812
 30
0.0
  0
VERTEX
  5
2CB
  8
0
 10
-428.4860397091134
 20
-263.2758369662557
 30
0.0
  0
VERTEX
  5
2CC
  8
0
 10
-428.55329123
 20
-263.5223341954643
 30
0.0
  0
SEQEND
  5
31F
  8
0
  0
POLYLINE
  5
1B0
  8
0
 66
     1
 10
0.0
 20
0.0
 30
0.0
  0
VERTEX
  5
2CD
  8
0
 10
-428.55329123
 20
-263.5223341954643
 30
0.0
  0
VERTEX
  5
2CE
  8
0
 10
-428.4860397137093
 20
-263.7688314254032
 30
0.0
  0
VERTEX
  5
2CF
  8
0
 10
-428.2868695979967
 20
-264.0058559051855
 30
0.0
  0
VERTEX
  5
2D0
  8
0
 10
-427.9634348787304
 20
-264.2242989169574
 30
0.0
  0
VERTEX
  5
2D1
  8
0
 10
-427.5281649708161
 20
-264.4157658182614
 30
0.0
  0
VERTEX
  5
2D2
  8
0
 10
-426.9977870527508
 20
-264.5728986434397
 30
0.0
  0
VERTEX
  5
2D3
  8
0
 10
-426.3926832505327
 20
-264.6896588661279
 30
0.0
  0
VERTEX
  5
2D4
  8
0
 10
-425.7361073639881
 20
-264.7615594564379
 30
0.0
  0
VERTEX
  5
2D5
  8
0
 10
-425.0532912362822
 20
-264.785837315
 30
0.0
  0
VERTEX
  5
2D6
  8
0
 10
-424.3704751083348
 20
-264.7615594573227
 30
0.0
  0
VERTEX
  5
2D7
  8
0
 10
-423.7138992210752
 20
-264.6896588678637
 30
0.0
  0
VERTEX
  5
2D8
  8
0
 10
-423.1087954176961
 20
-264.5728986459596
 30
0.0
  0
VERTEX
  5
2D9
  8
0
 10
-422.5784174980682
 20
-264.4157658214686
 30
0.0
  0
VERTEX
  5
2DA
  8
0
 10
-422.1431475882499
 20
-264.2242989207286
 30
0.0
  0
VERTEX
  5
2DB
  8
0
 10
-421.8197128668115
 20
-264.005855909376
 30
0.0
  0
VERTEX
  5
2DC
  8
0
 10
-421.6205427487419
 20
-263.7688314298517
 30
0.0
  0
VERTEX
  5
2DD
  8
0
 10
-421.55329123
 20
-263.5223342
 30
0.0
  0
SEQEND
  5
320
  8
0
  0
LINE
  5
1B1
  8
0
 10
-405.56517343
 20
-271.3504225
 30
0.0
 11
-732.46445159
 21
-235.06873362
 31
0.0
  0
LINE
  5
1B2
  8
0
 10
-723.64839506
 20
-224.71689751
 30
0.0
 11
-732.46445159
 21
-235.06873362
 31
0.0
  0
POLYLINE
  5
1B3
  8
0
 66
     1
 10
0.0
 20
0.0
 30
0.0
  0
VERTEX
  5
1B4
  8
0
 10
-723.64839506
 20
-224.71689751
 30
0.0
  0
VERTEX
  5
1B5
  8
0
 10
-396.7491169
 20
-260.99858639
 30
0.0
  0
VERTEX
  5
1B6
  8
0
 10
-405.56517343
 20
-271.3504225
 30
0.0
  0
VERTEX
  5
1B7
  8
0
 10
-405.56517343
 20
-275.08068437
 30
0.0
  0
VERTEX
  5
1B8
  8
0
 10
-732.46445159
 20
-238.79899549
 30
0.0
  0
SEQEND
  5
1B9
  8
0
  0
LINE
  5
1BA
  8
0
 10
-732.46445159
 20
-235.06873362
 30
0.0
 11
-732.46445159
 21
-238.79899549
 31
0.0
  0
LINE
  5
1BB
  8
0
 10
-396.7491169
 20
-264.72884827
 30
0.0
 11
-405.56517343
 21
-275.08068437
 31
0.0
  0
LINE
  5
1BC
  8
0
 10
-396.7491169
 20
-260.99858639
 30
0.0
 11
-396.7491169
 21
-264.72884827
 31
0.0
  0
LINE
  5
1BD
  8
0
  6
STRICHPUNKT2
 62
     1
 10
-425.05329123
 20
-262.123486
 30
0.0
 11
-425.05329123
 21
-264.78583733
 31
0.0
  0
LINE
  5
1BE
  8
0
  6
STRICHPUNKT2
 62
     1
 10
-425.05329123
 20
-263.5223342
 30
0.0
 11
-429.83252044
 21
-262.99190016
 31
0.0
  0
LINE
  5
1BF
  8
0
  6
STRICHPUNKT2
 62
     1
 10
-425.05329123
 20
-263.5223342
 30
0.0
 11
-420.27406202
 21
-264.05276825
 31
0.0
  0
LINE
  5
1C0
  8
0
  6
STRICHPUNKT2
 62
     1
 10
-425.05329123
 20
-263.5223342
 30
0.0
 11
-426.52263399
 21
-265.24764022
 31
0.0
  0
LINE
  5
1C1
  8
0
  6
STRICHPUNKT2
 62
     1
 10
-425.05329123
 20
-263.5223342
 30
0.0
 11
-423.58394848
 21
-261.79702819
 31
0.0
  0
LINE
  5
1C2
  8
0
  6
STRICHPUNKT2
 62
     1
 10
-538.32102357
 20
-249.55219906
 30
0.0
 11
-538.32102357
 21
-252.2145504
 31
0.0
  0
LINE
  5
1C3
  8
0
  6
STRICHPUNKT2
 62
     1
 10
-550.74701953
 20
-248.17307054
 30
0.0
 11
-550.74701953
 21
-250.89378789
 31
0.0
  0
LINE
  5
1C4
  8
0
  6
STRICHPUNKT2
 62
     1
 10
-533.54179436
 20
-251.48148132
 30
0.0
 11
-555.52624874
 21
-249.04148469
 31
0.0
  0
LINE
  5
1C5
  8
0
  6
STRICHPUNKT2
 62
     1
 10
-536.85168082
 20
-249.22574125
 30
0.0
 11
-539.79036633
 21
-252.67635329
 31
0.0
  0
LINE
  5
1C6
  8
0
  6
STRICHPUNKT2
 62
     1
 10
-549.27767677
 20
-247.84661272
 30
0.0
 11
-552.21636228
 21
-251.29722476
 31
0.0
  0
POLYLINE
  5
1C7
  8
0
 66
     1
 10
0.0
 20
0.0
 30
0.0
  0
VERTEX
  5
1C8
  8
0
 10
-727.47177843
 20
-220.56228839
 30
0.0
  0
VERTEX
  5
1C9
  8
0
 10
-736.28783496
 20
-230.9141245
 30
0.0
  0
VERTEX
  5
1CA
  8
0
 10
-740.11121833
 20
-230.48977726
 30
0.0
  0
SEQEND
  5
1CB
  8
0
  0
POLYLINE
  5
1CC
  8
0
 66
     1
 10
0.0
 20
0.0
 30
0.0
  0
VERTEX
  5
2DE
  8
0
 10
-727.4717784350363
 20
-220.5622883873798
 30
0.0
  0
VERTEX
  5
2DF
  8
0
 10
-727.3983131986598
 20
-221.2981800940797
 30
0.0
  0
VERTEX
  5
2E0
  8
0
 10
-727.1807407106068
 20
-222.0220993216926
 30
0.0
  0
VERTEX
  5
2E1
  8
0
 10
-726.827422159611
 20
-222.7062262601665
 30
0.0
  0
VERTEX
  5
2E2
  8
0
 10
-726.3519353794991
 20
-223.3242702948118
 30
0.0
  0
VERTEX
  5
2E3
  8
0
 10
-725.7725530606492
 20
-223.8524803398837
 30
0.0
  0
VERTEX
  5
2E4
  8
0
 10
-725.1115405407437
 20
-224.270557579491
 30
0.0
  0
VERTEX
  5
2E5
  8
0
 10
-724.3943001603261
 20
-224.5624355397106
 30
0.0
  0
VERTEX
  5
2E6
  8
0
 10
-723.6483950650946
 20
-224.7168975141728
 30
0.0
  0
SEQEND
  5
321
  8
0
  0
POLYLINE
  5
1CD
  8
0
 66
     1
 10
0.0
 20
0.0
 30
0.0
  0
VERTEX
  5
1CE
  8
0
 10
-723.64839506
 20
-224.71689751
 30
0.0
  0
VERTEX
  5
1CF
  8
0
 10
-732.46445159
 20
-235.06873362
 30
0.0
  0
SEQEND
  5
1D0
  8
0
  0
POLYLINE
  5
1D1
  8
0
 66
     1
 10
0.0
 20
0.0
 30
0.0
  0
VERTEX
  5
2E7
  8
0
 10
-736.2878349650363
 20
-230.9141244973798
 30
0.0
  0
VERTEX
  5
2E8
  8
0
 10
-736.2143697286598
 20
-231.6500162040797
 30
0.0
  0
VERTEX
  5
2E9
  8
0
 10
-735.9967972406067
 20
-232.3739354316926
 30
0.0
  0
VERTEX
  5
2EA
  8
0
 10
-735.643478689611
 20
-233.0580623701665
 30
0.0
  0
VERTEX
  5
2EB
  8
0
 10
-735.167991909499
 20
-233.6761064048118
 30
0.0
  0
VERTEX
  5
2EC
  8
0
 10
-734.5886095906492
 20
-234.2043164498837
 30
0.0
  0
VERTEX
  5
2ED
  8
0
 10
-733.9275970707437
 20
-234.622393689491
 30
0.0
  0
VERTEX
  5
2EE
  8
0
 10
-733.2103566903261
 20
-234.9142716497106
 30
0.0
  0
VERTEX
  5
2EF
  8
0
 10
-732.4644515950946
 20
-235.0687336241728
 30
0.0
  0
SEQEND
  5
322
  8
0
  0
POLYLINE
  5
1D2
  8
0
 66
     1
 10
0.0
 20
0.0
 30
0.0
  0
VERTEX
  5
1D3
  8
0
 10
-732.46445159
 20
-235.06873362
 30
0.0
  0
VERTEX
  5
1D4
  8
0
 10
-732.46445159
 20
-238.79899549
 30
0.0
  0
SEQEND
  5
1D5
  8
0
  0
POLYLINE
  5
1D6
  8
0
 66
     1
 10
0.0
 20
0.0
 30
0.0
  0
VERTEX
  5
2F0
  8
0
 10
-740.1112183374975
 20
-230.4897772414048
 30
0.0
  0
VERTEX
  5
2F1
  8
0
 10
-739.9642878673587
 20
-231.9615606548558
 30
0.0
  0
VERTEX
  5
2F2
  8
0
 10
-739.5291428938652
 20
-233.4093991106438
 30
0.0
  0
VERTEX
  5
2F3
  8
0
 10
-738.8225057943845
 20
-234.7776529886438
 30
0.0
  0
VERTEX
  5
2F4
  8
0
 10
-737.8715322364731
 20
-236.0137410594357
 30
0.0
  0
VERTEX
  5
2F5
  8
0
 10
-736.7127676007984
 20
-237.0701611514721
 30
0.0
  0
VERTEX
  5
2F6
  8
0
 10
-735.3907425626476
 20
-237.9063156328982
 30
0.0
  0
VERTEX
  5
2F7
  8
0
 10
-733.9562618030434
 20
-238.4900715557827
 30
0.0
  0
VERTEX
  5
2F8
  8
0
 10
-732.4644516133357
 20
-238.7989955072922
 30
0.0
  0
SEQEND
  5
323
  8
0
  0
POLYLINE
  5
1D7
  8
0
 66
     1
 10
0.0
 20
0.0
 30
0.0
  0
VERTEX
  5
2F9
  8
0
 10
-732.21073679
 20
-212.86628515
 30
0.0
  0
VERTEX
  5
2FA
  8
0
 10
-732.0449624324754
 20
-212.826685900968
 30
0.0
  0
VERTEX
  5
2FB
  8
0
 10
-731.8728412324024
 20
-212.674023690016
 30
0.0
  0
VERTEX
  5
2FC
  8
0
 10
-731.7009877109579
 20
-212.4141652402834
 30
0.0
  0
VERTEX
  5
2FD
  8
0
 10
-731.5360061025796
 20
-212.0570967662404
 30
0.0
  0
VERTEX
  5
2FE
  8
0
 10
-731.3842365579401
 20
-211.616540209067
 30
0.0
  0
VERTEX
  5
2FF
  8
0
 10
-731.2515114955133
 20
-211.1094259101498
 30
0.0
  0
VERTEX
  5
300
  8
0
 10
-731.1429314650037
 20
-210.5552419875588
 30
0.0
  0
VERTEX
  5
301
  8
0
 10
-731.0626691360818
 20
-209.9752854186008
 30
0.0
  0
VERTEX
  5
302
  8
0
 10
-731.0138089450294
 20
-209.3918436089266
 30
0.0
  0
VERTEX
  5
303
  8
0
 10
-730.9982285615833
 20
-208.827337900033
 30
0.0
  0
VERTEX
  5
304
  8
0
 10
-731.0165267311404
 20
-208.3034619296849
 30
0.0
  0
VERTEX
  5
305
  8
0
 10
-731.0680002653079
 20
-207.8403479575839
 30
0.0
  0
VERTEX
  5
306
  8
0
 10
-731.1506710650389
 20
-207.4557931939201
 30
0.0
  0
VERTEX
  5
307
  8
0
 10
-731.2613621378695
 20
-207.1645758625665
 30
0.0
  0
VERTEX
  5
308
  8
0
 10
-731.3958196879564
 20
-206.977887282225
 30
0.0
  0
VERTEX
  5
309
  8
0
 10
-731.5488765870666
 20
-206.9029017903256
 30
0.0
  0
SEQEND
  5
324
  8
0
  0
POLYLINE
  5
1D8
  8
0
 66
     1
 10
0.0
 20
0.0
 30
0.0
  0
VERTEX
  5
30A
  8
0
 10
-731.5488765870666
 20
-206.9029017903256
 30
0.0
  0
VERTEX
  5
30B
  8
0
 10
-731.7146509448045
 20
-206.9425010374842
 30
0.0
  0
VERTEX
  5
30C
  8
0
 10
-731.8867721452242
 20
-207.0951632471375
 30
0.0
  0
VERTEX
  5
30D
  8
0
 10
-732.0586256671052
 20
-207.3550216961692
 30
0.0
  0
VERTEX
  5
30E
  8
0
 10
-732.2236072759634
 20
-207.7120901700903
 30
0.0
  0
VERTEX
  5
30F
  8
0
 10
-732.3753768210784
 20
-208.1526467276634
 30
0.0
  0
VERTEX
  5
310
  8
0
 10
-732.5081018839317
 20
-208.6597610274091
 30
0.0
  0
VERTEX
  5
311
  8
0
 10
-732.6166819147792
 20
-209.2139449511369
 30
0.0
  0
VERTEX
  5
312
  8
0
 10
-732.6969442439182
 20
-209.7939015213992
 30
0.0
  0
VERTEX
  5
313
  8
0
 10
-732.7458044350448
 20
-210.3773433323936
 30
0.0
  0
VERTEX
  5
314
  8
0
 10
-732.7613848184105
 20
-210.9418490424704
 30
0.0
  0
VERTEX
  5
315
  8
0
 10
-732.7430866486188
 20
-211.4657250137203
 30
0.0
  0
VERTEX
  5
316
  8
0
 10
-732.6916131140752
 20
-211.9288389863155
 30
0.0
  0
VERTEX
  5
317
  8
0
 10
-732.6089423138492
 20
-212.3133937499657
 30
0.0
  0
VERTEX
  5
318
  8
0
 10
-732.498251240439
 20
-212.6046110807312
 30
0.0
  0
VERTEX
  5
319
  8
0
 10
-732.3637936897289
 20
-212.7912996598816
 30
0.0
  0
VERTEX
  5
31A
  8
0
 10
-732.21073679
 20
-212.86628515
 30
0.0
  0
SEQEND
  5
325
  8
0
  0
POLYLINE
  5
1D9
  8
0
 66
     1
 10
0.0
 20
0.0
 30
0.0
  0
VERTEX
  5
1DA
  8
0
 10
-727.47177843
 20
-190.72019338
 30
0.0
  0
VERTEX
  5
1DB
  8
0
 10
-736.28783496
 20
-201.07202948
 30
0.0
  0
VERTEX
  5
1DC
  8
0
 10
-740.11121833
 20
-200.64768224
 30
0.0
  0
SEQEND
  5
1DD
  8
0
  0
LINE
  5
1DE
  8
0
 10
-731.2951618
 20
-190.29584614
 30
0.0
 11
-740.11121833
 21
-200.64768224
 31
0.0
  0
LINE
  5
1DF
  8
0
 10
-727.47177843
 20
-190.72019338
 30
0.0
 11
-731.2951618
 21
-190.29584614
 31
0.0
  0
POLYLINE
  5
1E0
  8
0
 66
     1
 10
0.0
 20
0.0
 30
0.0
  0
VERTEX
  5
1E1
  8
0
 10
-727.47177843
 20
-190.72019338
 30
0.0
  0
VERTEX
  5
1E2
  8
0
 10
-727.47177843
 20
-220.56228839
 30
0.0
  0
VERTEX
  5
1E3
  8
0
 10
-736.28783496
 20
-230.9141245
 30
0.0
  0
VERTEX
  5
1E4
  8
0
 10
-736.28783496
 20
-201.07202948
 30
0.0
  0
SEQEND
  5
1E5
  8
0
  0
POLYLINE
  5
1E6
  8
0
 66
     1
 10
0.0
 20
0.0
 30
0.0
  0
VERTEX
  5
1E7
  8
0
 10
-736.28783496
 20
-230.9141245
 30
0.0
  0
VERTEX
  5
1E8
  8
0
 10
-740.11121833
 20
-230.48977726
 30
0.0
  0
VERTEX
  5
1E9
  8
0
 10
-740.11121833
 20
-200.64768224
 30
0.0
  0
SEQEND
  5
1EA
  8
0
  0
LINE
  5
1EB
  8
0
  6
STRICHPUNKT2
 62
     1
 10
-730.44603793
 20
-210.04372368
 30
0.0
 11
-732.69694425
 21
-209.79390153
 31
0.0
  0
LINE
  5
1EC
  8
0
  6
STRICHPUNKT2
 62
     1
 10
-731.87980669
 20
-209.88459347
 30
0.0
 11
-731.87980669
 21
-214.08113808
 31
0.0
  0
LINE
  5
1ED
  8
0
  6
STRICHPUNKT2
 62
     1
 10
-731.87980669
 20
-209.88459347
 30
0.0
 11
-731.87980669
 21
-205.68804886
 31
0.0
  0
LINE
  5
1EE
  8
0
  6
STRICHPUNKT2
 62
     1
 10
-731.87980669
 20
-209.88459347
 30
0.0
 11
-730.55739821
 21
-208.33181805
 31
0.0
  0
LINE
  5
1EF
  8
0
  6
STRICHPUNKT2
 62
     1
 10
-731.87980669
 20
-209.88459347
 30
0.0
 11
-733.20221517
 21
-211.43736888
 31
0.0
  0
POLYLINE
  5
1F0
  8
0
 66
     1
 10
0.0
 20
0.0
 30
0.0
  0
VERTEX
  5
1F1
  8
0
 10
-347.15756343
 20
-87.03849636
 30
0.0
  0
VERTEX
  5
1F2
  8
0
 10
-689.15756343
 20
-87.03849636
 30
0.0
  0
VERTEX
  5
1F3
  8
0
 10
-689.15756343
 20
-91.03849636
 30
0.0
  0
SEQEND
  5
1F4
  8
0
  0
LINE
  5
1F5
  8
0
 10
-347.15756343
 20
-91.03849636
 30
0.0
 11
-689.15756343
 21
-91.03849636
 31
0.0
  0
LINE
  5
1F6
  8
0
 10
-347.15756343
 20
-87.03849636
 30
0.0
 11
-347.15756343
 21
-91.03849636
 31
0.0
  0
LINE
  5
1F7
  8
0
  6
STRICHPUNKT2
 62
     1
 10
-372.15756343
 20
-91.03849636
 30
0.0
 11
-372.15756343
 21
-92.53849636
 31
0.0
  0
LINE
  5
1F8
  8
0
  6
STRICHPUNKT2
 62
     1
 10
-372.15756343
 20
-85.53849636
 30
0.0
 11
-372.15756343
 21
-87.03849636
 31
0.0
  0
LINE
  5
1F9
  8
0
  6
STRICHPUNKT2
 62
     1
 10
-503.65756343
 20
-91.03849636
 30
0.0
 11
-503.65756343
 21
-92.53849636
 31
0.0
  0
LINE
  5
1FA
  8
0
  6
STRICHPUNKT2
 62
     1
 10
-503.65756343
 20
-85.53849636
 30
0.0
 11
-503.65756343
 21
-87.03849636
 31
0.0
  0
LINE
  5
1FB
  8
0
  6
STRICHPUNKT2
 62
     1
 10
-490.65756343
 20
-91.03849636
 30
0.0
 11
-490.65756343
 21
-92.53849636
 31
0.0
  0
LINE
  5
1FC
  8
0
  6
STRICHPUNKT2
 62
     1
 10
-490.65756343
 20
-85.53849636
 30
0.0
 11
-490.65756343
 21
-87.03849636
 31
0.0
  0
POLYLINE
  5
1FD
  8
0
 66
     1
 10
0.0
 20
0.0
 30
0.0
  0
VERTEX
  5
1FE
  8
0
 10
-689.15756343
 20
-87.03849636
 30
0.0
 42
-0.414213562
  0
VERTEX
  5
1FF
  8
0
 10
-693.15756343
 20
-83.03849636
 30
0.0
  0
VERTEX
  5
200
  8
0
 10
-697.15756343
 20
-83.03849636
 30
0.0
  0
SEQEND
  5
201
  8
0
  0
ARC
  5
202
  8
0
 10
-689.15756343
 20
-83.03849636
 30
0.0
 40
8.0
 50
180.0
 51
-90.0
  0
LINE
  5
203
  8
0
 10
-689.15756343
 20
-87.03849636
 30
0.0
 11
-689.15756343
 21
-91.03849636
 31
0.0
  0
POLYLINE
  5
204
  8
0
 66
     1
 10
0.0
 20
0.0
 30
0.0
  0
VERTEX
  5
205
  8
0
 10
-693.15756343
 20
-83.03849636
 30
0.0
  0
VERTEX
  5
206
  8
0
 10
-693.15756343
 20
-51.03849636
 30
0.0
  0
VERTEX
  5
207
  8
0
 10
-697.15756343
 20
-51.03849636
 30
0.0
  0
SEQEND
  5
208
  8
0
  0
LINE
  5
209
  8
0
 10
-697.15756343
 20
-83.03849636
 30
0.0
 11
-697.15756343
 21
-51.03849636
 31
0.0
  0
LINE
  5
20A
  8
0
 10
-693.15756343
 20
-83.03849636
 30
0.0
 11
-697.15756343
 21
-83.03849636
 31
0.0
  0
LINE
  5
20B
  8
0
  6
STRICHPUNKT2
 62
     1
 10
-697.15756343
 20
-66.03849636
 30
0.0
 11
-698.65756343
 21
-66.03849636
 31
0.0
  0
LINE
  5
20C
  8
0
  6
STRICHPUNKT2
 62
     1
 10
-691.65756343
 20
-66.03849636
 30
0.0
 11
-693.15756343
 21
-66.03849636
 31
0.0
  0
LINE
  5
20D
  8
0
 10
-737.4903421
 20
-91.03849636
 30
0.0
 11
-707.4903421
 21
-91.03849636
 31
0.0
  0
LINE
  5
20E
  8
0
  6
STRICHPUNKT2
 62
     1
 10
-722.4903421
 20
-91.03849636
 30
0.0
 11
-722.4903421
 21
-92.53849636
 31
0.0
  0
LINE
  5
20F
  8
0
 10
-737.4903421
 20
-83.03849636
 30
0.0
 11
-707.4903421
 21
-83.03849636
 31
0.0
  0
LINE
  5
210
  8
0
 10
-707.4903421
 20
-91.03849636
 30
0.0
 11
-707.4903421
 21
-83.03849636
 31
0.0
  0
LINE
  5
211
  8
0
 10
-737.4903421
 20
-91.03849636
 30
0.0
 11
-707.4903421
 21
-91.03849636
 31
0.0
  0
LINE
  5
212
  8
0
 10
-737.4903421
 20
-83.03849636
 30
0.0
 11
-737.4903421
 21
-91.03849636
 31
0.0
  0
CIRCLE
  5
213
  8
0
 10
-722.4903421
 20
-66.03849636
 30
0.0
 40
3.0
  0
LINE
  5
214
  8
0
 10
-737.4903421
 20
-51.03849636
 30
0.0
 11
-707.4903421
 21
-51.03849636
 31
0.0
  0
LINE
  5
215
  8
0
 10
-707.4903421
 20
-83.03849636
 30
0.0
 11
-707.4903421
 21
-51.03849636
 31
0.0
  0
LINE
  5
216
  8
0
 10
-737.4903421
 20
-83.03849636
 30
0.0
 11
-707.4903421
 21
-83.03849636
 31
0.0
  0
LINE
  5
217
  8
0
 10
-737.4903421
 20
-51.03849636
 30
0.0
 11
-737.4903421
 21
-83.03849636
 31
0.0
  0
LINE
  5
218
  8
0
  6
STRICHPUNKT2
 62
     1
 10
-722.4903421
 20
-66.03849636
 30
0.0
 11
-722.4903421
 21
-70.53849636
 31
0.0
  0
LINE
  5
219
  8
0
  6
STRICHPUNKT2
 62
     1
 10
-722.4903421
 20
-66.03849636
 30
0.0
 11
-722.4903421
 21
-61.53849636
 31
0.0
  0
LINE
  5
21A
  8
0
  6
STRICHPUNKT2
 62
     1
 10
-722.4903421
 20
-66.03849636
 30
0.0
 11
-726.9903421
 21
-66.03849636
 31
0.0
  0
LINE
  5
21B
  8
0
  6
STRICHPUNKT2
 62
     1
 10
-722.4903421
 20
-66.03849636
 30
0.0
 11
-717.9903421
 21
-66.03849636
 31
0.0
  0
POLYLINE
  5
21C
  8
0
 66
     1
 10
0.0
 20
0.0
 30
0.0
 70
     1
  0
VERTEX
  5
21D
  8
0
 10
-490.65756343
 20
-147.17570792
 30
0.0
 42
-1.0
  0
VERTEX
  5
21E
  8
0
 10
-490.65756343
 20
-154.17570792
 30
0.0
  0
VERTEX
  5
21F
  8
0
 10
-503.65756343
 20
-154.17570792
 30
0.0
 42
-1.0
  0
VERTEX
  5
220
  8
0
 10
-503.65756343
 20
-147.17570792
 30
0.0
  0
SEQEND
  5
221
  8
0
  0
CIRCLE
  5
222
  8
0
 10
-372.15756343
 20
-150.67570792
 30
0.0
 40
3.5
  0
LINE
  5
223
  8
0
 10
-347.15756343
 20
-165.67570792
 30
0.0
 11
-689.15756343
 21
-165.67570792
 31
0.0
  0
LINE
  5
224
  8
0
 10
-689.15756343
 20
-135.67570792
 30
0.0
 11
-689.15756343
 21
-165.67570792
 31
0.0
  0
POLYLINE
  5
225
  8
0
 66
     1
 10
0.0
 20
0.0
 30
0.0
  0
VERTEX
  5
226
  8
0
 10
-689.15756343
 20
-135.67570792
 30
0.0
  0
VERTEX
  5
227
  8
0
 10
-347.15756343
 20
-135.67570792
 30
0.0
  0
VERTEX
  5
228
  8
0
 10
-347.15756343
 20
-165.67570792
 30
0.0
  0
SEQEND
  5
229
  8
0
  0
LINE
  5
22A
  8
0
  6
STRICHPUNKT2
 62
     1
 10
-372.15756343
 20
-150.67570792
 30
0.0
 11
-377.15756343
 21
-150.67570792
 31
0.0
  0
LINE
  5
22B
  8
0
  6
STRICHPUNKT2
 62
     1
 10
-372.15756343
 20
-150.67570792
 30
0.0
 11
-367.15756343
 21
-150.67570792
 31
0.0
  0
LINE
  5
22C
  8
0
  6
STRICHPUNKT2
 62
     1
 10
-372.15756343
 20
-150.67570792
 30
0.0
 11
-372.15756343
 21
-155.67570792
 31
0.0
  0
LINE
  5
22D
  8
0
  6
STRICHPUNKT2
 62
     1
 10
-372.15756343
 20
-150.67570792
 30
0.0
 11
-372.15756343
 21
-145.67570792
 31
0.0
  0
LINE
  5
22E
  8
0
  6
STRICHPUNKT2
 62
     1
 10
-485.65756343
 20
-150.67570792
 30
0.0
 11
-508.65756343
 21
-150.67570792
 31
0.0
  0
LINE
  5
22F
  8
0
  6
STRICHPUNKT2
 62
     1
 10
-490.65756343
 20
-145.67570792
 30
0.0
 11
-490.65756343
 21
-155.67570792
 31
0.0
  0
LINE
  5
230
  8
0
  6
STRICHPUNKT2
 62
     1
 10
-503.65756343
 20
-145.67570792
 30
0.0
 11
-503.65756343
 21
-155.67570792
 31
0.0
  0
POLYLINE
  5
231
  8
0
 66
     1
 10
0.0
 20
0.0
 30
0.0
  0
VERTEX
  5
232
  8
0
 10
-693.15756343
 20
-135.67570792
 30
0.0
  0
VERTEX
  5
233
  8
0
 10
-689.15756343
 20
-135.67570792
 30
0.0
  0
VERTEX
  5
234
  8
0
 10
-689.15756343
 20
-165.67570792
 30
0.0
  0
VERTEX
  5
235
  8
0
 10
-693.15756343
 20
-165.67570792
 30
0.0
  0
SEQEND
  5
236
  8
0
  0
POLYLINE
  5
237
  8
0
 66
     1
 10
0.0
 20
0.0
 30
0.0
  0
VERTEX
  5
238
  8
0
 10
-693.15756343
 20
-135.67570792
 30
0.0
  0
VERTEX
  5
239
  8
0
 10
-693.15756343
 20
-165.67570792
 30
0.0
  0
VERTEX
  5
23A
  8
0
 10
-697.15756343
 20
-165.67570792
 30
0.0
  0
SEQEND
  5
23B
  8
0
  0
LINE
  5
23C
  8
0
 10
-697.15756343
 20
-135.67570792
 30
0.0
 11
-697.15756343
 21
-165.67570792
 31
0.0
  0
LINE
  5
23D
  8
0
 10
-693.15756343
 20
-135.67570792
 30
0.0
 11
-697.15756343
 21
-135.67570792
 31
0.0
  0
LINE
  5
23E
  8
0
  6
STRICHPUNKT2
 62
     1
 10
-697.15756343
 20
-150.67570792
 30
0.0
 11
-698.65756343
 21
-150.67570792
 31
0.0
  0
LINE
  5
23F
  8
0
  6
STRICHPUNKT2
 62
     1
 10
-691.65756343
 20
-150.67570792
 30
0.0
 11
-693.15756343
 21
-150.67570792
 31
0.0
  0
LINE
  5
240
  8
0
 62
     5
 10
-722.4903421
 20
-66.03849636
 30
0.0
 11
-719.2976143
 21
-73.69205068
 31
0.0
  0
TEXT
  5
241
  8
TXT_DIM49
 10
-719.2976143
 20
-74.94205068
 30
0.0
 40
2.5
  1
Ø12
  7
ARIAL
  0
LINE
  5
242
  8
0
 62
     5
 10
-372.15756343
 20
-150.67570792
 30
0.0
 11
-368.52934921
 21
-159.4455103
 31
0.0
  0
TEXT
  5
243
  8
TXT_DIM49
 10
-368.52934921
 20
-160.6955103
 30
0.0
 40
2.5
  1
Ø14
  7
ARIAL
  0
LINE
  5
244
  8
0
 62
     5
 10
-497.15756343
 20
-150.67570792
 30
0.0
 11
-494.78543963
 21
-160.40947731
 31
0.0
  0
TEXT
  5
245
  8
TXT_DIM49
 10
-494.78543963
 20
-161.65947731
 30
0.0
 40
2.5
  1
Slobgat 14 x 40
  7
ARIAL
  0
ENDSEC
  0
EOF
