  0
SECTION
  2
HEADER
  9
$ACADVER
  1
AC1006
  9
$DWGCODEPAGE
  3
ansi_1252
  9
$INSBASE
 10
0.0
 20
0.0
 30
0.0
  9
$EXTMIN
 10
549.58573104
 20
-978.21678515
  9
$EXTMAX
 10
1335.85572422
 20
-599.54178515
  9
$LIMMIN
 10
549.58573104
 20
-978.21678515
  9
$LIMMAX
 10
1335.85572422
 20
-599.54178515
  9
$ORTHOMODE
 70
     0
  9
$REGENMODE
 70
     1
  9
$FILLMODE
 70
     1
  9
$QTEXTMODE
 70
     0
  9
$MIRRTEXT
 70
     1
  9
$DRAGMODE
 70
     2
  9
$LTSCALE
 40
1.0
  9
$OSMODE
 70
    37
  9
$ATTMODE
 70
     1
  9
$TEXTSIZE
 40
1.0
  9
$TRACEWID
 40
0.05
  9
$TEXTSTYLE
  7
STANDARD
  9
$CLAYER
  8
0
  9
$CELTYPE
  6
BYBLOCK
  9
$CECOLOR
 62
   256
  9
$DIMSCALE
 40
1.0
  9
$DIMASZ
 40
0.18
  9
$DIMEXO
 40
0.0625
  9
$DIMDLI
 40
0.38
  9
$DIMRND
 40
0.0
  9
$DIMDLE
 40
0.0
  9
$DIMEXE
 40
0.18
  9
$DIMTP
 40
0.0
  9
$DIMTM
 40
0.0
  9
$DIMTXT
 40
0.18
  9
$DIMCEN
 40
0.09
  9
$DIMTSZ
 40
0.0
  9
$DIMTOL
 70
     0
  9
$DIMLIM
 70
     0
  9
$DIMTIH
 70
     1
  9
$DIMTOH
 70
     1
  9
$DIMSE1
 70
     0
  9
$DIMSE2
 70
     0
  9
$DIMTAD
 70
     0
  9
$DIMZIN
 70
     0
  9
$DIMBLK
  1

  9
$DIMASO
 70
     1
  9
$DIMSHO
 70
     1
  9
$DIMPOST
  1

  9
$DIMAPOST
  1

  9
$DIMALT
 70
     0
  9
$DIMALTD
 70
     2
  9
$DIMALTF
 40
25.4
  9
$DIMLFAC
 40
1.0
  9
$DIMTOFL
 70
     0
  9
$DIMTVP
 40
0.0
  9
$DIMTIX
 70
     0
  9
$DIMSOXD
 70
     0
  9
$DIMSAH
 70
     0
  9
$DIMBLK1
  1

  9
$DIMBLK2
  1

  9
$LUNITS
 70
     2
  9
$LUPREC
 70
     4
  9
$SKETCHINC
 40
0.1
  9
$FILLETRAD
 40
0.5
  9
$AUNITS
 70
     0
  9
$AUPREC
 70
     0
  9
$MENU
  1
.
  9
$ELEVATION
 40
0.0
  9
$THICKNESS
 40
0.0
  9
$LIMCHECK
 70
     0
  9
$CHAMFERA
 40
0.0
  9
$CHAMFERB
 40
0.0
  9
$SKPOLY
 70
     0
  9
$TDCREATE
 40
2447893.125
  9
$TDUPDATE
 40
2460791.502445451
  9
$TDINDWG
 40
0.0
  9
$TDUSRTIMER
 40
0.0
  9
$USRTIMER
 70
     1
  9
$ANGBASE
 50
0.0
  9
$ANGDIR
 70
     0
  9
$PDMODE
 70
     0
  9
$PDSIZE
 40
0.0
  9
$PLINEWID
 40
0.0
  9
$COORDS
 70
     1
  9
$SPLFRAME
 70
     0
  9
$SPLINETYPE
 70
     6
  9
$SPLINESEGS
 70
     8
  9
$ATTDIA
 70
     0
  9
$ATTREQ
 70
     1
  9
$HANDLING
 70
     1
  9
$HANDSEED
  5
3B3
  9
$SURFTAB1
 70
     6
  9
$SURFTAB2
 70
     6
  9
$SURFTYPE
 70
     6
  9
$SURFU
 70
     6
  9
$SURFV
 70
     6
  9
$UCSNAME
  2

  9
$UCSORG
 10
0.0
 20
0.0
 30
0.0
  9
$UCSXDIR
 10
1.0
 20
0.0
 30
0.0
  9
$UCSYDIR
 10
0.0
 20
1.0
 30
0.0
  9
$USERI1
 70
     0
  9
$USERI2
 70
     0
  9
$USERI3
 70
     0
  9
$USERI4
 70
     0
  9
$USERI5
 70
     0
  9
$USERR1
 40
0.0
  9
$USERR2
 40
0.0
  9
$USERR3
 40
0.0
  9
$USERR4
 40
0.0
  9
$USERR5
 40
0.0
  9
$WORLDVIEW
 70
     1
  0
ENDSEC
  0
SECTION
  2
TABLES
  0
TABLE
  2
VPORT
 70
     1
  0
VPORT
  2
*ACTIVE
 70
     0
 10
0.0
 20
0.0
 11
1.0
 21
1.0
 12
942.72072763
 22
-788.87928515
 13
0.0
 23
0.0
 14
1.0
 24
1.0
 15
0.0
 25
0.0
 16
0.0
 26
0.0
 36
1.0
 17
0.0
 27
0.0
 37
0.0
 40
378.675
 41
2.076371541
 42
50.0
 43
0.0
 44
0.0
 50
0.0
 51
0.0
 71
     0
 72
   100
 73
     1
 74
     1
 75
     0
 76
     0
 77
     0
 78
     0
  0
ENDTAB
  0
TABLE
  2
LTYPE
 70
    19
  0
LTYPE
  2
CONTINUOUS
 70
     0
  3
Solid line
 72
    65
 73
     0
 40
0.0
  0
LTYPE
  2
DOT
 70
     0
  3
..............
 72
    65
 73
     2
 40
2.0
 49
0.5
 49
-1.5
  0
LTYPE
  2
HIDDEN
 70
     0
  3
-- -- -- -- --
 72
    65
 73
     2
 40
7.0
 49
4.0
 49
-3.0
  0
LTYPE
  2
DASHDOT
 70
     0
  3
--.--.--.--.--
 72
    65
 73
     4
 40
8.5
 49
4.0
 49
-2.0
 49
0.5
 49
-2.0
  0
LTYPE
  2
STRICHPUNKT2
 70
     0
  3
--.--.--.--.--
 72
    65
 73
     4
 40
18.5
 49
10.0
 49
-4.0
 49
0.5
 49
-4.0
  0
LTYPE
  2
STRICHPUNKT3
 70
     0
  3
--.--.--.--.--
 72
    65
 73
     4
 40
35.5
 49
25.0
 49
-5.0
 49
0.5
 49
-5.0
  0
LTYPE
  2
PHANTOM
 70
     0
  3
--..--..--..--
 72
    65
 73
     6
 40
23.0
 49
10.0
 49
-4.0
 49
0.5
 49
-4.0
 49
0.5
 49
-4.0
  0
LTYPE
  2
PHANTOM2
 70
     0
  3
--..--..--..--
 72
    65
 73
     6
 40
33.0
 49
20.0
 49
-4.0
 49
0.5
 49
-4.0
 49
0.5
 49
-4.0
  0
LTYPE
  2
PHANTOM3
 70
     0
  3
--..--..--..--
 72
    65
 73
     6
 40
50.0
 49
37.0
 49
-4.0
 49
0.5
 49
-4.0
 49
0.5
 49
-4.0
  0
LTYPE
  2
STR3PKT
 70
     0
  3
--...--...--...
 72
    65
 73
     8
 40
31.5
 49
20.0
 49
-2.5
 49
0.5
 49
-2.5
 49
0.5
 49
-2.5
 49
0.5
 49
-2.5
  0
LTYPE
  2
2STRPKT
 70
     0
  3
--.--.--.--.--
 72
    65
 73
     6
 40
28.0
 49
10.0
 49
-2.5
 49
10.0
 49
-2.5
 49
0.5
 49
-2.5
  0
LTYPE
  2
GESTRICHELT2
 70
     0
  3
-- -- -- -- --
 72
    65
 73
     2
 40
25.0
 49
10.0
 49
-15.0
  0
LTYPE
  2
2STR2PKT
 70
     0
  3
--..--..--..--
 72
    65
 73
     8
 40
31.0
 49
10.0
 49
-2.5
 49
10.0
 49
-2.5
 49
0.5
 49
-2.5
 49
0.5
 49
-2.5
  0
LTYPE
  2
STR3PKT2
 70
     0
  3
--...--...--...
 72
    65
 73
     8
 40
21.0
 49
10.0
 49
-2.5
 49
0.5
 49
-2.5
 49
0.5
 49
-2.5
 49
0.5
 49
-2.0
  0
LTYPE
  2
2STR3PKT
 70
     0
  3
--...--...--...
 72
    65
 73
    10
 40
34.0
 49
10.0
 49
-2.5
 49
10.0
 49
-2.5
 49
0.5
 49
-2.5
 49
0.5
 49
-2.5
 49
0.5
 49
-2.5
  0
LTYPE
  2
STRKSTR
 70
     0
  3
-- - -- - -- -
 72
    65
 73
     4
 40
30.0
 49
20.0
 49
-2.5
 49
5.0
 49
-2.5
  0
LTYPE
  2
STRKSTR2
 70
     0
  3
-- - -- - -- -
 72
    65
 73
     6
 40
37.5
 49
20.0
 49
-2.5
 49
5.0
 49
-2.5
 49
5.0
 49
-2.5
  0
LTYPE
  2
STRKSTR3
 70
     0
  3
-- - -- - -- -
 72
    65
 73
     8
 40
45.0
 49
20.0
 49
-2.5
 49
5.0
 49
-2.5
 49
5.0
 49
-2.5
 49
5.0
 49
-2.5
  0
LTYPE
  2
PUNKT2
 70
     0
  3
..............
 72
    65
 73
     2
 40
3.5
 49
0.5
 49
-3.0
  0
ENDTAB
  0
TABLE
  2
LAYER
 70
    15
  0
LAYER
  2
0
 70
     0
 62
     7
  6
CONTINUOUS
  0
LAYER
  2
LE_GREEN
 70
     0
 62
     3
  6
CONTINUOUS
  0
LAYER
  2
LE_RED
 70
     0
 62
     1
  6
CONTINUOUS
  0
LAYER
  2
LE_ALL
 70
     0
 62
     7
  6
CONTINUOUS
  0
LAYER
  2
LE_HIDDEN1
 70
     0
 62
     3
  6
HIDDEN
  0
LAYER
  2
LE_HIDDEN
 70
     0
 62
     7
  6
CONTINUOUS
  0
LAYER
  2
LE_MIDDLE
 70
     0
 62
     7
  6
CONTINUOUS
  0
LAYER
  2
TXT_YELLOW
 70
     0
 62
     2
  6
CONTINUOUS
  0
LAYER
  2
TXT_DIM49
 70
     0
 62
     2
  6
CONTINUOUS
  0
LAYER
  2
TXT_ALL
 70
     0
 62
     7
  6
CONTINUOUS
  0
LAYER
  2
DIM49
 70
     0
 62
     4
  6
CONTINUOUS
  0
LAYER
  2
HATCH
 70
     0
 62
     3
  6
CONTINUOUS
  0
LAYER
  2
APPLE
 70
     0
 62
     7
  6
CONTINUOUS
  0
LAYER
  2
10
 70
     0
 62
     7
  6
CONTINUOUS
  0
LAYER
  2
49
 70
     0
 62
     7
  6
CONTINUOUS
  0
ENDTAB
  0
TABLE
  2
STYLE
 70
     5
  0
STYLE
  2
MONOTXT
 70
     0
 40
0.0
 41
1.0
 50
0.0
 71
     0
 42
1.0
  3
monotxt.shx
  4

  0
STYLE
  2
STANDARD
 70
     0
 40
0.0
 41
1.0
 50
0.0
 71
     0
 42
1.0
  3
txt
  4

  0
STYLE
  2
ARIAL
 70
     0
 40
0.0
 41
1.0
 50
0.0
 71
     0
 42
1.0
  3
arial.ttf
  4

  0
STYLE
  2
ARIAL_NARROW
 70
     0
 40
0.0
 41
1.0
 50
0.0
 71
     0
 42
1.0
  3
ArialN.ttf
  4

  0
STYLE
  2
ISOCPEUR
 70
     0
 40
0.0
 41
1.0
 50
0.0
 71
     0
 42
1.0
  3
ISOCPEUR.ttf
  4

  0
ENDTAB
  0
TABLE
  2
VIEW
 70
     0
  0
ENDTAB
  0
TABLE
  2
UCS
 70
     0
  0
ENDTAB
  0
ENDSEC
  0
SECTION
  2
BLOCKS
  0
ENDSEC
  0
SECTION
  2
ENTITIES
  0
POLYLINE
  5
16C
  8
0
 66
     1
 10
0.0
 20
0.0
 30
0.0
 70
     1
  0
VERTEX
  5
16D
  8
0
 10
670.5287917
 20
-932.71542395
 30
0.0
  0
VERTEX
  5
16E
  8
0
 10
1090.5287917
 20
-932.71542395
 30
0.0
  0
VERTEX
  5
16F
  8
0
 10
1090.5287917
 20
-635.71542395
 30
0.0
  0
VERTEX
  5
170
  8
0
 10
670.5287917
 20
-635.71542395
 30
0.0
  0
SEQEND
  5
171
  8
0
  0
POLYLINE
  5
172
  8
0
 66
     1
 10
0.0
 20
0.0
 30
0.0
 70
     1
  0
VERTEX
  5
173
  8
0
 10
675.5287917
 20
-927.71542395
 30
0.0
  0
VERTEX
  5
174
  8
0
 10
1085.5287917
 20
-927.71542395
 30
0.0
  0
VERTEX
  5
175
  8
0
 10
1085.5287917
 20
-640.71542395
 30
0.0
  0
VERTEX
  5
176
  8
0
 10
675.5287917
 20
-640.71542395
 30
0.0
  0
SEQEND
  5
177
  8
0
  0
LINE
  5
178
  8
0
 10
900.5287917
 20
-927.71542395
 30
0.0
 11
900.5287917
 21
-932.71542395
 31
0.0
  0
LINE
  5
179
  8
0
 10
900.5287917
 20
-640.71542395
 30
0.0
 11
900.5287917
 21
-635.71542395
 31
0.0
  0
LINE
  5
17A
  8
0
 10
690.5287917
 20
-927.71542395
 30
0.0
 11
690.5287917
 21
-932.71542395
 31
0.0
  0
LINE
  5
17B
  8
0
 10
690.5287917
 20
-640.71542395
 30
0.0
 11
690.5287917
 21
-635.71542395
 31
0.0
  0
TEXT
  5
17C
  8
TXT_ALL
 62
     4
 10
1089.5287917
 20
-931.71542395
 30
0.0
 40
2.5
  1

 50
90.00020741
  0
POLYLINE
  5
17D
  8
0
 66
     1
 10
0.0
 20
0.0
 30
0.0
  0
VERTEX
  5
17E
  8
0
 10
1085.5287917
 20
-650.71542395
 30
0.0
  0
VERTEX
  5
17F
  8
0
 10
1016.5354917
 20
-650.71542395
 30
0.0
  0
VERTEX
  5
180
  8
0
 10
1016.5354917
 20
-640.71542395
 30
0.0
  0
SEQEND
  5
181
  8
0
  0
LINE
  5
182
  8
0
 10
1018.4387917
 20
-908.21542395
 30
0.0
 11
878.5487917
 21
-908.21542395
 31
0.0
  0
LINE
  5
183
  8
0
 10
878.5487917
 20
-917.96542395
 30
0.0
 11
1018.4387917
 21
-917.96542395
 31
0.0
  0
POLYLINE
  5
184
  8
0
 66
     1
 10
0.0
 20
0.0
 30
0.0
  0
VERTEX
  5
185
  8
0
 10
878.5487917
 20
-908.21542395
 30
0.0
  0
VERTEX
  5
186
  8
0
 10
878.5487917
 20
-917.96542395
 30
0.0
  0
VERTEX
  5
187
  8
0
 10
878.5487917
 20
-927.71542395
 30
0.0
  0
SEQEND
  5
188
  8
0
  0
POLYLINE
  5
189
  8
0
 66
     1
 10
0.0
 20
0.0
 30
0.0
  0
VERTEX
  5
18A
  8
0
 10
948.4937917
 20
-908.21542395
 30
0.0
  0
VERTEX
  5
18B
  8
0
 10
948.4937917
 20
-917.96542395
 30
0.0
  0
VERTEX
  5
18C
  8
0
 10
948.4937917
 20
-927.71542395
 30
0.0
  0
SEQEND
  5
18D
  8
0
  0
TEXT
  5
18E
  8
TXT_ALL
 10
880.5487917
 20
-914.3904239
 30
0.0
 40
2.5999999
  1
E-mail: verkoop@jonkers-bouwmetaal.nl
  7
ARIAL
  0
TEXT
  5
18F
  8
TXT_ALL
 10
880.5487917
 20
-924.1404239
 30
0.0
 40
2.5999999
  1
Telefoon: 0527-685156
  7
ARIAL
  0
TEXT
  5
190
  8
TXT_ALL
 10
950.4937917
 20
-924.1404239
 30
0.0
 40
2.5999999
  1
Website: www.jonkers-bouwmetaal.nl
  7
ARIAL
  0
TEXT
  5
191
  8
TXT_ALL
 10
950.4937917
 20
-914.3904239
 30
0.0
 40
2.5999999
  1
Adres: Hoornse Hop 10, 8321 WX Urk
  7
ARIAL
  0
TEXT
  5
192
  8
TXT_ALL
 10
678.97075195
 20
-646.96542395
 30
0.0
 40
2.5
  1
Art. nr. 91006861
  7
ARIAL
  0
TEXT
  5
193
  8
TXT_ALL
 10
721.70878877
 20
-646.96542395
 30
0.0
 40
2.5
  1
Omschrijving: S04-anker 80x8 L=300
  7
ARIAL
  0
LINE
  5
194
  8
0
 10
1085.5287917
 20
-650.71542395
 30
0.0
 11
675.5287917
 21
-650.71542395
 31
0.0
  0
LINE
  5
195
  8
0
 10
718.5487917
 20
-650.71542395
 30
0.0
 11
718.5487917
 21
-640.71542395
 31
0.0
  0
LINE
  5
196
  8
0
 10
878.5487917
 20
-650.71542395
 30
0.0
 11
878.5487917
 21
-640.71542395
 31
0.0
  0
TEXT
  5
197
  8
TXT_ALL
 10
949.5424917
 20
-646.96542395
 30
0.0
 40
2.5
  1
Behandeling: Thermisch Verzinkt
  7
ARIAL
  0
LINE
  5
198
  8
0
 10
1018.4387917
 20
-908.21542395
 30
0.0
 11
1085.5287917
 21
-908.21542395
 31
0.0
  0
LINE
  5
199
  8
0
 10
1018.4387917
 20
-927.71542395
 30
0.0
 11
1018.4387917
 21
-908.21542395
 31
0.0
  0
LINE
  5
19A
  8
0
 10
1018.4387917
 20
-927.71542395
 30
0.0
 11
1018.4387917
 21
-908.21542395
 31
0.0
  0
TEXT
  5
19B
  8
TXT_ALL
 10
812.89398979
 20
-926.56089054
 30
0.0
 40
2.5
  1

  0
TEXT
  5
19C
  8
TXT_ALL
 10
934.02917276
 20
-916.46542395
 30
0.0
 40
2.5
  1

  0
POLYLINE
  5
19D
  8
0
 66
     1
 10
0.0
 20
0.0
 30
0.0
  0
VERTEX
  5
19E
  8
0
 10
1016.5354917
 20
-650.71542395
 30
0.0
  0
VERTEX
  5
19F
  8
0
 10
947.5424917
 20
-650.71542395
 30
0.0
  0
VERTEX
  5
1A0
  8
0
 10
947.5424917
 20
-640.71542395
 30
0.0
  0
SEQEND
  5
1A1
  8
0
  0
TEXT
  5
1A2
  8
TXT_ALL
 10
1018.5354917
 20
-646.96542395
 30
0.0
 40
2.5
  1
Verpakkingshoeveelheid: 1 st.
  7
ARIAL
  0
TEXT
  5
1A3
  8
TXT_ALL
 10
880.5487917
 20
-646.96542395
 30
0.0
 40
2.5
  1
Materiaal: S355
  7
ARIAL
  0
TEXT
  5
1A4
  8
TXT_ALL
 10
1053.64527712
 20
-930.9649338
 30
0.0
 40
1.5
  1
Onderdeel van
  7
ARIAL
  0
POLYLINE
  5
1A5
  8
0
 66
     1
 10
0.0
 20
0.0
 30
0.0
  0
VERTEX
  5
2D7
  8
0
 10
830.46404971
 20
-881.28280571
 30
0.0
  0
VERTEX
  5
2D8
  8
0
 10
830.3943627214239
 20
-880.9988230373067
 30
0.0
  0
VERTEX
  5
2D9
  8
0
 10
830.188076770768
 20
-880.7261488773378
 30
0.0
  0
VERTEX
  5
2DA
  8
0
 10
829.8534063989961
 20
-880.475641424991
 30
0.0
  0
VERTEX
  5
2DB
  8
0
 10
829.403678560608
 20
-880.2572761716775
 30
0.0
  0
VERTEX
  5
2DC
  8
0
 10
828.8568019291671
 20
-880.0797486699192
 30
0.0
  0
SEQEND
  5
3A5
  8
0
  0
POLYLINE
  5
1A6
  8
0
 66
     1
 10
0.0
 20
0.0
 30
0.0
  0
VERTEX
  5
2DD
  8
0
 10
825.0712974802644
 20
-882.4858627473043
 30
0.0
  0
VERTEX
  5
2DE
  8
0
 10
825.6767918648186
 20
-882.612795732565
 30
0.0
  0
VERTEX
  5
2DF
  8
0
 10
826.3309509725827
 20
-882.6894485066292
 30
0.0
  0
VERTEX
  5
2E0
  8
0
 10
827.0090443487891
 20
-882.7129232149239
 30
0.0
  0
VERTEX
  5
2E1
  8
0
 10
827.6854367047603
 20
-882.6823323971895
 30
0.0
  0
VERTEX
  5
2E2
  8
0
 10
828.33455705881
 20
-882.5988325378734
 30
0.0
  0
VERTEX
  5
2E3
  8
0
 10
828.9318654460212
 20
-882.4655803452893
 30
0.0
  0
VERTEX
  5
2E4
  8
0
 10
829.4547806504834
 20
-882.2876134124053
 30
0.0
  0
VERTEX
  5
2E5
  8
0
 10
829.8835338871138
 20
-882.0716597708757
 30
0.0
  0
VERTEX
  5
2E6
  8
0
 10
830.2019161596619
 20
-881.8258835381151
 30
0.0
  0
VERTEX
  5
2E7
  8
0
 10
830.3978910410618
 20
-881.5595762732187
 30
0.0
  0
VERTEX
  5
2E8
  8
0
 10
830.46404971
 20
-881.28280571
 30
0.0
  0
SEQEND
  5
3A6
  8
0
  0
POLYLINE
  5
1A7
  8
0
 66
     1
 10
0.0
 20
0.0
 30
0.0
  0
VERTEX
  5
1A8
  8
0
 10
825.07129749
 20
-882.48586277
 30
0.0
  0
VERTEX
  5
1A9
  8
0
 10
814.13621766
 20
-879.61304124
 30
0.0
  0
SEQEND
  5
1AA
  8
0
  0
POLYLINE
  5
1AB
  8
0
 66
     1
 10
0.0
 20
0.0
 30
0.0
  0
VERTEX
  5
2E9
  8
0
 10
812.52896988
 20
-878.4099841748658
 30
0.0
  0
VERTEX
  5
2EA
  8
0
 10
812.5986568660813
 20
-878.6939668476614
 30
0.0
  0
VERTEX
  5
2EB
  8
0
 10
812.804942814342
 20
-878.9666410079328
 30
0.0
  0
VERTEX
  5
2EC
  8
0
 10
813.1396131839132
 20
-879.2171484607707
 30
0.0
  0
VERTEX
  5
2ED
  8
0
 10
813.589341020383
 20
-879.4355137147438
 30
0.0
  0
VERTEX
  5
2EE
  8
0
 10
814.1362176502644
 20
-879.6130412173043
 30
0.0
  0
SEQEND
  5
3A7
  8
0
  0
POLYLINE
  5
1AC
  8
0
 66
     1
 10
0.0
 20
0.0
 30
0.0
  0
VERTEX
  5
2EF
  8
0
 10
817.921722099167
 20
-877.2069271399192
 30
0.0
  0
VERTEX
  5
2F0
  8
0
 10
817.3162277156221
 20
-877.0799941558901
 30
0.0
  0
VERTEX
  5
2F1
  8
0
 10
816.6620686095538
 20
-877.0033413827799
 30
0.0
  0
VERTEX
  5
2F2
  8
0
 10
815.9839752355003
 20
-876.9798666751062
 30
0.0
  0
VERTEX
  5
2F3
  8
0
 10
815.3075828818867
 20
-877.0104574930992
 30
0.0
  0
VERTEX
  5
2F4
  8
0
 10
814.6584625301391
 20
-877.0939573523095
 30
0.0
  0
VERTEX
  5
2F5
  8
0
 10
814.0611541449234
 20
-877.2272095444484
 30
0.0
  0
VERTEX
  5
2F6
  8
0
 10
813.5382389419241
 20
-877.4051764765983
 30
0.0
  0
VERTEX
  5
2F7
  8
0
 10
813.1094857060363
 20
-877.6211301171777
 30
0.0
  0
VERTEX
  5
2F8
  8
0
 10
812.7911034333741
 20
-877.8669063488624
 30
0.0
  0
VERTEX
  5
2F9
  8
0
 10
812.5951285509275
 20
-878.13321361266
 30
0.0
  0
VERTEX
  5
2FA
  8
0
 10
812.52896988
 20
-878.4099841748658
 30
0.0
  0
SEQEND
  5
3A8
  8
0
  0
LINE
  5
1AD
  8
0
 10
817.92172211
 20
-877.20692713
 30
0.0
 11
828.85680194
 21
-880.07974866
 31
0.0
  0
POLYLINE
  5
1AE
  8
0
 66
     1
 10
0.0
 20
0.0
 30
0.0
  0
VERTEX
  5
2FB
  8
0
 10
784.35011032
 20
-871.0069440848658
 30
0.0
  0
VERTEX
  5
2FC
  8
0
 10
784.4173618362908
 20
-871.2859692275757
 30
0.0
  0
VERTEX
  5
2FD
  8
0
 10
784.6165319520034
 20
-871.5542715907033
 30
0.0
  0
VERTEX
  5
2FE
  8
0
 10
784.9399666712695
 20
-871.8015404648756
 30
0.0
  0
VERTEX
  5
2FF
  8
0
 10
785.3752365791838
 20
-872.0182734459067
 30
0.0
  0
VERTEX
  5
300
  8
0
 10
785.9056144972492
 20
-872.1961416068619
 30
0.0
  0
VERTEX
  5
301
  8
0
 10
786.5107182994673
 20
-872.3283095740496
 30
0.0
  0
VERTEX
  5
302
  8
0
 10
787.167294186012
 20
-872.4096982066
 30
0.0
  0
VERTEX
  5
303
  8
0
 10
787.8501103137179
 20
-872.437179785
 30
0.0
  0
VERTEX
  5
304
  8
0
 10
788.5329264416652
 20
-872.4096982076015
 30
0.0
  0
VERTEX
  5
305
  8
0
 10
789.1895023289248
 20
-872.3283095760144
 30
0.0
  0
VERTEX
  5
306
  8
0
 10
789.794606132304
 20
-872.1961416097143
 30
0.0
  0
VERTEX
  5
307
  8
0
 10
790.3249840519319
 20
-872.0182734495372
 30
0.0
  0
VERTEX
  5
308
  8
0
 10
790.7602539617501
 20
-871.8015404691446
 30
0.0
  0
VERTEX
  5
309
  8
0
 10
791.0836886831885
 20
-871.5542715954466
 30
0.0
  0
VERTEX
  5
30A
  8
0
 10
791.2828588012582
 20
-871.2859692326113
 30
0.0
  0
VERTEX
  5
30B
  8
0
 10
791.35011032
 20
-871.00694409
 30
0.0
  0
SEQEND
  5
3A9
  8
0
  0
POLYLINE
  5
1AF
  8
0
 66
     1
 10
0.0
 20
0.0
 30
0.0
  0
VERTEX
  5
30C
  8
0
 10
791.35011032
 20
-871.00694409
 30
0.0
  0
VERTEX
  5
30D
  8
0
 10
791.2828588015645
 20
-870.7279189480182
 30
0.0
  0
VERTEX
  5
30E
  8
0
 10
791.0836886843905
 20
-870.4596165857394
 30
0.0
  0
VERTEX
  5
30F
  8
0
 10
790.7602539643677
 20
-870.2123477124563
 30
0.0
  0
VERTEX
  5
310
  8
0
 10
790.324984056374
 20
-869.9956147322781
 30
0.0
  0
VERTEX
  5
311
  8
0
 10
789.7946061388333
 20
-869.8177465720685
 30
0.0
  0
VERTEX
  5
312
  8
0
 10
789.1895023376308
 20
-869.6855786054593
 30
0.0
  0
VERTEX
  5
313
  8
0
 10
788.5329264524477
 20
-869.604189973275
 30
0.0
  0
VERTEX
  5
314
  8
0
 10
787.8501103262821
 20
-869.5767083950001
 30
0.0
  0
VERTEX
  5
315
  8
0
 10
787.1672941998752
 20
-869.6041899722734
 30
0.0
  0
VERTEX
  5
316
  8
0
 10
786.5107183139771
 20
-869.6855786034945
 30
0.0
  0
VERTEX
  5
317
  8
0
 10
785.9056145116135
 20
-869.8177465692161
 30
0.0
  0
VERTEX
  5
318
  8
0
 10
785.3752365925103
 20
-869.9956147286476
 30
0.0
  0
VERTEX
  5
319
  8
0
 10
784.9399666826126
 20
-870.2123477081874
 30
0.0
  0
VERTEX
  5
31A
  8
0
 10
784.6165319604177
 20
-870.4596165809959
 30
0.0
  0
VERTEX
  5
31B
  8
0
 10
784.4173618408867
 20
-870.7279189429827
 30
0.0
  0
VERTEX
  5
31C
  8
0
 10
784.35011032
 20
-871.0069440848658
 30
0.0
  0
SEQEND
  5
3AA
  8
0
  0
POLYLINE
  5
1B0
  8
0
 66
     1
 10
0.0
 20
0.0
 30
0.0
  0
VERTEX
  5
31D
  8
0
 10
747.94904038
 20
-855.1085324863327
 30
0.0
  0
VERTEX
  5
31E
  8
0
 10
747.9970771773505
 20
-855.3078361596969
 30
0.0
  0
VERTEX
  5
31F
  8
0
 10
748.1393415457168
 20
-855.499480704788
 30
0.0
  0
VERTEX
  5
320
  8
0
 10
748.3703663451926
 20
-855.6761013291969
 30
0.0
  0
VERTEX
  5
321
  8
0
 10
748.6812734222742
 20
-855.8309106013619
 30
0.0
  0
VERTEX
  5
322
  8
0
 10
749.0601147923209
 20
-855.9579592877585
 30
0.0
  0
VERTEX
  5
323
  8
0
 10
749.4923317939052
 20
-856.0523649786069
 30
0.0
  0
VERTEX
  5
324
  8
0
 10
749.9613145700085
 20
-856.1104997161427
 30
0.0
  0
VERTEX
  5
325
  8
0
 10
750.4490403755128
 20
-856.130129415
 30
0.0
  0
VERTEX
  5
326
  8
0
 10
750.9367661811895
 20
-856.1104997168583
 30
0.0
  0
VERTEX
  5
327
  8
0
 10
751.4057489578036
 20
-856.0523649800102
 30
0.0
  0
VERTEX
  5
328
  8
0
 10
751.8379659602172
 20
-855.9579592897959
 30
0.0
  0
VERTEX
  5
329
  8
0
 10
752.21680733138
 20
-855.8309106039551
 30
0.0
  0
VERTEX
  5
32A
  8
0
 10
752.5277144098216
 20
-855.6761013322462
 30
0.0
  0
VERTEX
  5
32B
  8
0
 10
752.758739210849
 20
-855.4994807081762
 30
0.0
  0
VERTEX
  5
32C
  8
0
 10
752.9010035808986
 20
-855.3078361632937
 30
0.0
  0
VERTEX
  5
32D
  8
0
 10
752.94904038
 20
-855.10853249
 30
0.0
  0
SEQEND
  5
3AB
  8
0
  0
POLYLINE
  5
1B1
  8
0
 66
     1
 10
0.0
 20
0.0
 30
0.0
  0
VERTEX
  5
32E
  8
0
 10
752.94904038
 20
-855.10853249
 30
0.0
  0
VERTEX
  5
32F
  8
0
 10
752.9010035811175
 20
-854.9092288171558
 30
0.0
  0
VERTEX
  5
330
  8
0
 10
752.7587392117075
 20
-854.7175842726709
 30
0.0
  0
VERTEX
  5
331
  8
0
 10
752.5277144116912
 20
-854.5409636488974
 30
0.0
  0
VERTEX
  5
332
  8
0
 10
752.2168073345529
 20
-854.3861543773415
 30
0.0
  0
VERTEX
  5
333
  8
0
 10
751.8379659648809
 20
-854.2591056914775
 30
0.0
  0
VERTEX
  5
334
  8
0
 10
751.405748964022
 20
-854.1647000010423
 30
0.0
  0
VERTEX
  5
335
  8
0
 10
750.9367661888913
 20
-854.1065652637678
 30
0.0
  0
VERTEX
  5
336
  8
0
 10
750.4490403844873
 20
-854.086935565
 30
0.0
  0
VERTEX
  5
337
  8
0
 10
749.9613145799109
 20
-854.1065652630524
 30
0.0
  0
VERTEX
  5
338
  8
0
 10
749.4923318042694
 20
-854.1646999996389
 30
0.0
  0
VERTEX
  5
339
  8
0
 10
749.0601148025812
 20
-854.25910568944
 30
0.0
  0
VERTEX
  5
33A
  8
0
 10
748.6812734317931
 20
-854.3861543747483
 30
0.0
  0
VERTEX
  5
33B
  8
0
 10
748.3703663532948
 20
-854.5409636458481
 30
0.0
  0
VERTEX
  5
33C
  8
0
 10
748.139341551727
 20
-854.7175842692827
 30
0.0
  0
VERTEX
  5
33D
  8
0
 10
747.9970771806334
 20
-854.909228813559
 30
0.0
  0
VERTEX
  5
33E
  8
0
 10
747.94904038
 20
-855.1085324863327
 30
0.0
  0
SEQEND
  5
3AC
  8
0
  0
POLYLINE
  5
1B2
  8
0
 66
     1
 10
0.0
 20
0.0
 30
0.0
  0
VERTEX
  5
33F
  8
0
 10
734.42938163
 20
-863.7017971563326
 30
0.0
  0
VERTEX
  5
340
  8
0
 10
734.4774184273505
 20
-863.9011008296968
 30
0.0
  0
VERTEX
  5
341
  8
0
 10
734.6196827957167
 20
-864.0927453747879
 30
0.0
  0
VERTEX
  5
342
  8
0
 10
734.8507075951925
 20
-864.2693659991968
 30
0.0
  0
VERTEX
  5
343
  8
0
 10
735.1616146722741
 20
-864.424175271362
 30
0.0
  0
VERTEX
  5
344
  8
0
 10
735.5404560423208
 20
-864.5512239577585
 30
0.0
  0
VERTEX
  5
345
  8
0
 10
735.9726730439052
 20
-864.6456296486068
 30
0.0
  0
VERTEX
  5
346
  8
0
 10
736.4416558200085
 20
-864.7037643861427
 30
0.0
  0
VERTEX
  5
347
  8
0
 10
736.9293816255127
 20
-864.723394085
 30
0.0
  0
VERTEX
  5
348
  8
0
 10
737.4171074311894
 20
-864.7037643868582
 30
0.0
  0
VERTEX
  5
349
  8
0
 10
737.8860902078035
 20
-864.6456296500102
 30
0.0
  0
VERTEX
  5
34A
  8
0
 10
738.3183072102171
 20
-864.5512239597958
 30
0.0
  0
VERTEX
  5
34B
  8
0
 10
738.6971485813799
 20
-864.424175273955
 30
0.0
  0
VERTEX
  5
34C
  8
0
 10
739.0080556598215
 20
-864.2693660022461
 30
0.0
  0
VERTEX
  5
34D
  8
0
 10
739.2390804608489
 20
-864.0927453781761
 30
0.0
  0
VERTEX
  5
34E
  8
0
 10
739.3813448308986
 20
-863.9011008332936
 30
0.0
  0
VERTEX
  5
34F
  8
0
 10
739.42938163
 20
-863.70179716
 30
0.0
  0
SEQEND
  5
3AD
  8
0
  0
POLYLINE
  5
1B3
  8
0
 66
     1
 10
0.0
 20
0.0
 30
0.0
  0
VERTEX
  5
350
  8
0
 10
739.42938163
 20
-863.70179716
 30
0.0
  0
VERTEX
  5
351
  8
0
 10
739.3813448311174
 20
-863.5024934871558
 30
0.0
  0
VERTEX
  5
352
  8
0
 10
739.2390804617074
 20
-863.3108489426709
 30
0.0
  0
VERTEX
  5
353
  8
0
 10
739.0080556616912
 20
-863.1342283188974
 30
0.0
  0
VERTEX
  5
354
  8
0
 10
738.6971485845528
 20
-862.9794190473415
 30
0.0
  0
VERTEX
  5
355
  8
0
 10
738.3183072148809
 20
-862.8523703614775
 30
0.0
  0
VERTEX
  5
356
  8
0
 10
737.8860902140219
 20
-862.7579646710423
 30
0.0
  0
VERTEX
  5
357
  8
0
 10
737.4171074388912
 20
-862.6998299337678
 30
0.0
  0
VERTEX
  5
358
  8
0
 10
736.9293816344872
 20
-862.6802002349999
 30
0.0
  0
VERTEX
  5
359
  8
0
 10
736.4416558299108
 20
-862.6998299330523
 30
0.0
  0
VERTEX
  5
35A
  8
0
 10
735.9726730542693
 20
-862.7579646696388
 30
0.0
  0
VERTEX
  5
35B
  8
0
 10
735.5404560525811
 20
-862.85237035944
 30
0.0
  0
VERTEX
  5
35C
  8
0
 10
735.161614681793
 20
-862.9794190447483
 30
0.0
  0
VERTEX
  5
35D
  8
0
 10
734.8507076032947
 20
-863.1342283158481
 30
0.0
  0
VERTEX
  5
35E
  8
0
 10
734.6196828017269
 20
-863.3108489392827
 30
0.0
  0
VERTEX
  5
35F
  8
0
 10
734.4774184306333
 20
-863.502493483559
 30
0.0
  0
VERTEX
  5
360
  8
0
 10
734.42938163
 20
-863.7017971563326
 30
0.0
  0
SEQEND
  5
3AE
  8
0
  0
POLYLINE
  5
1B4
  8
0
 66
     1
 10
0.0
 20
0.0
 30
0.0
  0
VERTEX
  5
361
  8
0
 10
713.40038196
 20
-858.1771403663327
 30
0.0
  0
VERTEX
  5
362
  8
0
 10
713.4484187573505
 20
-858.3764440396968
 30
0.0
  0
VERTEX
  5
363
  8
0
 10
713.5906831257167
 20
-858.5680885847879
 30
0.0
  0
VERTEX
  5
364
  8
0
 10
713.8217079251925
 20
-858.7447092091968
 30
0.0
  0
VERTEX
  5
365
  8
0
 10
714.1326150022742
 20
-858.8995184813618
 30
0.0
  0
VERTEX
  5
366
  8
0
 10
714.5114563723208
 20
-859.0265671677585
 30
0.0
  0
VERTEX
  5
367
  8
0
 10
714.9436733739052
 20
-859.1209728586068
 30
0.0
  0
VERTEX
  5
368
  8
0
 10
715.4126561500085
 20
-859.1791075961427
 30
0.0
  0
VERTEX
  5
369
  8
0
 10
715.9003819555128
 20
-859.198737295
 30
0.0
  0
VERTEX
  5
36A
  8
0
 10
716.3881077611894
 20
-859.1791075968582
 30
0.0
  0
VERTEX
  5
36B
  8
0
 10
716.8570905378035
 20
-859.1209728600102
 30
0.0
  0
VERTEX
  5
36C
  8
0
 10
717.2893075402171
 20
-859.0265671697958
 30
0.0
  0
VERTEX
  5
36D
  8
0
 10
717.66814891138
 20
-858.899518483955
 30
0.0
  0
VERTEX
  5
36E
  8
0
 10
717.9790559898215
 20
-858.7447092122461
 30
0.0
  0
VERTEX
  5
36F
  8
0
 10
718.2100807908489
 20
-858.5680885881761
 30
0.0
  0
VERTEX
  5
370
  8
0
 10
718.3523451608986
 20
-858.3764440432936
 30
0.0
  0
VERTEX
  5
371
  8
0
 10
718.40038196
 20
-858.17714037
 30
0.0
  0
SEQEND
  5
3AF
  8
0
  0
POLYLINE
  5
1B5
  8
0
 66
     1
 10
0.0
 20
0.0
 30
0.0
  0
VERTEX
  5
372
  8
0
 10
718.40038196
 20
-858.17714037
 30
0.0
  0
VERTEX
  5
373
  8
0
 10
718.3523451611175
 20
-857.9778366971558
 30
0.0
  0
VERTEX
  5
374
  8
0
 10
718.2100807917075
 20
-857.7861921526709
 30
0.0
  0
VERTEX
  5
375
  8
0
 10
717.9790559916912
 20
-857.6095715288974
 30
0.0
  0
VERTEX
  5
376
  8
0
 10
717.6681489145528
 20
-857.4547622573415
 30
0.0
  0
VERTEX
  5
377
  8
0
 10
717.2893075448809
 20
-857.3277135714775
 30
0.0
  0
VERTEX
  5
378
  8
0
 10
716.857090544022
 20
-857.2333078810423
 30
0.0
  0
VERTEX
  5
379
  8
0
 10
716.3881077688912
 20
-857.1751731437678
 30
0.0
  0
VERTEX
  5
37A
  8
0
 10
715.9003819644872
 20
-857.1555434449999
 30
0.0
  0
VERTEX
  5
37B
  8
0
 10
715.4126561599109
 20
-857.1751731430523
 30
0.0
  0
VERTEX
  5
37C
  8
0
 10
714.9436733842693
 20
-857.2333078796388
 30
0.0
  0
VERTEX
  5
37D
  8
0
 10
714.5114563825812
 20
-857.32771356944
 30
0.0
  0
VERTEX
  5
37E
  8
0
 10
714.1326150117931
 20
-857.4547622547483
 30
0.0
  0
VERTEX
  5
37F
  8
0
 10
713.8217079332948
 20
-857.6095715258481
 30
0.0
  0
VERTEX
  5
380
  8
0
 10
713.5906831317269
 20
-857.7861921492827
 30
0.0
  0
VERTEX
  5
381
  8
0
 10
713.4484187606333
 20
-857.977836693559
 30
0.0
  0
VERTEX
  5
382
  8
0
 10
713.40038196
 20
-858.1771403663327
 30
0.0
  0
SEQEND
  5
3B0
  8
0
  0
POLYLINE
  5
1B6
  8
0
 66
     1
 10
0.0
 20
0.0
 30
0.0
  0
VERTEX
  5
383
  8
0
 10
726.92004071
 20
-849.5838757063327
 30
0.0
  0
VERTEX
  5
384
  8
0
 10
726.9680775073505
 20
-849.7831793796969
 30
0.0
  0
VERTEX
  5
385
  8
0
 10
727.1103418757167
 20
-849.974823924788
 30
0.0
  0
VERTEX
  5
386
  8
0
 10
727.3413666751925
 20
-850.1514445491969
 30
0.0
  0
VERTEX
  5
387
  8
0
 10
727.6522737522741
 20
-850.3062538213619
 30
0.0
  0
VERTEX
  5
388
  8
0
 10
728.0311151223208
 20
-850.4333025077585
 30
0.0
  0
VERTEX
  5
389
  8
0
 10
728.4633321239052
 20
-850.5277081986069
 30
0.0
  0
VERTEX
  5
38A
  8
0
 10
728.9323149000085
 20
-850.5858429361427
 30
0.0
  0
VERTEX
  5
38B
  8
0
 10
729.4200407055127
 20
-850.6054726350001
 30
0.0
  0
VERTEX
  5
38C
  8
0
 10
729.9077665111894
 20
-850.5858429368583
 30
0.0
  0
VERTEX
  5
38D
  8
0
 10
730.3767492878035
 20
-850.5277082000102
 30
0.0
  0
VERTEX
  5
38E
  8
0
 10
730.8089662902171
 20
-850.4333025097959
 30
0.0
  0
VERTEX
  5
38F
  8
0
 10
731.1878076613799
 20
-850.3062538239551
 30
0.0
  0
VERTEX
  5
390
  8
0
 10
731.4987147398215
 20
-850.1514445522462
 30
0.0
  0
VERTEX
  5
391
  8
0
 10
731.7297395408489
 20
-849.9748239281762
 30
0.0
  0
VERTEX
  5
392
  8
0
 10
731.8720039108986
 20
-849.7831793832937
 30
0.0
  0
VERTEX
  5
393
  8
0
 10
731.92004071
 20
-849.58387571
 30
0.0
  0
SEQEND
  5
3B1
  8
0
  0
POLYLINE
  5
1B7
  8
0
 66
     1
 10
0.0
 20
0.0
 30
0.0
  0
VERTEX
  5
394
  8
0
 10
731.92004071
 20
-849.58387571
 30
0.0
  0
VERTEX
  5
395
  8
0
 10
731.8720039111174
 20
-849.3845720371559
 30
0.0
  0
VERTEX
  5
396
  8
0
 10
731.7297395417074
 20
-849.192927492671
 30
0.0
  0
VERTEX
  5
397
  8
0
 10
731.4987147416912
 20
-849.0163068688975
 30
0.0
  0
VERTEX
  5
398
  8
0
 10
731.1878076645528
 20
-848.8614975973416
 30
0.0
  0
VERTEX
  5
399
  8
0
 10
730.8089662948809
 20
-848.7344489114776
 30
0.0
  0
VERTEX
  5
39A
  8
0
 10
730.3767492940219
 20
-848.6400432210423
 30
0.0
  0
VERTEX
  5
39B
  8
0
 10
729.9077665188912
 20
-848.5819084837678
 30
0.0
  0
VERTEX
  5
39C
  8
0
 10
729.4200407144872
 20
-848.562278785
 30
0.0
  0
VERTEX
  5
39D
  8
0
 10
728.9323149099108
 20
-848.5819084830524
 30
0.0
  0
VERTEX
  5
39E
  8
0
 10
728.4633321342693
 20
-848.6400432196389
 30
0.0
  0
VERTEX
  5
39F
  8
0
 10
728.0311151325811
 20
-848.7344489094401
 30
0.0
  0
VERTEX
  5
3A0
  8
0
 10
727.652273761793
 20
-848.8614975947484
 30
0.0
  0
VERTEX
  5
3A1
  8
0
 10
727.3413666832947
 20
-849.0163068658482
 30
0.0
  0
VERTEX
  5
3A2
  8
0
 10
727.1103418817269
 20
-849.1929274892827
 30
0.0
  0
VERTEX
  5
3A3
  8
0
 10
726.9680775106333
 20
-849.384572033559
 30
0.0
  0
VERTEX
  5
3A4
  8
0
 10
726.92004071
 20
-849.5838757063327
 30
0.0
  0
SEQEND
  5
3B2
  8
0
  0
POLYLINE
  5
1B8
  8
0
 66
     1
 10
0.0
 20
0.0
 30
0.0
  0
VERTEX
  5
1B9
  8
0
 10
849.13543654
 20
-881.04229344
 30
0.0
  0
VERTEX
  5
1BA
  8
0
 10
827.50398254
 20
-894.79151691
 30
0.0
  0
VERTEX
  5
1BB
  8
0
 10
827.50398254
 20
-891.14073211
 30
0.0
  0
SEQEND
  5
1BC
  8
0
  0
LINE
  5
1BD
  8
0
 10
849.13543654
 20
-877.39150865
 30
0.0
 11
827.50398254
 21
-891.14073211
 31
0.0
  0
POLYLINE
  5
1BE
  8
0
 66
     1
 10
0.0
 20
0.0
 30
0.0
  0
VERTEX
  5
1BF
  8
0
 10
849.13543654
 20
-881.04229344
 30
0.0
  0
VERTEX
  5
1C0
  8
0
 10
849.13543654
 20
-877.39150865
 30
0.0
  0
VERTEX
  5
1C1
  8
0
 10
722.9614385
 20
-844.24356791
 30
0.0
  0
VERTEX
  5
1C2
  8
0
 10
701.3299845
 20
-857.99279138
 30
0.0
  0
VERTEX
  5
1C3
  8
0
 10
827.50398254
 20
-891.14073211
 30
0.0
  0
SEQEND
  5
1C4
  8
0
  0
LINE
  5
1C5
  8
0
 10
701.3299845
 20
-861.64357617
 30
0.0
 11
701.3299845
 21
-857.99279138
 31
0.0
  0
LINE
  5
1C6
  8
0
 10
701.3299845
 20
-861.64357617
 30
0.0
 11
827.50398254
 21
-894.79151691
 31
0.0
  0
LINE
  5
1C7
  8
0
  6
STRICHPUNKT2
 62
     1
 10
729.42004071
 20
-849.58387571
 30
0.0
 11
732.57439066
 21
-850.41257422
 31
0.0
  0
LINE
  5
1C8
  8
0
  6
STRICHPUNKT2
 62
     1
 10
729.42004071
 20
-849.58387571
 30
0.0
 11
726.26569076
 21
-848.75517719
 31
0.0
  0
LINE
  5
1C9
  8
0
  6
STRICHPUNKT2
 62
     1
 10
729.42004071
 20
-849.58387571
 30
0.0
 11
731.44798952
 21
-848.29488601
 31
0.0
  0
LINE
  5
1CA
  8
0
  6
STRICHPUNKT2
 62
     1
 10
729.42004071
 20
-849.58387571
 30
0.0
 11
727.3920919
 21
-850.87286541
 31
0.0
  0
LINE
  5
1CB
  8
0
  6
STRICHPUNKT2
 62
     1
 10
715.90038196
 20
-858.17714037
 30
0.0
 11
719.05473191
 21
-859.00583889
 31
0.0
  0
LINE
  5
1CC
  8
0
  6
STRICHPUNKT2
 62
     1
 10
715.90038196
 20
-858.17714037
 30
0.0
 11
712.74603201
 21
-857.34844185
 31
0.0
  0
LINE
  5
1CD
  8
0
  6
STRICHPUNKT2
 62
     1
 10
715.90038196
 20
-858.17714037
 30
0.0
 11
717.92833077
 21
-856.88815067
 31
0.0
  0
LINE
  5
1CE
  8
0
  6
STRICHPUNKT2
 62
     1
 10
715.90038196
 20
-858.17714037
 30
0.0
 11
713.87243314
 21
-859.46613007
 31
0.0
  0
LINE
  5
1CF
  8
0
  6
STRICHPUNKT2
 62
     1
 10
736.92938163
 20
-863.70179716
 30
0.0
 11
740.08373158
 21
-864.53049568
 31
0.0
  0
LINE
  5
1D0
  8
0
  6
STRICHPUNKT2
 62
     1
 10
736.92938163
 20
-863.70179716
 30
0.0
 11
733.77503168
 21
-862.87309864
 31
0.0
  0
LINE
  5
1D1
  8
0
  6
STRICHPUNKT2
 62
     1
 10
736.92938163
 20
-863.70179716
 30
0.0
 11
738.95733044
 21
-862.41280746
 31
0.0
  0
LINE
  5
1D2
  8
0
  6
STRICHPUNKT2
 62
     1
 10
736.92938163
 20
-863.70179716
 30
0.0
 11
734.90143282
 21
-864.99078686
 31
0.0
  0
LINE
  5
1D3
  8
0
  6
STRICHPUNKT2
 62
     1
 10
750.44904038
 20
-855.10853249
 30
0.0
 11
753.60339033
 21
-855.93723101
 31
0.0
  0
LINE
  5
1D4
  8
0
  6
STRICHPUNKT2
 62
     1
 10
750.44904038
 20
-855.10853249
 30
0.0
 11
747.29469043
 21
-854.27983398
 31
0.0
  0
LINE
  5
1D5
  8
0
  6
STRICHPUNKT2
 62
     1
 10
750.44904038
 20
-855.10853249
 30
0.0
 11
752.47698919
 21
-853.8195428
 31
0.0
  0
LINE
  5
1D6
  8
0
  6
STRICHPUNKT2
 62
     1
 10
750.44904038
 20
-855.10853249
 30
0.0
 11
748.42109157
 21
-856.39752219
 31
0.0
  0
LINE
  5
1D7
  8
0
  6
STRICHPUNKT2
 62
     1
 10
787.85011032
 20
-871.00694409
 30
0.0
 11
792.05591026
 21
-872.11187544
 31
0.0
  0
LINE
  5
1D8
  8
0
  6
STRICHPUNKT2
 62
     1
 10
787.85011032
 20
-871.00694409
 30
0.0
 11
783.64431039
 21
-869.90201273
 31
0.0
  0
LINE
  5
1D9
  8
0
  6
STRICHPUNKT2
 62
     1
 10
787.85011032
 20
-871.00694409
 30
0.0
 11
790.55404207
 21
-869.28829115
 31
0.0
  0
LINE
  5
1DA
  8
0
  6
STRICHPUNKT2
 62
     1
 10
787.85011032
 20
-871.00694409
 30
0.0
 11
785.14617857
 21
-872.72559702
 31
0.0
  0
LINE
  5
1DB
  8
0
  6
STRICHPUNKT2
 62
     1
 10
831.16984965
 20
-882.38773707
 30
0.0
 11
811.82316995
 21
-877.30505283
 31
0.0
  0
LINE
  5
1DC
  8
0
  6
STRICHPUNKT2
 62
     1
 10
829.66798146
 20
-879.56415278
 30
0.0
 11
824.26011796
 21
-883.00145865
 31
0.0
  0
LINE
  5
1DD
  8
0
  6
STRICHPUNKT2
 62
     1
 10
818.73290163
 20
-876.69133125
 30
0.0
 11
813.32503813
 21
-880.12863712
 31
0.0
  0
POLYLINE
  5
1DE
  8
0
 66
     1
 10
0.0
 20
0.0
 30
0.0
 70
     1
  0
VERTEX
  5
1DF
  8
0
 10
1025.55891289
 20
-737.04184049
 30
0.0
 42
-1.0
  0
VERTEX
  5
1E0
  8
0
 10
1025.55891289
 20
-744.04184049
 30
0.0
  0
VERTEX
  5
1E1
  8
0
 10
1012.55891289
 20
-744.04184049
 30
0.0
 42
-1.0
  0
VERTEX
  5
1E2
  8
0
 10
1012.55891289
 20
-737.04184049
 30
0.0
  0
SEQEND
  5
1E3
  8
0
  0
CIRCLE
  5
1E4
  8
0
 10
979.05891289
 20
-740.54184049
 30
0.0
 40
3.5
  0
CIRCLE
  5
1E5
  8
0
 10
926.55891289
 20
-728.04184049
 30
0.0
 40
2.5
  0
CIRCLE
  5
1E6
  8
0
 10
926.55891289
 20
-753.04184049
 30
0.0
 40
2.5
  0
CIRCLE
  5
1E7
  8
0
 10
901.55891289
 20
-753.04184049
 30
0.0
 40
2.5
  0
CIRCLE
  5
1E8
  8
0
 10
901.55891289
 20
-728.04184049
 30
0.0
 40
2.5
  0
LINE
  5
1E9
  8
0
 10
1039.05891289
 20
-720.54184049
 30
0.0
 11
1039.05891289
 21
-760.54184049
 31
0.0
  0
LINE
  5
1EA
  8
0
 10
889.05891289
 20
-760.54184049
 30
0.0
 11
1039.05891289
 21
-760.54184049
 31
0.0
  0
LINE
  5
1EB
  8
0
 10
889.05891289
 20
-720.54184049
 30
0.0
 11
889.05891289
 21
-760.54184049
 31
0.0
  0
LINE
  5
1EC
  8
0
 10
1039.05891289
 20
-720.54184049
 30
0.0
 11
889.05891289
 21
-720.54184049
 31
0.0
  0
LINE
  5
1ED
  8
0
  6
STRICHPUNKT2
 62
     1
 10
901.55891289
 20
-728.04184049
 30
0.0
 11
905.30891289
 21
-728.04184049
 31
0.0
  0
LINE
  5
1EE
  8
0
  6
STRICHPUNKT2
 62
     1
 10
901.55891289
 20
-728.04184049
 30
0.0
 11
897.80891289
 21
-728.04184049
 31
0.0
  0
LINE
  5
1EF
  8
0
  6
STRICHPUNKT2
 62
     1
 10
901.55891289
 20
-728.04184049
 30
0.0
 11
901.55891289
 21
-724.29184049
 31
0.0
  0
LINE
  5
1F0
  8
0
  6
STRICHPUNKT2
 62
     1
 10
901.55891289
 20
-728.04184049
 30
0.0
 11
901.55891289
 21
-731.79184049
 31
0.0
  0
LINE
  5
1F1
  8
0
  6
STRICHPUNKT2
 62
     1
 10
901.55891289
 20
-753.04184049
 30
0.0
 11
905.30891289
 21
-753.04184049
 31
0.0
  0
LINE
  5
1F2
  8
0
  6
STRICHPUNKT2
 62
     1
 10
901.55891289
 20
-753.04184049
 30
0.0
 11
897.80891289
 21
-753.04184049
 31
0.0
  0
LINE
  5
1F3
  8
0
  6
STRICHPUNKT2
 62
     1
 10
901.55891289
 20
-753.04184049
 30
0.0
 11
901.55891289
 21
-749.29184049
 31
0.0
  0
LINE
  5
1F4
  8
0
  6
STRICHPUNKT2
 62
     1
 10
901.55891289
 20
-753.04184049
 30
0.0
 11
901.55891289
 21
-756.79184049
 31
0.0
  0
LINE
  5
1F5
  8
0
  6
STRICHPUNKT2
 62
     1
 10
926.55891289
 20
-753.04184049
 30
0.0
 11
930.30891289
 21
-753.04184049
 31
0.0
  0
LINE
  5
1F6
  8
0
  6
STRICHPUNKT2
 62
     1
 10
926.55891289
 20
-753.04184049
 30
0.0
 11
922.80891289
 21
-753.04184049
 31
0.0
  0
LINE
  5
1F7
  8
0
  6
STRICHPUNKT2
 62
     1
 10
926.55891289
 20
-753.04184049
 30
0.0
 11
926.55891289
 21
-749.29184049
 31
0.0
  0
LINE
  5
1F8
  8
0
  6
STRICHPUNKT2
 62
     1
 10
926.55891289
 20
-753.04184049
 30
0.0
 11
926.55891289
 21
-756.79184049
 31
0.0
  0
LINE
  5
1F9
  8
0
  6
STRICHPUNKT2
 62
     1
 10
926.55891289
 20
-728.04184049
 30
0.0
 11
930.30891289
 21
-728.04184049
 31
0.0
  0
LINE
  5
1FA
  8
0
  6
STRICHPUNKT2
 62
     1
 10
926.55891289
 20
-728.04184049
 30
0.0
 11
922.80891289
 21
-728.04184049
 31
0.0
  0
LINE
  5
1FB
  8
0
  6
STRICHPUNKT2
 62
     1
 10
926.55891289
 20
-728.04184049
 30
0.0
 11
926.55891289
 21
-724.29184049
 31
0.0
  0
LINE
  5
1FC
  8
0
  6
STRICHPUNKT2
 62
     1
 10
926.55891289
 20
-728.04184049
 30
0.0
 11
926.55891289
 21
-731.79184049
 31
0.0
  0
LINE
  5
1FD
  8
0
  6
STRICHPUNKT2
 62
     1
 10
979.05891289
 20
-740.54184049
 30
0.0
 11
984.05891289
 21
-740.54184049
 31
0.0
  0
LINE
  5
1FE
  8
0
  6
STRICHPUNKT2
 62
     1
 10
979.05891289
 20
-740.54184049
 30
0.0
 11
974.05891289
 21
-740.54184049
 31
0.0
  0
LINE
  5
1FF
  8
0
  6
STRICHPUNKT2
 62
     1
 10
979.05891289
 20
-740.54184049
 30
0.0
 11
979.05891289
 21
-735.54184049
 31
0.0
  0
LINE
  5
200
  8
0
  6
STRICHPUNKT2
 62
     1
 10
979.05891289
 20
-740.54184049
 30
0.0
 11
979.05891289
 21
-745.54184049
 31
0.0
  0
LINE
  5
201
  8
0
  6
STRICHPUNKT2
 62
     1
 10
1030.55891289
 20
-740.54184049
 30
0.0
 11
1007.55891289
 21
-740.54184049
 31
0.0
  0
LINE
  5
202
  8
0
  6
STRICHPUNKT2
 62
     1
 10
1025.55891289
 20
-735.54184049
 30
0.0
 11
1025.55891289
 21
-745.54184049
 31
0.0
  0
LINE
  5
203
  8
0
  6
STRICHPUNKT2
 62
     1
 10
1012.55891289
 20
-735.54184049
 30
0.0
 11
1012.55891289
 21
-745.54184049
 31
0.0
  0
POLYLINE
  5
204
  8
0
 66
     1
 10
0.0
 20
0.0
 30
0.0
  0
VERTEX
  5
205
  8
0
 10
1039.05891289
 20
-682.41700654
 30
0.0
  0
VERTEX
  5
206
  8
0
 10
889.05891289
 20
-682.41700654
 30
0.0
  0
VERTEX
  5
207
  8
0
 10
889.05891289
 20
-686.41700654
 30
0.0
  0
SEQEND
  5
208
  8
0
  0
LINE
  5
209
  8
0
 10
1039.05891289
 20
-686.41700654
 30
0.0
 11
889.05891289
 21
-686.41700654
 31
0.0
  0
LINE
  5
20A
  8
0
 10
1039.05891289
 20
-682.41700654
 30
0.0
 11
1039.05891289
 21
-686.41700654
 31
0.0
  0
POLYLINE
  5
20B
  8
0
 66
     1
 10
0.0
 20
0.0
 30
0.0
  0
VERTEX
  5
20C
  8
0
 10
841.74871173
 20
-682.41700654
 30
0.0
  0
VERTEX
  5
20D
  8
0
 10
801.74871173
 20
-682.41700654
 30
0.0
  0
VERTEX
  5
20E
  8
0
 10
801.74871173
 20
-686.41700654
 30
0.0
  0
SEQEND
  5
20F
  8
0
  0
LINE
  5
210
  8
0
 10
841.74871173
 20
-686.41700654
 30
0.0
 11
801.74871173
 21
-686.41700654
 31
0.0
  0
LINE
  5
211
  8
0
 10
841.74871173
 20
-682.41700654
 30
0.0
 11
841.74871173
 21
-686.41700654
 31
0.0
  0
TEXT
  5
212
  8
TXT_DIM49
 10
893.45407654
 20
-714.54135936
 30
0.0
 40
2.5
  1
25
  7
ARIAL
  0
LINE
  5
213
  8
0
 62
     4
 10
890.05891289
 20
-715.04135936
 30
0.0
 11
888.05891289
 21
-717.04135936
 31
0.0
  0
LINE
  5
214
  8
0
 62
     4
 10
900.80891289
 20
-716.79135936
 30
0.0
 11
902.30891289
 21
-715.29135936
 31
0.0
  0
LINE
  5
215
  8
0
 62
     4
 10
889.05891289
 20
-716.04135936
 30
0.0
 11
901.55891289
 21
-716.04135936
 31
0.0
  0
LINE
  5
216
  8
0
 62
     4
 10
889.05891289
 20
-718.04135936
 30
0.0
 11
889.05891289
 21
-714.04135936
 31
0.0
  0
LINE
  5
217
  8
0
 62
     4
 10
901.55891289
 20
-718.04135936
 30
0.0
 11
901.55891289
 21
-714.04135936
 31
0.0
  0
TEXT
  5
218
  8
TXT_DIM49
 10
912.20404257
 20
-714.54135936
 30
0.0
 40
2.5
  1
50
  7
ARIAL
  0
LINE
  5
219
  8
0
 62
     4
 10
902.55891289
 20
-715.04135936
 30
0.0
 11
900.55891289
 21
-717.04135936
 31
0.0
  0
LINE
  5
21A
  8
0
 62
     4
 10
925.80891289
 20
-716.79135936
 30
0.0
 11
927.30891289
 21
-715.29135936
 31
0.0
  0
LINE
  5
21B
  8
0
 62
     4
 10
901.55891289
 20
-716.04135936
 30
0.0
 11
926.55891289
 21
-716.04135936
 31
0.0
  0
LINE
  5
21C
  8
0
 62
     4
 10
901.55891289
 20
-718.04135936
 30
0.0
 11
901.55891289
 21
-714.04135936
 31
0.0
  0
LINE
  5
21D
  8
0
 62
     4
 10
926.55891289
 20
-718.04135936
 30
0.0
 11
926.55891289
 21
-714.04135936
 31
0.0
  0
TEXT
  5
21E
  8
TXT_DIM49
 10
950.02659048
 20
-714.54135936
 30
0.0
 40
2.5
  1
105
  7
ARIAL
  0
LINE
  5
21F
  8
0
 62
     4
 10
927.55891289
 20
-715.04135936
 30
0.0
 11
925.55891289
 21
-717.04135936
 31
0.0
  0
LINE
  5
220
  8
0
 62
     4
 10
978.30891289
 20
-716.79135936
 30
0.0
 11
979.80891289
 21
-715.29135936
 31
0.0
  0
LINE
  5
221
  8
0
 62
     4
 10
926.55891289
 20
-716.04135936
 30
0.0
 11
979.05891289
 21
-716.04135936
 31
0.0
  0
LINE
  5
222
  8
0
 62
     4
 10
926.55891289
 20
-718.04135936
 30
0.0
 11
926.55891289
 21
-714.04135936
 31
0.0
  0
LINE
  5
223
  8
0
 62
     4
 10
979.05891289
 20
-718.04135936
 30
0.0
 11
979.05891289
 21
-714.04135936
 31
0.0
  0
TEXT
  5
224
  8
TXT_DIM49
 10
997.20400859
 20
-714.54135936
 30
0.0
 40
2.5
  1
80
  7
ARIAL
  0
LINE
  5
225
  8
0
 62
     4
 10
980.05891289
 20
-715.04135936
 30
0.0
 11
978.05891289
 21
-717.04135936
 31
0.0
  0
LINE
  5
226
  8
0
 62
     4
 10
1018.30891289
 20
-716.79135936
 30
0.0
 11
1019.80891289
 21
-715.29135936
 31
0.0
  0
LINE
  5
227
  8
0
 62
     4
 10
979.05891289
 20
-716.04135936
 30
0.0
 11
1019.05891289
 21
-716.04135936
 31
0.0
  0
LINE
  5
228
  8
0
 62
     4
 10
979.05891289
 20
-718.04135936
 30
0.0
 11
979.05891289
 21
-714.04135936
 31
0.0
  0
LINE
  5
229
  8
0
 62
     4
 10
1019.05891289
 20
-718.04135936
 30
0.0
 11
1019.05891289
 21
-714.04135936
 31
0.0
  0
TEXT
  5
22A
  8
TXT_DIM49
 10
1027.20400859
 20
-714.54135936
 30
0.0
 40
2.5
  1
40
  7
ARIAL
  0
LINE
  5
22B
  8
0
 62
     4
 10
1020.05891289
 20
-715.04135936
 30
0.0
 11
1018.05891289
 21
-717.04135936
 31
0.0
  0
LINE
  5
22C
  8
0
 62
     4
 10
1038.30891289
 20
-716.79135936
 30
0.0
 11
1039.80891289
 21
-715.29135936
 31
0.0
  0
LINE
  5
22D
  8
0
 62
     4
 10
1019.05891289
 20
-716.04135936
 30
0.0
 11
1039.05891289
 21
-716.04135936
 31
0.0
  0
LINE
  5
22E
  8
0
 62
     4
 10
1019.05891289
 20
-718.04135936
 30
0.0
 11
1019.05891289
 21
-714.04135936
 31
0.0
  0
LINE
  5
22F
  8
0
 62
     4
 10
1039.05891289
 20
-718.04135936
 30
0.0
 11
1039.05891289
 21
-714.04135936
 31
0.0
  0
TEXT
  5
230
  8
TXT_DIM49
 10
882.98407802
 20
-726.14671081
 30
0.0
 40
2.5
  1
15
 50
90.00020741
  7
ARIAL
  0
LINE
  5
231
  8
0
 62
     4
 10
885.48407802
 20
-721.54184049
 30
0.0
 11
883.48407802
 21
-719.54184049
 31
0.0
  0
LINE
  5
232
  8
0
 62
     4
 10
883.73407802
 20
-727.29184049
 30
0.0
 11
885.23407802
 21
-728.79184049
 31
0.0
  0
LINE
  5
233
  8
0
 62
     4
 10
884.48407802
 20
-720.54184049
 30
0.0
 11
884.48407802
 21
-728.04184049
 31
0.0
  0
LINE
  5
234
  8
0
 62
     4
 10
886.48407802
 20
-720.54184049
 30
0.0
 11
882.48407802
 21
-720.54184049
 31
0.0
  0
LINE
  5
235
  8
0
 62
     4
 10
886.48407802
 20
-728.04184049
 30
0.0
 11
882.48407802
 21
-728.04184049
 31
0.0
  0
TEXT
  5
236
  8
TXT_DIM49
 10
882.98407802
 20
-742.39671081
 30
0.0
 40
2.5
  1
50
 50
90.00020741
  7
ARIAL
  0
LINE
  5
237
  8
0
 62
     4
 10
885.48407802
 20
-729.04184049
 30
0.0
 11
883.48407802
 21
-727.04184049
 31
0.0
  0
LINE
  5
238
  8
0
 62
     4
 10
883.73407802
 20
-752.29184049
 30
0.0
 11
885.23407802
 21
-753.79184049
 31
0.0
  0
LINE
  5
239
  8
0
 62
     4
 10
884.48407802
 20
-728.04184049
 30
0.0
 11
884.48407802
 21
-753.04184049
 31
0.0
  0
LINE
  5
23A
  8
0
 62
     4
 10
886.48407802
 20
-728.04184049
 30
0.0
 11
882.48407802
 21
-728.04184049
 31
0.0
  0
LINE
  5
23B
  8
0
 62
     4
 10
886.48407802
 20
-753.04184049
 30
0.0
 11
882.48407802
 21
-753.04184049
 31
0.0
  0
TEXT
  5
23C
  8
TXT_DIM49
 10
882.98407802
 20
-758.64671081
 30
0.0
 40
2.5
  1
15
 50
90.00020741
  7
ARIAL
  0
LINE
  5
23D
  8
0
 62
     4
 10
885.48407802
 20
-754.04184049
 30
0.0
 11
883.48407802
 21
-752.04184049
 31
0.0
  0
LINE
  5
23E
  8
0
 62
     4
 10
883.73407802
 20
-759.79184049
 30
0.0
 11
885.23407802
 21
-761.29184049
 31
0.0
  0
LINE
  5
23F
  8
0
 62
     4
 10
884.48407802
 20
-753.04184049
 30
0.0
 11
884.48407802
 21
-760.54184049
 31
0.0
  0
LINE
  5
240
  8
0
 62
     4
 10
886.48407802
 20
-753.04184049
 30
0.0
 11
882.48407802
 21
-753.04184049
 31
0.0
  0
LINE
  5
241
  8
0
 62
     4
 10
886.48407802
 20
-760.54184049
 30
0.0
 11
882.48407802
 21
-760.54184049
 31
0.0
  0
TEXT
  5
242
  8
TXT_DIM49
 10
1042.98407802
 20
-752.39674479
 30
0.0
 40
2.5
  1
40
 50
90.00020741
  7
ARIAL
  0
LINE
  5
243
  8
0
 62
     4
 10
1043.48407802
 20
-759.54184049
 30
0.0
 11
1045.48407802
 21
-761.54184049
 31
0.0
  0
LINE
  5
244
  8
0
 62
     4
 10
1045.23407802
 20
-741.29184049
 30
0.0
 11
1043.73407802
 21
-739.79184049
 31
0.0
  0
LINE
  5
245
  8
0
 62
     4
 10
1044.48407802
 20
-760.54184049
 30
0.0
 11
1044.48407802
 21
-740.54184049
 31
0.0
  0
LINE
  5
246
  8
0
 62
     4
 10
1042.48407802
 20
-760.54184049
 30
0.0
 11
1046.48407802
 21
-760.54184049
 31
0.0
  0
LINE
  5
247
  8
0
 62
     4
 10
1042.48407802
 20
-740.54184049
 30
0.0
 11
1046.48407802
 21
-740.54184049
 31
0.0
  0
TEXT
  5
248
  8
TXT_DIM49
 10
1042.98407802
 20
-732.39674479
 30
0.0
 40
2.5
  1
40
 50
90.00020741
  7
ARIAL
  0
LINE
  5
249
  8
0
 62
     4
 10
1043.48407802
 20
-739.54184049
 30
0.0
 11
1045.48407802
 21
-741.54184049
 31
0.0
  0
LINE
  5
24A
  8
0
 62
     4
 10
1045.23407802
 20
-721.29184049
 30
0.0
 11
1043.73407802
 21
-719.79184049
 31
0.0
  0
LINE
  5
24B
  8
0
 62
     4
 10
1044.48407802
 20
-740.54184049
 30
0.0
 11
1044.48407802
 21
-720.54184049
 31
0.0
  0
LINE
  5
24C
  8
0
 62
     4
 10
1042.48407802
 20
-740.54184049
 30
0.0
 11
1046.48407802
 21
-740.54184049
 31
0.0
  0
LINE
  5
24D
  8
0
 62
     4
 10
1042.48407802
 20
-720.54184049
 30
0.0
 11
1046.48407802
 21
-720.54184049
 31
0.0
  0
LINE
  5
24E
  8
0
 62
     5
 10
901.55891289
 20
-728.04184049
 30
0.0
 11
904.91231502
 21
-733.59568908
 31
0.0
  0
TEXT
  5
24F
  8
TXT_DIM49
 10
904.91231502
 20
-734.84568908
 30
0.0
 40
2.5
  1
Ø10
  7
ARIAL
  0
LINE
  5
250
  8
0
 62
     4
 10
926.55891289
 20
-728.04184049
 30
0.0
 11
930.02766566
 21
-732.97774377
 31
0.0
  0
TEXT
  5
251
  8
TXT_DIM49
 10
930.02766566
 20
-734.22774377
 30
0.0
 40
2.5
  1
Ø10
  7
ARIAL
  0
LINE
  5
252
  8
0
 62
     5
 10
926.55891289
 20
-753.04184049
 30
0.0
 11
930.02766566
 21
-747.49140722
 31
0.0
  0
TEXT
  5
253
  8
TXT_DIM49
 10
930.02766566
 20
-748.74140722
 30
0.0
 40
2.5
  1
Ø10
  7
ARIAL
  0
LINE
  5
254
  8
0
 62
     5
 10
979.05891289
 20
-740.54184049
 30
0.0
 11
983.6555565
 21
-747.02845145
 31
0.0
  0
TEXT
  5
255
  8
TXT_DIM49
 10
983.6555565
 20
-748.27845145
 30
0.0
 40
2.5
  1
Ø14
  7
ARIAL
  0
LINE
  5
256
  8
0
 62
     5
 10
1019.05891289
 20
-740.54184049
 30
0.0
 11
1015.77160354
 21
-752.6895954
 31
0.0
  0
TEXT
  5
257
  8
TXT_DIM49
 10
992.70006506
 20
-753.9395954
 30
0.0
 40
2.5
  1
Slobgat 14 x 40
  7
ARIAL
  0
LINE
  5
258
  8
0
 62
     5
 10
901.55891289
 20
-753.04184049
 30
0.0
 11
904.50068696
 21
-748.82995325
 31
0.0
  0
TEXT
  5
259
  8
TXT_DIM49
 10
904.50068696
 20
-750.07995325
 30
0.0
 40
2.5
  1
Ø10
  7
ARIAL
  0
TEXT
  5
25A
  8
TXT_DIM49
 10
961.27655638
 20
-670.91700654
 30
0.0
 40
2.5
  1
300
  7
ARIAL
  0
LINE
  5
25B
  8
0
 62
     4
 10
890.05891289
 20
-671.41700654
 30
0.0
 11
888.05891289
 21
-673.41700654
 31
0.0
  0
LINE
  5
25C
  8
0
 62
     4
 10
1038.30891289
 20
-673.16700654
 30
0.0
 11
1039.80891289
 21
-671.66700654
 31
0.0
  0
LINE
  5
25D
  8
0
 62
     4
 10
889.05891289
 20
-672.41700654
 30
0.0
 11
1039.05891289
 21
-672.41700654
 31
0.0
  0
LINE
  5
25E
  8
0
 62
     4
 10
889.05891289
 20
-674.41700654
 30
0.0
 11
889.05891289
 21
-670.41700654
 31
0.0
  0
LINE
  5
25F
  8
0
 62
     4
 10
1039.05891289
 20
-674.41700654
 30
0.0
 11
1039.05891289
 21
-670.41700654
 31
0.0
  0
TEXT
  5
260
  8
TXT_DIM49
 10
792.32709069
 20
-685.34445869
 30
0.0
 40
2.5
  1
8
 50
90.00020741
  7
ARIAL
  0
LINE
  5
261
  8
0
 62
     4
 10
794.82709069
 20
-683.41700654
 30
0.0
 11
792.82709069
 21
-681.41700654
 31
0.0
  0
LINE
  5
262
  8
0
 62
     4
 10
793.07709069
 20
-685.66700654
 30
0.0
 11
794.57709069
 21
-687.16700654
 31
0.0
  0
LINE
  5
263
  8
0
 62
     4
 10
793.82709069
 20
-682.41700654
 30
0.0
 11
793.82709069
 21
-686.41700654
 31
0.0
  0
LINE
  5
264
  8
0
 62
     4
 10
795.82709069
 20
-682.41700654
 30
0.0
 11
791.82709069
 21
-682.41700654
 31
0.0
  0
LINE
  5
265
  8
0
 62
     4
 10
795.82709069
 20
-686.41700654
 30
0.0
 11
791.82709069
 21
-686.41700654
 31
0.0
  0
TEXT
  5
266
  8
TXT_DIM49
 10
819.89380744
 20
-670.91700654
 30
0.0
 40
2.5
  1
80
  7
ARIAL
  0
LINE
  5
267
  8
0
 62
     4
 10
802.74871173
 20
-671.41700654
 30
0.0
 11
800.74871173
 21
-673.41700654
 31
0.0
  0
LINE
  5
268
  8
0
 62
     4
 10
840.99871173
 20
-673.16700654
 30
0.0
 11
842.49871173
 21
-671.66700654
 31
0.0
  0
LINE
  5
269
  8
0
 62
     4
 10
801.74871173
 20
-672.41700654
 30
0.0
 11
841.74871173
 21
-672.41700654
 31
0.0
  0
LINE
  5
26A
  8
0
 62
     4
 10
801.74871173
 20
-674.41700654
 30
0.0
 11
801.74871173
 21
-670.41700654
 31
0.0
  0
LINE
  5
26B
  8
0
 62
     4
 10
841.74871173
 20
-674.41700654
 30
0.0
 11
841.74871173
 21
-670.41700654
 31
0.0
  0
POINT
  5
26C
  8
0
 10
880.5287917
 20
-756.58542395
 30
0.0
  0
POINT
  5
26D
  8
0
 62
     3
 10
1019.19815902
 20
-926.9227419
 30
0.0
  0
POINT
  5
26E
  8
0
 62
     3
 10
1085.06257272
 20
-909.00374699
 30
0.0
  0
POINT
  5
26F
  8
0
 62
     3
 10
1019.19815902
 20
-909.00374699
 30
0.0
  0
POINT
  5
270
  8
0
 62
     3
 10
1085.06257272
 20
-926.9227419
 30
0.0
  0
POINT
  5
271
  8
0
 62
     3
 10
1067.37121778
 20
-932.60542395
 30
0.0
  0
POINT
  5
272
  8
0
 62
     3
 10
1085.06324975
 20
-927.79215055
 30
0.0
  0
POINT
  5
273
  8
0
 62
     3
 10
1067.37121778
 20
-927.79215055
 30
0.0
  0
POINT
  5
274
  8
0
 62
     3
 10
1085.06324975
 20
-932.60542395
 30
0.0
  0
ENDSEC
  0
EOF
