  0
SECTION
  2
HEADER
  9
$ACADVER
  1
AC1006
  9
$DWGCODEPAGE
  3
ansi_1252
  9
$INSBASE
 10
0.0
 20
0.0
 30
0.0
  9
$EXTMIN
 10
1565.37177789
 20
-995.61879644
  9
$EXTMAX
 10
2387.26617203
 20
-616.94379644
  9
$LIMMIN
 10
1565.37177789
 20
-995.61879644
  9
$LIMMAX
 10
2387.26617203
 20
-616.94379644
  9
$ORTHOMODE
 70
     0
  9
$REGENMODE
 70
     1
  9
$FILLMODE
 70
     1
  9
$QTEXTMODE
 70
     0
  9
$MIRRTEXT
 70
     1
  9
$DRAGMODE
 70
     2
  9
$LTSCALE
 40
1.0
  9
$OSMODE
 70
    37
  9
$ATTMODE
 70
     1
  9
$TEXTSIZE
 40
1.0
  9
$TRACEWID
 40
0.05
  9
$TEXTSTYLE
  7
STANDARD
  9
$CLAYER
  8
0
  9
$CELTYPE
  6
BYBLOCK
  9
$CECOLOR
 62
   256
  9
$DIMSCALE
 40
1.0
  9
$DIMASZ
 40
0.18
  9
$DIMEXO
 40
0.0625
  9
$DIMDLI
 40
0.38
  9
$DIMRND
 40
0.0
  9
$DIMDLE
 40
0.0
  9
$DIMEXE
 40
0.18
  9
$DIMTP
 40
0.0
  9
$DIMTM
 40
0.0
  9
$DIMTXT
 40
0.18
  9
$DIMCEN
 40
0.09
  9
$DIMTSZ
 40
0.0
  9
$DIMTOL
 70
     0
  9
$DIMLIM
 70
     0
  9
$DIMTIH
 70
     1
  9
$DIMTOH
 70
     1
  9
$DIMSE1
 70
     0
  9
$DIMSE2
 70
     0
  9
$DIMTAD
 70
     0
  9
$DIMZIN
 70
     0
  9
$DIMBLK
  1

  9
$DIMASO
 70
     1
  9
$DIMSHO
 70
     1
  9
$DIMPOST
  1

  9
$DIMAPOST
  1

  9
$DIMALT
 70
     0
  9
$DIMALTD
 70
     2
  9
$DIMALTF
 40
25.4
  9
$DIMLFAC
 40
1.0
  9
$DIMTOFL
 70
     0
  9
$DIMTVP
 40
0.0
  9
$DIMTIX
 70
     0
  9
$DIMSOXD
 70
     0
  9
$DIMSAH
 70
     0
  9
$DIMBLK1
  1

  9
$DIMBLK2
  1

  9
$LUNITS
 70
     2
  9
$LUPREC
 70
     4
  9
$SKETCHINC
 40
0.1
  9
$FILLETRAD
 40
0.5
  9
$AUNITS
 70
     0
  9
$AUPREC
 70
     0
  9
$MENU
  1
.
  9
$ELEVATION
 40
0.0
  9
$THICKNESS
 40
0.0
  9
$LIMCHECK
 70
     0
  9
$CHAMFERA
 40
0.0
  9
$CHAMFERB
 40
0.0
  9
$SKPOLY
 70
     0
  9
$TDCREATE
 40
2447893.125
  9
$TDUPDATE
 40
2460791.477423137
  9
$TDINDWG
 40
0.0
  9
$TDUSRTIMER
 40
0.0
  9
$USRTIMER
 70
     1
  9
$ANGBASE
 50
0.0
  9
$ANGDIR
 70
     0
  9
$PDMODE
 70
     0
  9
$PDSIZE
 40
0.0
  9
$PLINEWID
 40
0.0
  9
$COORDS
 70
     1
  9
$SPLFRAME
 70
     0
  9
$SPLINETYPE
 70
     6
  9
$SPLINESEGS
 70
     8
  9
$ATTDIA
 70
     0
  9
$ATTREQ
 70
     1
  9
$HANDLING
 70
     1
  9
$HANDSEED
  5
44C
  9
$SURFTAB1
 70
     6
  9
$SURFTAB2
 70
     6
  9
$SURFTYPE
 70
     6
  9
$SURFU
 70
     6
  9
$SURFV
 70
     6
  9
$UCSNAME
  2

  9
$UCSORG
 10
0.0
 20
0.0
 30
0.0
  9
$UCSXDIR
 10
1.0
 20
0.0
 30
0.0
  9
$UCSYDIR
 10
0.0
 20
1.0
 30
0.0
  9
$USERI1
 70
     0
  9
$USERI2
 70
     0
  9
$USERI3
 70
     0
  9
$USERI4
 70
     0
  9
$USERI5
 70
     0
  9
$USERR1
 40
0.0
  9
$USERR2
 40
0.0
  9
$USERR3
 40
0.0
  9
$USERR4
 40
0.0
  9
$USERR5
 40
0.0
  9
$WORLDVIEW
 70
     1
  0
ENDSEC
  0
SECTION
  2
TABLES
  0
TABLE
  2
VPORT
 70
     1
  0
VPORT
  2
*ACTIVE
 70
     0
 10
0.0
 20
0.0
 11
1.0
 21
1.0
 12
1976.31897496
 22
-806.28129644
 13
0.0
 23
0.0
 14
1.0
 24
1.0
 15
0.0
 25
0.0
 16
0.0
 26
0.0
 36
1.0
 17
0.0
 27
0.0
 37
0.0
 40
378.675
 41
2.170447994
 42
50.0
 43
0.0
 44
0.0
 50
0.0
 51
0.0
 71
     0
 72
   100
 73
     1
 74
     1
 75
     0
 76
     0
 77
     0
 78
     0
  0
ENDTAB
  0
TABLE
  2
LTYPE
 70
    19
  0
LTYPE
  2
CONTINUOUS
 70
     0
  3
Solid line
 72
    65
 73
     0
 40
0.0
  0
LTYPE
  2
DOT
 70
     0
  3
..............
 72
    65
 73
     2
 40
2.0
 49
0.5
 49
-1.5
  0
LTYPE
  2
HIDDEN
 70
     0
  3
-- -- -- -- --
 72
    65
 73
     2
 40
7.0
 49
4.0
 49
-3.0
  0
LTYPE
  2
DASHDOT
 70
     0
  3
--.--.--.--.--
 72
    65
 73
     4
 40
8.5
 49
4.0
 49
-2.0
 49
0.5
 49
-2.0
  0
LTYPE
  2
STRICHPUNKT2
 70
     0
  3
--.--.--.--.--
 72
    65
 73
     4
 40
18.5
 49
10.0
 49
-4.0
 49
0.5
 49
-4.0
  0
LTYPE
  2
STRICHPUNKT3
 70
     0
  3
--.--.--.--.--
 72
    65
 73
     4
 40
35.5
 49
25.0
 49
-5.0
 49
0.5
 49
-5.0
  0
LTYPE
  2
PHANTOM
 70
     0
  3
--..--..--..--
 72
    65
 73
     6
 40
23.0
 49
10.0
 49
-4.0
 49
0.5
 49
-4.0
 49
0.5
 49
-4.0
  0
LTYPE
  2
PHANTOM2
 70
     0
  3
--..--..--..--
 72
    65
 73
     6
 40
33.0
 49
20.0
 49
-4.0
 49
0.5
 49
-4.0
 49
0.5
 49
-4.0
  0
LTYPE
  2
PHANTOM3
 70
     0
  3
--..--..--..--
 72
    65
 73
     6
 40
50.0
 49
37.0
 49
-4.0
 49
0.5
 49
-4.0
 49
0.5
 49
-4.0
  0
LTYPE
  2
STR3PKT
 70
     0
  3
--...--...--...
 72
    65
 73
     8
 40
31.5
 49
20.0
 49
-2.5
 49
0.5
 49
-2.5
 49
0.5
 49
-2.5
 49
0.5
 49
-2.5
  0
LTYPE
  2
2STRPKT
 70
     0
  3
--.--.--.--.--
 72
    65
 73
     6
 40
28.0
 49
10.0
 49
-2.5
 49
10.0
 49
-2.5
 49
0.5
 49
-2.5
  0
LTYPE
  2
GESTRICHELT2
 70
     0
  3
-- -- -- -- --
 72
    65
 73
     2
 40
25.0
 49
10.0
 49
-15.0
  0
LTYPE
  2
2STR2PKT
 70
     0
  3
--..--..--..--
 72
    65
 73
     8
 40
31.0
 49
10.0
 49
-2.5
 49
10.0
 49
-2.5
 49
0.5
 49
-2.5
 49
0.5
 49
-2.5
  0
LTYPE
  2
STR3PKT2
 70
     0
  3
--...--...--...
 72
    65
 73
     8
 40
21.0
 49
10.0
 49
-2.5
 49
0.5
 49
-2.5
 49
0.5
 49
-2.5
 49
0.5
 49
-2.0
  0
LTYPE
  2
2STR3PKT
 70
     0
  3
--...--...--...
 72
    65
 73
    10
 40
34.0
 49
10.0
 49
-2.5
 49
10.0
 49
-2.5
 49
0.5
 49
-2.5
 49
0.5
 49
-2.5
 49
0.5
 49
-2.5
  0
LTYPE
  2
STRKSTR
 70
     0
  3
-- - -- - -- -
 72
    65
 73
     4
 40
30.0
 49
20.0
 49
-2.5
 49
5.0
 49
-2.5
  0
LTYPE
  2
STRKSTR2
 70
     0
  3
-- - -- - -- -
 72
    65
 73
     6
 40
37.5
 49
20.0
 49
-2.5
 49
5.0
 49
-2.5
 49
5.0
 49
-2.5
  0
LTYPE
  2
STRKSTR3
 70
     0
  3
-- - -- - -- -
 72
    65
 73
     8
 40
45.0
 49
20.0
 49
-2.5
 49
5.0
 49
-2.5
 49
5.0
 49
-2.5
 49
5.0
 49
-2.5
  0
LTYPE
  2
PUNKT2
 70
     0
  3
..............
 72
    65
 73
     2
 40
3.5
 49
0.5
 49
-3.0
  0
ENDTAB
  0
TABLE
  2
LAYER
 70
    16
  0
LAYER
  2
0
 70
     0
 62
     7
  6
CONTINUOUS
  0
LAYER
  2
LE_GREEN
 70
     0
 62
     3
  6
CONTINUOUS
  0
LAYER
  2
LE_RED
 70
     0
 62
     1
  6
CONTINUOUS
  0
LAYER
  2
LE_ALL
 70
     0
 62
     7
  6
CONTINUOUS
  0
LAYER
  2
LE_HIDDEN1
 70
     0
 62
     3
  6
HIDDEN
  0
LAYER
  2
LE_HIDDEN
 70
     0
 62
     7
  6
CONTINUOUS
  0
LAYER
  2
LE_MIDDLE
 70
     0
 62
     7
  6
CONTINUOUS
  0
LAYER
  2
TXT_YELLOW
 70
     0
 62
     2
  6
CONTINUOUS
  0
LAYER
  2
TXT_DIM49
 70
     0
 62
     2
  6
CONTINUOUS
  0
LAYER
  2
TXT_ALL
 70
     0
 62
     7
  6
CONTINUOUS
  0
LAYER
  2
DIM49
 70
     0
 62
     4
  6
CONTINUOUS
  0
LAYER
  2
HATCH
 70
     0
 62
     3
  6
CONTINUOUS
  0
LAYER
  2
APPLE
 70
     0
 62
     7
  6
CONTINUOUS
  0
LAYER
  2
10
 70
     0
 62
     7
  6
CONTINUOUS
  0
LAYER
  2
20
 70
     0
 62
     7
  6
CONTINUOUS
  0
LAYER
  2
49
 70
     0
 62
     7
  6
CONTINUOUS
  0
ENDTAB
  0
TABLE
  2
STYLE
 70
     5
  0
STYLE
  2
MONOTXT
 70
     0
 40
0.0
 41
1.0
 50
0.0
 71
     0
 42
1.0
  3
monotxt.shx
  4

  0
STYLE
  2
STANDARD
 70
     0
 40
0.0
 41
1.0
 50
0.0
 71
     0
 42
1.0
  3
txt
  4

  0
STYLE
  2
ARIAL
 70
     0
 40
0.0
 41
1.0
 50
0.0
 71
     0
 42
1.0
  3
arial.ttf
  4

  0
STYLE
  2
ARIAL_NARROW
 70
     0
 40
0.0
 41
1.0
 50
0.0
 71
     0
 42
1.0
  3
ArialN.ttf
  4

  0
STYLE
  2
ISOCPEUR
 70
     0
 40
0.0
 41
1.0
 50
0.0
 71
     0
 42
1.0
  3
ISOCPEUR.ttf
  4

  0
ENDTAB
  0
TABLE
  2
VIEW
 70
     0
  0
ENDTAB
  0
TABLE
  2
UCS
 70
     0
  0
ENDTAB
  0
ENDSEC
  0
SECTION
  2
BLOCKS
  0
ENDSEC
  0
SECTION
  2
ENTITIES
  0
POLYLINE
  5
16D
  8
0
 66
     1
 10
0.0
 20
0.0
 30
0.0
 70
     1
  0
VERTEX
  5
16E
  8
0
 10
1721.95144609
 20
-937.40593526
 30
0.0
  0
VERTEX
  5
16F
  8
0
 10
2141.95144609
 20
-937.40593526
 30
0.0
  0
VERTEX
  5
170
  8
0
 10
2141.95144609
 20
-640.40593526
 30
0.0
  0
VERTEX
  5
171
  8
0
 10
1721.95144609
 20
-640.40593526
 30
0.0
  0
SEQEND
  5
172
  8
0
  0
POLYLINE
  5
173
  8
0
 66
     1
 10
0.0
 20
0.0
 30
0.0
 70
     1
  0
VERTEX
  5
174
  8
0
 10
1726.95144609
 20
-932.40593526
 30
0.0
  0
VERTEX
  5
175
  8
0
 10
2136.95144609
 20
-932.40593526
 30
0.0
  0
VERTEX
  5
176
  8
0
 10
2136.95144609
 20
-645.40593526
 30
0.0
  0
VERTEX
  5
177
  8
0
 10
1726.95144609
 20
-645.40593526
 30
0.0
  0
SEQEND
  5
178
  8
0
  0
LINE
  5
179
  8
0
 10
1951.95144609
 20
-932.40593526
 30
0.0
 11
1951.95144609
 21
-937.40593526
 31
0.0
  0
LINE
  5
17A
  8
0
 10
1951.95144609
 20
-645.40593526
 30
0.0
 11
1951.95144609
 21
-640.40593526
 31
0.0
  0
LINE
  5
17B
  8
0
 10
1741.95144609
 20
-932.40593526
 30
0.0
 11
1741.95144609
 21
-937.40593526
 31
0.0
  0
LINE
  5
17C
  8
0
 10
1741.95144609
 20
-645.40593526
 30
0.0
 11
1741.95144609
 21
-640.40593526
 31
0.0
  0
TEXT
  5
17D
  8
TXT_ALL
 62
     4
 10
2140.95144609
 20
-936.40593526
 30
0.0
 40
2.5
  1

 50
90.00020741
  0
POLYLINE
  5
17E
  8
0
 66
     1
 10
0.0
 20
0.0
 30
0.0
  0
VERTEX
  5
17F
  8
0
 10
2136.95144609
 20
-655.40593526
 30
0.0
  0
VERTEX
  5
180
  8
0
 10
2067.95814609
 20
-655.40593526
 30
0.0
  0
VERTEX
  5
181
  8
0
 10
2067.95814609
 20
-645.40593526
 30
0.0
  0
SEQEND
  5
182
  8
0
  0
LINE
  5
183
  8
0
 10
2069.86144609
 20
-912.90593526
 30
0.0
 11
1929.97144609
 21
-912.90593526
 31
0.0
  0
LINE
  5
184
  8
0
 10
1929.97144609
 20
-922.65593526
 30
0.0
 11
2069.86144609
 21
-922.65593526
 31
0.0
  0
POLYLINE
  5
185
  8
0
 66
     1
 10
0.0
 20
0.0
 30
0.0
  0
VERTEX
  5
186
  8
0
 10
1929.97144609
 20
-912.90593526
 30
0.0
  0
VERTEX
  5
187
  8
0
 10
1929.97144609
 20
-922.65593526
 30
0.0
  0
VERTEX
  5
188
  8
0
 10
1929.97144609
 20
-932.40593526
 30
0.0
  0
SEQEND
  5
189
  8
0
  0
POLYLINE
  5
18A
  8
0
 66
     1
 10
0.0
 20
0.0
 30
0.0
  0
VERTEX
  5
18B
  8
0
 10
1999.91644609
 20
-912.90593526
 30
0.0
  0
VERTEX
  5
18C
  8
0
 10
1999.91644609
 20
-922.65593526
 30
0.0
  0
VERTEX
  5
18D
  8
0
 10
1999.91644609
 20
-932.40593526
 30
0.0
  0
SEQEND
  5
18E
  8
0
  0
TEXT
  5
18F
  8
TXT_ALL
 10
1931.97144609
 20
-919.08093521
 30
0.0
 40
2.5999999
  1
E-mail: verkoop@jonkers-bouwmetaal.nl
  7
ARIAL
  0
TEXT
  5
190
  8
TXT_ALL
 10
1931.97144609
 20
-928.83093521
 30
0.0
 40
2.5999999
  1
Telefoon: 0527-685156
  7
ARIAL
  0
TEXT
  5
191
  8
TXT_ALL
 10
2001.91644609
 20
-928.83093521
 30
0.0
 40
2.5999999
  1
Website: www.jonkers-bouwmetaal.nl
  7
ARIAL
  0
TEXT
  5
192
  8
TXT_ALL
 10
2001.91644609
 20
-919.08093521
 30
0.0
 40
2.5999999
  1
Adres: Hoornse Hop 10, 8321 WX Urk
  7
ARIAL
  0
TEXT
  5
193
  8
TXT_ALL
 10
1730.39340634
 20
-651.65593526
 30
0.0
 40
2.5
  1
Art. nr. 91006754-07
  7
ARIAL
  0
TEXT
  5
194
  8
TXT_ALL
 10
1773.13144316
 20
-651.65593526
 30
0.0
 40
2.5
  1
Omschrijving: H802-anker 80x80 100x8
  7
ARIAL
  0
LINE
  5
195
  8
0
 10
2136.95144609
 20
-655.40593526
 30
0.0
 11
1726.95144609
 21
-655.40593526
 31
0.0
  0
LINE
  5
196
  8
0
 10
1769.97144609
 20
-655.40593526
 30
0.0
 11
1769.97144609
 21
-645.40593526
 31
0.0
  0
LINE
  5
197
  8
0
 10
1929.97144609
 20
-655.40593526
 30
0.0
 11
1929.97144609
 21
-645.40593526
 31
0.0
  0
TEXT
  5
198
  8
TXT_ALL
 10
2000.96514609
 20
-651.65593526
 30
0.0
 40
2.5
  1
Behandeling: Thermisch Verzinkt
  7
ARIAL
  0
LINE
  5
199
  8
0
 10
2069.86144609
 20
-912.90593526
 30
0.0
 11
2136.95144609
 21
-912.90593526
 31
0.0
  0
LINE
  5
19A
  8
0
 10
2069.86144609
 20
-932.40593526
 30
0.0
 11
2069.86144609
 21
-912.90593526
 31
0.0
  0
LINE
  5
19B
  8
0
 10
2069.86144609
 20
-932.40593526
 30
0.0
 11
2069.86144609
 21
-912.90593526
 31
0.0
  0
TEXT
  5
19C
  8
TXT_ALL
 10
1864.31664418
 20
-931.25140185
 30
0.0
 40
2.5
  1

  0
TEXT
  5
19D
  8
TXT_ALL
 10
1985.45182715
 20
-921.15593526
 30
0.0
 40
2.5
  1

  0
POLYLINE
  5
19E
  8
0
 66
     1
 10
0.0
 20
0.0
 30
0.0
  0
VERTEX
  5
19F
  8
0
 10
2067.95814609
 20
-655.40593526
 30
0.0
  0
VERTEX
  5
1A0
  8
0
 10
1998.96514609
 20
-655.40593526
 30
0.0
  0
VERTEX
  5
1A1
  8
0
 10
1998.96514609
 20
-645.40593526
 30
0.0
  0
SEQEND
  5
1A2
  8
0
  0
TEXT
  5
1A3
  8
TXT_ALL
 10
2069.95814609
 20
-651.65593526
 30
0.0
 40
2.5
  1
Verpakkingshoeveelheid: 1 st.
  7
ARIAL
  0
TEXT
  5
1A4
  8
TXT_ALL
 10
1931.97144609
 20
-651.65593526
 30
0.0
 40
2.5
  1
Materiaal: S355
  7
ARIAL
  0
TEXT
  5
1A5
  8
TXT_ALL
 10
2104.443869
 20
-935.65544511
 30
0.0
 40
1.5
  1
Onderdeel van
  7
ARIAL
  0
POLYLINE
  5
1A6
  8
0
 66
     1
 10
0.0
 20
0.0
 30
0.0
  0
VERTEX
  5
3B6
  8
0
 10
1754.377973243606
 20
-888.8924968660137
 30
0.0
  0
VERTEX
  5
3B7
  8
0
 10
1754.521763044221
 20
-890.3820760245743
 30
0.0
  0
VERTEX
  5
3B8
  8
0
 10
1754.947606670403
 20
-891.8506431140609
 30
0.0
  0
VERTEX
  5
3B9
  8
0
 10
1755.639139190552
 20
-893.241761925293
 30
0.0
  0
VERTEX
  5
3BA
  8
0
 10
1756.569785397964
 20
-894.5019725429646
 30
0.0
  0
VERTEX
  5
3BB
  8
0
 10
1757.703781081111
 20
-895.5828457801905
 30
0.0
  0
VERTEX
  5
3BC
  8
0
 10
1758.997547422216
 20
-896.4428442849828
 30
0.0
  0
VERTEX
  5
3BD
  8
0
 10
1760.401365706772
 20
-897.0489187973805
 30
0.0
  0
VERTEX
  5
3BE
  8
0
 10
1761.861287985839
 20
-897.3777782139629
 30
0.0
  0
SEQEND
  5
43B
  8
0
  0
LINE
  5
1A7
  8
0
 10
1768.57880242
 20
-891.45348737
 30
0.0
 11
1761.861288
 21
-897.37777823
 31
0.0
  0
LINE
  5
1A8
  8
0
 10
1770.70012276
 20
-889.58265868
 30
0.0
 11
1768.57880242
 21
-891.45348737
 31
0.0
  0
LINE
  5
1A9
  8
0
 10
1788.37779229
 20
-873.99241957
 30
0.0
 11
1770.70012276
 21
-889.58265868
 31
0.0
  0
LINE
  5
1AA
  8
0
 10
1790.49911264
 20
-872.12159087
 30
0.0
 11
1788.37779229
 21
-873.99241957
 31
0.0
  0
LINE
  5
1AB
  8
0
 10
1797.21662706
 20
-866.19730001
 30
0.0
 11
1790.49911264
 21
-872.12159087
 31
0.0
  0
POLYLINE
  5
1AC
  8
0
 66
     1
 10
0.0
 20
0.0
 30
0.0
  0
VERTEX
  5
3BF
  8
0
 10
1789.733312303606
 20
-857.7120186460138
 30
0.0
  0
VERTEX
  5
3C0
  8
0
 10
1789.877102104221
 20
-859.2015978045744
 30
0.0
  0
VERTEX
  5
3C1
  8
0
 10
1790.302945730403
 20
-860.6701648940609
 30
0.0
  0
VERTEX
  5
3C2
  8
0
 10
1790.994478250552
 20
-862.061283705293
 30
0.0
  0
VERTEX
  5
3C3
  8
0
 10
1791.925124457964
 20
-863.3214943229647
 30
0.0
  0
VERTEX
  5
3C4
  8
0
 10
1793.059120141111
 20
-864.4023675601906
 30
0.0
  0
VERTEX
  5
3C5
  8
0
 10
1794.352886482216
 20
-865.2623660649829
 30
0.0
  0
VERTEX
  5
3C6
  8
0
 10
1795.756704766772
 20
-865.8684405773805
 30
0.0
  0
VERTEX
  5
3C7
  8
0
 10
1797.216627045839
 20
-866.1972999939629
 30
0.0
  0
SEQEND
  5
43C
  8
0
  0
LINE
  5
1AD
  8
0
 10
1789.73331228
 20
-857.71201864
 30
0.0
 11
1754.37797322
 21
-888.89249686
 31
0.0
  0
LINE
  5
1AE
  8
0
 10
1746.89465845
 20
-887.94968782
 30
0.0
 11
1754.37797322
 21
-888.89249686
 31
0.0
  0
POLYLINE
  5
1AF
  8
0
 66
     1
 10
0.0
 20
0.0
 30
0.0
  0
VERTEX
  5
3C8
  8
0
 10
1746.894658487211
 20
-887.9496878320276
 30
0.0
  0
VERTEX
  5
3C9
  8
0
 10
1747.182238088443
 20
-890.9288461491486
 30
0.0
  0
VERTEX
  5
3CA
  8
0
 10
1748.033925340805
 20
-893.8659803281216
 30
0.0
  0
VERTEX
  5
3CB
  8
0
 10
1749.416990381103
 20
-896.6482179505861
 30
0.0
  0
VERTEX
  5
3CC
  8
0
 10
1751.278282795929
 20
-899.1686391859294
 30
0.0
  0
VERTEX
  5
3CD
  8
0
 10
1753.546274162222
 20
-901.330385660381
 30
0.0
  0
VERTEX
  5
3CE
  8
0
 10
1756.133806844432
 20
-903.0503826699659
 30
0.0
  0
VERTEX
  5
3CF
  8
0
 10
1758.941443413544
 20
-904.2625316947608
 30
0.0
  0
VERTEX
  5
3D0
  8
0
 10
1761.861287971679
 20
-904.9202505279259
 30
0.0
  0
SEQEND
  5
43D
  8
0
  0
LINE
  5
1B0
  8
0
 10
1761.861288
 20
-904.92025057
 30
0.0
 11
1761.861288
 21
-897.37777823
 31
0.0
  0
LINE
  5
1B1
  8
0
 10
1790.49911264
 20
-874.93522861
 30
0.0
 11
1790.49911264
 21
-872.12159087
 31
0.0
  0
LINE
  5
1B2
  8
0
 10
1770.70012276
 20
-892.39629641
 30
0.0
 11
1770.70012276
 21
-889.58265868
 31
0.0
  0
POLYLINE
  5
1B3
  8
0
 66
     1
 10
0.0
 20
0.0
 30
0.0
  0
VERTEX
  5
1B4
  8
0
 10
1768.57880242
 20
-891.45348737
 30
0.0
  0
VERTEX
  5
1B5
  8
0
 10
1761.861288
 20
-897.37777823
 30
0.0
  0
VERTEX
  5
1B6
  8
0
 10
1821.72780619
 20
-904.92025057
 30
0.0
  0
SEQEND
  5
1B7
  8
0
  0
LINE
  5
1B8
  8
0
 10
1857.08314525
 20
-873.73977234
 30
0.0
 11
1821.72780619
 21
-904.92025057
 31
0.0
  0
POLYLINE
  5
1B9
  8
0
 66
     1
 10
0.0
 20
0.0
 30
0.0
  0
VERTEX
  5
1BA
  8
0
 10
1857.08314525
 20
-873.73977234
 30
0.0
  0
VERTEX
  5
1BB
  8
0
 10
1797.21662706
 20
-866.19730001
 30
0.0
  0
VERTEX
  5
1BC
  8
0
 10
1790.49911264
 20
-872.12159087
 30
0.0
  0
SEQEND
  5
1BD
  8
0
  0
POLYLINE
  5
1BE
  8
0
 66
     1
 10
0.0
 20
0.0
 30
0.0
  0
VERTEX
  5
3D1
  8
0
 10
1794.947876816475
 20
-871.9693858461363
 30
0.0
  0
VERTEX
  5
3D2
  8
0
 10
1794.055121244562
 20
-871.887463042555
 30
0.0
  0
VERTEX
  5
3D3
  8
0
 10
1793.13235577001
 20
-871.8618191068047
 30
0.0
  0
VERTEX
  5
3D4
  8
0
 10
1792.211228097321
 20
-871.8933335383066
 30
0.0
  0
VERTEX
  5
3D5
  8
0
 10
1791.323329759982
 20
-871.980925499683
 30
0.0
  0
VERTEX
  5
3D6
  8
0
 10
1790.499112638761
 20
-872.1215908857885
 30
0.0
  0
SEQEND
  5
43E
  8
0
  0
POLYLINE
  5
1BF
  8
0
 66
     1
 10
0.0
 20
0.0
 30
0.0
  0
VERTEX
  5
1C0
  8
0
 10
1794.9478768
 20
-871.96938583
 30
0.0
  0
VERTEX
  5
1C1
  8
0
 10
1832.36445067
 20
-876.68343104
 30
0.0
  0
SEQEND
  5
1C2
  8
0
  0
POLYLINE
  5
1C3
  8
0
 66
     1
 10
0.0
 20
0.0
 30
0.0
  0
VERTEX
  5
3D7
  8
0
 10
1835.59668372
 20
-878.24245495
 30
0.0
  0
VERTEX
  5
3D8
  8
0
 10
1835.495449481254
 20
-877.9087727997892
 30
0.0
  0
VERTEX
  5
3D9
  8
0
 10
1835.195846113454
 20
-877.5886026729623
 30
0.0
  0
VERTEX
  5
3DA
  8
0
 10
1834.710005664145
 20
-877.2949094411426
 30
0.0
  0
VERTEX
  5
3DB
  8
0
 10
1834.057601608544
 20
-877.0395858286296
 30
0.0
  0
VERTEX
  5
3DC
  8
0
 10
1833.265052197818
 20
-876.8329708320417
 30
0.0
  0
VERTEX
  5
3DD
  8
0
 10
1832.364450686475
 20
-876.6834310561363
 30
0.0
  0
SEQEND
  5
43F
  8
0
  0
POLYLINE
  5
1C4
  8
0
 66
     1
 10
0.0
 20
0.0
 30
0.0
  0
VERTEX
  5
3DE
  8
0
 10
1828.828916783506
 20
-879.801478847641
 30
0.0
  0
VERTEX
  5
3DF
  8
0
 10
1829.759886252491
 20
-879.8856148297025
 30
0.0
  0
VERTEX
  5
3E0
  8
0
 10
1830.721998442115
 20
-879.9085980584573
 30
0.0
  0
VERTEX
  5
3E1
  8
0
 10
1831.679446849241
 20
-879.8695731772624
 30
0.0
  0
VERTEX
  5
3E2
  8
0
 10
1832.596598540661
 20
-879.7699925578329
 30
0.0
  0
VERTEX
  5
3E3
  8
0
 10
1833.439320288182
 20
-879.613562247967
 30
0.0
  0
VERTEX
  5
3E4
  8
0
 10
1834.176248889862
 20
-879.4061040452068
 30
0.0
  0
VERTEX
  5
3E5
  8
0
 10
1834.779958400397
 20
-879.1553388295782
 30
0.0
  0
VERTEX
  5
3E6
  8
0
 10
1835.227980830384
 20
-878.87059921902
 30
0.0
  0
VERTEX
  5
3E7
  8
0
 10
1835.503642327525
 20
-878.5624822414759
 30
0.0
  0
VERTEX
  5
3E8
  8
0
 10
1835.59668372
 20
-878.24245495
 30
0.0
  0
SEQEND
  5
440
  8
0
  0
POLYLINE
  5
1C5
  8
0
 66
     1
 10
0.0
 20
0.0
 30
0.0
  0
VERTEX
  5
1C6
  8
0
 10
1828.82891677
 20
-879.80147886
 30
0.0
  0
VERTEX
  5
1C7
  8
0
 10
1791.4123429
 20
-875.08743365
 30
0.0
  0
SEQEND
  5
1C8
  8
0
  0
POLYLINE
  5
1C9
  8
0
 66
     1
 10
0.0
 20
0.0
 30
0.0
  0
VERTEX
  5
3E9
  8
0
 10
1788.377792293567
 20
-873.9924195637013
 30
0.0
  0
VERTEX
  5
3EA
  8
0
 10
1788.716830909955
 20
-874.279641395481
 30
0.0
  0
VERTEX
  5
3EB
  8
0
 10
1789.20894475173
 20
-874.5410985469605
 30
0.0
  0
VERTEX
  5
3EC
  8
0
 10
1789.837255994706
 20
-874.7678239307296
 30
0.0
  0
VERTEX
  5
3ED
  8
0
 10
1790.580215708953
 20
-874.9520416404004
 30
0.0
  0
VERTEX
  5
3EE
  8
0
 10
1791.412342913506
 20
-875.087433637641
 30
0.0
  0
SEQEND
  5
441
  8
0
  0
POLYLINE
  5
1CA
  8
0
 66
     1
 10
0.0
 20
0.0
 30
0.0
  0
VERTEX
  5
1CB
  8
0
 10
1788.37779229
 20
-873.99241957
 30
0.0
  0
VERTEX
  5
1CC
  8
0
 10
1770.70012276
 20
-889.58265868
 30
0.0
  0
SEQEND
  5
1CD
  8
0
  0
POLYLINE
  5
1CE
  8
0
 66
     1
 10
0.0
 20
0.0
 30
0.0
  0
VERTEX
  5
3EF
  8
0
 10
1775.148886946475
 20
-889.4304536561363
 30
0.0
  0
VERTEX
  5
3F0
  8
0
 10
1774.256131374562
 20
-889.348530852555
 30
0.0
  0
VERTEX
  5
3F1
  8
0
 10
1773.33336590001
 20
-889.3228869168046
 30
0.0
  0
VERTEX
  5
3F2
  8
0
 10
1772.412238227321
 20
-889.3544013483065
 30
0.0
  0
VERTEX
  5
3F3
  8
0
 10
1771.524339889982
 20
-889.441993309683
 30
0.0
  0
VERTEX
  5
3F4
  8
0
 10
1770.700122768761
 20
-889.5826586957884
 30
0.0
  0
SEQEND
  5
442
  8
0
  0
POLYLINE
  5
1CF
  8
0
 66
     1
 10
0.0
 20
0.0
 30
0.0
  0
VERTEX
  5
1D0
  8
0
 10
1775.14888693
 20
-889.43045363
 30
0.0
  0
VERTEX
  5
1D1
  8
0
 10
1812.5654608
 20
-894.14449884
 30
0.0
  0
SEQEND
  5
1D2
  8
0
  0
POLYLINE
  5
1D3
  8
0
 66
     1
 10
0.0
 20
0.0
 30
0.0
  0
VERTEX
  5
3F5
  8
0
 10
1815.79769385
 20
-895.70352275
 30
0.0
  0
VERTEX
  5
3F6
  8
0
 10
1815.696459611254
 20
-895.3698405997892
 30
0.0
  0
VERTEX
  5
3F7
  8
0
 10
1815.396856243454
 20
-895.0496704729624
 30
0.0
  0
VERTEX
  5
3F8
  8
0
 10
1814.911015794145
 20
-894.7559772411427
 30
0.0
  0
VERTEX
  5
3F9
  8
0
 10
1814.258611738544
 20
-894.5006536286296
 30
0.0
  0
VERTEX
  5
3FA
  8
0
 10
1813.466062327818
 20
-894.2940386320417
 30
0.0
  0
VERTEX
  5
3FB
  8
0
 10
1812.565460816475
 20
-894.1444988561364
 30
0.0
  0
SEQEND
  5
443
  8
0
  0
POLYLINE
  5
1D4
  8
0
 66
     1
 10
0.0
 20
0.0
 30
0.0
  0
VERTEX
  5
3FC
  8
0
 10
1809.029926913506
 20
-897.262546647641
 30
0.0
  0
VERTEX
  5
3FD
  8
0
 10
1809.960896382491
 20
-897.3466826297025
 30
0.0
  0
VERTEX
  5
3FE
  8
0
 10
1810.923008572115
 20
-897.3696658584573
 30
0.0
  0
VERTEX
  5
3FF
  8
0
 10
1811.880456979241
 20
-897.3306409772624
 30
0.0
  0
VERTEX
  5
400
  8
0
 10
1812.797608670661
 20
-897.2310603578329
 30
0.0
  0
VERTEX
  5
401
  8
0
 10
1813.640330418182
 20
-897.074630047967
 30
0.0
  0
VERTEX
  5
402
  8
0
 10
1814.377259019862
 20
-896.8671718452068
 30
0.0
  0
VERTEX
  5
403
  8
0
 10
1814.980968530397
 20
-896.6164066295783
 30
0.0
  0
VERTEX
  5
404
  8
0
 10
1815.428990960384
 20
-896.3316670190201
 30
0.0
  0
VERTEX
  5
405
  8
0
 10
1815.704652457525
 20
-896.0235500414759
 30
0.0
  0
VERTEX
  5
406
  8
0
 10
1815.79769385
 20
-895.70352275
 30
0.0
  0
SEQEND
  5
444
  8
0
  0
POLYLINE
  5
1D5
  8
0
 66
     1
 10
0.0
 20
0.0
 30
0.0
  0
VERTEX
  5
1D6
  8
0
 10
1809.02992689
 20
-897.26254667
 30
0.0
  0
VERTEX
  5
1D7
  8
0
 10
1771.61335302
 20
-892.54850146
 30
0.0
  0
SEQEND
  5
1D8
  8
0
  0
POLYLINE
  5
1D9
  8
0
 66
     1
 10
0.0
 20
0.0
 30
0.0
  0
VERTEX
  5
407
  8
0
 10
1768.578802423567
 20
-891.4534873737013
 30
0.0
  0
VERTEX
  5
408
  8
0
 10
1768.917841039955
 20
-891.7407092054809
 30
0.0
  0
VERTEX
  5
409
  8
0
 10
1769.40995488173
 20
-892.0021663569604
 30
0.0
  0
VERTEX
  5
40A
  8
0
 10
1770.038266124706
 20
-892.2288917407295
 30
0.0
  0
VERTEX
  5
40B
  8
0
 10
1770.781225838953
 20
-892.4131094504003
 30
0.0
  0
VERTEX
  5
40C
  8
0
 10
1771.613353043506
 20
-892.5485014476409
 30
0.0
  0
SEQEND
  5
445
  8
0
  0
LINE
  5
1DA
  8
0
 10
1770.70012276
 20
-889.58265868
 30
0.0
 11
1770.70012276
 21
-892.39629641
 31
0.0
  0
LINE
  5
1DB
  8
0
 10
1790.49911264
 20
-872.12159087
 30
0.0
 11
1790.49911264
 21
-874.93522861
 31
0.0
  0
LINE
  5
1DC
  8
0
 10
1857.08314525
 20
-881.28224468
 30
0.0
 11
1857.08314525
 21
-873.73977234
 31
0.0
  0
LINE
  5
1DD
  8
0
 10
1857.08314525
 20
-881.28224468
 30
0.0
 11
1821.72780619
 21
-912.4627229
 31
0.0
  0
LINE
  5
1DE
  8
0
 10
1761.861288
 20
-904.92025057
 30
0.0
 11
1821.72780619
 21
-912.4627229
 31
0.0
  0
LINE
  5
1DF
  8
0
 10
1761.861288
 20
-904.92025057
 30
0.0
 11
1761.861288
 21
-897.37777823
 31
0.0
  0
LINE
  5
1E0
  8
0
 10
1821.72780619
 20
-912.4627229
 30
0.0
 11
1821.72780619
 21
-904.92025057
 31
0.0
  0
POLYLINE
  5
1E1
  8
0
 66
     1
 10
0.0
 20
0.0
 30
0.0
  0
VERTEX
  5
40D
  8
0
 10
1776.45153169831
 20
-832.7462737810471
 30
0.0
  0
VERTEX
  5
40E
  8
0
 10
1775.945068740585
 20
-832.8402712774949
 30
0.0
  0
VERTEX
  5
40F
  8
0
 10
1775.42211973859
 20
-833.2407441545135
 30
0.0
  0
VERTEX
  5
410
  8
0
 10
1774.906078162219
 20
-833.9297777585581
 30
0.0
  0
VERTEX
  5
411
  8
0
 10
1774.420028486317
 20
-834.8765490326737
 30
0.0
  0
VERTEX
  5
412
  8
0
 10
1773.985713535553
 20
-836.038705347418
 30
0.0
  0
SEQEND
  5
446
  8
0
  0
POLYLINE
  5
1E2
  8
0
 66
     1
 10
0.0
 20
0.0
 30
0.0
  0
VERTEX
  5
413
  8
0
 10
1777.167349832294
 20
-843.344036630493
 30
0.0
  0
VERTEX
  5
414
  8
0
 10
1777.495649811798
 20
-842.166028823334
 30
0.0
  0
VERTEX
  5
415
  8
0
 10
1777.755397826556
 20
-840.8996248638008
 30
0.0
  0
VERTEX
  5
416
  8
0
 10
1777.937315533278
 20
-839.5900614043958
 30
0.0
  0
VERTEX
  5
417
  8
0
 10
1778.034904730484
 20
-838.2841167789181
 30
0.0
  0
VERTEX
  5
418
  8
0
 10
1778.044679477871
 20
-837.0284400544099
 30
0.0
  0
VERTEX
  5
419
  8
0
 10
1777.966290616036
 20
-835.8678847005832
 30
0.0
  0
VERTEX
  5
41A
  8
0
 10
1777.802538238644
 20
-834.8439063989808
 30
0.0
  0
VERTEX
  5
41B
  8
0
 10
1777.559271671524
 20
-833.9930822230174
 30
0.0
  0
VERTEX
  5
41C
  8
0
 10
1777.245180531508
 20
-833.3458040846093
 30
0.0
  0
VERTEX
  5
41D
  8
0
 10
1776.871484328491
 20
-832.9251931182091
 30
0.0
  0
VERTEX
  5
41E
  8
0
 10
1776.45153169831
 20
-832.7462737810471
 30
0.0
  0
SEQEND
  5
447
  8
0
  0
POLYLINE
  5
1E3
  8
0
 66
     1
 10
0.0
 20
0.0
 30
0.0
  0
VERTEX
  5
1E4
  8
0
 10
1777.16734986
 20
-843.3440366
 30
0.0
  0
VERTEX
  5
1E5
  8
0
 10
1770.12557199
 20
-865.31097617
 30
0.0
  0
SEQEND
  5
1E6
  8
0
  0
POLYLINE
  5
1E7
  8
0
 66
     1
 10
0.0
 20
0.0
 30
0.0
  0
VERTEX
  5
41F
  8
0
 10
1767.659753826529
 20
-868.6034077208226
 30
0.0
  0
VERTEX
  5
420
  8
0
 10
1768.166216778827
 20
-868.5094102179838
 30
0.0
  0
VERTEX
  5
421
  8
0
 10
1768.689165774577
 20
-868.1089373421659
 30
0.0
  0
VERTEX
  5
422
  8
0
 10
1769.205207344727
 20
-867.4199037464276
 30
0.0
  0
VERTEX
  5
423
  8
0
 10
1769.691257015268
 20
-866.4731324866095
 30
0.0
  0
VERTEX
  5
424
  8
0
 10
1770.125571962295
 20
-865.310976190493
 30
0.0
  0
SEQEND
  5
448
  8
0
  0
POLYLINE
  5
1E8
  8
0
 66
     1
 10
0.0
 20
0.0
 30
0.0
  0
VERTEX
  5
425
  8
0
 10
1766.943935665553
 20
-858.0056449074181
 30
0.0
  0
VERTEX
  5
426
  8
0
 10
1766.615635688585
 20
-859.1836527166399
 30
0.0
  0
VERTEX
  5
427
  8
0
 10
1766.355887676522
 20
-860.4500566765694
 30
0.0
  0
VERTEX
  5
428
  8
0
 10
1766.173969972532
 20
-861.7596201348118
 30
0.0
  0
VERTEX
  5
429
  8
0
 10
1766.07638077798
 20
-863.0655647577362
 30
0.0
  0
VERTEX
  5
42A
  8
0
 10
1766.066606033064
 20
-864.3212414785179
 30
0.0
  0
VERTEX
  5
42B
  8
0
 10
1766.144994897099
 20
-865.4817968276986
 30
0.0
  0
VERTEX
  5
42C
  8
0
 10
1766.308747276348
 20
-866.5057751240136
 30
0.0
  0
VERTEX
  5
42D
  8
0
 10
1766.552013844933
 20
-867.3565992943361
 30
0.0
  0
VERTEX
  5
42E
  8
0
 10
1766.866104985991
 20
-868.0038774270331
 30
0.0
  0
VERTEX
  5
42F
  8
0
 10
1767.23980118962
 20
-868.4244883879187
 30
0.0
  0
VERTEX
  5
430
  8
0
 10
1767.65975382
 20
-868.60340772
 30
0.0
  0
SEQEND
  5
449
  8
0
  0
LINE
  5
1E9
  8
0
 10
1766.94393565
 20
-858.0056449
 30
0.0
 11
1773.98571351
 21
-836.03870533
 31
0.0
  0
LINE
  5
1EA
  8
0
 10
1789.73331228
 20
-857.71201864
 30
0.0
 11
1754.37797322
 21
-888.89249686
 31
0.0
  0
LINE
  5
1EB
  8
0
 10
1754.37797322
 20
-828.5527182
 30
0.0
 11
1754.37797322
 21
-888.89249686
 31
0.0
  0
LINE
  5
1EC
  8
0
 10
1789.73331228
 20
-797.37223998
 30
0.0
 11
1754.37797322
 21
-828.5527182
 31
0.0
  0
LINE
  5
1ED
  8
0
 10
1789.73331228
 20
-857.71201864
 30
0.0
 11
1789.73331228
 21
-797.37223998
 31
0.0
  0
LINE
  5
1EE
  8
0
 10
1782.24999751
 20
-796.42943093
 30
0.0
 11
1789.73331228
 21
-797.37223998
 31
0.0
  0
POLYLINE
  5
1EF
  8
0
 66
     1
 10
0.0
 20
0.0
 30
0.0
  0
VERTEX
  5
1F0
  8
0
 10
1782.24999751
 20
-796.42943093
 30
0.0
  0
VERTEX
  5
1F1
  8
0
 10
1746.89465845
 20
-827.60990916
 30
0.0
  0
VERTEX
  5
1F2
  8
0
 10
1754.37797322
 20
-828.5527182
 30
0.0
  0
SEQEND
  5
1F3
  8
0
  0
POLYLINE
  5
1F4
  8
0
 66
     1
 10
0.0
 20
0.0
 30
0.0
  0
VERTEX
  5
1F5
  8
0
 10
1746.89465845
 20
-827.60990916
 30
0.0
  0
VERTEX
  5
1F6
  8
0
 10
1746.89465845
 20
-887.94968782
 30
0.0
  0
VERTEX
  5
1F7
  8
0
 10
1754.37797322
 20
-888.89249686
 30
0.0
  0
SEQEND
  5
1F8
  8
0
  0
LINE
  5
1F9
  8
0
  6
STRICHPUNKT2
 62
     1
 10
1778.8504819
 20
-840.10384992
 30
0.0
 11
1764.8192667
 21
-838.33608297
 31
0.0
  0
LINE
  5
1FA
  8
0
  6
STRICHPUNKT2
 62
     1
 10
1771.80870403
 20
-862.07078949
 30
0.0
 11
1757.77748883
 21
-860.30302254
 31
0.0
  0
LINE
  5
1FB
  8
0
  6
STRICHPUNKT2
 62
     1
 10
1778.42032659
 20
-830.82010691
 30
0.0
 11
1765.69095891
 21
-870.52957459
 31
0.0
  0
LINE
  5
1FC
  8
0
  6
STRICHPUNKT2
 62
     1
 10
1773.19030443
 20
-834.21237251
 30
0.0
 11
1777.96275894
 21
-845.17036942
 31
0.0
  0
LINE
  5
1FD
  8
0
  6
STRICHPUNKT2
 62
     1
 10
1766.14852656
 20
-856.17931208
 30
0.0
 11
1770.92098108
 21
-867.13730899
 31
0.0
  0
LINE
  5
1FE
  8
0
  6
STRICHPUNKT2
 62
     1
 10
1770.93701182
 20
-829.87729787
 30
0.0
 11
1758.20764414
 21
-869.58676555
 31
0.0
  0
LINE
  5
1FF
  8
0
  6
STRICHPUNKT2
 62
     1
 10
1765.70698966
 20
-833.26956347
 30
0.0
 11
1770.47944417
 21
-844.22756038
 31
0.0
  0
LINE
  5
200
  8
0
  6
STRICHPUNKT2
 62
     1
 10
1758.66521179
 20
-855.23650304
 30
0.0
 11
1763.43766631
 21
-866.19449995
 31
0.0
  0
LINE
  5
201
  8
0
 10
2015.71327269
 20
-742.2360173
 30
0.0
 11
2015.71327269
 21
-750.2360173
 31
0.0
  0
POLYLINE
  5
202
  8
0
 66
     1
 10
0.0
 20
0.0
 30
0.0
  0
VERTEX
  5
203
  8
0
 10
2115.71327269
 20
-750.2360173
 30
0.0
  0
VERTEX
  5
204
  8
0
 10
2115.71327269
 20
-742.2360173
 30
0.0
  0
VERTEX
  5
205
  8
0
 10
2015.71327269
 20
-742.2360173
 30
0.0
  0
SEQEND
  5
206
  8
0
  0
POLYLINE
  5
207
  8
0
 66
     1
 10
0.0
 20
0.0
 30
0.0
  0
VERTEX
  5
208
  8
0
 10
2115.71327269
 20
-758.2360173
 30
0.0
  0
VERTEX
  5
209
  8
0
 10
2015.71327269
 20
-758.2360173
 30
0.0
  0
VERTEX
  5
20A
  8
0
 10
2015.71327269
 20
-750.2360173
 30
0.0
  0
SEQEND
  5
20B
  8
0
  0
LINE
  5
20C
  8
0
 10
2115.71327269
 20
-750.2360173
 30
0.0
 11
2015.71327269
 21
-750.2360173
 31
0.0
  0
LINE
  5
20D
  8
0
 10
2115.71327269
 20
-758.2360173
 30
0.0
 11
2115.71327269
 21
-750.2360173
 31
0.0
  0
POLYLINE
  5
20E
  8
0
 66
     1
 10
0.0
 20
0.0
 30
0.0
 70
     1
  0
VERTEX
  5
20F
  8
0
 10
2071.17233718
 20
-704.51746727
 30
0.0
 42
-1.0
  0
VERTEX
  5
210
  8
0
 10
2080.17136372
 20
-715.24208947
 30
0.0
  0
VERTEX
  5
211
  8
0
 10
2060.2542082
 20
-731.95456732
 30
0.0
 42
-1.0
  0
VERTEX
  5
212
  8
0
 10
2051.25518166
 20
-721.22994512
 30
0.0
  0
SEQEND
  5
213
  8
0
  0
LINE
  5
214
  8
0
 10
2115.71327269
 20
-742.2360173
 30
0.0
 11
2015.71327269
 21
-742.2360173
 31
0.0
  0
LINE
  5
215
  8
0
 10
2015.71327269
 20
-678.2360173
 30
0.0
 11
2015.71327269
 21
-742.2360173
 31
0.0
  0
LINE
  5
216
  8
0
 10
2115.71327269
 20
-678.2360173
 30
0.0
 11
2015.71327269
 21
-678.2360173
 31
0.0
  0
LINE
  5
217
  8
0
 10
2115.71327269
 20
-742.2360173
 30
0.0
 11
2115.71327269
 21
-678.2360173
 31
0.0
  0
LINE
  5
218
  8
0
  6
STRICHPUNKT2
 62
     1
 10
2083.7153171
 20
-703.13050847
 30
0.0
 11
2047.71122828
 21
-733.34152612
 31
0.0
  0
LINE
  5
219
  8
0
  6
STRICHPUNKT2
 62
     1
 10
2068.92258055
 20
-701.83631172
 30
0.0
 11
2082.42112035
 21
-717.92324502
 31
0.0
  0
LINE
  5
21A
  8
0
  6
STRICHPUNKT2
 62
     1
 10
2049.00542503
 20
-718.54878957
 30
0.0
 11
2062.50396483
 21
-734.63572288
 31
0.0
  0
POLYLINE
  5
21B
  8
0
 66
     1
 10
0.0
 20
0.0
 30
0.0
  0
VERTEX
  5
21C
  8
0
 10
1913.76933662
 20
-742.2360173
 30
0.0
 42
0.414213562
  0
VERTEX
  5
21D
  8
0
 10
1929.76933662
 20
-758.2360173
 30
0.0
  0
VERTEX
  5
21E
  8
0
 10
1929.76933662
 20
-750.2360173
 30
0.0
  0
SEQEND
  5
21F
  8
0
  0
ARC
  5
220
  8
0
 10
1929.76933662
 20
-742.2360173
 30
0.0
 40
8.0
 50
180.0
 51
-90.0
  0
LINE
  5
221
  8
0
 10
1913.76933662
 20
-742.2360173
 30
0.0
 11
1921.76933662
 21
-742.2360173
 31
0.0
  0
POLYLINE
  5
222
  8
0
 66
     1
 10
0.0
 20
0.0
 30
0.0
  0
VERTEX
  5
223
  8
0
 10
1929.76933662
 20
-758.2360173
 30
0.0
  0
VERTEX
  5
224
  8
0
 10
1993.76933662
 20
-758.2360173
 30
0.0
  0
VERTEX
  5
225
  8
0
 10
1993.76933662
 20
-750.2360173
 30
0.0
  0
SEQEND
  5
226
  8
0
  0
LINE
  5
227
  8
0
 10
1929.76933662
 20
-750.2360173
 30
0.0
 11
1993.76933662
 21
-750.2360173
 31
0.0
  0
LINE
  5
228
  8
0
 10
1929.76933662
 20
-758.2360173
 30
0.0
 11
1929.76933662
 21
-750.2360173
 31
0.0
  0
POLYLINE
  5
229
  8
0
 66
     1
 10
0.0
 20
0.0
 30
0.0
  0
VERTEX
  5
22A
  8
0
 10
1913.76933662
 20
-678.2360173
 30
0.0
  0
VERTEX
  5
22B
  8
0
 10
1913.76933662
 20
-742.2360173
 30
0.0
  0
VERTEX
  5
22C
  8
0
 10
1921.76933662
 20
-742.2360173
 30
0.0
  0
SEQEND
  5
22D
  8
0
  0
LINE
  5
22E
  8
0
 10
1921.76933662
 20
-678.2360173
 30
0.0
 11
1921.76933662
 21
-742.2360173
 31
0.0
  0
LINE
  5
22F
  8
0
 10
1913.76933662
 20
-678.2360173
 30
0.0
 11
1921.76933662
 21
-678.2360173
 31
0.0
  0
LINE
  5
230
  8
0
  6
STRICHPUNKT2
 62
     1
 10
1913.76933662
 20
-709.87977837
 30
0.0
 11
1910.26933662
 21
-709.87977837
 31
0.0
  0
LINE
  5
231
  8
0
  6
STRICHPUNKT2
 62
     1
 10
1925.26933662
 20
-709.87977837
 30
0.0
 11
1921.76933662
 21
-709.87977837
 31
0.0
  0
LINE
  5
232
  8
0
  6
STRICHPUNKT2
 62
     1
 10
1913.76933662
 20
-726.59225622
 30
0.0
 11
1910.26933662
 21
-726.59225622
 31
0.0
  0
LINE
  5
233
  8
0
  6
STRICHPUNKT2
 62
     1
 10
1925.26933662
 20
-726.59225622
 30
0.0
 11
1921.76933662
 21
-726.59225622
 31
0.0
  0
LINE
  5
234
  8
0
 10
1858.54951906
 20
-758.2360173
 30
0.0
 11
1877.54951906
 21
-758.2360173
 31
0.0
  0
LINE
  5
235
  8
0
 10
1877.54951906
 20
-742.2360173
 30
0.0
 11
1877.54951906
 21
-758.2360173
 31
0.0
  0
LINE
  5
236
  8
0
 10
1777.54951906
 20
-742.2360173
 30
0.0
 11
1877.54951906
 21
-742.2360173
 31
0.0
  0
LINE
  5
237
  8
0
 10
1777.54951906
 20
-758.2360173
 30
0.0
 11
1777.54951906
 21
-742.2360173
 31
0.0
  0
POLYLINE
  5
238
  8
0
 66
     1
 10
0.0
 20
0.0
 30
0.0
  0
VERTEX
  5
239
  8
0
 10
1777.54951906
 20
-758.2360173
 30
0.0
  0
VERTEX
  5
23A
  8
0
 10
1796.54951906
 20
-758.2360173
 30
0.0
  0
VERTEX
  5
23B
  8
0
 10
1796.79578018
 20
-758.23511181
 30
0.0
  0
SEQEND
  5
23C
  8
0
  0
POLYLINE
  5
23D
  8
0
 66
     1
 10
0.0
 20
0.0
 30
0.0
  0
VERTEX
  5
23E
  8
0
 10
1802.30325794
 20
-758.23511181
 30
0.0
  0
VERTEX
  5
23F
  8
0
 10
1801.73653055
 20
-758.2284038
 30
0.0
  0
VERTEX
  5
240
  8
0
 10
1800.68880553
 20
-758.21251433
 30
0.0
  0
VERTEX
  5
241
  8
0
 10
1800.21637622
 20
-758.20759193
 30
0.0
  0
VERTEX
  5
242
  8
0
 10
1799.54951906
 20
-758.20473672
 30
0.0
  0
VERTEX
  5
243
  8
0
 10
1798.84766895
 20
-758.20788356
 30
0.0
  0
VERTEX
  5
244
  8
0
 10
1798.03166433
 20
-758.21776758
 30
0.0
  0
VERTEX
  5
245
  8
0
 10
1796.99302626
 20
-758.23333209
 30
0.0
  0
VERTEX
  5
246
  8
0
 10
1796.79578018
 20
-758.23511181
 30
0.0
  0
SEQEND
  5
247
  8
0
  0
POLYLINE
  5
248
  8
0
 66
     1
 10
0.0
 20
0.0
 30
0.0
  0
VERTEX
  5
249
  8
0
 10
1802.30325794
 20
-758.23511181
 30
0.0
  0
VERTEX
  5
24A
  8
0
 10
1802.54951906
 20
-758.2360173
 30
0.0
  0
VERTEX
  5
24B
  8
0
 10
1852.54951906
 20
-758.2360173
 30
0.0
  0
VERTEX
  5
24C
  8
0
 10
1852.79578018
 20
-758.23511181
 30
0.0
  0
SEQEND
  5
24D
  8
0
  0
POLYLINE
  5
24E
  8
0
 66
     1
 10
0.0
 20
0.0
 30
0.0
  0
VERTEX
  5
24F
  8
0
 10
1858.30325794
 20
-758.23511181
 30
0.0
  0
VERTEX
  5
250
  8
0
 10
1857.73653055
 20
-758.2284038
 30
0.0
  0
VERTEX
  5
251
  8
0
 10
1856.68880553
 20
-758.21251433
 30
0.0
  0
VERTEX
  5
252
  8
0
 10
1856.21637622
 20
-758.20759193
 30
0.0
  0
VERTEX
  5
253
  8
0
 10
1855.54951906
 20
-758.20473672
 30
0.0
  0
VERTEX
  5
254
  8
0
 10
1854.84766895
 20
-758.20788356
 30
0.0
  0
VERTEX
  5
255
  8
0
 10
1854.03166433
 20
-758.21776758
 30
0.0
  0
VERTEX
  5
256
  8
0
 10
1852.99302626
 20
-758.23333209
 30
0.0
  0
VERTEX
  5
257
  8
0
 10
1852.79578018
 20
-758.23511181
 30
0.0
  0
SEQEND
  5
258
  8
0
  0
LINE
  5
259
  8
0
 10
1858.30325794
 20
-758.23511181
 30
0.0
 11
1858.54951906
 21
-758.2360173
 31
0.0
  0
LINE
  5
25A
  8
0
 10
1802.30325776
 20
-758.2360173
 30
0.0
 11
1796.79578036
 21
-758.2360173
 31
0.0
  0
LINE
  5
25B
  8
0
 10
1858.30325776
 20
-758.2360173
 30
0.0
 11
1852.79578036
 21
-758.2360173
 31
0.0
  0
LINE
  5
25C
  8
0
 10
1777.54951906
 20
-758.2360173
 30
0.0
 11
1796.54951906
 21
-758.2360173
 31
0.0
  0
LINE
  5
25D
  8
0
 10
1858.54951906
 20
-758.2360173
 30
0.0
 11
1877.54951906
 21
-758.2360173
 31
0.0
  0
LINE
  5
25E
  8
0
 10
1802.54951906
 20
-758.2360173
 30
0.0
 11
1852.54951906
 21
-758.2360173
 31
0.0
  0
POLYLINE
  5
25F
  8
0
 66
     1
 10
0.0
 20
0.0
 30
0.0
 70
     1
  0
VERTEX
  5
260
  8
0
 10
1822.09045457
 20
-704.51746727
 30
0.0
  0
VERTEX
  5
261
  8
0
 10
1842.00761009
 20
-721.22994512
 30
0.0
 42
-1.0
  0
VERTEX
  5
262
  8
0
 10
1833.00858355
 20
-731.95456732
 30
0.0
  0
VERTEX
  5
263
  8
0
 10
1813.09142803
 20
-715.24208947
 30
0.0
 42
-1.0
  0
SEQEND
  5
264
  8
0
  0
LINE
  5
265
  8
0
 10
1877.54951906
 20
-678.2360173
 30
0.0
 11
1877.54951906
 21
-742.2360173
 31
0.0
  0
LINE
  5
266
  8
0
 10
1777.54951906
 20
-742.2360173
 30
0.0
 11
1877.54951906
 21
-742.2360173
 31
0.0
  0
POLYLINE
  5
267
  8
0
 66
     1
 10
0.0
 20
0.0
 30
0.0
  0
VERTEX
  5
268
  8
0
 10
1777.54951906
 20
-742.2360173
 30
0.0
  0
VERTEX
  5
269
  8
0
 10
1777.54951906
 20
-678.2360173
 30
0.0
  0
VERTEX
  5
26A
  8
0
 10
1877.54951906
 20
-678.2360173
 30
0.0
  0
SEQEND
  5
26B
  8
0
  0
LINE
  5
26C
  8
0
  6
STRICHPUNKT2
 62
     1
 10
1809.54747465
 20
-703.13050847
 30
0.0
 11
1845.55156347
 21
-733.34152612
 31
0.0
  0
LINE
  5
26D
  8
0
  6
STRICHPUNKT2
 62
     1
 10
1824.3402112
 20
-701.83631172
 30
0.0
 11
1810.8416714
 21
-717.92324502
 31
0.0
  0
LINE
  5
26E
  8
0
  6
STRICHPUNKT2
 62
     1
 10
1844.25736672
 20
-718.54878957
 30
0.0
 11
1830.75882692
 21
-734.63572288
 31
0.0
  0
LINE
  5
26F
  8
0
 10
1921.76933662
 20
-887.92307188
 30
0.0
 11
1929.76933662
 21
-887.92307188
 31
0.0
  0
LINE
  5
270
  8
0
 10
1929.76933662
 20
-868.92307188
 30
0.0
 11
1929.76933662
 21
-887.92307188
 31
0.0
  0
LINE
  5
271
  8
0
 10
1929.76933662
 20
-862.92307188
 30
0.0
 11
1929.76933662
 21
-868.92307188
 31
0.0
  0
LINE
  5
272
  8
0
 10
1929.76933662
 20
-812.92307188
 30
0.0
 11
1929.76933662
 21
-862.92307188
 31
0.0
  0
LINE
  5
273
  8
0
 10
1929.76933662
 20
-806.92307188
 30
0.0
 11
1929.76933662
 21
-812.92307188
 31
0.0
  0
LINE
  5
274
  8
0
 10
1929.76933662
 20
-787.92307188
 30
0.0
 11
1929.76933662
 21
-806.92307188
 31
0.0
  0
LINE
  5
275
  8
0
 10
1929.76933662
 20
-787.92307188
 30
0.0
 11
1921.76933662
 21
-787.92307188
 31
0.0
  0
POLYLINE
  5
276
  8
0
 66
     1
 10
0.0
 20
0.0
 30
0.0
  0
VERTEX
  5
277
  8
0
 10
1929.76933662
 20
-868.92307188
 30
0.0
  0
VERTEX
  5
278
  8
0
 10
1929.76933662
 20
-887.92307188
 30
0.0
  0
VERTEX
  5
279
  8
0
 10
1993.76933662
 20
-887.92307188
 30
0.0
  0
SEQEND
  5
27A
  8
0
  0
LINE
  5
27B
  8
0
 10
1993.76933662
 20
-787.92307188
 30
0.0
 11
1993.76933662
 21
-887.92307188
 31
0.0
  0
POLYLINE
  5
27C
  8
0
 66
     1
 10
0.0
 20
0.0
 30
0.0
  0
VERTEX
  5
27D
  8
0
 10
1993.76933662
 20
-787.92307188
 30
0.0
  0
VERTEX
  5
27E
  8
0
 10
1929.76933662
 20
-787.92307188
 30
0.0
  0
VERTEX
  5
27F
  8
0
 10
1929.76933662
 20
-806.92307188
 30
0.0
 42
-0.236067977
  0
VERTEX
  5
280
  8
0
 10
1933.76933662
 20
-804.92307188
 30
0.0
  0
VERTEX
  5
281
  8
0
 10
1973.76933662
 20
-804.92307188
 30
0.0
 42
-1.0
  0
VERTEX
  5
282
  8
0
 10
1973.76933662
 20
-814.92307188
 30
0.0
  0
VERTEX
  5
283
  8
0
 10
1933.76933662
 20
-814.92307188
 30
0.0
 42
-0.236067977
  0
VERTEX
  5
284
  8
0
 10
1929.76933662
 20
-812.92307188
 30
0.0
  0
VERTEX
  5
285
  8
0
 10
1929.76933662
 20
-862.92307188
 30
0.0
 42
-0.236067977
  0
VERTEX
  5
286
  8
0
 10
1933.76933662
 20
-860.92307188
 30
0.0
  0
VERTEX
  5
287
  8
0
 10
1973.76933662
 20
-860.92307188
 30
0.0
 42
-1.0
  0
VERTEX
  5
288
  8
0
 10
1973.76933662
 20
-870.92307188
 30
0.0
  0
VERTEX
  5
289
  8
0
 10
1933.76933662
 20
-870.92307188
 30
0.0
 42
-0.236067977
  0
VERTEX
  5
28A
  8
0
 10
1929.76933662
 20
-868.92307188
 30
0.0
  0
SEQEND
  5
28B
  8
0
  0
POLYLINE
  5
28C
  8
0
 66
     1
 10
0.0
 20
0.0
 30
0.0
  0
VERTEX
  5
28D
  8
0
 10
1913.76933662
 20
-787.92307188
 30
0.0
  0
VERTEX
  5
28E
  8
0
 10
1913.76933662
 20
-887.92307188
 30
0.0
  0
VERTEX
  5
28F
  8
0
 10
1921.76933662
 20
-887.92307188
 30
0.0
  0
SEQEND
  5
290
  8
0
  0
LINE
  5
291
  8
0
 10
1921.76933662
 20
-787.92307188
 30
0.0
 11
1921.76933662
 21
-887.92307188
 31
0.0
  0
LINE
  5
292
  8
0
 10
1913.76933662
 20
-787.92307188
 30
0.0
 11
1921.76933662
 21
-787.92307188
 31
0.0
  0
LINE
  5
293
  8
0
  6
STRICHPUNKT2
 62
     1
 10
1913.76933662
 20
-827.96449412
 30
0.0
 11
1910.26933662
 21
-827.96449412
 31
0.0
  0
LINE
  5
294
  8
0
  6
STRICHPUNKT2
 62
     1
 10
1925.26933662
 20
-827.96449412
 30
0.0
 11
1921.76933662
 21
-827.96449412
 31
0.0
  0
LINE
  5
295
  8
0
  6
STRICHPUNKT2
 62
     1
 10
1913.76933662
 20
-847.88164964
 30
0.0
 11
1910.26933662
 21
-847.88164964
 31
0.0
  0
LINE
  5
296
  8
0
  6
STRICHPUNKT2
 62
     1
 10
1925.26933662
 20
-847.88164964
 30
0.0
 11
1921.76933662
 21
-847.88164964
 31
0.0
  0
TEXT
  5
297
  8
TXT_DIM49
 10
1916.8419166
 20
-670.82825411
 30
0.0
 40
2.5
  1
8
  7
ARIAL
  0
LINE
  5
298
  8
0
 62
     4
 10
1914.76933662
 20
-671.32825411
 30
0.0
 11
1912.76933662
 21
-673.32825411
 31
0.0
  0
LINE
  5
299
  8
0
 62
     4
 10
1921.01933662
 20
-673.07825411
 30
0.0
 11
1922.51933662
 21
-671.57825411
 31
0.0
  0
LINE
  5
29A
  8
0
 62
     4
 10
1913.76933662
 20
-672.32825411
 30
0.0
 11
1921.76933662
 21
-672.32825411
 31
0.0
  0
LINE
  5
29B
  8
0
 62
     4
 10
1913.76933662
 20
-674.32825411
 30
0.0
 11
1913.76933662
 21
-670.32825411
 31
0.0
  0
LINE
  5
29C
  8
0
 62
     4
 10
1921.76933662
 20
-674.32825411
 30
0.0
 11
1921.76933662
 21
-670.32825411
 31
0.0
  0
TEXT
  5
29D
  8
TXT_DIM49
 10
1997.22986268
 20
-755.16343732
 30
0.0
 40
2.5
  1
8
 50
90.00020741
  7
ARIAL
  0
LINE
  5
29E
  8
0
 62
     4
 10
1999.72986268
 20
-751.2360173
 30
0.0
 11
1997.72986268
 21
-749.2360173
 31
0.0
  0
LINE
  5
29F
  8
0
 62
     4
 10
1997.97986268
 20
-757.4860173
 30
0.0
 11
1999.47986268
 21
-758.9860173
 31
0.0
  0
LINE
  5
2A0
  8
0
 62
     4
 10
1998.72986268
 20
-750.2360173
 30
0.0
 11
1998.72986268
 21
-758.2360173
 31
0.0
  0
LINE
  5
2A1
  8
0
 62
     4
 10
1996.72986268
 20
-750.2360173
 30
0.0
 11
2000.72986268
 21
-750.2360173
 31
0.0
  0
LINE
  5
2A2
  8
0
 62
     4
 10
1996.72986268
 20
-758.2360173
 30
0.0
 11
2000.72986268
 21
-758.2360173
 31
0.0
  0
TEXT
  5
2A3
  8
TXT_DIM49
 10
1951.91449658
 20
-762.76694134
 30
0.0
 40
2.5
  1
80
  7
ARIAL
  0
LINE
  5
2A4
  8
0
 62
     4
 10
1914.76933662
 20
-763.26694134
 30
0.0
 11
1912.76933662
 21
-765.26694134
 31
0.0
  0
LINE
  5
2A5
  8
0
 62
     4
 10
1993.01933662
 20
-765.01694134
 30
0.0
 11
1994.51933662
 21
-763.51694134
 31
0.0
  0
LINE
  5
2A6
  8
0
 62
     4
 10
1913.76933662
 20
-764.26694134
 30
0.0
 11
1993.76933662
 21
-764.26694134
 31
0.0
  0
LINE
  5
2A7
  8
0
 62
     4
 10
1913.76933662
 20
-762.26694134
 30
0.0
 11
1913.76933662
 21
-766.26694134
 31
0.0
  0
LINE
  5
2A8
  8
0
 62
     4
 10
1993.76933662
 20
-762.26694134
 30
0.0
 11
1993.76933662
 21
-766.26694134
 31
0.0
  0
TEXT
  5
2A9
  8
TXT_DIM49
 10
1901.30946032
 20
-720.09085734
 30
0.0
 40
2.5
  1
80
 50
90.00020741
  7
ARIAL
  0
LINE
  5
2AA
  8
0
 62
     4
 10
1903.80946032
 20
-679.2360173
 30
0.0
 11
1901.80946032
 21
-677.2360173
 31
0.0
  0
LINE
  5
2AB
  8
0
 62
     4
 10
1902.05946032
 20
-757.4860173
 30
0.0
 11
1903.55946032
 21
-758.9860173
 31
0.0
  0
LINE
  5
2AC
  8
0
 62
     4
 10
1902.80946032
 20
-678.2360173
 30
0.0
 11
1902.80946032
 21
-758.2360173
 31
0.0
  0
LINE
  5
2AD
  8
0
 62
     4
 10
1904.80946032
 20
-678.2360173
 30
0.0
 11
1900.80946032
 21
-678.2360173
 31
0.0
  0
LINE
  5
2AE
  8
0
 62
     4
 10
1904.80946032
 20
-758.2360173
 30
0.0
 11
1900.80946032
 21
-758.2360173
 31
0.0
  0
TEXT
  5
2AF
  8
TXT_DIM49
 10
1766.04951906
 20
-720.09085734
 30
0.0
 40
2.5
  1
80
 50
90.00020741
  7
ARIAL
  0
LINE
  5
2B0
  8
0
 62
     4
 10
1768.54951906
 20
-679.2360173
 30
0.0
 11
1766.54951906
 21
-677.2360173
 31
0.0
  0
LINE
  5
2B1
  8
0
 62
     4
 10
1766.79951906
 20
-757.4860173
 30
0.0
 11
1768.29951906
 21
-758.9860173
 31
0.0
  0
LINE
  5
2B2
  8
0
 62
     4
 10
1767.54951906
 20
-678.2360173
 30
0.0
 11
1767.54951906
 21
-758.2360173
 31
0.0
  0
LINE
  5
2B3
  8
0
 62
     4
 10
1769.54951906
 20
-678.2360173
 30
0.0
 11
1765.54951906
 21
-678.2360173
 31
0.0
  0
LINE
  5
2B4
  8
0
 62
     4
 10
1769.54951906
 20
-758.2360173
 30
0.0
 11
1765.54951906
 21
-758.2360173
 31
0.0
  0
TEXT
  5
2B5
  8
TXT_DIM49
 10
1824.76725912
 20
-766.7360173
 30
0.0
 40
2.5
  1
100
  7
ARIAL
  0
LINE
  5
2B6
  8
0
 62
     4
 10
1778.54951906
 20
-767.2360173
 30
0.0
 11
1776.54951906
 21
-769.2360173
 31
0.0
  0
LINE
  5
2B7
  8
0
 62
     4
 10
1876.79951906
 20
-768.9860173
 30
0.0
 11
1878.29951906
 21
-767.4860173
 31
0.0
  0
LINE
  5
2B8
  8
0
 62
     4
 10
1777.54951906
 20
-768.2360173
 30
0.0
 11
1877.54951906
 21
-768.2360173
 31
0.0
  0
LINE
  5
2B9
  8
0
 62
     4
 10
1777.54951906
 20
-766.2360173
 30
0.0
 11
1777.54951906
 21
-770.2360173
 31
0.0
  0
LINE
  5
2BA
  8
0
 62
     4
 10
1877.54951906
 20
-766.2360173
 30
0.0
 11
1877.54951906
 21
-770.2360173
 31
0.0
  0
TEXT
  5
2BB
  8
TXT_DIM49
 10
1795.71539014
 20
-669.75560897
 30
0.0
 40
2.5
  1
40
  7
ARIAL
  0
LINE
  5
2BC
  8
0
 62
     4
 10
1778.54951906
 20
-670.25560897
 30
0.0
 11
1776.54951906
 21
-672.25560897
 31
0.0
  0
LINE
  5
2BD
  8
0
 62
     4
 10
1816.8409413
 20
-672.00560897
 30
0.0
 11
1818.3409413
 21
-670.50560897
 31
0.0
  0
LINE
  5
2BE
  8
0
 62
     4
 10
1777.54951906
 20
-671.25560897
 30
0.0
 11
1817.5909413
 21
-671.25560897
 31
0.0
  0
LINE
  5
2BF
  8
0
 62
     4
 10
1777.54951906
 20
-673.25560897
 30
0.0
 11
1777.54951906
 21
-669.25560897
 31
0.0
  0
LINE
  5
2C0
  8
0
 62
     4
 10
1817.5909413
 20
-673.25560897
 30
0.0
 11
1817.5909413
 21
-669.25560897
 31
0.0
  0
TEXT
  5
2C1
  8
TXT_DIM49
 10
1825.69467902
 20
-669.75560897
 30
0.0
 40
2.5
  1
20
  7
ARIAL
  0
LINE
  5
2C2
  8
0
 62
     4
 10
1818.5909413
 20
-670.25560897
 30
0.0
 11
1816.5909413
 21
-672.25560897
 31
0.0
  0
LINE
  5
2C3
  8
0
 62
     4
 10
1836.75809682
 20
-672.00560897
 30
0.0
 11
1838.25809682
 21
-670.50560897
 31
0.0
  0
LINE
  5
2C4
  8
0
 62
     4
 10
1817.5909413
 20
-671.25560897
 30
0.0
 11
1837.50809682
 21
-671.25560897
 31
0.0
  0
LINE
  5
2C5
  8
0
 62
     4
 10
1817.5909413
 20
-673.25560897
 30
0.0
 11
1817.5909413
 21
-669.25560897
 31
0.0
  0
LINE
  5
2C6
  8
0
 62
     4
 10
1837.50809682
 20
-673.25560897
 30
0.0
 11
1837.50809682
 21
-669.25560897
 31
0.0
  0
TEXT
  5
2C7
  8
TXT_DIM49
 10
1855.6739679
 20
-669.75560897
 30
0.0
 40
2.5
  1
40
  7
ARIAL
  0
LINE
  5
2C8
  8
0
 62
     4
 10
1838.50809682
 20
-670.25560897
 30
0.0
 11
1836.50809682
 21
-672.25560897
 31
0.0
  0
LINE
  5
2C9
  8
0
 62
     4
 10
1876.79951906
 20
-672.00560897
 30
0.0
 11
1878.29951906
 21
-670.50560897
 31
0.0
  0
LINE
  5
2CA
  8
0
 62
     4
 10
1837.50809682
 20
-671.25560897
 30
0.0
 11
1877.54951906
 21
-671.25560897
 31
0.0
  0
LINE
  5
2CB
  8
0
 62
     4
 10
1837.50809682
 20
-673.25560897
 30
0.0
 11
1837.50809682
 21
-669.25560897
 31
0.0
  0
LINE
  5
2CC
  8
0
 62
     4
 10
1877.54951906
 20
-673.25560897
 30
0.0
 11
1877.54951906
 21
-669.25560897
 31
0.0
  0
TEXT
  5
2CD
  8
TXT_DIM49
 10
1814.79873002
 20
-733.8320571
 30
0.0
 40
2.5
  1
40
 50
69.998251143
  7
ARIAL
  0
TEXT
  5
2CE
  8
TXT_DIM49
 10
1816.06751533
 20
-730.34609811
 30
0.0
 40
2.5
  1
°
 50
69.998251143
  7
ARIAL
  0
LINE
  5
2CF
  8
0
 62
     4
 10
1822.4316084
 20
-724.35847473
 30
0.0
 11
1822.128802
 21
-721.54630328
 31
0.0
  0
LINE
  5
2D0
  8
0
 62
     4
 10
1814.52668545
 20
-741.47117025
 30
0.0
 11
1815.99639154
 21
-743.00086434
 31
0.0
  0
POLYLINE
  5
2D1
  8
0
 62
     4
 66
     1
 10
0.0
 20
0.0
 30
0.0
  0
VERTEX
  5
431
  8
0
 62
     4
 10
1822.280205298614
 20
-722.9523889997848
 30
0.0
  0
VERTEX
  5
432
  8
0
 62
     4
 10
1819.280776582891
 20
-727.2360172824631
 30
0.0
  0
VERTEX
  5
433
  8
0
 62
     4
 10
1817.070760146458
 20
-731.9754129612454
 30
0.0
  0
VERTEX
  5
434
  8
0
 62
     4
 10
1815.717306218342
 20
-737.0265719011252
 30
0.0
  0
VERTEX
  5
435
  8
0
 62
     4
 10
1815.26153881
 20
-742.2360171984594
 30
0.0
  0
SEQEND
  5
44A
  8
0
 62
     4
  0
LINE
  5
2D2
  8
0
 62
     4
 10
1845.26153849
 20
-742.2360173
 30
0.0
 11
1813.26153849
 21
-742.2360173
 31
0.0
  0
LINE
  5
2D3
  8
0
 62
     5
 10
1832.04903233
 20
-712.87370619
 30
0.0
 11
1836.20001508
 21
-706.27655992
 31
0.0
  0
TEXT
  5
2D4
  8
TXT_DIM49
 10
1836.20001508
 20
-707.52655992
 30
0.0
 40
2.5
  1
Slobgat 14 x 40
  7
ARIAL
  0
TEXT
  5
2D5
  8
TXT_DIM49
 10
1997.6317814
 20
-800.77791192
 30
0.0
 40
2.5
  1
22
 50
90.00020741
  7
ARIAL
  0
LINE
  5
2D6
  8
0
 62
     4
 10
2000.1317814
 20
-788.92307188
 30
0.0
 11
1998.1317814
 21
-786.92307188
 31
0.0
  0
LINE
  5
2D7
  8
0
 62
     4
 10
1998.3817814
 20
-809.17307188
 30
0.0
 11
1999.8817814
 21
-810.67307188
 31
0.0
  0
LINE
  5
2D8
  8
0
 62
     4
 10
1999.1317814
 20
-787.92307188
 30
0.0
 11
1999.1317814
 21
-809.92307188
 31
0.0
  0
LINE
  5
2D9
  8
0
 62
     4
 10
1997.1317814
 20
-787.92307188
 30
0.0
 11
2001.1317814
 21
-787.92307188
 31
0.0
  0
LINE
  5
2DA
  8
0
 62
     4
 10
1997.1317814
 20
-809.92307188
 30
0.0
 11
2001.1317814
 21
-809.92307188
 31
0.0
  0
TEXT
  5
2DB
  8
TXT_DIM49
 10
1997.6317814
 20
-839.77791192
 30
0.0
 40
2.5
  1
56
 50
90.00020741
  7
ARIAL
  0
LINE
  5
2DC
  8
0
 62
     4
 10
2000.1317814
 20
-810.92307188
 30
0.0
 11
1998.1317814
 21
-808.92307188
 31
0.0
  0
LINE
  5
2DD
  8
0
 62
     4
 10
1998.3817814
 20
-865.17307188
 30
0.0
 11
1999.8817814
 21
-866.67307188
 31
0.0
  0
LINE
  5
2DE
  8
0
 62
     4
 10
1999.1317814
 20
-809.92307188
 30
0.0
 11
1999.1317814
 21
-865.92307188
 31
0.0
  0
LINE
  5
2DF
  8
0
 62
     4
 10
1997.1317814
 20
-809.92307188
 30
0.0
 11
2001.1317814
 21
-809.92307188
 31
0.0
  0
LINE
  5
2E0
  8
0
 62
     4
 10
1997.1317814
 20
-865.92307188
 30
0.0
 11
2001.1317814
 21
-865.92307188
 31
0.0
  0
TEXT
  5
2E1
  8
TXT_DIM49
 10
1997.6317814
 20
-878.77791192
 30
0.0
 40
2.5
  1
22
 50
90.00020741
  7
ARIAL
  0
LINE
  5
2E2
  8
0
 62
     4
 10
2000.1317814
 20
-866.92307188
 30
0.0
 11
1998.1317814
 21
-864.92307188
 31
0.0
  0
LINE
  5
2E3
  8
0
 62
     4
 10
1998.3817814
 20
-887.17307188
 30
0.0
 11
1999.8817814
 21
-888.67307188
 31
0.0
  0
LINE
  5
2E4
  8
0
 62
     4
 10
1999.1317814
 20
-865.92307188
 30
0.0
 11
1999.1317814
 21
-887.92307188
 31
0.0
  0
LINE
  5
2E5
  8
0
 62
     4
 10
1997.1317814
 20
-865.92307188
 30
0.0
 11
2001.1317814
 21
-865.92307188
 31
0.0
  0
LINE
  5
2E6
  8
0
 62
     4
 10
1997.1317814
 20
-887.92307188
 30
0.0
 11
2001.1317814
 21
-887.92307188
 31
0.0
  0
TEXT
  5
2E7
  8
TXT_DIM49
 10
1981.91449658
 20
-892.30786229
 30
0.0
 40
2.5
  1
20
  7
ARIAL
  0
LINE
  5
2E8
  8
0
 62
     4
 10
1992.76933662
 20
-894.80786229
 30
0.0
 11
1994.76933662
 21
-892.80786229
 31
0.0
  0
LINE
  5
2E9
  8
0
 62
     4
 10
1974.51933662
 20
-893.05786229
 30
0.0
 11
1973.01933662
 21
-894.55786229
 31
0.0
  0
LINE
  5
2EA
  8
0
 62
     4
 10
1993.76933662
 20
-893.80786229
 30
0.0
 11
1973.76933662
 21
-893.80786229
 31
0.0
  0
LINE
  5
2EB
  8
0
 62
     4
 10
1993.76933662
 20
-891.80786229
 30
0.0
 11
1993.76933662
 21
-895.80786229
 31
0.0
  0
LINE
  5
2EC
  8
0
 62
     4
 10
1973.76933662
 20
-891.80786229
 30
0.0
 11
1973.76933662
 21
-895.80786229
 31
0.0
  0
TEXT
  5
2ED
  8
TXT_DIM49
 10
1951.91449658
 20
-892.30786229
 30
0.0
 40
2.5
  1
40
  7
ARIAL
  0
LINE
  5
2EE
  8
0
 62
     4
 10
1972.76933662
 20
-894.80786229
 30
0.0
 11
1974.76933662
 21
-892.80786229
 31
0.0
  0
LINE
  5
2EF
  8
0
 62
     4
 10
1934.51933662
 20
-893.05786229
 30
0.0
 11
1933.01933662
 21
-894.55786229
 31
0.0
  0
LINE
  5
2F0
  8
0
 62
     4
 10
1973.76933662
 20
-893.80786229
 30
0.0
 11
1933.76933662
 21
-893.80786229
 31
0.0
  0
LINE
  5
2F1
  8
0
 62
     4
 10
1973.76933662
 20
-891.80786229
 30
0.0
 11
1973.76933662
 21
-895.80786229
 31
0.0
  0
LINE
  5
2F2
  8
0
 62
     4
 10
1933.76933662
 20
-891.80786229
 30
0.0
 11
1933.76933662
 21
-895.80786229
 31
0.0
  0
TEXT
  5
2F3
  8
TXT_DIM49
 10
1921.91449658
 20
-892.30786229
 30
0.0
 40
2.5
  1
20
  7
ARIAL
  0
LINE
  5
2F4
  8
0
 62
     4
 10
1932.76933662
 20
-894.80786229
 30
0.0
 11
1934.76933662
 21
-892.80786229
 31
0.0
  0
LINE
  5
2F5
  8
0
 62
     4
 10
1914.51933662
 20
-893.05786229
 30
0.0
 11
1913.01933662
 21
-894.55786229
 31
0.0
  0
LINE
  5
2F6
  8
0
 62
     4
 10
1933.76933662
 20
-893.80786229
 30
0.0
 11
1913.76933662
 21
-893.80786229
 31
0.0
  0
LINE
  5
2F7
  8
0
 62
     4
 10
1933.76933662
 20
-891.80786229
 30
0.0
 11
1933.76933662
 21
-895.80786229
 31
0.0
  0
LINE
  5
2F8
  8
0
 62
     4
 10
1913.76933662
 20
-891.80786229
 30
0.0
 11
1913.76933662
 21
-895.80786229
 31
0.0
  0
TEXT
  5
2F9
  8
TXT_DIM49
 10
1981.91449658
 20
-781.07530916
 30
0.0
 40
2.5
  1
20
  7
ARIAL
  0
LINE
  5
2FA
  8
0
 62
     4
 10
1992.76933662
 20
-783.57530916
 30
0.0
 11
1994.76933662
 21
-781.57530916
 31
0.0
  0
LINE
  5
2FB
  8
0
 62
     4
 10
1974.51933662
 20
-781.82530916
 30
0.0
 11
1973.01933662
 21
-783.32530916
 31
0.0
  0
LINE
  5
2FC
  8
0
 62
     4
 10
1993.76933662
 20
-782.57530916
 30
0.0
 11
1973.76933662
 21
-782.57530916
 31
0.0
  0
LINE
  5
2FD
  8
0
 62
     4
 10
1993.76933662
 20
-784.57530916
 30
0.0
 11
1993.76933662
 21
-780.57530916
 31
0.0
  0
LINE
  5
2FE
  8
0
 62
     4
 10
1973.76933662
 20
-784.57530916
 30
0.0
 11
1973.76933662
 21
-780.57530916
 31
0.0
  0
TEXT
  5
2FF
  8
TXT_DIM49
 10
1951.91449658
 20
-781.07530916
 30
0.0
 40
2.5
  1
40
  7
ARIAL
  0
LINE
  5
300
  8
0
 62
     4
 10
1972.76933662
 20
-783.57530916
 30
0.0
 11
1974.76933662
 21
-781.57530916
 31
0.0
  0
LINE
  5
301
  8
0
 62
     4
 10
1934.51933662
 20
-781.82530916
 30
0.0
 11
1933.01933662
 21
-783.32530916
 31
0.0
  0
LINE
  5
302
  8
0
 62
     4
 10
1973.76933662
 20
-782.57530916
 30
0.0
 11
1933.76933662
 21
-782.57530916
 31
0.0
  0
LINE
  5
303
  8
0
 62
     4
 10
1973.76933662
 20
-784.57530916
 30
0.0
 11
1973.76933662
 21
-780.57530916
 31
0.0
  0
LINE
  5
304
  8
0
 62
     4
 10
1933.76933662
 20
-784.57530916
 30
0.0
 11
1933.76933662
 21
-780.57530916
 31
0.0
  0
TEXT
  5
305
  8
TXT_DIM49
 10
1921.91449658
 20
-781.07530916
 30
0.0
 40
2.5
  1
20
  7
ARIAL
  0
LINE
  5
306
  8
0
 62
     4
 10
1932.76933662
 20
-783.57530916
 30
0.0
 11
1934.76933662
 21
-781.57530916
 31
0.0
  0
LINE
  5
307
  8
0
 62
     4
 10
1914.51933662
 20
-781.82530916
 30
0.0
 11
1913.01933662
 21
-783.32530916
 31
0.0
  0
LINE
  5
308
  8
0
 62
     4
 10
1933.76933662
 20
-782.57530916
 30
0.0
 11
1913.76933662
 21
-782.57530916
 31
0.0
  0
LINE
  5
309
  8
0
 62
     4
 10
1933.76933662
 20
-784.57530916
 30
0.0
 11
1933.76933662
 21
-780.57530916
 31
0.0
  0
LINE
  5
30A
  8
0
 62
     4
 10
1913.76933662
 20
-784.57530916
 30
0.0
 11
1913.76933662
 21
-780.57530916
 31
0.0
  0
TEXT
  5
30B
  8
TXT_DIM49
 10
1902.26933662
 20
-840.70533182
 30
0.0
 40
2.5
  1
100
 50
90.00020741
  7
ARIAL
  0
LINE
  5
30C
  8
0
 62
     4
 10
1904.76933662
 20
-788.92307188
 30
0.0
 11
1902.76933662
 21
-786.92307188
 31
0.0
  0
LINE
  5
30D
  8
0
 62
     4
 10
1903.01933662
 20
-887.17307188
 30
0.0
 11
1904.51933662
 21
-888.67307188
 31
0.0
  0
LINE
  5
30E
  8
0
 62
     4
 10
1903.76933662
 20
-787.92307188
 30
0.0
 11
1903.76933662
 21
-887.92307188
 31
0.0
  0
LINE
  5
30F
  8
0
 62
     4
 10
1905.76933662
 20
-787.92307188
 30
0.0
 11
1901.76933662
 21
-787.92307188
 31
0.0
  0
LINE
  5
310
  8
0
 62
     4
 10
1905.76933662
 20
-887.92307188
 30
0.0
 11
1901.76933662
 21
-887.92307188
 31
0.0
  0
LINE
  5
311
  8
0
 62
     5
 10
1953.76933662
 20
-804.92307188
 30
0.0
 11
1958.90114286
 21
-798.51555899
 31
0.0
  0
TEXT
  5
312
  8
TXT_DIM49
 10
1958.90114286
 20
-799.76555899
 30
0.0
 40
2.5
  1
Slobgat 10 x 50
  7
ARIAL
  0
LINE
  5
313
  8
0
 62
     5
 10
1953.76933662
 20
-860.92307188
 30
0.0
 11
1958.90114286
 21
-853.16126252
 31
0.0
  0
TEXT
  5
314
  8
TXT_DIM49
 10
1958.90114286
 20
-854.41126252
 30
0.0
 40
2.5
  1
Slobgat 10 x 50
  7
ARIAL
  0
TEXT
  5
315
  8
TXT_DIM49
 10
2093.83772153
 20
-670.27050746
 30
0.0
 40
2.5
  1
40
  7
ARIAL
  0
LINE
  5
316
  8
0
 62
     4
 10
2114.71327269
 20
-672.77050746
 30
0.0
 11
2116.71327269
 21
-670.77050746
 31
0.0
  0
LINE
  5
317
  8
0
 62
     4
 10
2076.42185045
 20
-671.02050746
 30
0.0
 11
2074.92185045
 21
-672.52050746
 31
0.0
  0
LINE
  5
318
  8
0
 62
     4
 10
2115.71327269
 20
-671.77050746
 30
0.0
 11
2075.67185045
 21
-671.77050746
 31
0.0
  0
LINE
  5
319
  8
0
 62
     4
 10
2115.71327269
 20
-673.77050746
 30
0.0
 11
2115.71327269
 21
-669.77050746
 31
0.0
  0
LINE
  5
31A
  8
0
 62
     4
 10
2075.67185045
 20
-673.77050746
 30
0.0
 11
2075.67185045
 21
-669.77050746
 31
0.0
  0
TEXT
  5
31B
  8
TXT_DIM49
 10
2063.85843265
 20
-670.27050746
 30
0.0
 40
2.5
  1
20
  7
ARIAL
  0
LINE
  5
31C
  8
0
 62
     4
 10
2074.67185045
 20
-672.77050746
 30
0.0
 11
2076.67185045
 21
-670.77050746
 31
0.0
  0
LINE
  5
31D
  8
0
 62
     4
 10
2056.50469493
 20
-671.02050746
 30
0.0
 11
2055.00469493
 21
-672.52050746
 31
0.0
  0
LINE
  5
31E
  8
0
 62
     4
 10
2075.67185045
 20
-671.77050746
 30
0.0
 11
2055.75469493
 21
-671.77050746
 31
0.0
  0
LINE
  5
31F
  8
0
 62
     4
 10
2075.67185045
 20
-673.77050746
 30
0.0
 11
2075.67185045
 21
-669.77050746
 31
0.0
  0
LINE
  5
320
  8
0
 62
     4
 10
2055.75469493
 20
-673.77050746
 30
0.0
 11
2055.75469493
 21
-669.77050746
 31
0.0
  0
TEXT
  5
321
  8
TXT_DIM49
 10
2033.87914377
 20
-670.27050746
 30
0.0
 40
2.5
  1
40
  7
ARIAL
  0
LINE
  5
322
  8
0
 62
     4
 10
2054.75469493
 20
-672.77050746
 30
0.0
 11
2056.75469493
 21
-670.77050746
 31
0.0
  0
LINE
  5
323
  8
0
 62
     4
 10
2016.46327269
 20
-671.02050746
 30
0.0
 11
2014.96327269
 21
-672.52050746
 31
0.0
  0
LINE
  5
324
  8
0
 62
     4
 10
2055.75469493
 20
-671.77050746
 30
0.0
 11
2015.71327269
 21
-671.77050746
 31
0.0
  0
LINE
  5
325
  8
0
 62
     4
 10
2055.75469493
 20
-673.77050746
 30
0.0
 11
2055.75469493
 21
-669.77050746
 31
0.0
  0
LINE
  5
326
  8
0
 62
     4
 10
2015.71327269
 20
-673.77050746
 30
0.0
 11
2015.71327269
 21
-669.77050746
 31
0.0
  0
TEXT
  5
327
  8
TXT_DIM49
 10
2062.93101275
 20
-765.9478372
 30
0.0
 40
2.5
  1
100
  7
ARIAL
  0
LINE
  5
328
  8
0
 62
     4
 10
2016.71327269
 20
-766.4478372
 30
0.0
 11
2014.71327269
 21
-768.4478372
 31
0.0
  0
LINE
  5
329
  8
0
 62
     4
 10
2114.96327269
 20
-768.1978372
 30
0.0
 11
2116.46327269
 21
-766.6978372
 31
0.0
  0
LINE
  5
32A
  8
0
 62
     4
 10
2015.71327269
 20
-767.4478372
 30
0.0
 11
2115.71327269
 21
-767.4478372
 31
0.0
  0
LINE
  5
32B
  8
0
 62
     4
 10
2015.71327269
 20
-765.4478372
 30
0.0
 11
2015.71327269
 21
-769.4478372
 31
0.0
  0
LINE
  5
32C
  8
0
 62
     4
 10
2115.71327269
 20
-765.4478372
 30
0.0
 11
2115.71327269
 21
-769.4478372
 31
0.0
  0
TEXT
  5
32D
  8
TXT_DIM49
 10
2124.21327269
 20
-695.91273787
 30
0.0
 40
2.5
  1
32
 50
90.00020741
  7
ARIAL
  0
LINE
  5
32E
  8
0
 62
     4
 10
2126.71327269
 20
-679.2360173
 30
0.0
 11
2124.71327269
 21
-677.2360173
 31
0.0
  0
LINE
  5
32F
  8
0
 62
     4
 10
2124.96327269
 20
-709.12977837
 30
0.0
 11
2126.46327269
 21
-710.62977837
 31
0.0
  0
LINE
  5
330
  8
0
 62
     4
 10
2125.71327269
 20
-678.2360173
 30
0.0
 11
2125.71327269
 21
-709.87977837
 31
0.0
  0
LINE
  5
331
  8
0
 62
     4
 10
2123.71327269
 20
-678.2360173
 30
0.0
 11
2127.71327269
 21
-678.2360173
 31
0.0
  0
LINE
  5
332
  8
0
 62
     4
 10
2123.71327269
 20
-709.87977837
 30
0.0
 11
2127.71327269
 21
-709.87977837
 31
0.0
  0
TEXT
  5
333
  8
TXT_DIM49
 10
2124.21327269
 20
-720.09085734
 30
0.0
 40
2.5
  1
17
 50
90.00020741
  7
ARIAL
  0
LINE
  5
334
  8
0
 62
     4
 10
2126.71327269
 20
-710.87977837
 30
0.0
 11
2124.71327269
 21
-708.87977837
 31
0.0
  0
LINE
  5
335
  8
0
 62
     4
 10
2124.96327269
 20
-725.84225622
 30
0.0
 11
2126.46327269
 21
-727.34225622
 31
0.0
  0
LINE
  5
336
  8
0
 62
     4
 10
2125.71327269
 20
-709.87977837
 30
0.0
 11
2125.71327269
 21
-726.59225622
 31
0.0
  0
LINE
  5
337
  8
0
 62
     4
 10
2123.71327269
 20
-709.87977837
 30
0.0
 11
2127.71327269
 21
-709.87977837
 31
0.0
  0
LINE
  5
338
  8
0
 62
     4
 10
2123.71327269
 20
-726.59225622
 30
0.0
 11
2127.71327269
 21
-726.59225622
 31
0.0
  0
TEXT
  5
339
  8
TXT_DIM49
 10
2124.21327269
 20
-744.2689768
 30
0.0
 40
2.5
  1
32
 50
90.00020741
  7
ARIAL
  0
LINE
  5
33A
  8
0
 62
     4
 10
2126.71327269
 20
-727.59225622
 30
0.0
 11
2124.71327269
 21
-725.59225622
 31
0.0
  0
LINE
  5
33B
  8
0
 62
     4
 10
2124.96327269
 20
-757.4860173
 30
0.0
 11
2126.46327269
 21
-758.9860173
 31
0.0
  0
LINE
  5
33C
  8
0
 62
     4
 10
2125.71327269
 20
-726.59225622
 30
0.0
 11
2125.71327269
 21
-758.2360173
 31
0.0
  0
LINE
  5
33D
  8
0
 62
     4
 10
2123.71327269
 20
-726.59225622
 30
0.0
 11
2127.71327269
 21
-726.59225622
 31
0.0
  0
LINE
  5
33E
  8
0
 62
     4
 10
2123.71327269
 20
-758.2360173
 30
0.0
 11
2127.71327269
 21
-758.2360173
 31
0.0
  0
TEXT
  5
33F
  8
TXT_DIM49
 10
2076.73907989
 20
-729.09270846
 30
0.0
 40
2.5
  1
40
 50
290.0017488570001
  7
ARIAL
  0
TEXT
  5
340
  8
TXT_DIM49
 10
2078.00786521
 20
-732.57866746
 30
0.0
 40
2.5
  1
°
 50
290.0017488570001
  7
ARIAL
  0
LINE
  5
341
  8
0
 62
     4
 10
2070.83118335
 20
-724.35847473
 30
0.0
 11
2071.13398975
 21
-721.54630328
 31
0.0
  0
LINE
  5
342
  8
0
 62
     4
 10
2078.7361063
 20
-741.47117025
 30
0.0
 11
2077.26640021
 21
-743.00086434
 31
0.0
  0
POLYLINE
  5
343
  8
0
 62
     4
 66
     1
 10
0.0
 20
0.0
 30
0.0
  0
VERTEX
  5
436
  8
0
 62
     4
 10
2078.00125326
 20
-742.2360173
 30
0.0
  0
VERTEX
  5
437
  8
0
 62
     4
 10
2077.545485851405
 20
-737.0265719758842
 30
0.0
  0
VERTEX
  5
438
  8
0
 62
     4
 10
2076.19203188767
 20
-731.9754130114742
 30
0.0
  0
VERTEX
  5
439
  8
0
 62
     4
 10
2073.982015382508
 20
-727.2360173155442
 30
0.0
  0
VERTEX
  5
43A
  8
0
 62
     4
 10
2070.982586568952
 20
-722.9523890277367
 30
0.0
  0
SEQEND
  5
44B
  8
0
 62
     4
  0
LINE
  5
344
  8
0
 62
     4
 10
2048.00125326
 20
-742.2360173
 30
0.0
 11
2080.00125326
 21
-742.2360173
 31
0.0
  0
LINE
  5
345
  8
0
 62
     5
 10
2061.21375942
 20
-712.87370619
 30
0.0
 11
2055.03453436
 21
-705.77058119
 31
0.0
  0
TEXT
  5
346
  8
TXT_DIM49
 10
2031.96342331
 20
-707.02058119
 30
0.0
 40
2.5
  1
Slobgat 14 x 40
  7
ARIAL
  0
ENDSEC
  0
EOF
