  0
SECTION
  2
HEADER
  9
$ACADVER
  1
AC1006
  9
$DWGCODEPAGE
  3
ansi_1252
  9
$INSBASE
 10
0.0
 20
0.0
 30
0.0
  9
$EXTMIN
 10
-269.62414446
 20
-143.28111912
  9
$EXTMAX
 10
732.96765163
 20
318.64738543
  9
$LIMMIN
 10
-269.62414446
 20
-143.28111912
  9
$LIMMAX
 10
732.96765163
 20
318.64738543
  9
$ORTHOMODE
 70
     0
  9
$REGENMODE
 70
     1
  9
$FILLMODE
 70
     1
  9
$QTEXTMODE
 70
     0
  9
$MIRRTEXT
 70
     1
  9
$DRAGMODE
 70
     2
  9
$LTSCALE
 40
1.0
  9
$OSMODE
 70
    37
  9
$ATTMODE
 70
     1
  9
$TEXTSIZE
 40
1.0
  9
$TRACEWID
 40
0.05
  9
$TEXTSTYLE
  7
STANDARD
  9
$CLAYER
  8
0
  9
$CELTYPE
  6
BYBLOCK
  9
$CECOLOR
 62
   256
  9
$DIMSCALE
 40
1.0
  9
$DIMASZ
 40
0.18
  9
$DIMEXO
 40
0.0625
  9
$DIMDLI
 40
0.38
  9
$DIMRND
 40
0.0
  9
$DIMDLE
 40
0.0
  9
$DIMEXE
 40
0.18
  9
$DIMTP
 40
0.0
  9
$DIMTM
 40
0.0
  9
$DIMTXT
 40
0.18
  9
$DIMCEN
 40
0.09
  9
$DIMTSZ
 40
0.0
  9
$DIMTOL
 70
     0
  9
$DIMLIM
 70
     0
  9
$DIMTIH
 70
     1
  9
$DIMTOH
 70
     1
  9
$DIMSE1
 70
     0
  9
$DIMSE2
 70
     0
  9
$DIMTAD
 70
     0
  9
$DIMZIN
 70
     0
  9
$DIMBLK
  1

  9
$DIMASO
 70
     1
  9
$DIMSHO
 70
     1
  9
$DIMPOST
  1

  9
$DIMAPOST
  1

  9
$DIMALT
 70
     0
  9
$DIMALTD
 70
     2
  9
$DIMALTF
 40
25.4
  9
$DIMLFAC
 40
1.0
  9
$DIMTOFL
 70
     0
  9
$DIMTVP
 40
0.0
  9
$DIMTIX
 70
     0
  9
$DIMSOXD
 70
     0
  9
$DIMSAH
 70
     0
  9
$DIMBLK1
  1

  9
$DIMBLK2
  1

  9
$LUNITS
 70
     2
  9
$LUPREC
 70
     4
  9
$SKETCHINC
 40
0.1
  9
$FILLETRAD
 40
0.5
  9
$AUNITS
 70
     0
  9
$AUPREC
 70
     0
  9
$MENU
  1
.
  9
$ELEVATION
 40
0.0
  9
$THICKNESS
 40
0.0
  9
$LIMCHECK
 70
     0
  9
$CHAMFERA
 40
0.0
  9
$CHAMFERB
 40
0.0
  9
$SKPOLY
 70
     0
  9
$TDCREATE
 40
2447893.125
  9
$TDUPDATE
 40
2460791.477327662
  9
$TDINDWG
 40
0.0
  9
$TDUSRTIMER
 40
0.0
  9
$USRTIMER
 70
     1
  9
$ANGBASE
 50
0.0
  9
$ANGDIR
 70
     0
  9
$PDMODE
 70
     0
  9
$PDSIZE
 40
0.0
  9
$PLINEWID
 40
0.0
  9
$COORDS
 70
     1
  9
$SPLFRAME
 70
     0
  9
$SPLINETYPE
 70
     6
  9
$SPLINESEGS
 70
     8
  9
$ATTDIA
 70
     0
  9
$ATTREQ
 70
     1
  9
$HANDLING
 70
     1
  9
$HANDSEED
  5
530
  9
$SURFTAB1
 70
     6
  9
$SURFTAB2
 70
     6
  9
$SURFTYPE
 70
     6
  9
$SURFU
 70
     6
  9
$SURFV
 70
     6
  9
$UCSNAME
  2

  9
$UCSORG
 10
0.0
 20
0.0
 30
0.0
  9
$UCSXDIR
 10
1.0
 20
0.0
 30
0.0
  9
$UCSYDIR
 10
0.0
 20
1.0
 30
0.0
  9
$USERI1
 70
     0
  9
$USERI2
 70
     0
  9
$USERI3
 70
     0
  9
$USERI4
 70
     0
  9
$USERI5
 70
     0
  9
$USERR1
 40
0.0
  9
$USERR2
 40
0.0
  9
$USERR3
 40
0.0
  9
$USERR4
 40
0.0
  9
$USERR5
 40
0.0
  9
$WORLDVIEW
 70
     1
  0
ENDSEC
  0
SECTION
  2
TABLES
  0
TABLE
  2
VPORT
 70
     1
  0
VPORT
  2
*ACTIVE
 70
     0
 10
0.0
 20
0.0
 11
1.0
 21
1.0
 12
231.67175359
 22
87.68313316
 13
0.0
 23
0.0
 14
1.0
 24
1.0
 15
0.0
 25
0.0
 16
0.0
 26
0.0
 36
1.0
 17
0.0
 27
0.0
 37
0.0
 40
461.928504553
 41
2.170447994
 42
50.0
 43
0.0
 44
0.0
 50
0.0
 51
0.0
 71
     0
 72
   100
 73
     1
 74
     1
 75
     0
 76
     0
 77
     0
 78
     0
  0
ENDTAB
  0
TABLE
  2
LTYPE
 70
    19
  0
LTYPE
  2
CONTINUOUS
 70
     0
  3
Solid line
 72
    65
 73
     0
 40
0.0
  0
LTYPE
  2
DOT
 70
     0
  3
..............
 72
    65
 73
     2
 40
2.0
 49
0.5
 49
-1.5
  0
LTYPE
  2
HIDDEN
 70
     0
  3
-- -- -- -- --
 72
    65
 73
     2
 40
7.0
 49
4.0
 49
-3.0
  0
LTYPE
  2
DASHDOT
 70
     0
  3
--.--.--.--.--
 72
    65
 73
     4
 40
8.5
 49
4.0
 49
-2.0
 49
0.5
 49
-2.0
  0
LTYPE
  2
STRICHPUNKT2
 70
     0
  3
--.--.--.--.--
 72
    65
 73
     4
 40
18.5
 49
10.0
 49
-4.0
 49
0.5
 49
-4.0
  0
LTYPE
  2
STRICHPUNKT3
 70
     0
  3
--.--.--.--.--
 72
    65
 73
     4
 40
35.5
 49
25.0
 49
-5.0
 49
0.5
 49
-5.0
  0
LTYPE
  2
PHANTOM
 70
     0
  3
--..--..--..--
 72
    65
 73
     6
 40
23.0
 49
10.0
 49
-4.0
 49
0.5
 49
-4.0
 49
0.5
 49
-4.0
  0
LTYPE
  2
PHANTOM2
 70
     0
  3
--..--..--..--
 72
    65
 73
     6
 40
33.0
 49
20.0
 49
-4.0
 49
0.5
 49
-4.0
 49
0.5
 49
-4.0
  0
LTYPE
  2
PHANTOM3
 70
     0
  3
--..--..--..--
 72
    65
 73
     6
 40
50.0
 49
37.0
 49
-4.0
 49
0.5
 49
-4.0
 49
0.5
 49
-4.0
  0
LTYPE
  2
STR3PKT
 70
     0
  3
--...--...--...
 72
    65
 73
     8
 40
31.5
 49
20.0
 49
-2.5
 49
0.5
 49
-2.5
 49
0.5
 49
-2.5
 49
0.5
 49
-2.5
  0
LTYPE
  2
2STRPKT
 70
     0
  3
--.--.--.--.--
 72
    65
 73
     6
 40
28.0
 49
10.0
 49
-2.5
 49
10.0
 49
-2.5
 49
0.5
 49
-2.5
  0
LTYPE
  2
GESTRICHELT2
 70
     0
  3
-- -- -- -- --
 72
    65
 73
     2
 40
25.0
 49
10.0
 49
-15.0
  0
LTYPE
  2
2STR2PKT
 70
     0
  3
--..--..--..--
 72
    65
 73
     8
 40
31.0
 49
10.0
 49
-2.5
 49
10.0
 49
-2.5
 49
0.5
 49
-2.5
 49
0.5
 49
-2.5
  0
LTYPE
  2
STR3PKT2
 70
     0
  3
--...--...--...
 72
    65
 73
     8
 40
21.0
 49
10.0
 49
-2.5
 49
0.5
 49
-2.5
 49
0.5
 49
-2.5
 49
0.5
 49
-2.0
  0
LTYPE
  2
2STR3PKT
 70
     0
  3
--...--...--...
 72
    65
 73
    10
 40
34.0
 49
10.0
 49
-2.5
 49
10.0
 49
-2.5
 49
0.5
 49
-2.5
 49
0.5
 49
-2.5
 49
0.5
 49
-2.5
  0
LTYPE
  2
STRKSTR
 70
     0
  3
-- - -- - -- -
 72
    65
 73
     4
 40
30.0
 49
20.0
 49
-2.5
 49
5.0
 49
-2.5
  0
LTYPE
  2
STRKSTR2
 70
     0
  3
-- - -- - -- -
 72
    65
 73
     6
 40
37.5
 49
20.0
 49
-2.5
 49
5.0
 49
-2.5
 49
5.0
 49
-2.5
  0
LTYPE
  2
STRKSTR3
 70
     0
  3
-- - -- - -- -
 72
    65
 73
     8
 40
45.0
 49
20.0
 49
-2.5
 49
5.0
 49
-2.5
 49
5.0
 49
-2.5
 49
5.0
 49
-2.5
  0
LTYPE
  2
PUNKT2
 70
     0
  3
..............
 72
    65
 73
     2
 40
3.5
 49
0.5
 49
-3.0
  0
ENDTAB
  0
TABLE
  2
LAYER
 70
    17
  0
LAYER
  2
0
 70
     0
 62
     7
  6
CONTINUOUS
  0
LAYER
  2
LE_GREEN
 70
     0
 62
     3
  6
CONTINUOUS
  0
LAYER
  2
LE_RED
 70
     0
 62
     1
  6
CONTINUOUS
  0
LAYER
  2
LE_ALL
 70
     0
 62
     7
  6
CONTINUOUS
  0
LAYER
  2
LE_HIDDEN1
 70
     0
 62
     3
  6
HIDDEN
  0
LAYER
  2
LE_HIDDEN
 70
     0
 62
     7
  6
CONTINUOUS
  0
LAYER
  2
LE_MIDDLE
 70
     0
 62
     7
  6
CONTINUOUS
  0
LAYER
  2
TXT_YELLOW
 70
     0
 62
     2
  6
CONTINUOUS
  0
LAYER
  2
TXT_DIM49
 70
     0
 62
     2
  6
CONTINUOUS
  0
LAYER
  2
TXT_ALL
 70
     0
 62
     7
  6
CONTINUOUS
  0
LAYER
  2
DIM49
 70
     0
 62
     4
  6
CONTINUOUS
  0
LAYER
  2
HATCH
 70
     0
 62
     3
  6
CONTINUOUS
  0
LAYER
  2
APPLE
 70
     0
 62
     7
  6
CONTINUOUS
  0
LAYER
  2
10
 70
     0
 62
     7
  6
CONTINUOUS
  0
LAYER
  2
20
 70
     0
 62
     7
  6
CONTINUOUS
  0
LAYER
  2
47
 70
     0
 62
     7
  6
CONTINUOUS
  0
LAYER
  2
49
 70
     0
 62
     7
  6
CONTINUOUS
  0
ENDTAB
  0
TABLE
  2
STYLE
 70
     5
  0
STYLE
  2
MONOTXT
 70
     0
 40
0.0
 41
1.0
 50
0.0
 71
     0
 42
1.0
  3
monotxt.shx
  4

  0
STYLE
  2
STANDARD
 70
     0
 40
0.0
 41
1.0
 50
0.0
 71
     0
 42
1.0
  3
txt
  4

  0
STYLE
  2
ARIAL
 70
     0
 40
0.0
 41
1.0
 50
0.0
 71
     0
 42
1.0
  3
arial.ttf
  4

  0
STYLE
  2
ARIAL_NARROW
 70
     0
 40
0.0
 41
1.0
 50
0.0
 71
     0
 42
1.0
  3
ArialN.ttf
  4

  0
STYLE
  2
ISOCPEUR
 70
     0
 40
0.0
 41
1.0
 50
0.0
 71
     0
 42
1.0
  3
ISOCPEUR.ttf
  4

  0
ENDTAB
  0
TABLE
  2
VIEW
 70
     0
  0
ENDTAB
  0
TABLE
  2
UCS
 70
     0
  0
ENDTAB
  0
ENDSEC
  0
SECTION
  2
BLOCKS
  0
ENDSEC
  0
SECTION
  2
ENTITIES
  0
POLYLINE
  5
16E
  8
0
 66
     1
 10
0.0
 20
0.0
 30
0.0
 70
     1
  0
VERTEX
  5
16F
  8
0
 10
-15.98320085
 20
-35.56211227
 30
0.0
  0
VERTEX
  5
170
  8
0
 10
404.01679915
 20
-35.56211227
 30
0.0
  0
VERTEX
  5
171
  8
0
 10
404.01679915
 20
261.43788773
 30
0.0
  0
VERTEX
  5
172
  8
0
 10
-15.98320085
 20
261.43788773
 30
0.0
  0
SEQEND
  5
173
  8
0
  0
POLYLINE
  5
174
  8
0
 66
     1
 10
0.0
 20
0.0
 30
0.0
 70
     1
  0
VERTEX
  5
175
  8
0
 10
-10.98320085
 20
-30.56211227
 30
0.0
  0
VERTEX
  5
176
  8
0
 10
399.01679915
 20
-30.56211227
 30
0.0
  0
VERTEX
  5
177
  8
0
 10
399.01679915
 20
256.43788773
 30
0.0
  0
VERTEX
  5
178
  8
0
 10
-10.98320085
 20
256.43788773
 30
0.0
  0
SEQEND
  5
179
  8
0
  0
LINE
  5
17A
  8
0
 10
214.01679915
 20
-30.56211227
 30
0.0
 11
214.01679915
 21
-35.56211227
 31
0.0
  0
LINE
  5
17B
  8
0
 10
214.01679915
 20
256.43788773
 30
0.0
 11
214.01679915
 21
261.43788773
 31
0.0
  0
LINE
  5
17C
  8
0
 10
4.01679915
 20
-30.56211227
 30
0.0
 11
4.01679915
 21
-35.56211227
 31
0.0
  0
LINE
  5
17D
  8
0
 10
4.01679915
 20
256.43788773
 30
0.0
 11
4.01679915
 21
261.43788773
 31
0.0
  0
TEXT
  5
17E
  8
TXT_ALL
 62
     4
 10
403.01679915
 20
-34.56211227
 30
0.0
 40
2.5
  1

 50
90.00020741
  0
POLYLINE
  5
17F
  8
0
 66
     1
 10
0.0
 20
0.0
 30
0.0
  0
VERTEX
  5
180
  8
0
 10
399.01679915
 20
246.43788773
 30
0.0
  0
VERTEX
  5
181
  8
0
 10
330.02349915
 20
246.43788773
 30
0.0
  0
VERTEX
  5
182
  8
0
 10
330.02349915
 20
256.43788773
 30
0.0
  0
SEQEND
  5
183
  8
0
  0
LINE
  5
184
  8
0
 10
331.92679915
 20
-11.06211227
 30
0.0
 11
192.03679915
 21
-11.06211227
 31
0.0
  0
LINE
  5
185
  8
0
 10
192.03679915
 20
-20.81211227
 30
0.0
 11
331.92679915
 21
-20.81211227
 31
0.0
  0
POLYLINE
  5
186
  8
0
 66
     1
 10
0.0
 20
0.0
 30
0.0
  0
VERTEX
  5
187
  8
0
 10
192.03679915
 20
-11.06211227
 30
0.0
  0
VERTEX
  5
188
  8
0
 10
192.03679915
 20
-20.81211227
 30
0.0
  0
VERTEX
  5
189
  8
0
 10
192.03679915
 20
-30.56211227
 30
0.0
  0
SEQEND
  5
18A
  8
0
  0
POLYLINE
  5
18B
  8
0
 66
     1
 10
0.0
 20
0.0
 30
0.0
  0
VERTEX
  5
18C
  8
0
 10
261.98179915
 20
-11.06211227
 30
0.0
  0
VERTEX
  5
18D
  8
0
 10
261.98179915
 20
-20.81211227
 30
0.0
  0
VERTEX
  5
18E
  8
0
 10
261.98179915
 20
-30.56211227
 30
0.0
  0
SEQEND
  5
18F
  8
0
  0
TEXT
  5
190
  8
TXT_ALL
 10
194.03679915
 20
-17.23711222
 30
0.0
 40
2.5999999
  1
E-mail: verkoop@jonkers-bouwmetaal.nl
  7
ARIAL
  0
TEXT
  5
191
  8
TXT_ALL
 10
194.03679915
 20
-26.98711222
 30
0.0
 40
2.5999999
  1
Telefoon: 0527-685156
  7
ARIAL
  0
TEXT
  5
192
  8
TXT_ALL
 10
263.98179915
 20
-26.98711222
 30
0.0
 40
2.5999999
  1
Website: www.jonkers-bouwmetaal.nl
  7
ARIAL
  0
TEXT
  5
193
  8
TXT_ALL
 10
263.98179915
 20
-17.23711222
 30
0.0
 40
2.5999999
  1
Adres: Hoornse Hop 10, 8321 WX Urk
  7
ARIAL
  0
TEXT
  5
194
  8
TXT_ALL
 10
-7.5412406
 20
250.18788773
 30
0.0
 40
2.5
  1
Art. nr. 91006665
  7
ARIAL
  0
TEXT
  5
195
  8
TXT_ALL
 10
35.19679622
 20
250.18788773
 30
0.0
 40
2.5
  1
Omschrijving: H1701-anker 170x160 70x8
  7
ARIAL
  0
LINE
  5
196
  8
0
 10
399.01679915
 20
246.43788773
 30
0.0
 11
-10.98320085
 21
246.43788773
 31
0.0
  0
LINE
  5
197
  8
0
 10
32.03679915
 20
246.43788773
 30
0.0
 11
32.03679915
 21
256.43788773
 31
0.0
  0
LINE
  5
198
  8
0
 10
192.03679915
 20
246.43788773
 30
0.0
 11
192.03679915
 21
256.43788773
 31
0.0
  0
TEXT
  5
199
  8
TXT_ALL
 10
263.03049915
 20
250.18788773
 30
0.0
 40
2.5
  1
Behandeling: Thermisch Verzinkt
  7
ARIAL
  0
LINE
  5
19A
  8
0
 10
331.92679915
 20
-11.06211227
 30
0.0
 11
399.01679915
 21
-11.06211227
 31
0.0
  0
LINE
  5
19B
  8
0
 10
331.92679915
 20
-30.56211227
 30
0.0
 11
331.92679915
 21
-11.06211227
 31
0.0
  0
LINE
  5
19C
  8
0
 10
331.92679915
 20
-30.56211227
 30
0.0
 11
331.92679915
 21
-11.06211227
 31
0.0
  0
TEXT
  5
19D
  8
TXT_ALL
 10
126.38199724
 20
-29.40757886
 30
0.0
 40
2.5
  1

  0
TEXT
  5
19E
  8
TXT_ALL
 10
247.5171802
 20
-19.31211227
 30
0.0
 40
2.5
  1

  0
POLYLINE
  5
19F
  8
0
 66
     1
 10
0.0
 20
0.0
 30
0.0
  0
VERTEX
  5
1A0
  8
0
 10
330.02349915
 20
246.43788773
 30
0.0
  0
VERTEX
  5
1A1
  8
0
 10
261.03049915
 20
246.43788773
 30
0.0
  0
VERTEX
  5
1A2
  8
0
 10
261.03049915
 20
256.43788773
 30
0.0
  0
SEQEND
  5
1A3
  8
0
  0
TEXT
  5
1A4
  8
TXT_ALL
 10
332.02349915
 20
250.18788773
 30
0.0
 40
2.5
  1
Verpakkingshoeveelheid: 1 st.
  7
ARIAL
  0
TEXT
  5
1A5
  8
TXT_ALL
 10
194.03679915
 20
250.18788773
 30
0.0
 40
2.5
  1
Materiaal: S355
  7
ARIAL
  0
TEXT
  5
1A6
  8
TXT_ALL
 10
366.79844637
 20
-33.81162212
 30
0.0
 40
1.5
  1
Onderdeel van
  7
ARIAL
  0
POLYLINE
  5
1A7
  8
0
 66
     1
 10
0.0
 20
0.0
 30
0.0
  0
VERTEX
  5
3A6
  8
0
 10
30.25071447
 20
54.31452995999999
 30
0.0
  0
VERTEX
  5
3A7
  8
0
 10
30.51840206475099
 20
54.35827096093148
 30
0.0
  0
VERTEX
  5
3A8
  8
0
 10
30.79501729493307
 20
54.55284312820928
 30
0.0
  0
VERTEX
  5
3A9
  8
0
 10
31.06992999240216
 20
54.89076916257924
 30
0.0
  0
VERTEX
  5
3AA
  8
0
 10
31.33257541639141
 20
55.35906275608124
 30
0.0
  0
VERTEX
  5
3AB
  8
0
 10
31.57286025057315
 20
55.93972764858004
 30
0.0
  0
VERTEX
  5
3AC
  8
0
 10
31.7815504835441
 20
56.61044921394839
 30
0.0
  0
VERTEX
  5
3AD
  8
0
 10
31.95062626670429
 20
57.34545199863287
 30
0.0
  0
VERTEX
  5
3AE
  8
0
 10
32.07359011254046
 20
58.11649025787672
 30
0.0
  0
VERTEX
  5
3AF
  8
0
 10
32.14571658942682
 20
58.89393342384793
 30
0.0
  0
VERTEX
  5
3B0
  8
0
 10
32.16423391731193
 20
59.64790479174144
 30
0.0
  0
VERTEX
  5
3B1
  8
0
 10
32.12843048567142
 20
60.34942966478712
 30
0.0
  0
VERTEX
  5
3B2
  8
0
 10
32.03968220030131
 20
60.9715488355949
 30
0.0
  0
VERTEX
  5
3B3
  8
0
 10
31.90139960802999
 20
61.49035461337358
 30
0.0
  0
VERTEX
  5
3B4
  8
0
 10
31.71889683131657
 20
61.88590958307815
 30
0.0
  0
VERTEX
  5
3B5
  8
0
 10
31.49918734950543
 20
62.14301278908729
 30
0.0
  0
VERTEX
  5
3B6
  8
0
 10
31.25071447474885
 20
62.2517838994017
 30
0.0
  0
SEQEND
  5
517
  8
0
  0
POLYLINE
  5
1A8
  8
0
 66
     1
 10
0.0
 20
0.0
 30
0.0
  0
VERTEX
  5
3B7
  8
0
 10
31.25071447474885
 20
62.2517838994017
 30
0.0
  0
VERTEX
  5
3B8
  8
0
 10
30.9830268796308
 20
62.208042900987
 30
0.0
  0
VERTEX
  5
3B9
  8
0
 10
30.70641164887261
 20
62.01347073546509
 30
0.0
  0
VERTEX
  5
3BA
  8
0
 10
30.43149895068891
 20
61.67554470205668
 30
0.0
  0
VERTEX
  5
3BB
  8
0
 10
30.16885352592216
 20
61.20725110874414
 30
0.0
  0
VERTEX
  5
3BC
  8
0
 10
29.92856869097587
 20
60.6265862157374
 30
0.0
  0
VERTEX
  5
3BD
  8
0
 10
29.71987845732479
 20
59.95586464928489
 30
0.0
  0
VERTEX
  5
3BE
  8
0
 10
29.55080267363157
 20
59.22086186309913
 30
0.0
  0
VERTEX
  5
3BF
  8
0
 10
29.42783882745954
 20
58.44982360212327
 30
0.0
  0
VERTEX
  5
3C0
  8
0
 10
29.35571235046893
 20
57.67238043439087
 30
0.0
  0
VERTEX
  5
3C1
  8
0
 10
29.33719502272783
 20
56.91840906491079
 30
0.0
  0
VERTEX
  5
3C2
  8
0
 10
29.3729984547583
 20
56.21688419064614
 30
0.0
  0
VERTEX
  5
3C3
  8
0
 10
29.46174674074307
 20
55.59476501915665
 30
0.0
  0
VERTEX
  5
3C4
  8
0
 10
29.6000293338146
 20
55.07595924136866
 30
0.0
  0
VERTEX
  5
3C5
  8
0
 10
29.7825321114588
 20
54.68040427241834
 30
0.0
  0
VERTEX
  5
3C6
  8
0
 10
30.00224159426357
 20
54.42330106796731
 30
0.0
  0
VERTEX
  5
3C7
  8
0
 10
30.25071447
 20
54.31452995999999
 30
0.0
  0
SEQEND
  5
518
  8
0
  0
POLYLINE
  5
1A9
  8
0
 66
     1
 10
0.0
 20
0.0
 30
0.0
  0
VERTEX
  5
3C8
  8
0
 10
30.25071447
 20
88.88419481999999
 30
0.0
  0
VERTEX
  5
3C9
  8
0
 10
30.51840206475099
 20
88.92793582093148
 30
0.0
  0
VERTEX
  5
3CA
  8
0
 10
30.79501729493307
 20
89.12250798820928
 30
0.0
  0
VERTEX
  5
3CB
  8
0
 10
31.06992999240216
 20
89.46043402257924
 30
0.0
  0
VERTEX
  5
3CC
  8
0
 10
31.33257541639141
 20
89.92872761608123
 30
0.0
  0
VERTEX
  5
3CD
  8
0
 10
31.57286025057315
 20
90.50939250858005
 30
0.0
  0
VERTEX
  5
3CE
  8
0
 10
31.7815504835441
 20
91.18011407394837
 30
0.0
  0
VERTEX
  5
3CF
  8
0
 10
31.95062626670429
 20
91.91511685863287
 30
0.0
  0
VERTEX
  5
3D0
  8
0
 10
32.07359011254046
 20
92.68615511787672
 30
0.0
  0
VERTEX
  5
3D1
  8
0
 10
32.14571658942682
 20
93.46359828384793
 30
0.0
  0
VERTEX
  5
3D2
  8
0
 10
32.16423391731193
 20
94.21756965174144
 30
0.0
  0
VERTEX
  5
3D3
  8
0
 10
32.12843048567142
 20
94.9190945247871
 30
0.0
  0
VERTEX
  5
3D4
  8
0
 10
32.03968220030131
 20
95.54121369559489
 30
0.0
  0
VERTEX
  5
3D5
  8
0
 10
31.90139960802999
 20
96.06001947337357
 30
0.0
  0
VERTEX
  5
3D6
  8
0
 10
31.71889683131657
 20
96.45557444307815
 30
0.0
  0
VERTEX
  5
3D7
  8
0
 10
31.49918734950543
 20
96.71267764908728
 30
0.0
  0
VERTEX
  5
3D8
  8
0
 10
31.25071447474885
 20
96.82144875940169
 30
0.0
  0
SEQEND
  5
519
  8
0
  0
POLYLINE
  5
1AA
  8
0
 66
     1
 10
0.0
 20
0.0
 30
0.0
  0
VERTEX
  5
3D9
  8
0
 10
31.25071447474885
 20
96.82144875940169
 30
0.0
  0
VERTEX
  5
3DA
  8
0
 10
30.9830268796308
 20
96.777707760987
 30
0.0
  0
VERTEX
  5
3DB
  8
0
 10
30.70641164887261
 20
96.5831355954651
 30
0.0
  0
VERTEX
  5
3DC
  8
0
 10
30.43149895068891
 20
96.24520956205667
 30
0.0
  0
VERTEX
  5
3DD
  8
0
 10
30.16885352592216
 20
95.77691596874415
 30
0.0
  0
VERTEX
  5
3DE
  8
0
 10
29.92856869097587
 20
95.1962510757374
 30
0.0
  0
VERTEX
  5
3DF
  8
0
 10
29.71987845732479
 20
94.5255295092849
 30
0.0
  0
VERTEX
  5
3E0
  8
0
 10
29.55080267363157
 20
93.79052672309913
 30
0.0
  0
VERTEX
  5
3E1
  8
0
 10
29.42783882745954
 20
93.01948846212326
 30
0.0
  0
VERTEX
  5
3E2
  8
0
 10
29.35571235046893
 20
92.24204529439086
 30
0.0
  0
VERTEX
  5
3E3
  8
0
 10
29.33719502272783
 20
91.48807392491078
 30
0.0
  0
VERTEX
  5
3E4
  8
0
 10
29.3729984547583
 20
90.78654905064613
 30
0.0
  0
VERTEX
  5
3E5
  8
0
 10
29.46174674074307
 20
90.16442987915664
 30
0.0
  0
VERTEX
  5
3E6
  8
0
 10
29.6000293338146
 20
89.64562410136864
 30
0.0
  0
VERTEX
  5
3E7
  8
0
 10
29.7825321114588
 20
89.25006913241833
 30
0.0
  0
VERTEX
  5
3E8
  8
0
 10
30.00224159426357
 20
88.9929659279673
 30
0.0
  0
VERTEX
  5
3E9
  8
0
 10
30.25071447
 20
88.88419481999999
 30
0.0
  0
SEQEND
  5
51A
  8
0
  0
POLYLINE
  5
1AB
  8
0
 66
     1
 10
0.0
 20
0.0
 30
0.0
  0
VERTEX
  5
3EA
  8
0
 10
36.22660431310921
 20
104.7990087896083
 30
0.0
  0
VERTEX
  5
3EB
  8
0
 10
36.4496773086553
 20
104.8354596252066
 30
0.0
  0
VERTEX
  5
3EC
  8
0
 10
36.68019000039234
 20
104.9976030990957
 30
0.0
  0
VERTEX
  5
3ED
  8
0
 10
36.90928391488588
 20
105.2792081285304
 30
0.0
  0
VERTEX
  5
3EE
  8
0
 10
37.12815510151511
 20
105.6694527901995
 30
0.0
  0
VERTEX
  5
3EF
  8
0
 10
37.32839246335647
 20
106.1533402006678
 30
0.0
  0
VERTEX
  5
3F0
  8
0
 10
37.50230099092009
 20
106.7122748381939
 30
0.0
  0
VERTEX
  5
3F1
  8
0
 10
37.64319747704792
 20
107.3247771581991
 30
0.0
  0
VERTEX
  5
3F2
  8
0
 10
37.74566734881574
 20
107.9673090401166
 30
0.0
  0
VERTEX
  5
3F3
  8
0
 10
37.80577274653331
 20
108.6151783441609
 30
0.0
  0
VERTEX
  5
3F4
  8
0
 10
37.82120385348323
 20
109.243487816408
 30
0.0
  0
VERTEX
  5
3F5
  8
0
 10
37.7913676608817
 20
109.8280918762978
 30
0.0
  0
VERTEX
  5
3F6
  8
0
 10
37.71741075687338
 20
110.3465245177497
 30
0.0
  0
VERTEX
  5
3F7
  8
0
 10
37.60217526379226
 20
110.7788626651743
 30
0.0
  0
VERTEX
  5
3F8
  8
0
 10
37.45008961699462
 20
111.1084918060915
 30
0.0
  0
VERTEX
  5
3F9
  8
0
 10
37.2669983825725
 20
111.3227444775257
 30
0.0
  0
VERTEX
  5
3FA
  8
0
 10
37.05993765395737
 20
111.4133870695014
 30
0.0
  0
SEQEND
  5
51B
  8
0
  0
POLYLINE
  5
1AC
  8
0
 66
     1
 10
0.0
 20
0.0
 30
0.0
  0
VERTEX
  5
3FB
  8
0
 10
37.05993765395737
 20
111.4133870695014
 30
0.0
  0
VERTEX
  5
3FC
  8
0
 10
36.83686465807
 20
111.376936237738
 30
0.0
  0
VERTEX
  5
3FD
  8
0
 10
36.60635196568604
 20
111.214792766773
 30
0.0
  0
VERTEX
  5
3FE
  8
0
 10
36.37725805032097
 20
110.9331877392788
 30
0.0
  0
VERTEX
  5
3FF
  8
0
 10
36.15838686268498
 20
110.5429430785606
 30
0.0
  0
VERTEX
  5
400
  8
0
 10
35.95814949979371
 20
110.0590556681124
 30
0.0
  0
VERTEX
  5
401
  8
0
 10
35.7842409712262
 20
109.5001210297928
 30
0.0
  0
VERTEX
  5
402
  8
0
 10
35.64334448422149
 20
108.8876187083472
 30
0.0
  0
VERTEX
  5
403
  8
0
 10
35.54087461177183
 20
108.2450868245472
 30
0.0
  0
VERTEX
  5
404
  8
0
 10
35.48076921361869
 20
107.5972175184073
 30
0.0
  0
VERTEX
  5
405
  8
0
 10
35.46533810651085
 20
106.96890804409
 30
0.0
  0
VERTEX
  5
406
  8
0
 10
35.49517429924194
 20
106.3843039823882
 30
0.0
  0
VERTEX
  5
407
  8
0
 10
35.56913120365503
 20
105.8658713395947
 30
0.0
  0
VERTEX
  5
408
  8
0
 10
35.68436669738258
 20
105.433533191477
 30
0.0
  0
VERTEX
  5
409
  8
0
 10
35.83645234501533
 20
105.1039040506469
 30
0.0
  0
VERTEX
  5
40A
  8
0
 10
36.01954358039207
 20
104.8896513801575
 30
0.0
  0
VERTEX
  5
40B
  8
0
 10
36.22660431
 20
104.79900879
 30
0.0
  0
SEQEND
  5
51C
  8
0
  0
POLYLINE
  5
1AD
  8
0
 66
     1
 10
0.0
 20
0.0
 30
0.0
  0
VERTEX
  5
40C
  8
0
 10
36.22660431
 20
79.65743434999999
 30
0.0
  0
VERTEX
  5
40D
  8
0
 10
36.4496773055815
 20
79.69388518386077
 30
0.0
  0
VERTEX
  5
40E
  8
0
 10
36.68018999748536
 20
79.85602865628898
 30
0.0
  0
VERTEX
  5
40F
  8
0
 10
36.90928391225492
 20
80.13763368458451
 30
0.0
  0
VERTEX
  5
410
  8
0
 10
37.12815509924298
 20
80.52787834546052
 30
0.0
  0
VERTEX
  5
411
  8
0
 10
37.32839246149712
 20
81.01176575548546
 30
0.0
  0
VERTEX
  5
412
  8
0
 10
37.50230098949787
 20
81.5707003929016
 30
0.0
  0
VERTEX
  5
413
  8
0
 10
37.64319747605839
 20
82.18320271309612
 30
0.0
  0
VERTEX
  5
414
  8
0
 10
37.74566734822816
 20
82.82573459545283
 30
0.0
  0
VERTEX
  5
415
  8
0
 10
37.80577274629444
 20
83.47360390012503
 30
0.0
  0
VERTEX
  5
416
  8
0
 10
37.82120385352228
 20
84.1019133731202
 30
0.0
  0
VERTEX
  5
417
  8
0
 10
37.79136766111615
 20
84.68651743380612
 30
0.0
  0
VERTEX
  5
418
  8
0
 10
37.71741075721528
 20
85.20495007603157
 30
0.0
  0
VERTEX
  5
419
  8
0
 10
37.60217526415457
 20
85.63728822414156
 30
0.0
  0
VERTEX
  5
41A
  8
0
 10
37.45008961729746
 20
85.96691736560011
 30
0.0
  0
VERTEX
  5
41B
  8
0
 10
37.26699838274875
 20
86.18117003738799
 30
0.0
  0
VERTEX
  5
41C
  8
0
 10
37.05993765395737
 20
86.27181262950141
 30
0.0
  0
SEQEND
  5
51D
  8
0
  0
POLYLINE
  5
1AE
  8
0
 66
     1
 10
0.0
 20
0.0
 30
0.0
  0
VERTEX
  5
41D
  8
0
 10
37.05993765395737
 20
86.27181262950141
 30
0.0
  0
VERTEX
  5
41E
  8
0
 10
36.83686465807
 20
86.23536179773795
 30
0.0
  0
VERTEX
  5
41F
  8
0
 10
36.60635196568604
 20
86.07321832677297
 30
0.0
  0
VERTEX
  5
420
  8
0
 10
36.37725805032097
 20
85.79161329927875
 30
0.0
  0
VERTEX
  5
421
  8
0
 10
36.15838686268498
 20
85.40136863856061
 30
0.0
  0
VERTEX
  5
422
  8
0
 10
35.95814949979371
 20
84.9174812281124
 30
0.0
  0
VERTEX
  5
423
  8
0
 10
35.7842409712262
 20
84.35854658979281
 30
0.0
  0
VERTEX
  5
424
  8
0
 10
35.64334448422149
 20
83.74604426834722
 30
0.0
  0
VERTEX
  5
425
  8
0
 10
35.54087461177183
 20
83.10351238454716
 30
0.0
  0
VERTEX
  5
426
  8
0
 10
35.48076921361869
 20
82.4556430784073
 30
0.0
  0
VERTEX
  5
427
  8
0
 10
35.46533810651085
 20
81.82733360409
 30
0.0
  0
VERTEX
  5
428
  8
0
 10
35.49517429924194
 20
81.24272954238825
 30
0.0
  0
VERTEX
  5
429
  8
0
 10
35.56913120365503
 20
80.72429689959472
 30
0.0
  0
VERTEX
  5
42A
  8
0
 10
35.68436669738258
 20
80.29195875147695
 30
0.0
  0
VERTEX
  5
42B
  8
0
 10
35.83645234501533
 20
79.96232961064695
 30
0.0
  0
VERTEX
  5
42C
  8
0
 10
36.01954358039207
 20
79.74807694015749
 30
0.0
  0
VERTEX
  5
42D
  8
0
 10
36.22660431
 20
79.65743434999999
 30
0.0
  0
SEQEND
  5
51E
  8
0
  0
POLYLINE
  5
1AF
  8
0
 66
     1
 10
0.0
 20
0.0
 30
0.0
  0
VERTEX
  5
42E
  8
0
 10
36.22660431
 20
48.2304663
 30
0.0
  0
VERTEX
  5
42F
  8
0
 10
36.4496773055815
 20
48.26691713386079
 30
0.0
  0
VERTEX
  5
430
  8
0
 10
36.68018999748536
 20
48.429060606289
 30
0.0
  0
VERTEX
  5
431
  8
0
 10
36.90928391225492
 20
48.71066563458452
 30
0.0
  0
VERTEX
  5
432
  8
0
 10
37.12815509924298
 20
49.10091029546054
 30
0.0
  0
VERTEX
  5
433
  8
0
 10
37.32839246149712
 20
49.58479770548547
 30
0.0
  0
VERTEX
  5
434
  8
0
 10
37.50230098949787
 20
50.1437323429016
 30
0.0
  0
VERTEX
  5
435
  8
0
 10
37.64319747605839
 20
50.75623466309612
 30
0.0
  0
VERTEX
  5
436
  8
0
 10
37.74566734822816
 20
51.39876654545283
 30
0.0
  0
VERTEX
  5
437
  8
0
 10
37.80577274629444
 20
52.04663585012504
 30
0.0
  0
VERTEX
  5
438
  8
0
 10
37.82120385352228
 20
52.6749453231202
 30
0.0
  0
VERTEX
  5
439
  8
0
 10
37.79136766111615
 20
53.25954938380612
 30
0.0
  0
VERTEX
  5
43A
  8
0
 10
37.71741075721528
 20
53.77798202603157
 30
0.0
  0
VERTEX
  5
43B
  8
0
 10
37.60217526415457
 20
54.21032017414157
 30
0.0
  0
VERTEX
  5
43C
  8
0
 10
37.45008961729746
 20
54.53994931560013
 30
0.0
  0
VERTEX
  5
43D
  8
0
 10
37.26699838274875
 20
54.754201987388
 30
0.0
  0
VERTEX
  5
43E
  8
0
 10
37.05993765395737
 20
54.84484457950142
 30
0.0
  0
SEQEND
  5
51F
  8
0
  0
POLYLINE
  5
1B0
  8
0
 66
     1
 10
0.0
 20
0.0
 30
0.0
  0
VERTEX
  5
43F
  8
0
 10
37.05993765395737
 20
54.84484457950142
 30
0.0
  0
VERTEX
  5
440
  8
0
 10
36.83686465807
 20
54.80839374773797
 30
0.0
  0
VERTEX
  5
441
  8
0
 10
36.60635196568604
 20
54.64625027677299
 30
0.0
  0
VERTEX
  5
442
  8
0
 10
36.37725805032097
 20
54.36464524927876
 30
0.0
  0
VERTEX
  5
443
  8
0
 10
36.15838686268498
 20
53.97440058856062
 30
0.0
  0
VERTEX
  5
444
  8
0
 10
35.95814949979371
 20
53.4905131781124
 30
0.0
  0
VERTEX
  5
445
  8
0
 10
35.7842409712262
 20
52.93157853979281
 30
0.0
  0
VERTEX
  5
446
  8
0
 10
35.64334448422149
 20
52.31907621834723
 30
0.0
  0
VERTEX
  5
447
  8
0
 10
35.54087461177183
 20
51.67654433454718
 30
0.0
  0
VERTEX
  5
448
  8
0
 10
35.48076921361869
 20
51.02867502840731
 30
0.0
  0
VERTEX
  5
449
  8
0
 10
35.46533810651085
 20
50.40036555409001
 30
0.0
  0
VERTEX
  5
44A
  8
0
 10
35.49517429924194
 20
49.81576149238826
 30
0.0
  0
VERTEX
  5
44B
  8
0
 10
35.56913120365503
 20
49.29732884959473
 30
0.0
  0
VERTEX
  5
44C
  8
0
 10
35.68436669738258
 20
48.86499070147696
 30
0.0
  0
VERTEX
  5
44D
  8
0
 10
35.83645234501533
 20
48.53536156064695
 30
0.0
  0
VERTEX
  5
44E
  8
0
 10
36.01954358039207
 20
48.32110889015751
 30
0.0
  0
VERTEX
  5
44F
  8
0
 10
36.22660431
 20
48.2304663
 30
0.0
  0
SEQEND
  5
520
  8
0
  0
POLYLINE
  5
1B1
  8
0
 66
     1
 10
0.0
 20
0.0
 30
0.0
  0
VERTEX
  5
450
  8
0
 10
24.44149129
 20
45.37944589
 30
0.0
  0
VERTEX
  5
451
  8
0
 10
24.66456428558149
 20
45.41589672386078
 30
0.0
  0
VERTEX
  5
452
  8
0
 10
24.89507697748536
 20
45.578040196289
 30
0.0
  0
VERTEX
  5
453
  8
0
 10
25.12417089225492
 20
45.85964522458452
 30
0.0
  0
VERTEX
  5
454
  8
0
 10
25.34304207924298
 20
46.24988988546053
 30
0.0
  0
VERTEX
  5
455
  8
0
 10
25.54327944149713
 20
46.73377729548547
 30
0.0
  0
VERTEX
  5
456
  8
0
 10
25.71718796949787
 20
47.2927119329016
 30
0.0
  0
VERTEX
  5
457
  8
0
 10
25.85808445605839
 20
47.90521425309612
 30
0.0
  0
VERTEX
  5
458
  8
0
 10
25.96055432822816
 20
48.54774613545283
 30
0.0
  0
VERTEX
  5
459
  8
0
 10
26.02065972629444
 20
49.19561544012503
 30
0.0
  0
VERTEX
  5
45A
  8
0
 10
26.03609083352228
 20
49.82392491312019
 30
0.0
  0
VERTEX
  5
45B
  8
0
 10
26.00625464111615
 20
50.40852897380612
 30
0.0
  0
VERTEX
  5
45C
  8
0
 10
25.93229773721528
 20
50.92696161603157
 30
0.0
  0
VERTEX
  5
45D
  8
0
 10
25.81706224415457
 20
51.35929976414157
 30
0.0
  0
VERTEX
  5
45E
  8
0
 10
25.66497659729747
 20
51.68892890560012
 30
0.0
  0
VERTEX
  5
45F
  8
0
 10
25.48188536274876
 20
51.903181577388
 30
0.0
  0
VERTEX
  5
460
  8
0
 10
25.27482463395738
 20
51.99382416950142
 30
0.0
  0
SEQEND
  5
521
  8
0
  0
POLYLINE
  5
1B2
  8
0
 66
     1
 10
0.0
 20
0.0
 30
0.0
  0
VERTEX
  5
461
  8
0
 10
25.27482463395738
 20
51.99382416950142
 30
0.0
  0
VERTEX
  5
462
  8
0
 10
25.05175163807001
 20
51.95737333773796
 30
0.0
  0
VERTEX
  5
463
  8
0
 10
24.82123894568604
 20
51.79522986677298
 30
0.0
  0
VERTEX
  5
464
  8
0
 10
24.59214503032097
 20
51.51362483927876
 30
0.0
  0
VERTEX
  5
465
  8
0
 10
24.37327384268499
 20
51.12338017856062
 30
0.0
  0
VERTEX
  5
466
  8
0
 10
24.17303647979372
 20
50.6394927681124
 30
0.0
  0
VERTEX
  5
467
  8
0
 10
23.99912795122621
 20
50.08055812979281
 30
0.0
  0
VERTEX
  5
468
  8
0
 10
23.85823146422149
 20
49.46805580834722
 30
0.0
  0
VERTEX
  5
469
  8
0
 10
23.75576159177184
 20
48.82552392454718
 30
0.0
  0
VERTEX
  5
46A
  8
0
 10
23.69565619361869
 20
48.1776546184073
 30
0.0
  0
VERTEX
  5
46B
  8
0
 10
23.68022508651085
 20
47.54934514409
 30
0.0
  0
VERTEX
  5
46C
  8
0
 10
23.71006127924194
 20
46.96474108238826
 30
0.0
  0
VERTEX
  5
46D
  8
0
 10
23.78401818365504
 20
46.44630843959472
 30
0.0
  0
VERTEX
  5
46E
  8
0
 10
23.89925367738258
 20
46.01397029147696
 30
0.0
  0
VERTEX
  5
46F
  8
0
 10
24.05133932501534
 20
45.68434115064695
 30
0.0
  0
VERTEX
  5
470
  8
0
 10
24.23443056039208
 20
45.47008848015751
 30
0.0
  0
VERTEX
  5
471
  8
0
 10
24.44149129
 20
45.37944589
 30
0.0
  0
SEQEND
  5
522
  8
0
  0
POLYLINE
  5
1B3
  8
0
 66
     1
 10
0.0
 20
0.0
 30
0.0
  0
VERTEX
  5
472
  8
0
 10
24.44149129
 20
76.80641394
 30
0.0
  0
VERTEX
  5
473
  8
0
 10
24.66456428558149
 20
76.84286477386078
 30
0.0
  0
VERTEX
  5
474
  8
0
 10
24.89507697748536
 20
77.005008246289
 30
0.0
  0
VERTEX
  5
475
  8
0
 10
25.12417089225492
 20
77.28661327458452
 30
0.0
  0
VERTEX
  5
476
  8
0
 10
25.34304207924298
 20
77.67685793546053
 30
0.0
  0
VERTEX
  5
477
  8
0
 10
25.54327944149713
 20
78.16074534548547
 30
0.0
  0
VERTEX
  5
478
  8
0
 10
25.71718796949787
 20
78.71967998290161
 30
0.0
  0
VERTEX
  5
479
  8
0
 10
25.85808445605839
 20
79.33218230309613
 30
0.0
  0
VERTEX
  5
47A
  8
0
 10
25.96055432822816
 20
79.97471418545284
 30
0.0
  0
VERTEX
  5
47B
  8
0
 10
26.02065972629444
 20
80.62258349012504
 30
0.0
  0
VERTEX
  5
47C
  8
0
 10
26.03609083352228
 20
81.25089296312021
 30
0.0
  0
VERTEX
  5
47D
  8
0
 10
26.00625464111615
 20
81.83549702380613
 30
0.0
  0
VERTEX
  5
47E
  8
0
 10
25.93229773721528
 20
82.35392966603158
 30
0.0
  0
VERTEX
  5
47F
  8
0
 10
25.81706224415457
 20
82.78626781414157
 30
0.0
  0
VERTEX
  5
480
  8
0
 10
25.66497659729747
 20
83.11589695560012
 30
0.0
  0
VERTEX
  5
481
  8
0
 10
25.48188536274876
 20
83.330149627388
 30
0.0
  0
VERTEX
  5
482
  8
0
 10
25.27482463395738
 20
83.42079221950142
 30
0.0
  0
SEQEND
  5
523
  8
0
  0
POLYLINE
  5
1B4
  8
0
 66
     1
 10
0.0
 20
0.0
 30
0.0
  0
VERTEX
  5
483
  8
0
 10
25.27482463395738
 20
83.42079221950142
 30
0.0
  0
VERTEX
  5
484
  8
0
 10
25.05175163807001
 20
83.38434138773796
 30
0.0
  0
VERTEX
  5
485
  8
0
 10
24.82123894568604
 20
83.22219791677298
 30
0.0
  0
VERTEX
  5
486
  8
0
 10
24.59214503032097
 20
82.94059288927876
 30
0.0
  0
VERTEX
  5
487
  8
0
 10
24.37327384268499
 20
82.55034822856062
 30
0.0
  0
VERTEX
  5
488
  8
0
 10
24.17303647979372
 20
82.0664608181124
 30
0.0
  0
VERTEX
  5
489
  8
0
 10
23.99912795122621
 20
81.50752617979282
 30
0.0
  0
VERTEX
  5
48A
  8
0
 10
23.85823146422149
 20
80.89502385834723
 30
0.0
  0
VERTEX
  5
48B
  8
0
 10
23.75576159177184
 20
80.25249197454717
 30
0.0
  0
VERTEX
  5
48C
  8
0
 10
23.69565619361869
 20
79.60462266840732
 30
0.0
  0
VERTEX
  5
48D
  8
0
 10
23.68022508651085
 20
78.97631319409001
 30
0.0
  0
VERTEX
  5
48E
  8
0
 10
23.71006127924194
 20
78.39170913238826
 30
0.0
  0
VERTEX
  5
48F
  8
0
 10
23.78401818365504
 20
77.87327648959473
 30
0.0
  0
VERTEX
  5
490
  8
0
 10
23.89925367738258
 20
77.44093834147696
 30
0.0
  0
VERTEX
  5
491
  8
0
 10
24.05133932501534
 20
77.11130920064696
 30
0.0
  0
VERTEX
  5
492
  8
0
 10
24.23443056039208
 20
76.8970565301575
 30
0.0
  0
VERTEX
  5
493
  8
0
 10
24.44149129
 20
76.80641394
 30
0.0
  0
SEQEND
  5
524
  8
0
  0
POLYLINE
  5
1B5
  8
0
 66
     1
 10
0.0
 20
0.0
 30
0.0
  0
VERTEX
  5
494
  8
0
 10
24.44149129
 20
101.94798839
 30
0.0
  0
VERTEX
  5
495
  8
0
 10
24.66456428558149
 20
101.9844392238608
 30
0.0
  0
VERTEX
  5
496
  8
0
 10
24.89507697748536
 20
102.146582696289
 30
0.0
  0
VERTEX
  5
497
  8
0
 10
25.12417089225492
 20
102.4281877245845
 30
0.0
  0
VERTEX
  5
498
  8
0
 10
25.34304207924298
 20
102.8184323854605
 30
0.0
  0
VERTEX
  5
499
  8
0
 10
25.54327944149713
 20
103.3023197954855
 30
0.0
  0
VERTEX
  5
49A
  8
0
 10
25.71718796949787
 20
103.8612544329016
 30
0.0
  0
VERTEX
  5
49B
  8
0
 10
25.85808445605839
 20
104.4737567530961
 30
0.0
  0
VERTEX
  5
49C
  8
0
 10
25.96055432822816
 20
105.1162886354528
 30
0.0
  0
VERTEX
  5
49D
  8
0
 10
26.02065972629444
 20
105.764157940125
 30
0.0
  0
VERTEX
  5
49E
  8
0
 10
26.03609083352228
 20
106.3924674131202
 30
0.0
  0
VERTEX
  5
49F
  8
0
 10
26.00625464111615
 20
106.9770714738061
 30
0.0
  0
VERTEX
  5
4A0
  8
0
 10
25.93229773721528
 20
107.4955041160316
 30
0.0
  0
VERTEX
  5
4A1
  8
0
 10
25.81706224415457
 20
107.9278422641416
 30
0.0
  0
VERTEX
  5
4A2
  8
0
 10
25.66497659729747
 20
108.2574714056001
 30
0.0
  0
VERTEX
  5
4A3
  8
0
 10
25.48188536274876
 20
108.471724077388
 30
0.0
  0
VERTEX
  5
4A4
  8
0
 10
25.27482463395738
 20
108.5623666695014
 30
0.0
  0
SEQEND
  5
525
  8
0
  0
POLYLINE
  5
1B6
  8
0
 66
     1
 10
0.0
 20
0.0
 30
0.0
  0
VERTEX
  5
4A5
  8
0
 10
25.27482463395738
 20
108.5623666695014
 30
0.0
  0
VERTEX
  5
4A6
  8
0
 10
25.05175163807001
 20
108.525915837738
 30
0.0
  0
VERTEX
  5
4A7
  8
0
 10
24.82123894568604
 20
108.363772366773
 30
0.0
  0
VERTEX
  5
4A8
  8
0
 10
24.59214503032097
 20
108.0821673392788
 30
0.0
  0
VERTEX
  5
4A9
  8
0
 10
24.37327384268499
 20
107.6919226785606
 30
0.0
  0
VERTEX
  5
4AA
  8
0
 10
24.17303647979372
 20
107.2080352681124
 30
0.0
  0
VERTEX
  5
4AB
  8
0
 10
23.99912795122621
 20
106.6491006297928
 30
0.0
  0
VERTEX
  5
4AC
  8
0
 10
23.85823146422149
 20
106.0365983083472
 30
0.0
  0
VERTEX
  5
4AD
  8
0
 10
23.75576159177184
 20
105.3940664245472
 30
0.0
  0
VERTEX
  5
4AE
  8
0
 10
23.69565619361869
 20
104.7461971184073
 30
0.0
  0
VERTEX
  5
4AF
  8
0
 10
23.68022508651085
 20
104.11788764409
 30
0.0
  0
VERTEX
  5
4B0
  8
0
 10
23.71006127924194
 20
103.5332835823883
 30
0.0
  0
VERTEX
  5
4B1
  8
0
 10
23.78401818365504
 20
103.0148509395947
 30
0.0
  0
VERTEX
  5
4B2
  8
0
 10
23.89925367738258
 20
102.582512791477
 30
0.0
  0
VERTEX
  5
4B3
  8
0
 10
24.05133932501534
 20
102.252883650647
 30
0.0
  0
VERTEX
  5
4B4
  8
0
 10
24.23443056039208
 20
102.0386309801575
 30
0.0
  0
VERTEX
  5
4B5
  8
0
 10
24.44149129
 20
101.94798839
 30
0.0
  0
SEQEND
  5
526
  8
0
  0
POLYLINE
  5
1B7
  8
0
 66
     1
 10
0.0
 20
0.0
 30
0.0
  0
VERTEX
  5
1B8
  8
0
 10
17.51225884
 20
20.83782268
 30
0.0
  0
VERTEX
  5
1B9
  8
0
 10
17.51225884
 20
111.34749067
 30
0.0
  0
VERTEX
  5
1BA
  8
0
 10
22.50113535
 20
110.71895131
 30
0.0
  0
SEQEND
  5
1BB
  8
0
  0
LINE
  5
1BC
  8
0
 10
22.50113535
 20
20.20928332
 30
0.0
 11
22.50113535
 21
110.71895131
 31
0.0
  0
LINE
  5
1BD
  8
0
 10
39.00029358
 20
34.76017316
 30
0.0
 11
22.50113535
 21
20.20928332
 31
0.0
  0
LINE
  5
1BE
  8
0
 10
39.00029358
 20
125.26984115
 30
0.0
 11
39.00029358
 21
34.76017316
 31
0.0
  0
LINE
  5
1BF
  8
0
 10
39.00029358
 20
125.26984115
 30
0.0
 11
22.50113535
 21
110.71895131
 31
0.0
  0
LINE
  5
1C0
  8
0
 10
34.01141707
 20
125.89838051
 30
0.0
 11
39.00029358
 21
125.26984115
 31
0.0
  0
LINE
  5
1C1
  8
0
 10
34.01141707
 20
125.89838051
 30
0.0
 11
17.51225884
 21
111.34749067
 31
0.0
  0
LINE
  5
1C2
  8
0
  6
STRICHPUNKT2
 62
     1
 10
26.41718187
 20
105.05875898
 30
0.0
 11
23.75576158
 21
105.39406641
 31
0.0
  0
LINE
  5
1C3
  8
0
  6
STRICHPUNKT2
 62
     1
 10
24.85815796
 20
105.25517753
 30
0.0
 11
26.62592491
 21
106.81420144
 31
0.0
  0
LINE
  5
1C4
  8
0
  6
STRICHPUNKT2
 62
     1
 10
24.85815796
 20
105.25517753
 30
0.0
 11
23.09039101
 21
103.69615361
 31
0.0
  0
LINE
  5
1C5
  8
0
  6
STRICHPUNKT2
 62
     1
 10
24.85815796
 20
105.25517753
 30
0.0
 11
24.85815796
 21
109.96922273
 31
0.0
  0
LINE
  5
1C6
  8
0
  6
STRICHPUNKT2
 62
     1
 10
24.85815796
 20
105.25517753
 30
0.0
 11
24.85815796
 21
100.54113232
 31
0.0
  0
LINE
  5
1C7
  8
0
  6
STRICHPUNKT2
 62
     1
 10
26.41718187
 20
79.91718453
 30
0.0
 11
23.75576158
 21
80.25249197
 31
0.0
  0
LINE
  5
1C8
  8
0
  6
STRICHPUNKT2
 62
     1
 10
24.85815796
 20
80.11360308
 30
0.0
 11
26.62592491
 21
81.67262699
 31
0.0
  0
LINE
  5
1C9
  8
0
  6
STRICHPUNKT2
 62
     1
 10
24.85815796
 20
80.11360308
 30
0.0
 11
23.09039101
 21
78.55457917
 31
0.0
  0
LINE
  5
1CA
  8
0
  6
STRICHPUNKT2
 62
     1
 10
24.85815796
 20
80.11360308
 30
0.0
 11
24.85815796
 21
84.82764829
 31
0.0
  0
LINE
  5
1CB
  8
0
  6
STRICHPUNKT2
 62
     1
 10
24.85815796
 20
80.11360308
 30
0.0
 11
24.85815796
 21
75.39955788
 31
0.0
  0
LINE
  5
1CC
  8
0
  6
STRICHPUNKT2
 62
     1
 10
26.41718187
 20
48.49021648
 30
0.0
 11
23.75576158
 21
48.82552392
 31
0.0
  0
LINE
  5
1CD
  8
0
  6
STRICHPUNKT2
 62
     1
 10
24.85815796
 20
48.68663503
 30
0.0
 11
26.62592491
 21
50.24565894
 31
0.0
  0
LINE
  5
1CE
  8
0
  6
STRICHPUNKT2
 62
     1
 10
24.85815796
 20
48.68663503
 30
0.0
 11
23.09039101
 21
47.12761112
 31
0.0
  0
LINE
  5
1CF
  8
0
  6
STRICHPUNKT2
 62
     1
 10
24.85815796
 20
48.68663503
 30
0.0
 11
24.85815796
 21
53.40068024
 31
0.0
  0
LINE
  5
1D0
  8
0
  6
STRICHPUNKT2
 62
     1
 10
24.85815796
 20
48.68663503
 30
0.0
 11
24.85815796
 21
43.97258982
 31
0.0
  0
LINE
  5
1D1
  8
0
  6
STRICHPUNKT2
 62
     1
 10
38.20229489
 20
51.34123689
 30
0.0
 11
35.5408746
 21
51.67654433
 31
0.0
  0
LINE
  5
1D2
  8
0
  6
STRICHPUNKT2
 62
     1
 10
36.64327098
 20
51.53765544
 30
0.0
 11
38.41103793
 21
53.09667935
 31
0.0
  0
LINE
  5
1D3
  8
0
  6
STRICHPUNKT2
 62
     1
 10
36.64327098
 20
51.53765544
 30
0.0
 11
34.87550403
 21
49.97863153
 31
0.0
  0
LINE
  5
1D4
  8
0
  6
STRICHPUNKT2
 62
     1
 10
36.64327098
 20
51.53765544
 30
0.0
 11
36.64327098
 21
56.25170065
 31
0.0
  0
LINE
  5
1D5
  8
0
  6
STRICHPUNKT2
 62
     1
 10
36.64327098
 20
51.53765544
 30
0.0
 11
36.64327098
 21
46.82361023
 31
0.0
  0
LINE
  5
1D6
  8
0
  6
STRICHPUNKT2
 62
     1
 10
38.20229489
 20
82.76820494
 30
0.0
 11
35.5408746
 21
83.10351238
 31
0.0
  0
LINE
  5
1D7
  8
0
  6
STRICHPUNKT2
 62
     1
 10
36.64327098
 20
82.96462349
 30
0.0
 11
38.41103793
 21
84.5236474
 31
0.0
  0
LINE
  5
1D8
  8
0
  6
STRICHPUNKT2
 62
     1
 10
36.64327098
 20
82.96462349
 30
0.0
 11
34.87550403
 21
81.40559958
 31
0.0
  0
LINE
  5
1D9
  8
0
  6
STRICHPUNKT2
 62
     1
 10
36.64327098
 20
82.96462349
 30
0.0
 11
36.64327098
 21
87.6786687
 31
0.0
  0
LINE
  5
1DA
  8
0
  6
STRICHPUNKT2
 62
     1
 10
36.64327098
 20
82.96462349
 30
0.0
 11
36.64327098
 21
78.25057828
 31
0.0
  0
LINE
  5
1DB
  8
0
  6
STRICHPUNKT2
 62
     1
 10
38.20229489
 20
107.90977938
 30
0.0
 11
35.5408746
 21
108.24508682
 31
0.0
  0
LINE
  5
1DC
  8
0
  6
STRICHPUNKT2
 62
     1
 10
36.64327098
 20
108.10619793
 30
0.0
 11
38.41103793
 21
109.66522185
 31
0.0
  0
LINE
  5
1DD
  8
0
  6
STRICHPUNKT2
 62
     1
 10
36.64327098
 20
108.10619793
 30
0.0
 11
34.87550403
 21
106.54717402
 31
0.0
  0
LINE
  5
1DE
  8
0
  6
STRICHPUNKT2
 62
     1
 10
36.64327098
 20
108.10619793
 30
0.0
 11
36.64327098
 21
112.82024314
 31
0.0
  0
LINE
  5
1DF
  8
0
  6
STRICHPUNKT2
 62
     1
 10
36.64327098
 20
108.10619793
 30
0.0
 11
36.64327098
 21
103.39215273
 31
0.0
  0
LINE
  5
1E0
  8
0
  6
STRICHPUNKT2
 62
     1
 10
32.62154316
 20
92.61711953
 30
0.0
 11
29.42783881
 21
93.01948845
 31
0.0
  0
LINE
  5
1E1
  8
0
  6
STRICHPUNKT2
 62
     1
 10
30.75071447
 20
92.85282179
 30
0.0
 11
32.87203481
 21
94.72365048
 31
0.0
  0
LINE
  5
1E2
  8
0
  6
STRICHPUNKT2
 62
     1
 10
30.75071447
 20
92.85282179
 30
0.0
 11
28.62939413
 21
90.98199309
 31
0.0
  0
LINE
  5
1E3
  8
0
  6
STRICHPUNKT2
 62
     1
 10
30.75071447
 20
92.85282179
 30
0.0
 11
30.75071447
 21
98.50967604
 31
0.0
  0
LINE
  5
1E4
  8
0
  6
STRICHPUNKT2
 62
     1
 10
30.75071447
 20
92.85282179
 30
0.0
 11
30.75071447
 21
87.19596754
 31
0.0
  0
LINE
  5
1E5
  8
0
  6
STRICHPUNKT2
 62
     1
 10
32.62154316
 20
58.04745467
 30
0.0
 11
29.42783881
 21
58.4498236
 31
0.0
  0
LINE
  5
1E6
  8
0
  6
STRICHPUNKT2
 62
     1
 10
30.75071447
 20
58.28315693
 30
0.0
 11
32.87203481
 21
60.15398562
 31
0.0
  0
LINE
  5
1E7
  8
0
  6
STRICHPUNKT2
 62
     1
 10
30.75071447
 20
58.28315693
 30
0.0
 11
28.62939413
 21
56.41232824
 31
0.0
  0
LINE
  5
1E8
  8
0
  6
STRICHPUNKT2
 62
     1
 10
30.75071447
 20
58.28315693
 30
0.0
 11
30.75071447
 21
63.94001118
 31
0.0
  0
LINE
  5
1E9
  8
0
  6
STRICHPUNKT2
 62
     1
 10
30.75071447
 20
58.28315693
 30
0.0
 11
30.75071447
 21
52.62630268
 31
0.0
  0
POLYLINE
  5
1EA
  8
0
 66
     1
 10
0.0
 20
0.0
 30
0.0
  0
VERTEX
  5
4B6
  8
0
 10
22.50113536809393
 20
20.20928331806947
 30
0.0
  0
VERTEX
  5
4B7
  8
0
 10
22.59699523466606
 20
19.2162305460614
 30
0.0
  0
VERTEX
  5
4B8
  8
0
 10
22.88089098487717
 20
18.23718582000872
 30
0.0
  0
VERTEX
  5
4B9
  8
0
 10
23.34191266435128
 20
17.30977327935455
 30
0.0
  0
VERTEX
  5
4BA
  8
0
 10
23.96234346864294
 20
16.46963286762995
 30
0.0
  0
VERTEX
  5
4BB
  8
0
 10
24.71834059009044
 20
15.74905070942289
 30
0.0
  0
VERTEX
  5
4BC
  8
0
 10
25.58085148353515
 20
15.17571837272734
 30
0.0
  0
VERTEX
  5
4BD
  8
0
 10
26.51673033932953
 20
14.77166869752401
 30
0.0
  0
VERTEX
  5
4BE
  8
0
 10
27.49001185820245
 20
14.55242908610341
 30
0.0
  0
SEQEND
  5
527
  8
0
  0
LINE
  5
1EB
  8
0
 10
43.9891701
 20
29.10331891
 30
0.0
 11
27.49001187
 21
14.55242907
 31
0.0
  0
POLYLINE
  5
1EC
  8
0
 66
     1
 10
0.0
 20
0.0
 30
0.0
  0
VERTEX
  5
4BF
  8
0
 10
39.00029359809394
 20
34.76017314806948
 30
0.0
  0
VERTEX
  5
4C0
  8
0
 10
39.09615346466607
 20
33.76712037606141
 30
0.0
  0
VERTEX
  5
4C1
  8
0
 10
39.38004921487717
 20
32.78807565000872
 30
0.0
  0
VERTEX
  5
4C2
  8
0
 10
39.84107089435128
 20
31.86066310935455
 30
0.0
  0
VERTEX
  5
4C3
  8
0
 10
40.46150169864294
 20
31.02052269762995
 30
0.0
  0
VERTEX
  5
4C4
  8
0
 10
41.21749882009044
 20
30.29994053942289
 30
0.0
  0
VERTEX
  5
4C5
  8
0
 10
42.08000971353516
 20
29.72660820272733
 30
0.0
  0
VERTEX
  5
4C6
  8
0
 10
43.01588856932953
 20
29.32255852752401
 30
0.0
  0
VERTEX
  5
4C7
  8
0
 10
43.98917008820245
 20
29.10331891610342
 30
0.0
  0
SEQEND
  5
528
  8
0
  0
LINE
  5
1ED
  8
0
 10
39.00029358
 20
34.76017316
 30
0.0
 11
22.50113535
 21
20.20928332
 31
0.0
  0
POLYLINE
  5
1EE
  8
0
 66
     1
 10
0.0
 20
0.0
 30
0.0
  0
VERTEX
  5
4C8
  8
0
 10
17.51225885911681
 20
20.83782266990285
 30
0.0
  0
VERTEX
  5
4C9
  8
0
 10
17.70397859377643
 20
18.85171712478994
 30
0.0
  0
VERTEX
  5
4CA
  8
0
 10
18.27177009592749
 20
16.89362767186959
 30
0.0
  0
VERTEX
  5
4CB
  8
0
 10
19.19381345675166
 20
15.03880259005939
 30
0.0
  0
VERTEX
  5
4CC
  8
0
 10
20.43467506728588
 20
13.35852176644072
 30
0.0
  0
VERTEX
  5
4CD
  8
0
 10
21.94666931213178
 20
11.91735745019606
 30
0.0
  0
VERTEX
  5
4CE
  8
0
 10
23.67169110089714
 20
10.77069277730681
 30
0.0
  0
VERTEX
  5
4CF
  8
0
 10
25.54344881421476
 20
9.96259342771515
 30
0.0
  0
VERTEX
  5
4D0
  8
0
 10
27.49001185347596
 20
9.524114205970733
 30
0.0
  0
SEQEND
  5
529
  8
0
  0
POLYLINE
  5
1EF
  8
0
 66
     1
 10
0.0
 20
0.0
 30
0.0
  0
VERTEX
  5
4D1
  8
0
 10
45.72774908
 20
19.98153961558412
 30
0.0
  0
VERTEX
  5
4D2
  8
0
 10
45.82223436776698
 20
19.67010293917841
 30
0.0
  0
VERTEX
  5
4D3
  8
0
 10
46.1018641792409
 20
19.37127748469583
 30
0.0
  0
VERTEX
  5
4D4
  8
0
 10
46.55531526979704
 20
19.09716379929679
 30
0.0
  0
VERTEX
  5
4D5
  8
0
 10
47.1642257287484
 20
18.85886175927273
 30
0.0
  0
VERTEX
  5
4D6
  8
0
 10
47.90393852097802
 20
18.66602109502806
 30
0.0
  0
VERTEX
  5
4D7
  8
0
 10
48.74449994142743
 20
18.52645063782911
 30
0.0
  0
SEQEND
  5
52A
  8
0
  0
POLYLINE
  5
1F0
  8
0
 66
     1
 10
0.0
 20
0.0
 30
0.0
  0
VERTEX
  5
4D8
  8
0
 10
52.04433158655484
 20
21.43662857864546
 30
0.0
  0
VERTEX
  5
4D9
  8
0
 10
51.17542674842764
 20
21.51515549722238
 30
0.0
  0
VERTEX
  5
4DA
  8
0
 10
50.27745536988295
 20
21.53660651256542
 30
0.0
  0
VERTEX
  5
4DB
  8
0
 10
49.38383685400315
 20
21.50018329173726
 30
0.0
  0
VERTEX
  5
4DC
  8
0
 10
48.52782860530868
 20
21.40724138161555
 30
0.0
  0
VERTEX
  5
4DD
  8
0
 10
47.74128830366382
 20
21.26123976010517
 30
0.0
  0
VERTEX
  5
4DE
  8
0
 10
47.05348827111494
 20
21.06761210488952
 30
0.0
  0
VERTEX
  5
4DF
  8
0
 10
46.49002605684572
 20
20.83356457065479
 30
0.0
  0
VERTEX
  5
4E0
  8
0
 10
46.07187178452631
 20
20.56780760082255
 30
0.0
  0
VERTEX
  5
4E1
  8
0
 10
45.81458771650843
 20
20.28023175483489
 30
0.0
  0
VERTEX
  5
4E2
  8
0
 10
45.72774908
 20
19.98153961558412
 30
0.0
  0
SEQEND
  5
52B
  8
0
  0
POLYLINE
  5
1F1
  8
0
 66
     1
 10
0.0
 20
0.0
 30
0.0
  0
VERTEX
  5
1F2
  8
0
 10
52.04433157
 20
21.4366286
 30
0.0
  0
VERTEX
  5
1F3
  8
0
 10
83.84841936
 20
17.42969017
 30
0.0
  0
SEQEND
  5
1F4
  8
0
  0
POLYLINE
  5
1F5
  8
0
 66
     1
 10
0.0
 20
0.0
 30
0.0
  0
VERTEX
  5
4E3
  8
0
 10
86.86517021
 20
15.97460119
 30
0.0
  0
VERTEX
  5
4E4
  8
0
 10
86.77068492043622
 20
16.28603786375255
 30
0.0
  0
VERTEX
  5
4E5
  8
0
 10
86.49105511028958
 20
16.58486331567113
 30
0.0
  0
VERTEX
  5
4E6
  8
0
 10
86.03760402394443
 20
16.85897699889857
 30
0.0
  0
VERTEX
  5
4E7
  8
0
 10
85.42869357161463
 20
17.09727903741431
 30
0.0
  0
VERTEX
  5
4E8
  8
0
 10
84.68898078774264
 20
17.29011970103405
 30
0.0
  0
VERTEX
  5
4E9
  8
0
 10
83.84841937655484
 20
17.42969015864546
 30
0.0
  0
SEQEND
  5
52C
  8
0
  0
POLYLINE
  5
1F6
  8
0
 66
     1
 10
0.0
 20
0.0
 30
0.0
  0
VERTEX
  5
4EA
  8
0
 10
80.54858773142743
 20
14.51951221782911
 30
0.0
  0
VERTEX
  5
4EB
  8
0
 10
81.41749256976712
 20
14.44098530118223
 30
0.0
  0
VERTEX
  5
4EC
  8
0
 10
82.3154639473904
 20
14.4195342876625
 30
0.0
  0
VERTEX
  5
4ED
  8
0
 10
83.20908246134644
 20
14.45595751013705
 30
0.0
  0
VERTEX
  5
4EE
  8
0
 10
84.06509070728318
 20
14.54889942167092
 30
0.0
  0
VERTEX
  5
4EF
  8
0
 10
84.85163100553169
 20
14.69490104431671
 30
0.0
  0
VERTEX
  5
4F0
  8
0
 10
85.53943103425719
 20
14.88852870036459
 30
0.0
  0
VERTEX
  5
4F1
  8
0
 10
86.10289324449282
 20
15.12257623511839
 30
0.0
  0
VERTEX
  5
4F2
  8
0
 10
86.52104751277955
 20
15.38833320516255
 30
0.0
  0
VERTEX
  5
4F3
  8
0
 10
86.77833157696104
 20
15.67590905107589
 30
0.0
  0
VERTEX
  5
4F4
  8
0
 10
86.86517021
 20
15.97460119
 30
0.0
  0
SEQEND
  5
52D
  8
0
  0
LINE
  5
1F7
  8
0
 10
80.54858771
 20
14.5195122
 30
0.0
 11
48.74449993
 21
18.52645063
 31
0.0
  0
LINE
  5
1F8
  8
0
 10
52.04433157
 20
18.11071092
 30
0.0
 11
52.04433157
 21
21.4366286
 31
0.0
  0
LINE
  5
1F9
  8
0
 10
83.84841936
 20
14.5195122
 30
0.0
 11
83.84841936
 21
17.42969017
 31
0.0
  0
POLYLINE
  5
1FA
  8
0
 66
     1
 10
0.0
 20
0.0
 30
0.0
  0
VERTEX
  5
4F5
  8
0
 10
108.40051031
 20
12.08551389558412
 30
0.0
  0
VERTEX
  5
4F6
  8
0
 10
108.4901789984517
 20
11.78204006370518
 30
0.0
  0
VERTEX
  5
4F7
  8
0
 10
108.7557391529249
 20
11.49022856080724
 30
0.0
  0
VERTEX
  5
4F8
  8
0
 10
109.1869854455879
 20
11.22129353932243
 30
0.0
  0
VERTEX
  5
4F9
  8
0
 10
109.7673453232215
 20
10.98557002132945
 30
0.0
  0
VERTEX
  5
4FA
  8
0
 10
110.474515881147
 20
10.79211672945015
 30
0.0
  0
VERTEX
  5
4FB
  8
0
 10
111.2813209513474
 20
10.64836796521852
 30
0.0
  0
VERTEX
  5
4FC
  8
0
 10
112.1567554673656
 20
10.55984791304133
 30
0.0
  0
VERTEX
  5
4FD
  8
0
 10
113.0671769716238
 20
10.52995834888889
 30
0.0
  0
VERTEX
  5
4FE
  8
0
 10
113.9775984762039
 20
10.55984791195192
 30
0.0
  0
VERTEX
  5
4FF
  8
0
 10
114.8530329931754
 20
10.64836796308157
 30
0.0
  0
VERTEX
  5
500
  8
0
 10
115.6598380649239
 20
10.79211672634778
 30
0.0
  0
VERTEX
  5
501
  8
0
 10
116.3670086249328
 20
10.98557001738088
 30
0.0
  0
VERTEX
  5
502
  8
0
 10
116.947368505105
 20
11.2212935346794
 30
0.0
  0
VERTEX
  5
503
  8
0
 10
117.3786148006643
 20
11.49022855564818
 30
0.0
  0
VERTEX
  5
504
  8
0
 10
117.6441749582801
 20
11.78204005822836
 30
0.0
  0
VERTEX
  5
505
  8
0
 10
117.73384365
 20
12.08551389
 30
0.0
  0
SEQEND
  5
52E
  8
0
  0
POLYLINE
  5
1FB
  8
0
 66
     1
 10
0.0
 20
0.0
 30
0.0
  0
VERTEX
  5
506
  8
0
 10
117.73384365
 20
12.08551389
 30
0.0
  0
VERTEX
  5
507
  8
0
 10
117.6441749586886
 20
12.38898772108704
 30
0.0
  0
VERTEX
  5
508
  8
0
 10
117.378614802267
 20
12.68079922306205
 30
0.0
  0
VERTEX
  5
509
  8
0
 10
116.9473685085952
 20
12.94973424357947
 30
0.0
  0
VERTEX
  5
50A
  8
0
 10
116.3670086308557
 20
13.18545776064483
 30
0.0
  0
VERTEX
  5
50B
  8
0
 10
115.6598380736295
 20
13.37891105171324
 30
0.0
  0
VERTEX
  5
50C
  8
0
 10
114.8530330047833
 20
13.52265981531572
 30
0.0
  0
VERTEX
  5
50D
  8
0
 10
113.9775984905806
 20
13.61117986709484
 30
0.0
  0
VERTEX
  5
50E
  8
0
 10
113.0671769883762
 20
13.64106943111111
 30
0.0
  0
VERTEX
  5
50F
  8
0
 10
112.1567554858499
 20
13.61117986818425
 30
0.0
  0
VERTEX
  5
510
  8
0
 10
111.2813209706939
 20
13.52265981745267
 30
0.0
  0
VERTEX
  5
511
  8
0
 10
110.4745159002995
 20
13.37891105481561
 30
0.0
  0
VERTEX
  5
512
  8
0
 10
109.76734534099
 20
13.1854577645934
 30
0.0
  0
VERTEX
  5
513
  8
0
 10
109.1869854607119
 20
12.94973424822249
 30
0.0
  0
VERTEX
  5
514
  8
0
 10
108.7557391641439
 20
12.68079922822111
 30
0.0
  0
VERTEX
  5
515
  8
0
 10
108.4901790045796
 20
12.38898772656386
 30
0.0
  0
VERTEX
  5
516
  8
0
 10
108.40051031
 20
12.08551389558412
 30
0.0
  0
SEQEND
  5
52F
  8
0
  0
POLYLINE
  5
1FC
  8
0
 66
     1
 10
0.0
 20
0.0
 30
0.0
  0
VERTEX
  5
1FD
  8
0
 10
140.02504303
 20
11.97562132
 30
0.0
  0
VERTEX
  5
1FE
  8
0
 10
123.5258848
 20
-2.57526852
 30
0.0
  0
VERTEX
  5
1FF
  8
0
 10
123.5258848
 20
2.45304637
 30
0.0
  0
SEQEND
  5
200
  8
0
  0
LINE
  5
201
  8
0
 10
140.02504303
 20
17.00393621
 30
0.0
 11
123.5258848
 21
2.45304637
 31
0.0
  0
POLYLINE
  5
202
  8
0
 66
     1
 10
0.0
 20
0.0
 30
0.0
  0
VERTEX
  5
203
  8
0
 10
140.02504303
 20
11.97562132
 30
0.0
  0
VERTEX
  5
204
  8
0
 10
140.02504303
 20
17.00393621
 30
0.0
  0
VERTEX
  5
205
  8
0
 10
43.9891701
 20
29.10331891
 30
0.0
  0
VERTEX
  5
206
  8
0
 10
27.49001187
 20
14.55242907
 30
0.0
  0
VERTEX
  5
207
  8
0
 10
123.5258848
 20
2.45304637
 30
0.0
  0
SEQEND
  5
208
  8
0
  0
LINE
  5
209
  8
0
 10
27.49001187
 20
9.52411418
 30
0.0
 11
123.5258848
 21
-2.57526852
 31
0.0
  0
LINE
  5
20A
  8
0
  6
STRICHPUNKT2
 62
     1
 10
113.06717698
 20
13.97113197
 30
0.0
 11
113.06717698
 21
10.52995834
 31
0.0
  0
LINE
  5
20B
  8
0
  6
STRICHPUNKT2
 62
     1
 10
113.06717698
 20
12.08551389
 30
0.0
 11
106.83108133
 21
12.87118809
 31
0.0
  0
LINE
  5
20C
  8
0
  6
STRICHPUNKT2
 62
     1
 10
113.06717698
 20
12.08551389
 30
0.0
 11
119.30327262
 21
11.29983969
 31
0.0
  0
LINE
  5
20D
  8
0
  6
STRICHPUNKT2
 62
     1
 10
113.06717698
 20
12.08551389
 30
0.0
 11
110.71015437
 21
10.00681534
 31
0.0
  0
LINE
  5
20E
  8
0
  6
STRICHPUNKT2
 62
     1
 10
113.06717698
 20
12.08551389
 30
0.0
 11
115.42419958
 21
14.16421244
 31
0.0
  0
LINE
  5
20F
  8
0
  6
STRICHPUNKT2
 62
     1
 10
50.39441575
 20
21.8671577
 30
0.0
 11
50.39441575
 21
18.31858078
 31
0.0
  0
LINE
  5
210
  8
0
  6
STRICHPUNKT2
 62
     1
 10
82.19850354
 20
17.86021927
 30
0.0
 11
82.19850354
 21
14.41904563
 31
0.0
  0
LINE
  5
211
  8
0
  6
STRICHPUNKT2
 62
     1
 10
44.1583201
 20
20.76721382
 30
0.0
 11
88.43459918
 21
15.18892699
 31
0.0
  0
LINE
  5
212
  8
0
  6
STRICHPUNKT2
 62
     1
 10
48.03739315
 20
17.90284107
 30
0.0
 11
52.75143835
 21
22.06023816
 31
0.0
  0
LINE
  5
213
  8
0
  6
STRICHPUNKT2
 62
     1
 10
79.84148093
 20
13.89590264
 30
0.0
 11
84.55552614
 21
18.05329974
 31
0.0
  0
POLYLINE
  5
214
  8
0
 66
     1
 10
0.0
 20
0.0
 30
0.0
  0
VERTEX
  5
215
  8
0
 10
214.71739613
 20
131.94242804
 30
0.0
  0
VERTEX
  5
216
  8
0
 10
214.71739613
 20
227.94242804
 30
0.0
  0
VERTEX
  5
217
  8
0
 10
220.05072946
 20
227.94242804
 30
0.0
  0
SEQEND
  5
218
  8
0
  0
LINE
  5
219
  8
0
 10
220.05072946
 20
131.94242804
 30
0.0
 11
220.05072946
 21
227.94242804
 31
0.0
  0
LINE
  5
21A
  8
0
  6
STRICHPUNKT2
 62
     1
 10
214.71739613
 20
219.94242804
 30
0.0
 11
213.05072946
 21
219.94242804
 31
0.0
  0
LINE
  5
21B
  8
0
  6
STRICHPUNKT2
 62
     1
 10
221.71739613
 20
219.94242804
 30
0.0
 11
220.05072946
 21
219.94242804
 31
0.0
  0
LINE
  5
21C
  8
0
  6
STRICHPUNKT2
 62
     1
 10
214.71739613
 20
185.27576137
 30
0.0
 11
213.05072946
 21
185.27576137
 31
0.0
  0
LINE
  5
21D
  8
0
  6
STRICHPUNKT2
 62
     1
 10
221.71739613
 20
185.27576137
 30
0.0
 11
220.05072946
 21
185.27576137
 31
0.0
  0
LINE
  5
21E
  8
0
  6
STRICHPUNKT2
 62
     1
 10
214.71739613
 20
201.27576137
 30
0.0
 11
212.71739613
 21
201.27576137
 31
0.0
  0
LINE
  5
21F
  8
0
  6
STRICHPUNKT2
 62
     1
 10
222.05072946
 20
201.27576137
 30
0.0
 11
220.05072946
 21
201.27576137
 31
0.0
  0
LINE
  5
220
  8
0
  6
STRICHPUNKT2
 62
     1
 10
214.71739613
 20
159.94242804
 30
0.0
 11
213.05072946
 21
159.94242804
 31
0.0
  0
LINE
  5
221
  8
0
  6
STRICHPUNKT2
 62
     1
 10
221.71739613
 20
159.94242804
 30
0.0
 11
220.05072946
 21
159.94242804
 31
0.0
  0
LINE
  5
222
  8
0
  6
STRICHPUNKT2
 62
     1
 10
214.71739613
 20
164.6090947
 30
0.0
 11
212.71739613
 21
164.6090947
 31
0.0
  0
LINE
  5
223
  8
0
  6
STRICHPUNKT2
 62
     1
 10
222.05072946
 20
164.6090947
 30
0.0
 11
220.05072946
 21
164.6090947
 31
0.0
  0
LINE
  5
224
  8
0
  6
STRICHPUNKT2
 62
     1
 10
214.71739613
 20
211.94242804
 30
0.0
 11
213.05072946
 21
211.94242804
 31
0.0
  0
LINE
  5
225
  8
0
  6
STRICHPUNKT2
 62
     1
 10
221.71739613
 20
211.94242804
 30
0.0
 11
220.05072946
 21
211.94242804
 31
0.0
  0
LINE
  5
226
  8
0
  6
STRICHPUNKT2
 62
     1
 10
214.71739613
 20
151.94242804
 30
0.0
 11
213.05072946
 21
151.94242804
 31
0.0
  0
LINE
  5
227
  8
0
  6
STRICHPUNKT2
 62
     1
 10
221.71739613
 20
151.94242804
 30
0.0
 11
220.05072946
 21
151.94242804
 31
0.0
  0
LINE
  5
228
  8
0
  6
STRICHPUNKT2
 62
     1
 10
214.71739613
 20
193.27576137
 30
0.0
 11
213.05072946
 21
193.27576137
 31
0.0
  0
LINE
  5
229
  8
0
  6
STRICHPUNKT2
 62
     1
 10
221.71739613
 20
193.27576137
 30
0.0
 11
220.05072946
 21
193.27576137
 31
0.0
  0
ARC
  5
22A
  8
0
 10
225.38406279
 20
131.94242804
 30
0.0
 40
10.66666667
 50
180.0
 51
-90.0
  0
ARC
  5
22B
  8
0
 10
225.38406279
 20
131.94242804
 30
0.0
 40
5.33333333
 50
180.0
 51
-90.0
  0
POLYLINE
  5
22C
  8
0
 66
     1
 10
0.0
 20
0.0
 30
0.0
  0
VERTEX
  5
22D
  8
0
 10
225.38406279
 20
121.27576137
 30
0.0
  0
VERTEX
  5
22E
  8
0
 10
328.05072946
 20
121.27576137
 30
0.0
  0
VERTEX
  5
22F
  8
0
 10
328.05072946
 20
126.6090947
 30
0.0
  0
SEQEND
  5
230
  8
0
  0
LINE
  5
231
  8
0
 10
225.38406279
 20
126.6090947
 30
0.0
 11
328.05072946
 21
126.6090947
 31
0.0
  0
LINE
  5
232
  8
0
  6
STRICHPUNKT2
 62
     1
 10
308.05072946
 20
121.27576137
 30
0.0
 11
308.05072946
 21
119.27576137
 31
0.0
  0
LINE
  5
233
  8
0
  6
STRICHPUNKT2
 62
     1
 10
308.05072946
 20
128.6090947
 30
0.0
 11
308.05072946
 21
126.6090947
 31
0.0
  0
LINE
  5
234
  8
0
  6
STRICHPUNKT2
 62
     1
 10
241.05072946
 20
121.27576137
 30
0.0
 11
241.05072946
 21
119.27576137
 31
0.0
  0
LINE
  5
235
  8
0
  6
STRICHPUNKT2
 62
     1
 10
241.05072946
 20
128.6090947
 30
0.0
 11
241.05072946
 21
126.6090947
 31
0.0
  0
LINE
  5
236
  8
0
  6
STRICHPUNKT2
 62
     1
 10
275.05072946
 20
121.27576137
 30
0.0
 11
275.05072946
 21
119.27576137
 31
0.0
  0
LINE
  5
237
  8
0
  6
STRICHPUNKT2
 62
     1
 10
275.05072946
 20
128.6090947
 30
0.0
 11
275.05072946
 21
126.6090947
 31
0.0
  0
CIRCLE
  5
238
  8
0
 10
143.97181804
 20
164.6090947
 30
0.0
 40
4.0
  0
CIRCLE
  5
239
  8
0
 10
143.97181804
 20
201.27576137
 30
0.0
 40
4.0
  0
CIRCLE
  5
23A
  8
0
 10
127.30515138
 20
211.94242804
 30
0.0
 40
3.33333333
  0
CIRCLE
  5
23B
  8
0
 10
127.30515138
 20
185.27576137
 30
0.0
 40
3.33333333
  0
CIRCLE
  5
23C
  8
0
 10
127.30515138
 20
151.94242804
 30
0.0
 40
3.33333333
  0
CIRCLE
  5
23D
  8
0
 10
160.63848471
 20
159.94242804
 30
0.0
 40
3.33333333
  0
CIRCLE
  5
23E
  8
0
 10
160.63848471
 20
193.27576137
 30
0.0
 40
3.33333333
  0
CIRCLE
  5
23F
  8
0
 10
160.63848471
 20
219.94242804
 30
0.0
 40
3.33333333
  0
LINE
  5
240
  8
0
 10
167.30515138
 20
131.94242804
 30
0.0
 11
167.30515138
 21
227.94242804
 31
0.0
  0
LINE
  5
241
  8
0
 10
120.63848471
 20
227.94242804
 30
0.0
 11
167.30515138
 21
227.94242804
 31
0.0
  0
POLYLINE
  5
242
  8
0
 66
     1
 10
0.0
 20
0.0
 30
0.0
  0
VERTEX
  5
243
  8
0
 10
120.63848471
 20
227.94242804
 30
0.0
  0
VERTEX
  5
244
  8
0
 10
120.63848471
 20
131.94242804
 30
0.0
  0
VERTEX
  5
245
  8
0
 10
167.30515138
 20
131.94242804
 30
0.0
  0
SEQEND
  5
246
  8
0
  0
LINE
  5
247
  8
0
  6
STRICHPUNKT2
 62
     1
 10
160.63848471
 20
219.94242804
 30
0.0
 11
155.63848471
 21
219.94242804
 31
0.0
  0
LINE
  5
248
  8
0
  6
STRICHPUNKT2
 62
     1
 10
160.63848471
 20
219.94242804
 30
0.0
 11
165.63848471
 21
219.94242804
 31
0.0
  0
LINE
  5
249
  8
0
  6
STRICHPUNKT2
 62
     1
 10
160.63848471
 20
219.94242804
 30
0.0
 11
160.63848471
 21
224.94242804
 31
0.0
  0
LINE
  5
24A
  8
0
  6
STRICHPUNKT2
 62
     1
 10
160.63848471
 20
219.94242804
 30
0.0
 11
160.63848471
 21
214.94242804
 31
0.0
  0
LINE
  5
24B
  8
0
  6
STRICHPUNKT2
 62
     1
 10
160.63848471
 20
193.27576137
 30
0.0
 11
155.63848471
 21
193.27576137
 31
0.0
  0
LINE
  5
24C
  8
0
  6
STRICHPUNKT2
 62
     1
 10
160.63848471
 20
193.27576137
 30
0.0
 11
165.63848471
 21
193.27576137
 31
0.0
  0
LINE
  5
24D
  8
0
  6
STRICHPUNKT2
 62
     1
 10
160.63848471
 20
193.27576137
 30
0.0
 11
160.63848471
 21
198.27576137
 31
0.0
  0
LINE
  5
24E
  8
0
  6
STRICHPUNKT2
 62
     1
 10
160.63848471
 20
193.27576137
 30
0.0
 11
160.63848471
 21
188.27576137
 31
0.0
  0
LINE
  5
24F
  8
0
  6
STRICHPUNKT2
 62
     1
 10
160.63848471
 20
159.94242804
 30
0.0
 11
155.63848471
 21
159.94242804
 31
0.0
  0
LINE
  5
250
  8
0
  6
STRICHPUNKT2
 62
     1
 10
160.63848471
 20
159.94242804
 30
0.0
 11
165.63848471
 21
159.94242804
 31
0.0
  0
LINE
  5
251
  8
0
  6
STRICHPUNKT2
 62
     1
 10
160.63848471
 20
159.94242804
 30
0.0
 11
160.63848471
 21
164.94242804
 31
0.0
  0
LINE
  5
252
  8
0
  6
STRICHPUNKT2
 62
     1
 10
160.63848471
 20
159.94242804
 30
0.0
 11
160.63848471
 21
154.94242804
 31
0.0
  0
LINE
  5
253
  8
0
  6
STRICHPUNKT2
 62
     1
 10
127.30515138
 20
151.94242804
 30
0.0
 11
122.30515138
 21
151.94242804
 31
0.0
  0
LINE
  5
254
  8
0
  6
STRICHPUNKT2
 62
     1
 10
127.30515138
 20
151.94242804
 30
0.0
 11
132.30515138
 21
151.94242804
 31
0.0
  0
LINE
  5
255
  8
0
  6
STRICHPUNKT2
 62
     1
 10
127.30515138
 20
151.94242804
 30
0.0
 11
127.30515138
 21
156.94242804
 31
0.0
  0
LINE
  5
256
  8
0
  6
STRICHPUNKT2
 62
     1
 10
127.30515138
 20
151.94242804
 30
0.0
 11
127.30515138
 21
146.94242804
 31
0.0
  0
LINE
  5
257
  8
0
  6
STRICHPUNKT2
 62
     1
 10
127.30515138
 20
185.27576137
 30
0.0
 11
122.30515138
 21
185.27576137
 31
0.0
  0
LINE
  5
258
  8
0
  6
STRICHPUNKT2
 62
     1
 10
127.30515138
 20
185.27576137
 30
0.0
 11
132.30515138
 21
185.27576137
 31
0.0
  0
LINE
  5
259
  8
0
  6
STRICHPUNKT2
 62
     1
 10
127.30515138
 20
185.27576137
 30
0.0
 11
127.30515138
 21
190.27576137
 31
0.0
  0
LINE
  5
25A
  8
0
  6
STRICHPUNKT2
 62
     1
 10
127.30515138
 20
185.27576137
 30
0.0
 11
127.30515138
 21
180.27576137
 31
0.0
  0
LINE
  5
25B
  8
0
  6
STRICHPUNKT2
 62
     1
 10
127.30515138
 20
211.94242804
 30
0.0
 11
122.30515138
 21
211.94242804
 31
0.0
  0
LINE
  5
25C
  8
0
  6
STRICHPUNKT2
 62
     1
 10
127.30515138
 20
211.94242804
 30
0.0
 11
132.30515138
 21
211.94242804
 31
0.0
  0
LINE
  5
25D
  8
0
  6
STRICHPUNKT2
 62
     1
 10
127.30515138
 20
211.94242804
 30
0.0
 11
127.30515138
 21
216.94242804
 31
0.0
  0
LINE
  5
25E
  8
0
  6
STRICHPUNKT2
 62
     1
 10
127.30515138
 20
211.94242804
 30
0.0
 11
127.30515138
 21
206.94242804
 31
0.0
  0
LINE
  5
25F
  8
0
  6
STRICHPUNKT2
 62
     1
 10
143.97181804
 20
201.27576137
 30
0.0
 11
137.97181804
 21
201.27576137
 31
0.0
  0
LINE
  5
260
  8
0
  6
STRICHPUNKT2
 62
     1
 10
143.97181804
 20
201.27576137
 30
0.0
 11
149.97181804
 21
201.27576137
 31
0.0
  0
LINE
  5
261
  8
0
  6
STRICHPUNKT2
 62
     1
 10
143.97181804
 20
201.27576137
 30
0.0
 11
143.97181804
 21
207.27576137
 31
0.0
  0
LINE
  5
262
  8
0
  6
STRICHPUNKT2
 62
     1
 10
143.97181804
 20
201.27576137
 30
0.0
 11
143.97181804
 21
195.27576137
 31
0.0
  0
LINE
  5
263
  8
0
  6
STRICHPUNKT2
 62
     1
 10
143.97181804
 20
164.6090947
 30
0.0
 11
137.97181804
 21
164.6090947
 31
0.0
  0
LINE
  5
264
  8
0
  6
STRICHPUNKT2
 62
     1
 10
143.97181804
 20
164.6090947
 30
0.0
 11
149.97181804
 21
164.6090947
 31
0.0
  0
LINE
  5
265
  8
0
  6
STRICHPUNKT2
 62
     1
 10
143.97181804
 20
164.6090947
 30
0.0
 11
143.97181804
 21
170.6090947
 31
0.0
  0
LINE
  5
266
  8
0
  6
STRICHPUNKT2
 62
     1
 10
143.97181804
 20
164.6090947
 30
0.0
 11
143.97181804
 21
158.6090947
 31
0.0
  0
LINE
  5
267
  8
0
 10
167.30515138
 20
131.94242804
 30
0.0
 11
167.30515138
 21
121.27576137
 31
0.0
  0
LINE
  5
268
  8
0
 10
120.63848471
 20
121.27576137
 30
0.0
 11
167.30515138
 21
121.27576137
 31
0.0
  0
POLYLINE
  5
269
  8
0
 66
     1
 10
0.0
 20
0.0
 30
0.0
  0
VERTEX
  5
26A
  8
0
 10
120.63848471
 20
121.27576137
 30
0.0
  0
VERTEX
  5
26B
  8
0
 10
120.63848471
 20
131.94242804
 30
0.0
  0
VERTEX
  5
26C
  8
0
 10
167.30515138
 20
131.94242804
 30
0.0
  0
SEQEND
  5
26D
  8
0
  0
LINE
  5
26E
  8
0
 10
120.63848471
 20
121.27576137
 30
0.0
 11
167.30515138
 21
121.27576137
 31
0.0
  0
LINE
  5
26F
  8
0
  6
STRICHPUNKT2
 62
     1
 10
143.97181804
 20
121.27576137
 30
0.0
 11
143.97181804
 21
119.27576137
 31
0.0
  0
POLYLINE
  5
270
  8
0
 66
     1
 10
0.0
 20
0.0
 30
0.0
  0
VERTEX
  5
271
  8
0
 10
214.71739613
 20
90.78030168
 30
0.0
  0
VERTEX
  5
272
  8
0
 10
214.71739613
 20
44.11363501
 30
0.0
  0
VERTEX
  5
273
  8
0
 10
220.05072946
 20
44.11363501
 30
0.0
  0
SEQEND
  5
274
  8
0
  0
LINE
  5
275
  8
0
 10
220.05072946
 20
90.78030168
 30
0.0
 11
220.05072946
 21
44.11363501
 31
0.0
  0
LINE
  5
276
  8
0
 10
214.71739613
 20
90.78030168
 30
0.0
 11
220.05072946
 21
90.78030168
 31
0.0
  0
LINE
  5
277
  8
0
  6
STRICHPUNKT2
 62
     1
 10
214.71739613
 20
50.78030168
 30
0.0
 11
213.05072946
 21
50.78030168
 31
0.0
  0
LINE
  5
278
  8
0
  6
STRICHPUNKT2
 62
     1
 10
221.71739613
 20
50.78030168
 30
0.0
 11
220.05072946
 21
50.78030168
 31
0.0
  0
LINE
  5
279
  8
0
  6
STRICHPUNKT2
 62
     1
 10
214.71739613
 20
67.44696834
 30
0.0
 11
212.71739613
 21
67.44696834
 31
0.0
  0
LINE
  5
27A
  8
0
  6
STRICHPUNKT2
 62
     1
 10
222.05072946
 20
67.44696834
 30
0.0
 11
220.05072946
 21
67.44696834
 31
0.0
  0
LINE
  5
27B
  8
0
  6
STRICHPUNKT2
 62
     1
 10
214.71739613
 20
84.11363501
 30
0.0
 11
213.05072946
 21
84.11363501
 31
0.0
  0
LINE
  5
27C
  8
0
  6
STRICHPUNKT2
 62
     1
 10
221.71739613
 20
84.11363501
 30
0.0
 11
220.05072946
 21
84.11363501
 31
0.0
  0
LINE
  5
27D
  8
0
 10
220.05072946
 20
44.11363501
 30
0.0
 11
225.38406279
 21
44.11363501
 31
0.0
  0
LINE
  5
27E
  8
0
 10
225.38406279
 20
90.78030168
 30
0.0
 11
225.38406279
 21
44.11363501
 31
0.0
  0
LINE
  5
27F
  8
0
 10
225.38406279
 20
90.78030168
 30
0.0
 11
220.05072946
 21
90.78030168
 31
0.0
  0
POLYLINE
  5
280
  8
0
 66
     1
 10
0.0
 20
0.0
 30
0.0
 70
     1
  0
VERTEX
  5
281
  8
0
 10
241.05072946
 20
62.78030168
 30
0.0
 42
-1.0
  0
VERTEX
  5
282
  8
0
 10
241.05072946
 20
72.11363501
 30
0.0
  0
VERTEX
  5
283
  8
0
 10
275.05072946
 20
72.11363501
 30
0.0
 42
-1.0
  0
VERTEX
  5
284
  8
0
 10
275.05072946
 20
62.78030168
 30
0.0
  0
SEQEND
  5
285
  8
0
  0
CIRCLE
  5
286
  8
0
 10
308.05072946
 20
67.44696834
 30
0.0
 40
4.66666667
  0
LINE
  5
287
  8
0
 10
328.05072946
 20
90.78030168
 30
0.0
 11
328.05072946
 21
44.11363501
 31
0.0
  0
LINE
  5
288
  8
0
 10
225.38406279
 20
44.11363501
 30
0.0
 11
328.05072946
 21
44.11363501
 31
0.0
  0
LINE
  5
289
  8
0
 10
225.38406279
 20
90.78030168
 30
0.0
 11
225.38406279
 21
44.11363501
 31
0.0
  0
LINE
  5
28A
  8
0
 10
328.05072946
 20
90.78030168
 30
0.0
 11
225.38406279
 21
90.78030168
 31
0.0
  0
LINE
  5
28B
  8
0
  6
STRICHPUNKT2
 62
     1
 10
308.05072946
 20
67.44696834
 30
0.0
 11
301.38406279
 21
67.44696834
 31
0.0
  0
LINE
  5
28C
  8
0
  6
STRICHPUNKT2
 62
     1
 10
308.05072946
 20
67.44696834
 30
0.0
 11
314.71739613
 21
67.44696834
 31
0.0
  0
LINE
  5
28D
  8
0
  6
STRICHPUNKT2
 62
     1
 10
308.05072946
 20
67.44696834
 30
0.0
 11
308.05072946
 21
60.78030168
 31
0.0
  0
LINE
  5
28E
  8
0
  6
STRICHPUNKT2
 62
     1
 10
308.05072946
 20
67.44696834
 30
0.0
 11
308.05072946
 21
74.11363501
 31
0.0
  0
LINE
  5
28F
  8
0
  6
STRICHPUNKT2
 62
     1
 10
234.38406279
 20
67.44696834
 30
0.0
 11
281.71739613
 21
67.44696834
 31
0.0
  0
LINE
  5
290
  8
0
  6
STRICHPUNKT2
 62
     1
 10
241.05072946
 20
60.78030168
 30
0.0
 11
241.05072946
 21
74.11363501
 31
0.0
  0
LINE
  5
291
  8
0
  6
STRICHPUNKT2
 62
     1
 10
275.05072946
 20
60.78030168
 30
0.0
 11
275.05072946
 21
74.11363501
 31
0.0
  0
TEXT
  5
292
  8
TXT_DIM49
 10
268.50430968
 20
113.44242804
 30
0.0
 40
2.5
  1
170
  7
ARIAL
  0
LINE
  5
293
  8
0
 62
     4
 10
215.71739613
 20
112.94242804
 30
0.0
 11
213.71739613
 21
110.94242804
 31
0.0
  0
LINE
  5
294
  8
0
 62
     4
 10
327.30072946
 20
111.19242804
 30
0.0
 11
328.80072946
 21
112.69242804
 31
0.0
  0
LINE
  5
295
  8
0
 62
     4
 10
214.71739613
 20
111.94242804
 30
0.0
 11
328.05072946
 21
111.94242804
 31
0.0
  0
LINE
  5
296
  8
0
 62
     4
 10
214.71739613
 20
113.94242804
 30
0.0
 11
214.71739613
 21
109.94242804
 31
0.0
  0
LINE
  5
297
  8
0
 62
     4
 10
328.05072946
 20
113.94242804
 30
0.0
 11
328.05072946
 21
109.94242804
 31
0.0
  0
TEXT
  5
298
  8
TXT_DIM49
 10
203.88406279
 20
171.72934159
 30
0.0
 40
2.5
  1
160
 50
90.00020741
  7
ARIAL
  0
LINE
  5
299
  8
0
 62
     4
 10
204.38406279
 20
122.27576137
 30
0.0
 11
206.38406279
 21
120.27576137
 31
0.0
  0
LINE
  5
29A
  8
0
 62
     4
 10
206.13406279
 20
227.19242804
 30
0.0
 11
204.63406279
 21
228.69242804
 31
0.0
  0
LINE
  5
29B
  8
0
 62
     4
 10
205.38406279
 20
121.27576137
 30
0.0
 11
205.38406279
 21
227.94242804
 31
0.0
  0
LINE
  5
29C
  8
0
 62
     4
 10
207.38406279
 20
121.27576137
 30
0.0
 11
203.38406279
 21
121.27576137
 31
0.0
  0
LINE
  5
29D
  8
0
 62
     4
 10
207.38406279
 20
227.94242804
 30
0.0
 11
203.38406279
 21
227.94242804
 31
0.0
  0
TEXT
  5
29E
  8
TXT_DIM49
 10
216.42414507
 20
236.24523518
 30
0.0
 40
2.5
  1
8
  7
ARIAL
  0
LINE
  5
29F
  8
0
 62
     4
 10
215.71739613
 20
235.74523518
 30
0.0
 11
213.71739613
 21
233.74523518
 31
0.0
  0
LINE
  5
2A0
  8
0
 62
     4
 10
219.30072946
 20
233.99523518
 30
0.0
 11
220.80072946
 21
235.49523518
 31
0.0
  0
LINE
  5
2A1
  8
0
 62
     4
 10
214.71739613
 20
234.74523518
 30
0.0
 11
220.05072946
 21
234.74523518
 31
0.0
  0
LINE
  5
2A2
  8
0
 62
     4
 10
214.71739613
 20
232.74523518
 30
0.0
 11
214.71739613
 21
236.74523518
 31
0.0
  0
LINE
  5
2A3
  8
0
 62
     4
 10
220.05072946
 20
232.74523518
 30
0.0
 11
220.05072946
 21
236.74523518
 31
0.0
  0
TEXT
  5
2A4
  8
TXT_DIM49
 10
335.15093119
 20
122.98251031
 30
0.0
 40
2.5
  1
8
 50
90.00020741
  7
ARIAL
  0
LINE
  5
2A5
  8
0
 62
     4
 10
337.65093119
 20
125.6090947
 30
0.0
 11
335.65093119
 21
127.6090947
 31
0.0
  0
LINE
  5
2A6
  8
0
 62
     4
 10
335.90093119
 20
122.02576137
 30
0.0
 11
337.40093119
 21
120.52576137
 31
0.0
  0
LINE
  5
2A7
  8
0
 62
     4
 10
336.65093119
 20
126.6090947
 30
0.0
 11
336.65093119
 21
121.27576137
 31
0.0
  0
LINE
  5
2A8
  8
0
 62
     4
 10
334.65093119
 20
126.6090947
 30
0.0
 11
338.65093119
 21
126.6090947
 31
0.0
  0
LINE
  5
2A9
  8
0
 62
     4
 10
334.65093119
 20
121.27576137
 30
0.0
 11
338.65093119
 21
121.27576137
 31
0.0
  0
TEXT
  5
2AA
  8
TXT_DIM49
 10
162.05198259
 20
234.72487201
 30
0.0
 40
2.5
  1
10
  7
ARIAL
  0
LINE
  5
2AB
  8
0
 62
     4
 10
166.30515138
 20
232.22487201
 30
0.0
 11
168.30515138
 21
234.22487201
 31
0.0
  0
LINE
  5
2AC
  8
0
 62
     4
 10
161.38848471
 20
233.97487201
 30
0.0
 11
159.88848471
 21
232.47487201
 31
0.0
  0
LINE
  5
2AD
  8
0
 62
     4
 10
167.30515138
 20
233.22487201
 30
0.0
 11
160.63848471
 21
233.22487201
 31
0.0
  0
LINE
  5
2AE
  8
0
 62
     4
 10
167.30515138
 20
231.22487201
 30
0.0
 11
167.30515138
 21
235.22487201
 31
0.0
  0
LINE
  5
2AF
  8
0
 62
     4
 10
160.63848471
 20
231.22487201
 30
0.0
 11
160.63848471
 21
235.22487201
 31
0.0
  0
TEXT
  5
2B0
  8
TXT_DIM49
 10
150.38531593
 20
234.72487201
 30
0.0
 40
2.5
  1
25
  7
ARIAL
  0
LINE
  5
2B1
  8
0
 62
     4
 10
159.63848471
 20
232.22487201
 30
0.0
 11
161.63848471
 21
234.22487201
 31
0.0
  0
LINE
  5
2B2
  8
0
 62
     4
 10
144.72181804
 20
233.97487201
 30
0.0
 11
143.22181804
 21
232.47487201
 31
0.0
  0
LINE
  5
2B3
  8
0
 62
     4
 10
160.63848471
 20
233.22487201
 30
0.0
 11
143.97181804
 21
233.22487201
 31
0.0
  0
LINE
  5
2B4
  8
0
 62
     4
 10
160.63848471
 20
231.22487201
 30
0.0
 11
160.63848471
 21
235.22487201
 31
0.0
  0
LINE
  5
2B5
  8
0
 62
     4
 10
143.97181804
 20
231.22487201
 30
0.0
 11
143.97181804
 21
235.22487201
 31
0.0
  0
TEXT
  5
2B6
  8
TXT_DIM49
 10
133.71864926
 20
234.72487201
 30
0.0
 40
2.5
  1
25
  7
ARIAL
  0
LINE
  5
2B7
  8
0
 62
     4
 10
142.97181804
 20
232.22487201
 30
0.0
 11
144.97181804
 21
234.22487201
 31
0.0
  0
LINE
  5
2B8
  8
0
 62
     4
 10
128.05515138
 20
233.97487201
 30
0.0
 11
126.55515138
 21
232.47487201
 31
0.0
  0
LINE
  5
2B9
  8
0
 62
     4
 10
143.97181804
 20
233.22487201
 30
0.0
 11
127.30515138
 21
233.22487201
 31
0.0
  0
LINE
  5
2BA
  8
0
 62
     4
 10
143.97181804
 20
231.22487201
 30
0.0
 11
143.97181804
 21
235.22487201
 31
0.0
  0
LINE
  5
2BB
  8
0
 62
     4
 10
127.30515138
 20
231.22487201
 30
0.0
 11
127.30515138
 21
235.22487201
 31
0.0
  0
TEXT
  5
2BC
  8
TXT_DIM49
 10
122.05198259
 20
234.72487201
 30
0.0
 40
2.5
  1
10
  7
ARIAL
  0
LINE
  5
2BD
  8
0
 62
     4
 10
126.30515138
 20
232.22487201
 30
0.0
 11
128.30515138
 21
234.22487201
 31
0.0
  0
LINE
  5
2BE
  8
0
 62
     4
 10
121.38848471
 20
233.97487201
 30
0.0
 11
119.88848471
 21
232.47487201
 31
0.0
  0
LINE
  5
2BF
  8
0
 62
     4
 10
127.30515138
 20
233.22487201
 30
0.0
 11
120.63848471
 21
233.22487201
 31
0.0
  0
LINE
  5
2C0
  8
0
 62
     4
 10
127.30515138
 20
231.22487201
 30
0.0
 11
127.30515138
 21
235.22487201
 31
0.0
  0
LINE
  5
2C1
  8
0
 62
     4
 10
120.63848471
 20
231.22487201
 30
0.0
 11
120.63848471
 21
235.22487201
 31
0.0
  0
TEXT
  5
2C2
  8
TXT_DIM49
 10
114.50481964
 20
218.02259259
 30
0.0
 40
2.5
  1
24
 50
90.00020741
  7
ARIAL
  0
LINE
  5
2C3
  8
0
 62
     4
 10
117.00481964
 20
226.94242804
 30
0.0
 11
115.00481964
 21
228.94242804
 31
0.0
  0
LINE
  5
2C4
  8
0
 62
     4
 10
115.25481964
 20
212.69242804
 30
0.0
 11
116.75481964
 21
211.19242804
 31
0.0
  0
LINE
  5
2C5
  8
0
 62
     4
 10
116.00481964
 20
227.94242804
 30
0.0
 11
116.00481964
 21
211.94242804
 31
0.0
  0
LINE
  5
2C6
  8
0
 62
     4
 10
118.00481964
 20
227.94242804
 30
0.0
 11
114.00481964
 21
227.94242804
 31
0.0
  0
LINE
  5
2C7
  8
0
 62
     4
 10
118.00481964
 20
211.94242804
 30
0.0
 11
114.00481964
 21
211.94242804
 31
0.0
  0
TEXT
  5
2C8
  8
TXT_DIM49
 10
114.50481964
 20
204.68925925
 30
0.0
 40
2.5
  1
16
 50
90.00020741
  7
ARIAL
  0
LINE
  5
2C9
  8
0
 62
     4
 10
117.00481964
 20
210.94242804
 30
0.0
 11
115.00481964
 21
212.94242804
 31
0.0
  0
LINE
  5
2CA
  8
0
 62
     4
 10
115.25481964
 20
202.02576137
 30
0.0
 11
116.75481964
 21
200.52576137
 31
0.0
  0
LINE
  5
2CB
  8
0
 62
     4
 10
116.00481964
 20
211.94242804
 30
0.0
 11
116.00481964
 21
201.27576137
 31
0.0
  0
LINE
  5
2CC
  8
0
 62
     4
 10
118.00481964
 20
211.94242804
 30
0.0
 11
114.00481964
 21
211.94242804
 31
0.0
  0
LINE
  5
2CD
  8
0
 62
     4
 10
118.00481964
 20
201.27576137
 30
0.0
 11
114.00481964
 21
201.27576137
 31
0.0
  0
TEXT
  5
2CE
  8
TXT_DIM49
 10
114.50481964
 20
191.35592592
 30
0.0
 40
2.5
  1
24
 50
90.00020741
  7
ARIAL
  0
LINE
  5
2CF
  8
0
 62
     4
 10
117.00481964
 20
200.27576137
 30
0.0
 11
115.00481964
 21
202.27576137
 31
0.0
  0
LINE
  5
2D0
  8
0
 62
     4
 10
115.25481964
 20
186.02576137
 30
0.0
 11
116.75481964
 21
184.52576137
 31
0.0
  0
LINE
  5
2D1
  8
0
 62
     4
 10
116.00481964
 20
201.27576137
 30
0.0
 11
116.00481964
 21
185.27576137
 31
0.0
  0
LINE
  5
2D2
  8
0
 62
     4
 10
118.00481964
 20
201.27576137
 30
0.0
 11
114.00481964
 21
201.27576137
 31
0.0
  0
LINE
  5
2D3
  8
0
 62
     4
 10
118.00481964
 20
185.27576137
 30
0.0
 11
114.00481964
 21
185.27576137
 31
0.0
  0
TEXT
  5
2D4
  8
TXT_DIM49
 10
114.50481964
 20
173.02259259
 30
0.0
 40
2.5
  1
31
 50
90.00020741
  7
ARIAL
  0
LINE
  5
2D5
  8
0
 62
     4
 10
117.00481964
 20
184.27576137
 30
0.0
 11
115.00481964
 21
186.27576137
 31
0.0
  0
LINE
  5
2D6
  8
0
 62
     4
 10
115.25481964
 20
165.3590947
 30
0.0
 11
116.75481964
 21
163.8590947
 31
0.0
  0
LINE
  5
2D7
  8
0
 62
     4
 10
116.00481964
 20
185.27576137
 30
0.0
 11
116.00481964
 21
164.6090947
 31
0.0
  0
LINE
  5
2D8
  8
0
 62
     4
 10
118.00481964
 20
185.27576137
 30
0.0
 11
114.00481964
 21
185.27576137
 31
0.0
  0
LINE
  5
2D9
  8
0
 62
     4
 10
118.00481964
 20
164.6090947
 30
0.0
 11
114.00481964
 21
164.6090947
 31
0.0
  0
TEXT
  5
2DA
  8
TXT_DIM49
 10
114.50481964
 20
156.35592592
 30
0.0
 40
2.5
  1
19
 50
90.00020741
  7
ARIAL
  0
LINE
  5
2DB
  8
0
 62
     4
 10
117.00481964
 20
163.6090947
 30
0.0
 11
115.00481964
 21
165.6090947
 31
0.0
  0
LINE
  5
2DC
  8
0
 62
     4
 10
115.25481964
 20
152.69242804
 30
0.0
 11
116.75481964
 21
151.19242804
 31
0.0
  0
LINE
  5
2DD
  8
0
 62
     4
 10
116.00481964
 20
164.6090947
 30
0.0
 11
116.00481964
 21
151.94242804
 31
0.0
  0
LINE
  5
2DE
  8
0
 62
     4
 10
118.00481964
 20
164.6090947
 30
0.0
 11
114.00481964
 21
164.6090947
 31
0.0
  0
LINE
  5
2DF
  8
0
 62
     4
 10
118.00481964
 20
151.94242804
 30
0.0
 11
114.00481964
 21
151.94242804
 31
0.0
  0
TEXT
  5
2E0
  8
TXT_DIM49
 10
114.50481964
 20
134.68925925
 30
0.0
 40
2.5
  1
46
 50
90.00020741
  7
ARIAL
  0
LINE
  5
2E1
  8
0
 62
     4
 10
117.00481964
 20
150.94242804
 30
0.0
 11
115.00481964
 21
152.94242804
 31
0.0
  0
LINE
  5
2E2
  8
0
 62
     4
 10
115.25481964
 20
122.02576137
 30
0.0
 11
116.75481964
 21
120.52576137
 31
0.0
  0
LINE
  5
2E3
  8
0
 62
     4
 10
116.00481964
 20
151.94242804
 30
0.0
 11
116.00481964
 21
121.27576137
 31
0.0
  0
LINE
  5
2E4
  8
0
 62
     4
 10
118.00481964
 20
151.94242804
 30
0.0
 11
114.00481964
 21
151.94242804
 31
0.0
  0
LINE
  5
2E5
  8
0
 62
     4
 10
118.00481964
 20
121.27576137
 30
0.0
 11
114.00481964
 21
121.27576137
 31
0.0
  0
TEXT
  5
2E6
  8
TXT_DIM49
 10
171.20258486
 20
222.02259259
 30
0.0
 40
2.5
  1
12
 50
90.00020741
  7
ARIAL
  0
LINE
  5
2E7
  8
0
 62
     4
 10
173.70258486
 20
226.94242804
 30
0.0
 11
171.70258486
 21
228.94242804
 31
0.0
  0
LINE
  5
2E8
  8
0
 62
     4
 10
171.95258486
 20
220.69242804
 30
0.0
 11
173.45258486
 21
219.19242804
 31
0.0
  0
LINE
  5
2E9
  8
0
 62
     4
 10
172.70258486
 20
227.94242804
 30
0.0
 11
172.70258486
 21
219.94242804
 31
0.0
  0
LINE
  5
2EA
  8
0
 62
     4
 10
170.70258486
 20
227.94242804
 30
0.0
 11
174.70258486
 21
227.94242804
 31
0.0
  0
LINE
  5
2EB
  8
0
 62
     4
 10
170.70258486
 20
219.94242804
 30
0.0
 11
174.70258486
 21
219.94242804
 31
0.0
  0
TEXT
  5
2EC
  8
TXT_DIM49
 10
171.20258486
 20
204.68925925
 30
0.0
 40
2.5
  1
40
 50
90.00020741
  7
ARIAL
  0
LINE
  5
2ED
  8
0
 62
     4
 10
173.70258486
 20
218.94242804
 30
0.0
 11
171.70258486
 21
220.94242804
 31
0.0
  0
LINE
  5
2EE
  8
0
 62
     4
 10
171.95258486
 20
194.02576137
 30
0.0
 11
173.45258486
 21
192.52576137
 31
0.0
  0
LINE
  5
2EF
  8
0
 62
     4
 10
172.70258486
 20
219.94242804
 30
0.0
 11
172.70258486
 21
193.27576137
 31
0.0
  0
LINE
  5
2F0
  8
0
 62
     4
 10
170.70258486
 20
219.94242804
 30
0.0
 11
174.70258486
 21
219.94242804
 31
0.0
  0
LINE
  5
2F1
  8
0
 62
     4
 10
170.70258486
 20
193.27576137
 30
0.0
 11
174.70258486
 21
193.27576137
 31
0.0
  0
TEXT
  5
2F2
  8
TXT_DIM49
 10
171.20258486
 20
174.68925925
 30
0.0
 40
2.5
  1
50
 50
90.00020741
  7
ARIAL
  0
LINE
  5
2F3
  8
0
 62
     4
 10
173.70258486
 20
192.27576137
 30
0.0
 11
171.70258486
 21
194.27576137
 31
0.0
  0
LINE
  5
2F4
  8
0
 62
     4
 10
171.95258486
 20
160.69242804
 30
0.0
 11
173.45258486
 21
159.19242804
 31
0.0
  0
LINE
  5
2F5
  8
0
 62
     4
 10
172.70258486
 20
193.27576137
 30
0.0
 11
172.70258486
 21
159.94242804
 31
0.0
  0
LINE
  5
2F6
  8
0
 62
     4
 10
170.70258486
 20
193.27576137
 30
0.0
 11
174.70258486
 21
193.27576137
 31
0.0
  0
LINE
  5
2F7
  8
0
 62
     4
 10
170.70258486
 20
159.94242804
 30
0.0
 11
174.70258486
 21
159.94242804
 31
0.0
  0
TEXT
  5
2F8
  8
TXT_DIM49
 10
171.20258486
 20
138.68925925
 30
0.0
 40
2.5
  1
58
 50
90.00020741
  7
ARIAL
  0
LINE
  5
2F9
  8
0
 62
     4
 10
173.70258486
 20
158.94242804
 30
0.0
 11
171.70258486
 21
160.94242804
 31
0.0
  0
LINE
  5
2FA
  8
0
 62
     4
 10
171.95258486
 20
122.02576137
 30
0.0
 11
173.45258486
 21
120.52576137
 31
0.0
  0
LINE
  5
2FB
  8
0
 62
     4
 10
172.70258486
 20
159.94242804
 30
0.0
 11
172.70258486
 21
121.27576137
 31
0.0
  0
LINE
  5
2FC
  8
0
 62
     4
 10
170.70258486
 20
159.94242804
 30
0.0
 11
174.70258486
 21
159.94242804
 31
0.0
  0
LINE
  5
2FD
  8
0
 62
     4
 10
170.70258486
 20
121.27576137
 30
0.0
 11
174.70258486
 21
121.27576137
 31
0.0
  0
TEXT
  5
2FE
  8
TXT_DIM49
 10
142.05198259
 20
114.50944554
 30
0.0
 40
2.5
  1
70
  7
ARIAL
  0
LINE
  5
2FF
  8
0
 62
     4
 10
121.63848471
 20
114.00944554
 30
0.0
 11
119.63848471
 21
112.00944554
 31
0.0
  0
LINE
  5
300
  8
0
 62
     4
 10
166.55515138
 20
112.25944554
 30
0.0
 11
168.05515138
 21
113.75944554
 31
0.0
  0
LINE
  5
301
  8
0
 62
     4
 10
120.63848471
 20
113.00944554
 30
0.0
 11
167.30515138
 21
113.00944554
 31
0.0
  0
LINE
  5
302
  8
0
 62
     4
 10
120.63848471
 20
115.00944554
 30
0.0
 11
120.63848471
 21
111.00944554
 31
0.0
  0
LINE
  5
303
  8
0
 62
     4
 10
167.30515138
 20
115.00944554
 30
0.0
 11
167.30515138
 21
111.00944554
 31
0.0
  0
LINE
  5
304
  8
0
 62
     5
 10
157.30515138
 20
193.27576137
 30
0.0
 11
153.08964837
 21
189.17485418
 31
0.0
  0
LINE
  5
305
  8
0
 62
     5
 10
160.63848471
 20
216.6090947
 30
0.0
 11
153.08964837
 21
189.17485418
 31
0.0
  0
LINE
  5
306
  8
0
 62
     5
 10
160.63848471
 20
163.27576137
 30
0.0
 11
153.08964837
 21
189.17485418
 31
0.0
  0
TEXT
  5
307
  8
TXT_DIM49
 10
146.56490458
 20
187.92485418
 30
0.0
 40
2.5
  1
Ø10
  7
ARIAL
  0
LINE
  5
308
  8
0
 62
     5
 10
143.97181804
 20
160.6090947
 30
0.0
 11
145.60636737
 21
154.38873673
 31
0.0
  0
TEXT
  5
309
  8
TXT_DIM49
 10
145.60636737
 20
153.13873673
 30
0.0
 40
2.5
  1
Ø12
  7
ARIAL
  0
LINE
  5
30A
  8
0
 62
     5
 10
130.63848471
 20
185.27576137
 30
0.0
 11
134.3819592
 21
181.28707151
 31
0.0
  0
LINE
  5
30B
  8
0
 62
     5
 10
127.30515138
 20
208.6090947
 30
0.0
 11
134.3819592
 21
181.28707151
 31
0.0
  0
LINE
  5
30C
  8
0
 62
     5
 10
130.63848471
 20
151.94242804
 30
0.0
 11
134.3819592
 21
181.28707151
 31
0.0
  0
TEXT
  5
30D
  8
TXT_DIM49
 10
134.3819592
 20
180.03707151
 30
0.0
 40
2.5
  1
Ø10
  7
ARIAL
  0
LINE
  5
30E
  8
0
 62
     5
 10
143.97181804
 20
205.27576137
 30
0.0
 11
146.31475863
 21
209.6021888
 31
0.0
  0
TEXT
  5
30F
  8
TXT_DIM49
 10
146.31475863
 20
208.3521888
 30
0.0
 40
2.5
  1
Ø12
  7
ARIAL
  0
TEXT
  5
310
  8
TXT_DIM49
 10
316.13089401
 20
98.14232019
 30
0.0
 40
2.5
  1
30
  7
ARIAL
  0
LINE
  5
311
  8
0
 62
     4
 10
327.05072946
 20
95.64232019
 30
0.0
 11
329.05072946
 21
97.64232019
 31
0.0
  0
LINE
  5
312
  8
0
 62
     4
 10
308.80072946
 20
97.39232019
 30
0.0
 11
307.30072946
 21
95.89232019
 31
0.0
  0
LINE
  5
313
  8
0
 62
     4
 10
328.05072946
 20
96.64232019
 30
0.0
 11
308.05072946
 21
96.64232019
 31
0.0
  0
LINE
  5
314
  8
0
 62
     4
 10
328.05072946
 20
94.64232019
 30
0.0
 11
328.05072946
 21
98.64232019
 31
0.0
  0
LINE
  5
315
  8
0
 62
     4
 10
308.05072946
 20
94.64232019
 30
0.0
 11
308.05072946
 21
98.64232019
 31
0.0
  0
TEXT
  5
316
  8
TXT_DIM49
 10
289.63089401
 20
98.14232019
 30
0.0
 40
2.5
  1
50
  7
ARIAL
  0
LINE
  5
317
  8
0
 62
     4
 10
307.05072946
 20
95.64232019
 30
0.0
 11
309.05072946
 21
97.64232019
 31
0.0
  0
LINE
  5
318
  8
0
 62
     4
 10
275.80072946
 20
97.39232019
 30
0.0
 11
274.30072946
 21
95.89232019
 31
0.0
  0
LINE
  5
319
  8
0
 62
     4
 10
308.05072946
 20
96.64232019
 30
0.0
 11
275.05072946
 21
96.64232019
 31
0.0
  0
LINE
  5
31A
  8
0
 62
     4
 10
308.05072946
 20
94.64232019
 30
0.0
 11
308.05072946
 21
98.64232019
 31
0.0
  0
LINE
  5
31B
  8
0
 62
     4
 10
275.05072946
 20
94.64232019
 30
0.0
 11
275.05072946
 21
98.64232019
 31
0.0
  0
TEXT
  5
31C
  8
TXT_DIM49
 10
256.13089401
 20
98.14232019
 30
0.0
 40
2.5
  1
51
  7
ARIAL
  0
LINE
  5
31D
  8
0
 62
     4
 10
274.05072946
 20
95.64232019
 30
0.0
 11
276.05072946
 21
97.64232019
 31
0.0
  0
LINE
  5
31E
  8
0
 62
     4
 10
241.80072946
 20
97.39232019
 30
0.0
 11
240.30072946
 21
95.89232019
 31
0.0
  0
LINE
  5
31F
  8
0
 62
     4
 10
275.05072946
 20
96.64232019
 30
0.0
 11
241.05072946
 21
96.64232019
 31
0.0
  0
LINE
  5
320
  8
0
 62
     4
 10
275.05072946
 20
94.64232019
 30
0.0
 11
275.05072946
 21
98.64232019
 31
0.0
  0
LINE
  5
321
  8
0
 62
     4
 10
241.05072946
 20
94.64232019
 30
0.0
 11
241.05072946
 21
98.64232019
 31
0.0
  0
TEXT
  5
322
  8
TXT_DIM49
 10
225.96422734
 20
98.14232019
 30
0.0
 40
2.5
  1
40
  7
ARIAL
  0
LINE
  5
323
  8
0
 62
     4
 10
240.05072946
 20
95.64232019
 30
0.0
 11
242.05072946
 21
97.64232019
 31
0.0
  0
LINE
  5
324
  8
0
 62
     4
 10
215.46739613
 20
97.39232019
 30
0.0
 11
213.96739613
 21
95.89232019
 31
0.0
  0
LINE
  5
325
  8
0
 62
     4
 10
241.05072946
 20
96.64232019
 30
0.0
 11
214.71739613
 21
96.64232019
 31
0.0
  0
LINE
  5
326
  8
0
 62
     4
 10
241.05072946
 20
94.64232019
 30
0.0
 11
241.05072946
 21
98.64232019
 31
0.0
  0
LINE
  5
327
  8
0
 62
     4
 10
214.71739613
 20
94.64232019
 30
0.0
 11
214.71739613
 21
98.64232019
 31
0.0
  0
TEXT
  5
328
  8
TXT_DIM49
 10
332.38827293
 20
77.19379956
 30
0.0
 40
2.5
  1
35
 50
90.00020741
  7
ARIAL
  0
LINE
  5
329
  8
0
 62
     4
 10
334.88827293
 20
89.78030168
 30
0.0
 11
332.88827293
 21
91.78030168
 31
0.0
  0
LINE
  5
32A
  8
0
 62
     4
 10
333.13827293
 20
68.19696834
 30
0.0
 11
334.63827293
 21
66.69696834
 31
0.0
  0
LINE
  5
32B
  8
0
 62
     4
 10
333.88827293
 20
90.78030168
 30
0.0
 11
333.88827293
 21
67.44696834
 31
0.0
  0
LINE
  5
32C
  8
0
 62
     4
 10
331.88827293
 20
90.78030168
 30
0.0
 11
335.88827293
 21
90.78030168
 31
0.0
  0
LINE
  5
32D
  8
0
 62
     4
 10
331.88827293
 20
67.44696834
 30
0.0
 11
335.88827293
 21
67.44696834
 31
0.0
  0
TEXT
  5
32E
  8
TXT_DIM49
 10
332.38827293
 20
53.86046623
 30
0.0
 40
2.5
  1
35
 50
90.00020741
  7
ARIAL
  0
LINE
  5
32F
  8
0
 62
     4
 10
334.88827293
 20
66.44696834
 30
0.0
 11
332.88827293
 21
68.44696834
 31
0.0
  0
LINE
  5
330
  8
0
 62
     4
 10
333.13827293
 20
44.86363501
 30
0.0
 11
334.63827293
 21
43.36363501
 31
0.0
  0
LINE
  5
331
  8
0
 62
     4
 10
333.88827293
 20
67.44696834
 30
0.0
 11
333.88827293
 21
44.11363501
 31
0.0
  0
LINE
  5
332
  8
0
 62
     4
 10
331.88827293
 20
67.44696834
 30
0.0
 11
335.88827293
 21
67.44696834
 31
0.0
  0
LINE
  5
333
  8
0
 62
     4
 10
331.88827293
 20
44.11363501
 30
0.0
 11
335.88827293
 21
44.11363501
 31
0.0
  0
LINE
  5
334
  8
0
 62
     5
 10
258.05072946
 20
72.11363501
 30
0.0
 11
261.67577043
 21
77.47035031
 31
0.0
  0
TEXT
  5
335
  8
TXT_DIM49
 10
261.67577043
 20
76.22035031
 30
0.0
 40
2.5
  1
Slobgat 14 x 65
  7
ARIAL
  0
LINE
  5
336
  8
0
 62
     5
 10
308.05072946
 20
72.11363501
 30
0.0
 11
311.13754067
 21
76.51612129
 31
0.0
  0
TEXT
  5
337
  8
TXT_DIM49
 10
311.13754067
 20
75.26612129
 30
0.0
 40
2.5
  1
Ø14
  7
ARIAL
  0
ENDSEC
  0
EOF
