  0
SECTION
  2
HEADER
  9
$ACADVER
  1
AC1006
  9
$DWGCODEPAGE
  3
ansi_1252
  9
$INSBASE
 10
0.0
 20
0.0
 30
0.0
  9
$EXTMIN
 10
1633.84281127
 20
-825.92671581
  9
$EXTMAX
 10
2455.73720541
 20
-447.25171581
  9
$LIMMIN
 10
1633.84281127
 20
-825.92671581
  9
$LIMMAX
 10
2455.73720541
 20
-447.25171581
  9
$ORTHOMODE
 70
     0
  9
$REGENMODE
 70
     1
  9
$FILLMODE
 70
     1
  9
$QTEXTMODE
 70
     0
  9
$MIRRTEXT
 70
     1
  9
$DRAGMODE
 70
     2
  9
$LTSCALE
 40
1.0
  9
$OSMODE
 70
    37
  9
$ATTMODE
 70
     1
  9
$TEXTSIZE
 40
1.0
  9
$TRACEWID
 40
0.05
  9
$TEXTSTYLE
  7
STANDARD
  9
$CLAYER
  8
0
  9
$CELTYPE
  6
BYBLOCK
  9
$CECOLOR
 62
   256
  9
$DIMSCALE
 40
1.0
  9
$DIMASZ
 40
0.18
  9
$DIMEXO
 40
0.0625
  9
$DIMDLI
 40
0.38
  9
$DIMRND
 40
0.0
  9
$DIMDLE
 40
0.0
  9
$DIMEXE
 40
0.18
  9
$DIMTP
 40
0.0
  9
$DIMTM
 40
0.0
  9
$DIMTXT
 40
0.18
  9
$DIMCEN
 40
0.09
  9
$DIMTSZ
 40
0.0
  9
$DIMTOL
 70
     0
  9
$DIMLIM
 70
     0
  9
$DIMTIH
 70
     1
  9
$DIMTOH
 70
     1
  9
$DIMSE1
 70
     0
  9
$DIMSE2
 70
     0
  9
$DIMTAD
 70
     0
  9
$DIMZIN
 70
     0
  9
$DIMBLK
  1

  9
$DIMASO
 70
     1
  9
$DIMSHO
 70
     1
  9
$DIMPOST
  1

  9
$DIMAPOST
  1

  9
$DIMALT
 70
     0
  9
$DIMALTD
 70
     2
  9
$DIMALTF
 40
25.4
  9
$DIMLFAC
 40
1.0
  9
$DIMTOFL
 70
     0
  9
$DIMTVP
 40
0.0
  9
$DIMTIX
 70
     0
  9
$DIMSOXD
 70
     0
  9
$DIMSAH
 70
     0
  9
$DIMBLK1
  1

  9
$DIMBLK2
  1

  9
$LUNITS
 70
     2
  9
$LUPREC
 70
     4
  9
$SKETCHINC
 40
0.1
  9
$FILLETRAD
 40
0.5
  9
$AUNITS
 70
     0
  9
$AUPREC
 70
     0
  9
$MENU
  1
.
  9
$ELEVATION
 40
0.0
  9
$THICKNESS
 40
0.0
  9
$LIMCHECK
 70
     0
  9
$CHAMFERA
 40
0.0
  9
$CHAMFERB
 40
0.0
  9
$SKPOLY
 70
     0
  9
$TDCREATE
 40
2447893.125
  9
$TDUPDATE
 40
2460791.477229236
  9
$TDINDWG
 40
0.0
  9
$TDUSRTIMER
 40
0.0
  9
$USRTIMER
 70
     1
  9
$ANGBASE
 50
0.0
  9
$ANGDIR
 70
     0
  9
$PDMODE
 70
     0
  9
$PDSIZE
 40
0.0
  9
$PLINEWID
 40
0.0
  9
$COORDS
 70
     1
  9
$SPLFRAME
 70
     0
  9
$SPLINETYPE
 70
     6
  9
$SPLINESEGS
 70
     8
  9
$ATTDIA
 70
     0
  9
$ATTREQ
 70
     1
  9
$HANDLING
 70
     1
  9
$HANDSEED
  5
3E4
  9
$SURFTAB1
 70
     6
  9
$SURFTAB2
 70
     6
  9
$SURFTYPE
 70
     6
  9
$SURFU
 70
     6
  9
$SURFV
 70
     6
  9
$UCSNAME
  2

  9
$UCSORG
 10
0.0
 20
0.0
 30
0.0
  9
$UCSXDIR
 10
1.0
 20
0.0
 30
0.0
  9
$UCSYDIR
 10
0.0
 20
1.0
 30
0.0
  9
$USERI1
 70
     0
  9
$USERI2
 70
     0
  9
$USERI3
 70
     0
  9
$USERI4
 70
     0
  9
$USERI5
 70
     0
  9
$USERR1
 40
0.0
  9
$USERR2
 40
0.0
  9
$USERR3
 40
0.0
  9
$USERR4
 40
0.0
  9
$USERR5
 40
0.0
  9
$WORLDVIEW
 70
     1
  0
ENDSEC
  0
SECTION
  2
TABLES
  0
TABLE
  2
VPORT
 70
     1
  0
VPORT
  2
*ACTIVE
 70
     0
 10
0.0
 20
0.0
 11
1.0
 21
1.0
 12
2044.79000834
 22
-636.58921581
 13
0.0
 23
0.0
 14
1.0
 24
1.0
 15
0.0
 25
0.0
 16
0.0
 26
0.0
 36
1.0
 17
0.0
 27
0.0
 37
0.0
 40
378.675
 41
2.170447994
 42
50.0
 43
0.0
 44
0.0
 50
0.0
 51
0.0
 71
     0
 72
   100
 73
     1
 74
     1
 75
     0
 76
     0
 77
     0
 78
     0
  0
ENDTAB
  0
TABLE
  2
LTYPE
 70
    19
  0
LTYPE
  2
CONTINUOUS
 70
     0
  3
Solid line
 72
    65
 73
     0
 40
0.0
  0
LTYPE
  2
DOT
 70
     0
  3
..............
 72
    65
 73
     2
 40
2.0
 49
0.5
 49
-1.5
  0
LTYPE
  2
HIDDEN
 70
     0
  3
-- -- -- -- --
 72
    65
 73
     2
 40
7.0
 49
4.0
 49
-3.0
  0
LTYPE
  2
DASHDOT
 70
     0
  3
--.--.--.--.--
 72
    65
 73
     4
 40
8.5
 49
4.0
 49
-2.0
 49
0.5
 49
-2.0
  0
LTYPE
  2
STRICHPUNKT2
 70
     0
  3
--.--.--.--.--
 72
    65
 73
     4
 40
18.5
 49
10.0
 49
-4.0
 49
0.5
 49
-4.0
  0
LTYPE
  2
STRICHPUNKT3
 70
     0
  3
--.--.--.--.--
 72
    65
 73
     4
 40
35.5
 49
25.0
 49
-5.0
 49
0.5
 49
-5.0
  0
LTYPE
  2
PHANTOM
 70
     0
  3
--..--..--..--
 72
    65
 73
     6
 40
23.0
 49
10.0
 49
-4.0
 49
0.5
 49
-4.0
 49
0.5
 49
-4.0
  0
LTYPE
  2
PHANTOM2
 70
     0
  3
--..--..--..--
 72
    65
 73
     6
 40
33.0
 49
20.0
 49
-4.0
 49
0.5
 49
-4.0
 49
0.5
 49
-4.0
  0
LTYPE
  2
PHANTOM3
 70
     0
  3
--..--..--..--
 72
    65
 73
     6
 40
50.0
 49
37.0
 49
-4.0
 49
0.5
 49
-4.0
 49
0.5
 49
-4.0
  0
LTYPE
  2
STR3PKT
 70
     0
  3
--...--...--...
 72
    65
 73
     8
 40
31.5
 49
20.0
 49
-2.5
 49
0.5
 49
-2.5
 49
0.5
 49
-2.5
 49
0.5
 49
-2.5
  0
LTYPE
  2
2STRPKT
 70
     0
  3
--.--.--.--.--
 72
    65
 73
     6
 40
28.0
 49
10.0
 49
-2.5
 49
10.0
 49
-2.5
 49
0.5
 49
-2.5
  0
LTYPE
  2
GESTRICHELT2
 70
     0
  3
-- -- -- -- --
 72
    65
 73
     2
 40
25.0
 49
10.0
 49
-15.0
  0
LTYPE
  2
2STR2PKT
 70
     0
  3
--..--..--..--
 72
    65
 73
     8
 40
31.0
 49
10.0
 49
-2.5
 49
10.0
 49
-2.5
 49
0.5
 49
-2.5
 49
0.5
 49
-2.5
  0
LTYPE
  2
STR3PKT2
 70
     0
  3
--...--...--...
 72
    65
 73
     8
 40
21.0
 49
10.0
 49
-2.5
 49
0.5
 49
-2.5
 49
0.5
 49
-2.5
 49
0.5
 49
-2.0
  0
LTYPE
  2
2STR3PKT
 70
     0
  3
--...--...--...
 72
    65
 73
    10
 40
34.0
 49
10.0
 49
-2.5
 49
10.0
 49
-2.5
 49
0.5
 49
-2.5
 49
0.5
 49
-2.5
 49
0.5
 49
-2.5
  0
LTYPE
  2
STRKSTR
 70
     0
  3
-- - -- - -- -
 72
    65
 73
     4
 40
30.0
 49
20.0
 49
-2.5
 49
5.0
 49
-2.5
  0
LTYPE
  2
STRKSTR2
 70
     0
  3
-- - -- - -- -
 72
    65
 73
     6
 40
37.5
 49
20.0
 49
-2.5
 49
5.0
 49
-2.5
 49
5.0
 49
-2.5
  0
LTYPE
  2
STRKSTR3
 70
     0
  3
-- - -- - -- -
 72
    65
 73
     8
 40
45.0
 49
20.0
 49
-2.5
 49
5.0
 49
-2.5
 49
5.0
 49
-2.5
 49
5.0
 49
-2.5
  0
LTYPE
  2
PUNKT2
 70
     0
  3
..............
 72
    65
 73
     2
 40
3.5
 49
0.5
 49
-3.0
  0
ENDTAB
  0
TABLE
  2
LAYER
 70
    16
  0
LAYER
  2
0
 70
     0
 62
     7
  6
CONTINUOUS
  0
LAYER
  2
LE_GREEN
 70
     0
 62
     3
  6
CONTINUOUS
  0
LAYER
  2
LE_RED
 70
     0
 62
     1
  6
CONTINUOUS
  0
LAYER
  2
LE_ALL
 70
     0
 62
     7
  6
CONTINUOUS
  0
LAYER
  2
LE_HIDDEN1
 70
     0
 62
     3
  6
HIDDEN
  0
LAYER
  2
LE_HIDDEN
 70
     0
 62
     7
  6
CONTINUOUS
  0
LAYER
  2
LE_MIDDLE
 70
     0
 62
     7
  6
CONTINUOUS
  0
LAYER
  2
TXT_YELLOW
 70
     0
 62
     2
  6
CONTINUOUS
  0
LAYER
  2
TXT_DIM49
 70
     0
 62
     2
  6
CONTINUOUS
  0
LAYER
  2
TXT_ALL
 70
     0
 62
     7
  6
CONTINUOUS
  0
LAYER
  2
DIM49
 70
     0
 62
     4
  6
CONTINUOUS
  0
LAYER
  2
HATCH
 70
     0
 62
     3
  6
CONTINUOUS
  0
LAYER
  2
APPLE
 70
     0
 62
     7
  6
CONTINUOUS
  0
LAYER
  2
10
 70
     0
 62
     7
  6
CONTINUOUS
  0
LAYER
  2
20
 70
     0
 62
     7
  6
CONTINUOUS
  0
LAYER
  2
49
 70
     0
 62
     7
  6
CONTINUOUS
  0
ENDTAB
  0
TABLE
  2
STYLE
 70
     5
  0
STYLE
  2
MONOTXT
 70
     0
 40
0.0
 41
1.0
 50
0.0
 71
     0
 42
1.0
  3
monotxt.shx
  4

  0
STYLE
  2
STANDARD
 70
     0
 40
0.0
 41
1.0
 50
0.0
 71
     0
 42
1.0
  3
txt
  4

  0
STYLE
  2
ARIAL
 70
     0
 40
0.0
 41
1.0
 50
0.0
 71
     0
 42
1.0
  3
arial.ttf
  4

  0
STYLE
  2
ARIAL_NARROW
 70
     0
 40
0.0
 41
1.0
 50
0.0
 71
     0
 42
1.0
  3
ArialN.ttf
  4

  0
STYLE
  2
ISOCPEUR
 70
     0
 40
0.0
 41
1.0
 50
0.0
 71
     0
 42
1.0
  3
ISOCPEUR.ttf
  4

  0
ENDTAB
  0
TABLE
  2
VIEW
 70
     0
  0
ENDTAB
  0
TABLE
  2
UCS
 70
     0
  0
ENDTAB
  0
ENDSEC
  0
SECTION
  2
BLOCKS
  0
ENDSEC
  0
SECTION
  2
ENTITIES
  0
POLYLINE
  5
16D
  8
0
 66
     1
 10
0.0
 20
0.0
 30
0.0
 70
     1
  0
VERTEX
  5
16E
  8
0
 10
1803.68820815
 20
-788.031983
 30
0.0
  0
VERTEX
  5
16F
  8
0
 10
2223.68820815
 20
-788.031983
 30
0.0
  0
VERTEX
  5
170
  8
0
 10
2223.68820815
 20
-491.031983
 30
0.0
  0
VERTEX
  5
171
  8
0
 10
1803.68820815
 20
-491.031983
 30
0.0
  0
SEQEND
  5
172
  8
0
  0
POLYLINE
  5
173
  8
0
 66
     1
 10
0.0
 20
0.0
 30
0.0
 70
     1
  0
VERTEX
  5
174
  8
0
 10
1808.68820815
 20
-783.031983
 30
0.0
  0
VERTEX
  5
175
  8
0
 10
2218.68820815
 20
-783.031983
 30
0.0
  0
VERTEX
  5
176
  8
0
 10
2218.68820815
 20
-496.031983
 30
0.0
  0
VERTEX
  5
177
  8
0
 10
1808.68820815
 20
-496.031983
 30
0.0
  0
SEQEND
  5
178
  8
0
  0
LINE
  5
179
  8
0
 10
2033.68820815
 20
-783.031983
 30
0.0
 11
2033.68820815
 21
-788.031983
 31
0.0
  0
LINE
  5
17A
  8
0
 10
2033.68820815
 20
-496.031983
 30
0.0
 11
2033.68820815
 21
-491.031983
 31
0.0
  0
LINE
  5
17B
  8
0
 10
1823.68820815
 20
-783.031983
 30
0.0
 11
1823.68820815
 21
-788.031983
 31
0.0
  0
LINE
  5
17C
  8
0
 10
1823.68820815
 20
-496.031983
 30
0.0
 11
1823.68820815
 21
-491.031983
 31
0.0
  0
TEXT
  5
17D
  8
TXT_ALL
 62
     4
 10
2222.68820815
 20
-787.031983
 30
0.0
 40
2.5
  1

 50
90.00020741
  0
POLYLINE
  5
17E
  8
0
 66
     1
 10
0.0
 20
0.0
 30
0.0
  0
VERTEX
  5
17F
  8
0
 10
2218.68820815
 20
-506.031983
 30
0.0
  0
VERTEX
  5
180
  8
0
 10
2149.69490815
 20
-506.031983
 30
0.0
  0
VERTEX
  5
181
  8
0
 10
2149.69490815
 20
-496.031983
 30
0.0
  0
SEQEND
  5
182
  8
0
  0
LINE
  5
183
  8
0
 10
2151.59820815
 20
-763.531983
 30
0.0
 11
2011.70820815
 21
-763.531983
 31
0.0
  0
LINE
  5
184
  8
0
 10
2011.70820815
 20
-773.281983
 30
0.0
 11
2151.59820815
 21
-773.281983
 31
0.0
  0
POLYLINE
  5
185
  8
0
 66
     1
 10
0.0
 20
0.0
 30
0.0
  0
VERTEX
  5
186
  8
0
 10
2011.70820815
 20
-763.531983
 30
0.0
  0
VERTEX
  5
187
  8
0
 10
2011.70820815
 20
-773.281983
 30
0.0
  0
VERTEX
  5
188
  8
0
 10
2011.70820815
 20
-783.031983
 30
0.0
  0
SEQEND
  5
189
  8
0
  0
POLYLINE
  5
18A
  8
0
 66
     1
 10
0.0
 20
0.0
 30
0.0
  0
VERTEX
  5
18B
  8
0
 10
2081.65320815
 20
-763.531983
 30
0.0
  0
VERTEX
  5
18C
  8
0
 10
2081.65320815
 20
-773.281983
 30
0.0
  0
VERTEX
  5
18D
  8
0
 10
2081.65320815
 20
-783.031983
 30
0.0
  0
SEQEND
  5
18E
  8
0
  0
TEXT
  5
18F
  8
TXT_ALL
 10
2013.70820815
 20
-769.70698295
 30
0.0
 40
2.5999999
  1
E-mail: verkoop@jonkers-bouwmetaal.nl
  7
ARIAL
  0
TEXT
  5
190
  8
TXT_ALL
 10
2013.70820815
 20
-779.45698295
 30
0.0
 40
2.5999999
  1
Telefoon: 0527-685156
  7
ARIAL
  0
TEXT
  5
191
  8
TXT_ALL
 10
2083.65320815
 20
-779.45698295
 30
0.0
 40
2.5999999
  1
Website: www.jonkers-bouwmetaal.nl
  7
ARIAL
  0
TEXT
  5
192
  8
TXT_ALL
 10
2083.65320815
 20
-769.70698295
 30
0.0
 40
2.5999999
  1
Adres: Hoornse Hop 10, 8321 WX Urk
  7
ARIAL
  0
TEXT
  5
193
  8
TXT_ALL
 10
1812.1301684
 20
-502.281983
 30
0.0
 40
2.5
  1
Art. nr. 91006430
  7
ARIAL
  0
TEXT
  5
194
  8
TXT_ALL
 10
1854.86820522
 20
-502.281983
 30
0.0
 40
2.5
  1
Omschrijving: H1202-anker 120x70 80x8
  7
ARIAL
  0
LINE
  5
195
  8
0
 10
2218.68820815
 20
-506.031983
 30
0.0
 11
1808.68820815
 21
-506.031983
 31
0.0
  0
LINE
  5
196
  8
0
 10
1851.70820815
 20
-506.031983
 30
0.0
 11
1851.70820815
 21
-496.031983
 31
0.0
  0
LINE
  5
197
  8
0
 10
2011.70820815
 20
-506.031983
 30
0.0
 11
2011.70820815
 21
-496.031983
 31
0.0
  0
TEXT
  5
198
  8
TXT_ALL
 10
2082.70190815
 20
-502.281983
 30
0.0
 40
2.5
  1
Behandeling: Thermisch Verzinkt
  7
ARIAL
  0
LINE
  5
199
  8
0
 10
2151.59820815
 20
-763.531983
 30
0.0
 11
2218.68820815
 21
-763.531983
 31
0.0
  0
LINE
  5
19A
  8
0
 10
2151.59820815
 20
-783.031983
 30
0.0
 11
2151.59820815
 21
-763.531983
 31
0.0
  0
LINE
  5
19B
  8
0
 10
2151.59820815
 20
-783.031983
 30
0.0
 11
2151.59820815
 21
-763.531983
 31
0.0
  0
TEXT
  5
19C
  8
TXT_ALL
 10
1946.05340624
 20
-781.87744959
 30
0.0
 40
2.5
  1

  0
TEXT
  5
19D
  8
TXT_ALL
 10
2067.1885892
 20
-771.781983
 30
0.0
 40
2.5
  1

  0
POLYLINE
  5
19E
  8
0
 66
     1
 10
0.0
 20
0.0
 30
0.0
  0
VERTEX
  5
19F
  8
0
 10
2149.69490815
 20
-506.031983
 30
0.0
  0
VERTEX
  5
1A0
  8
0
 10
2080.70190815
 20
-506.031983
 30
0.0
  0
VERTEX
  5
1A1
  8
0
 10
2080.70190815
 20
-496.031983
 30
0.0
  0
SEQEND
  5
1A2
  8
0
  0
TEXT
  5
1A3
  8
TXT_ALL
 10
2151.69490815
 20
-502.281983
 30
0.0
 40
2.5
  1
Verpakkingshoeveelheid: 1st.
  7
ARIAL
  0
TEXT
  5
1A4
  8
TXT_ALL
 10
2013.70820815
 20
-502.281983
 30
0.0
 40
2.5
  1
Materiaal: S355
  7
ARIAL
  0
TEXT
  5
1A5
  8
TXT_ALL
 10
2185.99656856
 20
-786.28149285
 30
0.0
 40
1.5
  1
Onderdeel van
  7
ARIAL
  0
POLYLINE
  5
1A6
  8
0
 66
     1
 10
0.0
 20
0.0
 30
0.0
  0
VERTEX
  5
332
  8
0
 10
1856.38026299
 20
-712.2359768199999
 30
0.0
  0
VERTEX
  5
333
  8
0
 10
1856.647950584751
 20
-712.1922358190685
 30
0.0
  0
VERTEX
  5
334
  8
0
 10
1856.924565814933
 20
-711.9976636517907
 30
0.0
  0
VERTEX
  5
335
  8
0
 10
1857.199478512402
 20
-711.6597376174207
 30
0.0
  0
VERTEX
  5
336
  8
0
 10
1857.462123936391
 20
-711.1914440239187
 30
0.0
  0
VERTEX
  5
337
  8
0
 10
1857.702408770573
 20
-710.6107791314199
 30
0.0
  0
VERTEX
  5
338
  8
0
 10
1857.911099003544
 20
-709.9400575660516
 30
0.0
  0
VERTEX
  5
339
  8
0
 10
1858.080174786704
 20
-709.2050547813672
 30
0.0
  0
VERTEX
  5
33A
  8
0
 10
1858.20313863254
 20
-708.4340165221232
 30
0.0
  0
VERTEX
  5
33B
  8
0
 10
1858.275265109427
 20
-707.656573356152
 30
0.0
  0
VERTEX
  5
33C
  8
0
 10
1858.293782437312
 20
-706.9026019882584
 30
0.0
  0
VERTEX
  5
33D
  8
0
 10
1858.257979005671
 20
-706.2010771152129
 30
0.0
  0
VERTEX
  5
33E
  8
0
 10
1858.169230720301
 20
-705.578957944405
 30
0.0
  0
VERTEX
  5
33F
  8
0
 10
1858.03094812803
 20
-705.0601521666264
 30
0.0
  0
VERTEX
  5
340
  8
0
 10
1857.848445351317
 20
-704.6645971969218
 30
0.0
  0
VERTEX
  5
341
  8
0
 10
1857.628735869505
 20
-704.4074939909127
 30
0.0
  0
VERTEX
  5
342
  8
0
 10
1857.380262994749
 20
-704.2987228805983
 30
0.0
  0
SEQEND
  5
3D7
  8
0
  0
POLYLINE
  5
1A7
  8
0
 66
     1
 10
0.0
 20
0.0
 30
0.0
  0
VERTEX
  5
343
  8
0
 10
1857.380262994749
 20
-704.2987228805983
 30
0.0
  0
VERTEX
  5
344
  8
0
 10
1857.112575399631
 20
-704.3424638790129
 30
0.0
  0
VERTEX
  5
345
  8
0
 10
1856.835960168872
 20
-704.537036044535
 30
0.0
  0
VERTEX
  5
346
  8
0
 10
1856.561047470689
 20
-704.8749620779432
 30
0.0
  0
VERTEX
  5
347
  8
0
 10
1856.298402045922
 20
-705.3432556712557
 30
0.0
  0
VERTEX
  5
348
  8
0
 10
1856.058117210976
 20
-705.9239205642626
 30
0.0
  0
VERTEX
  5
349
  8
0
 10
1855.849426977325
 20
-706.5946421307151
 30
0.0
  0
VERTEX
  5
34A
  8
0
 10
1855.680351193632
 20
-707.3296449169009
 30
0.0
  0
VERTEX
  5
34B
  8
0
 10
1855.557387347459
 20
-708.1006831778767
 30
0.0
  0
VERTEX
  5
34C
  8
0
 10
1855.485260870469
 20
-708.8781263456091
 30
0.0
  0
VERTEX
  5
34D
  8
0
 10
1855.466743542728
 20
-709.6320977150891
 30
0.0
  0
VERTEX
  5
34E
  8
0
 10
1855.502546974758
 20
-710.3336225893538
 30
0.0
  0
VERTEX
  5
34F
  8
0
 10
1855.591295260743
 20
-710.9557417608432
 30
0.0
  0
VERTEX
  5
350
  8
0
 10
1855.729577853814
 20
-711.4745475386313
 30
0.0
  0
VERTEX
  5
351
  8
0
 10
1855.912080631459
 20
-711.8701025075817
 30
0.0
  0
VERTEX
  5
352
  8
0
 10
1856.131790114263
 20
-712.1272057120327
 30
0.0
  0
VERTEX
  5
353
  8
0
 10
1856.38026299
 20
-712.2359768199999
 30
0.0
  0
SEQEND
  5
3D8
  8
0
  0
POLYLINE
  5
1A8
  8
0
 66
     1
 10
0.0
 20
0.0
 30
0.0
  0
VERTEX
  5
354
  8
0
 10
1847.35392822
 20
-707.3771958699999
 30
0.0
  0
VERTEX
  5
355
  8
0
 10
1847.721998662539
 20
-707.3170519937912
 30
0.0
  0
VERTEX
  5
356
  8
0
 10
1848.102344603805
 20
-707.0495152639976
 30
0.0
  0
VERTEX
  5
357
  8
0
 10
1848.480349562608
 20
-706.5848669670855
 30
0.0
  0
VERTEX
  5
358
  8
0
 10
1848.841487020404
 20
-705.9409632764866
 30
0.0
  0
VERTEX
  5
359
  8
0
 10
1849.171878667249
 20
-705.1425490498691
 30
0.0
  0
VERTEX
  5
35A
  8
0
 10
1849.458827737468
 20
-704.2203068981358
 30
0.0
  0
VERTEX
  5
35B
  8
0
 10
1849.691306939242
 20
-703.2096780698982
 30
0.0
  0
VERTEX
  5
35C
  8
0
 10
1849.860382227243
 20
-702.1495004641695
 30
0.0
  0
VERTEX
  5
35D
  8
0
 10
1849.959556132986
 20
-701.0805161116906
 30
0.0
  0
VERTEX
  5
35E
  8
0
 10
1849.985017458899
 20
-700.0438054815406
 30
0.0
  0
VERTEX
  5
35F
  8
0
 10
1849.935787740509
 20
-699.079208781751
 30
0.0
  0
VERTEX
  5
360
  8
0
 10
1849.81375884828
 20
-698.2237949224586
 30
0.0
  0
VERTEX
  5
361
  8
0
 10
1849.623620284097
 20
-697.5104369784793
 30
0.0
  0
VERTEX
  5
362
  8
0
 10
1849.372678966332
 20
-696.9665488954821
 30
0.0
  0
VERTEX
  5
363
  8
0
 10
1849.070578429076
 20
-696.6130319874328
 30
0.0
  0
VERTEX
  5
364
  8
0
 10
1848.72892822653
 20
-696.4634717108227
 30
0.0
  0
SEQEND
  5
3D9
  8
0
  0
POLYLINE
  5
1A9
  8
0
 66
     1
 10
0.0
 20
0.0
 30
0.0
  0
VERTEX
  5
365
  8
0
 10
1848.72892822653
 20
-696.4634717108227
 30
0.0
  0
VERTEX
  5
366
  8
0
 10
1848.360857783486
 20
-696.5236155835709
 30
0.0
  0
VERTEX
  5
367
  8
0
 10
1847.980511841428
 20
-696.7911523109501
 30
0.0
  0
VERTEX
  5
368
  8
0
 10
1847.602506881642
 20
-697.25580060654
 30
0.0
  0
VERTEX
  5
369
  8
0
 10
1847.241369422777
 20
-697.8997042968783
 30
0.0
  0
VERTEX
  5
36A
  8
0
 10
1846.910977774881
 20
-698.6981185241945
 30
0.0
  0
VERTEX
  5
36B
  8
0
 10
1846.624028703726
 20
-699.6203606774183
 30
0.0
  0
VERTEX
  5
36C
  8
0
 10
1846.391549501219
 20
-700.6309895077203
 30
0.0
  0
VERTEX
  5
36D
  8
0
 10
1846.222474212757
 20
-701.6911671158305
 30
0.0
  0
VERTEX
  5
36E
  8
0
 10
1846.123300306871
 20
-702.7601514707309
 30
0.0
  0
VERTEX
  5
36F
  8
0
 10
1846.097838981156
 20
-703.7968621030626
 30
0.0
  0
VERTEX
  5
370
  8
0
 10
1846.147068700082
 20
-704.7614588045282
 30
0.0
  0
VERTEX
  5
371
  8
0
 10
1846.269097593156
 20
-705.6168726647579
 30
0.0
  0
VERTEX
  5
372
  8
0
 10
1846.45923615844
 20
-706.3302306087501
 30
0.0
  0
VERTEX
  5
373
  8
0
 10
1846.710177477484
 20
-706.8741186907101
 30
0.0
  0
VERTEX
  5
374
  8
0
 10
1847.012278016106
 20
-707.227635596617
 30
0.0
  0
VERTEX
  5
375
  8
0
 10
1847.35392822
 20
-707.3771958699999
 30
0.0
  0
SEQEND
  5
3DA
  8
0
  0
POLYLINE
  5
1AA
  8
0
 66
     1
 10
0.0
 20
0.0
 30
0.0
  0
VERTEX
  5
376
  8
0
 10
1838.70259346
 20
-699.5419446899999
 30
0.0
  0
VERTEX
  5
377
  8
0
 10
1838.970281054751
 20
-699.4982036890685
 30
0.0
  0
VERTEX
  5
378
  8
0
 10
1839.246896284933
 20
-699.3036315217907
 30
0.0
  0
VERTEX
  5
379
  8
0
 10
1839.521808982402
 20
-698.9657054874207
 30
0.0
  0
VERTEX
  5
37A
  8
0
 10
1839.784454406391
 20
-698.4974118939188
 30
0.0
  0
VERTEX
  5
37B
  8
0
 10
1840.024739240573
 20
-697.9167470014199
 30
0.0
  0
VERTEX
  5
37C
  8
0
 10
1840.233429473544
 20
-697.2460254360516
 30
0.0
  0
VERTEX
  5
37D
  8
0
 10
1840.402505256704
 20
-696.5110226513672
 30
0.0
  0
VERTEX
  5
37E
  8
0
 10
1840.52546910254
 20
-695.7399843921232
 30
0.0
  0
VERTEX
  5
37F
  8
0
 10
1840.597595579427
 20
-694.962541226152
 30
0.0
  0
VERTEX
  5
380
  8
0
 10
1840.616112907312
 20
-694.2085698582584
 30
0.0
  0
VERTEX
  5
381
  8
0
 10
1840.580309475671
 20
-693.5070449852129
 30
0.0
  0
VERTEX
  5
382
  8
0
 10
1840.491561190301
 20
-692.884925814405
 30
0.0
  0
VERTEX
  5
383
  8
0
 10
1840.35327859803
 20
-692.3661200366264
 30
0.0
  0
VERTEX
  5
384
  8
0
 10
1840.170775821317
 20
-691.9705650669218
 30
0.0
  0
VERTEX
  5
385
  8
0
 10
1839.951066339505
 20
-691.7134618609127
 30
0.0
  0
VERTEX
  5
386
  8
0
 10
1839.702593464749
 20
-691.6046907505984
 30
0.0
  0
SEQEND
  5
3DB
  8
0
  0
POLYLINE
  5
1AB
  8
0
 66
     1
 10
0.0
 20
0.0
 30
0.0
  0
VERTEX
  5
387
  8
0
 10
1839.702593464749
 20
-691.6046907505984
 30
0.0
  0
VERTEX
  5
388
  8
0
 10
1839.434905869631
 20
-691.648431749013
 30
0.0
  0
VERTEX
  5
389
  8
0
 10
1839.158290638872
 20
-691.843003914535
 30
0.0
  0
VERTEX
  5
38A
  8
0
 10
1838.883377940689
 20
-692.1809299479432
 30
0.0
  0
VERTEX
  5
38B
  8
0
 10
1838.620732515922
 20
-692.6492235412558
 30
0.0
  0
VERTEX
  5
38C
  8
0
 10
1838.380447680976
 20
-693.2298884342626
 30
0.0
  0
VERTEX
  5
38D
  8
0
 10
1838.171757447325
 20
-693.9006100007151
 30
0.0
  0
VERTEX
  5
38E
  8
0
 10
1838.002681663632
 20
-694.6356127869009
 30
0.0
  0
VERTEX
  5
38F
  8
0
 10
1837.879717817459
 20
-695.4066510478767
 30
0.0
  0
VERTEX
  5
390
  8
0
 10
1837.807591340469
 20
-696.1840942156091
 30
0.0
  0
VERTEX
  5
391
  8
0
 10
1837.789074012728
 20
-696.9380655850891
 30
0.0
  0
VERTEX
  5
392
  8
0
 10
1837.824877444758
 20
-697.6395904593538
 30
0.0
  0
VERTEX
  5
393
  8
0
 10
1837.913625730743
 20
-698.2617096308433
 30
0.0
  0
VERTEX
  5
394
  8
0
 10
1838.051908323814
 20
-698.7805154086313
 30
0.0
  0
VERTEX
  5
395
  8
0
 10
1838.234411101459
 20
-699.1760703775817
 30
0.0
  0
VERTEX
  5
396
  8
0
 10
1838.454120584263
 20
-699.4331735820327
 30
0.0
  0
VERTEX
  5
397
  8
0
 10
1838.70259346
 20
-699.5419446899999
 30
0.0
  0
SEQEND
  5
3DC
  8
0
  0
POLYLINE
  5
1AC
  8
0
 66
     1
 10
0.0
 20
0.0
 30
0.0
  0
VERTEX
  5
1AD
  8
0
 10
1862.18356385
 20
-661.16387125
 30
0.0
  0
VERTEX
  5
1AE
  8
0
 10
1833.8992926
 20
-686.10825383
 30
0.0
  0
VERTEX
  5
1AF
  8
0
 10
1826.41597783
 20
-685.16544479
 30
0.0
  0
SEQEND
  5
1B0
  8
0
  0
LINE
  5
1B1
  8
0
 10
1854.70024908
 20
-660.22106221
 30
0.0
 11
1826.41597783
 21
-685.16544479
 31
0.0
  0
LINE
  5
1B2
  8
0
 10
1862.18356385
 20
-661.16387125
 30
0.0
 11
1854.70024908
 21
-660.22106221
 31
0.0
  0
POLYLINE
  5
1B3
  8
0
 66
     1
 10
0.0
 20
0.0
 30
0.0
  0
VERTEX
  5
1B4
  8
0
 10
1862.18356385
 20
-661.16387125
 30
0.0
  0
VERTEX
  5
1B5
  8
0
 10
1862.18356385
 20
-712.07555949
 30
0.0
  0
VERTEX
  5
1B6
  8
0
 10
1833.8992926
 20
-737.01994207
 30
0.0
  0
VERTEX
  5
1B7
  8
0
 10
1833.8992926
 20
-686.10825383
 30
0.0
  0
SEQEND
  5
1B8
  8
0
  0
POLYLINE
  5
1B9
  8
0
 66
     1
 10
0.0
 20
0.0
 30
0.0
  0
VERTEX
  5
1BA
  8
0
 10
1833.8992926
 20
-737.01994207
 30
0.0
  0
VERTEX
  5
1BB
  8
0
 10
1826.41597783
 20
-736.07713303
 30
0.0
  0
VERTEX
  5
1BC
  8
0
 10
1826.41597783
 20
-685.16544479
 30
0.0
  0
SEQEND
  5
1BD
  8
0
  0
LINE
  5
1BE
  8
0
  6
STRICHPUNKT2
 62
     1
 10
1837.8797178
 20
-695.40665105
 30
0.0
 11
1841.07342215
 21
-695.80901998
 31
0.0
  0
LINE
  5
1BF
  8
0
  6
STRICHPUNKT2
 62
     1
 10
1839.20259346
 20
-695.57331772
 30
0.0
 11
1841.3239138
 21
-693.70248902
 31
0.0
  0
LINE
  5
1C0
  8
0
  6
STRICHPUNKT2
 62
     1
 10
1839.20259346
 20
-695.57331772
 30
0.0
 11
1837.08127312
 21
-697.44414641
 31
0.0
  0
LINE
  5
1C1
  8
0
  6
STRICHPUNKT2
 62
     1
 10
1839.20259346
 20
-695.57331772
 30
0.0
 11
1839.20259346
 21
-701.23017197
 31
0.0
  0
LINE
  5
1C2
  8
0
  6
STRICHPUNKT2
 62
     1
 10
1839.20259346
 20
-695.57331772
 30
0.0
 11
1839.20259346
 21
-689.91646347
 31
0.0
  0
LINE
  5
1C3
  8
0
  6
STRICHPUNKT2
 62
     1
 10
1846.2224742
 20
-701.69116712
 30
0.0
 11
1850.61381768
 21
-702.24442439
 31
0.0
  0
LINE
  5
1C4
  8
0
  6
STRICHPUNKT2
 62
     1
 10
1848.04142822
 20
-701.92033379
 30
0.0
 11
1850.9582437
 21
-699.34794433
 31
0.0
  0
LINE
  5
1C5
  8
0
  6
STRICHPUNKT2
 62
     1
 10
1848.04142822
 20
-701.92033379
 30
0.0
 11
1845.12461275
 21
-704.49272324
 31
0.0
  0
LINE
  5
1C6
  8
0
  6
STRICHPUNKT2
 62
     1
 10
1848.04142822
 20
-701.92033379
 30
0.0
 11
1848.04142822
 21
-709.69850838
 31
0.0
  0
LINE
  5
1C7
  8
0
  6
STRICHPUNKT2
 62
     1
 10
1848.04142822
 20
-701.92033379
 30
0.0
 11
1848.04142822
 21
-694.14215919
 31
0.0
  0
LINE
  5
1C8
  8
0
  6
STRICHPUNKT2
 62
     1
 10
1855.55738733
 20
-708.10068319
 30
0.0
 11
1858.75109168
 21
-708.50305211
 31
0.0
  0
LINE
  5
1C9
  8
0
  6
STRICHPUNKT2
 62
     1
 10
1856.88026299
 20
-708.26734985
 30
0.0
 11
1859.00158333
 21
-706.39652116
 31
0.0
  0
LINE
  5
1CA
  8
0
  6
STRICHPUNKT2
 62
     1
 10
1856.88026299
 20
-708.26734985
 30
0.0
 11
1854.75894265
 21
-710.13817855
 31
0.0
  0
LINE
  5
1CB
  8
0
  6
STRICHPUNKT2
 62
     1
 10
1856.88026299
 20
-708.26734985
 30
0.0
 11
1856.88026299
 21
-713.9242041
 31
0.0
  0
LINE
  5
1CC
  8
0
  6
STRICHPUNKT2
 62
     1
 10
1856.88026299
 20
-708.26734985
 30
0.0
 11
1856.88026299
 21
-702.6104956
 31
0.0
  0
POLYLINE
  5
1CD
  8
0
 66
     1
 10
0.0
 20
0.0
 30
0.0
  0
VERTEX
  5
1CE
  8
0
 10
1862.18356385
 20
-712.07555949
 30
0.0
  0
VERTEX
  5
1CF
  8
0
 10
1833.8992926
 20
-737.01994207
 30
0.0
  0
VERTEX
  5
1D0
  8
0
 10
1826.41597783
 20
-736.07713303
 30
0.0
  0
SEQEND
  5
1D1
  8
0
  0
POLYLINE
  5
1D2
  8
0
 66
     1
 10
0.0
 20
0.0
 30
0.0
  0
VERTEX
  5
398
  8
0
 10
1862.183563863606
 20
-712.0755595060137
 30
0.0
  0
VERTEX
  5
399
  8
0
 10
1862.327353664221
 20
-713.5651386645743
 30
0.0
  0
VERTEX
  5
39A
  8
0
 10
1862.753197290403
 20
-715.0337057540609
 30
0.0
  0
VERTEX
  5
39B
  8
0
 10
1863.444729810552
 20
-716.424824565293
 30
0.0
  0
VERTEX
  5
39C
  8
0
 10
1864.375376017964
 20
-717.6850351829646
 30
0.0
  0
VERTEX
  5
39D
  8
0
 10
1865.509371701111
 20
-718.7659084201905
 30
0.0
  0
VERTEX
  5
39E
  8
0
 10
1866.803138042216
 20
-719.6259069249828
 30
0.0
  0
VERTEX
  5
39F
  8
0
 10
1868.206956326772
 20
-720.2319814373805
 30
0.0
  0
VERTEX
  5
3A0
  8
0
 10
1869.666878605839
 20
-720.5608408539629
 30
0.0
  0
SEQEND
  5
3DD
  8
0
  0
POLYLINE
  5
1D3
  8
0
 66
     1
 10
0.0
 20
0.0
 30
0.0
  0
VERTEX
  5
1D4
  8
0
 10
1869.66687862
 20
-720.56084087
 30
0.0
  0
VERTEX
  5
1D5
  8
0
 10
1841.38260737
 20
-745.50522345
 30
0.0
  0
SEQEND
  5
1D6
  8
0
  0
POLYLINE
  5
1D7
  8
0
 66
     1
 10
0.0
 20
0.0
 30
0.0
  0
VERTEX
  5
3A1
  8
0
 10
1833.899292613605
 20
-737.0199420760138
 30
0.0
  0
VERTEX
  5
3A2
  8
0
 10
1834.043082414221
 20
-738.5095212345743
 30
0.0
  0
VERTEX
  5
3A3
  8
0
 10
1834.468926040402
 20
-739.9780883240609
 30
0.0
  0
VERTEX
  5
3A4
  8
0
 10
1835.160458560551
 20
-741.369207135293
 30
0.0
  0
VERTEX
  5
3A5
  8
0
 10
1836.091104767964
 20
-742.6294177529646
 30
0.0
  0
VERTEX
  5
3A6
  8
0
 10
1837.225100451111
 20
-743.7102909901905
 30
0.0
  0
VERTEX
  5
3A7
  8
0
 10
1838.518866792216
 20
-744.5702894949828
 30
0.0
  0
VERTEX
  5
3A8
  8
0
 10
1839.922685076772
 20
-745.1763640073805
 30
0.0
  0
VERTEX
  5
3A9
  8
0
 10
1841.382607355839
 20
-745.5052234239629
 30
0.0
  0
SEQEND
  5
3DE
  8
0
  0
POLYLINE
  5
1D8
  8
0
 66
     1
 10
0.0
 20
0.0
 30
0.0
  0
VERTEX
  5
1D9
  8
0
 10
1841.38260737
 20
-745.50522345
 30
0.0
  0
VERTEX
  5
1DA
  8
0
 10
1841.38260737
 20
-753.04769578
 30
0.0
  0
SEQEND
  5
1DB
  8
0
  0
POLYLINE
  5
1DC
  8
0
 66
     1
 10
0.0
 20
0.0
 30
0.0
  0
VERTEX
  5
3AA
  8
0
 10
1826.415977857211
 20
-736.0771330420276
 30
0.0
  0
VERTEX
  5
3AB
  8
0
 10
1826.703557458442
 20
-739.0562913591486
 30
0.0
  0
VERTEX
  5
3AC
  8
0
 10
1827.555244710805
 20
-741.9934255381216
 30
0.0
  0
VERTEX
  5
3AD
  8
0
 10
1828.938309751103
 20
-744.7756631605861
 30
0.0
  0
VERTEX
  5
3AE
  8
0
 10
1830.799602165929
 20
-747.2960843959294
 30
0.0
  0
VERTEX
  5
3AF
  8
0
 10
1833.067593532222
 20
-749.457830870381
 30
0.0
  0
VERTEX
  5
3B0
  8
0
 10
1835.655126214432
 20
-751.1778278799659
 30
0.0
  0
VERTEX
  5
3B1
  8
0
 10
1838.462762783544
 20
-752.3899769047609
 30
0.0
  0
VERTEX
  5
3B2
  8
0
 10
1841.382607341679
 20
-753.0476957379259
 30
0.0
  0
SEQEND
  5
3DF
  8
0
  0
POLYLINE
  5
1DD
  8
0
 66
     1
 10
0.0
 20
0.0
 30
0.0
  0
VERTEX
  5
3B3
  8
0
 10
1934.55164769
 20
-742.107569173419
 30
0.0
  0
VERTEX
  5
3B4
  8
0
 10
1934.409919752462
 20
-741.6404141643318
 30
0.0
  0
VERTEX
  5
3B5
  8
0
 10
1933.990475035672
 20
-741.1921759881117
 30
0.0
  0
VERTEX
  5
3B6
  8
0
 10
1933.310298406191
 20
-740.7810054648928
 30
0.0
  0
VERTEX
  5
3B7
  8
0
 10
1932.396932729211
 20
-740.4235524085631
 30
0.0
  0
VERTEX
  5
3B8
  8
0
 10
1931.287363556163
 20
-740.1342914142731
 30
0.0
  0
VERTEX
  5
3B9
  8
0
 10
1930.026521443064
 20
-739.9249357285909
 30
0.0
  0
SEQEND
  5
3E0
  8
0
  0
POLYLINE
  5
1DE
  8
0
 66
     1
 10
0.0
 20
0.0
 30
0.0
  0
VERTEX
  5
3BA
  8
0
 10
1925.076773978909
 20
-744.2902026366974
 30
0.0
  0
VERTEX
  5
3BB
  8
0
 10
1926.380131237434
 20
-744.4079930116936
 30
0.0
  0
VERTEX
  5
3BC
  8
0
 10
1927.727088304908
 20
-744.4401695318072
 30
0.0
  0
VERTEX
  5
3BD
  8
0
 10
1929.067516076719
 20
-744.3855346977398
 30
0.0
  0
VERTEX
  5
3BE
  8
0
 10
1930.351528446163
 20
-744.2461218299132
 30
0.0
  0
VERTEX
  5
3BF
  8
0
 10
1931.531338893576
 20
-744.0271193952832
 30
0.0
  0
VERTEX
  5
3C0
  8
0
 10
1932.563038936077
 20
-743.7366779104626
 30
0.0
  0
VERTEX
  5
3C1
  8
0
 10
1933.408232250126
 20
-743.3856066075554
 30
0.0
  0
VERTEX
  5
3C2
  8
0
 10
1934.035463650491
 20
-742.9869711517515
 30
0.0
  0
VERTEX
  5
3C3
  8
0
 10
1934.421389743947
 20
-742.5556073822536
 30
0.0
  0
VERTEX
  5
3C4
  8
0
 10
1934.55164769
 20
-742.107569173419
 30
0.0
  0
SEQEND
  5
3E1
  8
0
  0
POLYLINE
  5
1DF
  8
0
 66
     1
 10
0.0
 20
0.0
 30
0.0
  0
VERTEX
  5
1E0
  8
0
 10
1925.07677396
 20
-744.29020266
 30
0.0
  0
VERTEX
  5
1E1
  8
0
 10
1882.04771401
 20
-738.86905067
 30
0.0
  0
SEQEND
  5
1E2
  8
0
  0
POLYLINE
  5
1E3
  8
0
 66
     1
 10
0.0
 20
0.0
 30
0.0
  0
VERTEX
  5
3C5
  8
0
 10
1877.52258775
 20
-736.6864171816238
 30
0.0
  0
VERTEX
  5
3C6
  8
0
 10
1877.664315681549
 20
-737.1535721958987
 30
0.0
  0
VERTEX
  5
3C7
  8
0
 10
1878.083760398461
 20
-737.6018103773024
 30
0.0
  0
VERTEX
  5
3C8
  8
0
 10
1878.763937033809
 20
-738.0129809051073
 30
0.0
  0
VERTEX
  5
3C9
  8
0
 10
1879.677302721583
 20
-738.3704339648881
 30
0.0
  0
VERTEX
  5
3CA
  8
0
 10
1880.786871909135
 20
-738.6596949610484
 30
0.0
  0
VERTEX
  5
3CB
  8
0
 10
1882.047714038909
 20
-738.8690506466974
 30
0.0
  0
SEQEND
  5
3E2
  8
0
  0
POLYLINE
  5
1E4
  8
0
 66
     1
 10
0.0
 20
0.0
 30
0.0
  0
VERTEX
  5
3CC
  8
0
 10
1886.997461503064
 20
-734.5037837385909
 30
0.0
  0
VERTEX
  5
3CD
  8
0
 10
1885.694104246805
 20
-734.3859933608096
 30
0.0
  0
VERTEX
  5
3CE
  8
0
 10
1884.34714717995
 20
-734.353816837818
 30
0.0
  0
VERTEX
  5
3CF
  8
0
 10
1883.006719407088
 20
-734.4084516690212
 30
0.0
  0
VERTEX
  5
3D0
  8
0
 10
1881.722707034963
 20
-734.5478645341043
 30
0.0
  0
VERTEX
  5
3D1
  8
0
 10
1880.542896583338
 20
-734.7668669662133
 30
0.0
  0
VERTEX
  5
3D2
  8
0
 10
1879.511196535252
 20
-735.0573084488294
 30
0.0
  0
VERTEX
  5
3D3
  8
0
 10
1878.666003214452
 20
-735.4083797499308
 30
0.0
  0
VERTEX
  5
3D4
  8
0
 10
1878.038771806421
 20
-735.8070152043944
 30
0.0
  0
VERTEX
  5
3D5
  8
0
 10
1877.65284570467
 20
-736.2383789730677
 30
0.0
  0
VERTEX
  5
3D6
  8
0
 10
1877.52258775
 20
-736.6864171816238
 30
0.0
  0
SEQEND
  5
3E3
  8
0
  0
LINE
  5
1E5
  8
0
 10
1886.99746148
 20
-734.50378372
 30
0.0
 11
1930.02652143
 21
-739.92493571
 31
0.0
  0
LINE
  5
1E6
  8
0
 10
1938.66569943
 20
-757.76174099
 30
0.0
 11
1841.38260737
 21
-745.50522345
 31
0.0
  0
LINE
  5
1E7
  8
0
 10
1869.66687862
 20
-720.56084087
 30
0.0
 11
1841.38260737
 21
-745.50522345
 31
0.0
  0
POLYLINE
  5
1E8
  8
0
 66
     1
 10
0.0
 20
0.0
 30
0.0
  0
VERTEX
  5
1E9
  8
0
 10
1869.66687862
 20
-720.56084087
 30
0.0
  0
VERTEX
  5
1EA
  8
0
 10
1966.94997068
 20
-732.81735841
 30
0.0
  0
VERTEX
  5
1EB
  8
0
 10
1938.66569943
 20
-757.76174099
 30
0.0
  0
VERTEX
  5
1EC
  8
0
 10
1938.66569943
 20
-765.30421332
 30
0.0
  0
VERTEX
  5
1ED
  8
0
 10
1841.38260737
 20
-753.04769578
 30
0.0
  0
SEQEND
  5
1EE
  8
0
  0
LINE
  5
1EF
  8
0
 10
1841.38260737
 20
-745.50522345
 30
0.0
 11
1841.38260737
 21
-753.04769578
 31
0.0
  0
LINE
  5
1F0
  8
0
 10
1966.94997068
 20
-740.35983074
 30
0.0
 11
1938.66569943
 21
-765.30421332
 31
0.0
  0
LINE
  5
1F1
  8
0
 10
1966.94997068
 20
-732.81735841
 30
0.0
 11
1966.94997068
 21
-740.35983074
 31
0.0
  0
LINE
  5
1F2
  8
0
  6
STRICHPUNKT2
 62
     1
 10
1927.55164769
 20
-738.80773754
 30
0.0
 11
1927.55164769
 21
-744.44090252
 31
0.0
  0
LINE
  5
1F3
  8
0
  6
STRICHPUNKT2
 62
     1
 10
1884.52258775
 20
-733.38658555
 30
0.0
 11
1884.52258775
 21
-739.18085545
 31
0.0
  0
LINE
  5
1F4
  8
0
  6
STRICHPUNKT2
 62
     1
 10
1937.37349833
 20
-743.34500605
 30
0.0
 11
1874.70073711
 21
-735.44898033
 31
0.0
  0
LINE
  5
1F5
  8
0
  6
STRICHPUNKT2
 62
     1
 10
1931.2639583
 20
-738.83361897
 30
0.0
 11
1923.83933709
 21
-745.3815194
 31
0.0
  0
LINE
  5
1F6
  8
0
  6
STRICHPUNKT2
 62
     1
 10
1888.23489835
 20
-733.41246698
 30
0.0
 11
1880.81027714
 21
-739.96036741
 31
0.0
  0
POLYLINE
  5
1F7
  8
0
 66
     1
 10
0.0
 20
0.0
 30
0.0
  0
VERTEX
  5
1F8
  8
0
 10
2028.480995
 20
-592.17093801
 30
0.0
  0
VERTEX
  5
1F9
  8
0
 10
2028.480995
 20
-538.17093801
 30
0.0
  0
VERTEX
  5
1FA
  8
0
 10
2020.480995
 20
-538.17093801
 30
0.0
  0
SEQEND
  5
1FB
  8
0
  0
LINE
  5
1FC
  8
0
 10
2020.480995
 20
-592.17093801
 30
0.0
 11
2020.480995
 21
-538.17093801
 31
0.0
  0
LINE
  5
1FD
  8
0
 10
2028.480995
 20
-592.17093801
 30
0.0
 11
2020.480995
 21
-592.17093801
 31
0.0
  0
LINE
  5
1FE
  8
0
  6
STRICHPUNKT2
 62
     1
 10
2028.480995
 20
-553.17093801
 30
0.0
 11
2030.480995
 21
-553.17093801
 31
0.0
  0
LINE
  5
1FF
  8
0
  6
STRICHPUNKT2
 62
     1
 10
2018.480995
 20
-553.17093801
 30
0.0
 11
2020.480995
 21
-553.17093801
 31
0.0
  0
LINE
  5
200
  8
0
  6
STRICHPUNKT2
 62
     1
 10
2028.480995
 20
-583.17093801
 30
0.0
 11
2030.480995
 21
-583.17093801
 31
0.0
  0
LINE
  5
201
  8
0
  6
STRICHPUNKT2
 62
     1
 10
2018.480995
 20
-583.17093801
 30
0.0
 11
2020.480995
 21
-583.17093801
 31
0.0
  0
LINE
  5
202
  8
0
  6
STRICHPUNKT2
 62
     1
 10
2028.480995
 20
-568.17093801
 30
0.0
 11
2031.230995
 21
-568.17093801
 31
0.0
  0
LINE
  5
203
  8
0
  6
STRICHPUNKT2
 62
     1
 10
2017.730995
 20
-568.17093801
 30
0.0
 11
2020.480995
 21
-568.17093801
 31
0.0
  0
POLYLINE
  5
204
  8
0
 66
     1
 10
0.0
 20
0.0
 30
0.0
  0
VERTEX
  5
205
  8
0
 10
2036.480995
 20
-600.17093801
 30
0.0
 42
-0.414213562
  0
VERTEX
  5
206
  8
0
 10
2028.480995
 20
-592.17093801
 30
0.0
  0
VERTEX
  5
207
  8
0
 10
2020.480995
 20
-592.17093801
 30
0.0
  0
SEQEND
  5
208
  8
0
  0
ARC
  5
209
  8
0
 10
2036.480995
 20
-592.17093801
 30
0.0
 40
16.0
 50
180.0
 51
-90.0
  0
LINE
  5
20A
  8
0
 10
2036.480995
 20
-600.17093801
 30
0.0
 11
2036.480995
 21
-608.17093801
 31
0.0
  0
POLYLINE
  5
20B
  8
0
 66
     1
 10
0.0
 20
0.0
 30
0.0
  0
VERTEX
  5
20C
  8
0
 10
2140.480995
 20
-600.17093801
 30
0.0
  0
VERTEX
  5
20D
  8
0
 10
2036.480995
 20
-600.17093801
 30
0.0
  0
VERTEX
  5
20E
  8
0
 10
2036.480995
 20
-608.17093801
 30
0.0
  0
SEQEND
  5
20F
  8
0
  0
LINE
  5
210
  8
0
 10
2140.480995
 20
-608.17093801
 30
0.0
 11
2036.480995
 21
-608.17093801
 31
0.0
  0
LINE
  5
211
  8
0
 10
2140.480995
 20
-600.17093801
 30
0.0
 11
2140.480995
 21
-608.17093801
 31
0.0
  0
LINE
  5
212
  8
0
  6
STRICHPUNKT2
 62
     1
 10
2113.480995
 20
-608.17093801
 30
0.0
 11
2113.480995
 21
-611.67093801
 31
0.0
  0
LINE
  5
213
  8
0
  6
STRICHPUNKT2
 62
     1
 10
2113.480995
 20
-596.67093801
 30
0.0
 11
2113.480995
 21
-600.17093801
 31
0.0
  0
LINE
  5
214
  8
0
  6
STRICHPUNKT2
 62
     1
 10
2067.480995
 20
-608.17093801
 30
0.0
 11
2067.480995
 21
-611.67093801
 31
0.0
  0
LINE
  5
215
  8
0
  6
STRICHPUNKT2
 62
     1
 10
2067.480995
 20
-596.67093801
 30
0.0
 11
2067.480995
 21
-600.17093801
 31
0.0
  0
CIRCLE
  5
216
  8
0
 10
1910.59203999
 20
-583.17093801
 30
0.0
 40
4.0
  0
CIRCLE
  5
217
  8
0
 10
1935.59203999
 20
-568.17093801
 30
0.0
 40
5.5
  0
CIRCLE
  5
218
  8
0
 10
1960.59203999
 20
-553.17093801
 30
0.0
 40
4.0
  0
LINE
  5
219
  8
0
 10
1895.59203999
 20
-538.17093801
 30
0.0
 11
1975.59203999
 21
-538.17093801
 31
0.0
  0
LINE
  5
21A
  8
0
 10
1975.59203999
 20
-592.17093801
 30
0.0
 11
1975.59203999
 21
-538.17093801
 31
0.0
  0
LINE
  5
21B
  8
0
 10
1895.59203999
 20
-592.17093801
 30
0.0
 11
1975.59203999
 21
-592.17093801
 31
0.0
  0
LINE
  5
21C
  8
0
 10
1895.59203999
 20
-538.17093801
 30
0.0
 11
1895.59203999
 21
-592.17093801
 31
0.0
  0
LINE
  5
21D
  8
0
  6
STRICHPUNKT2
 62
     1
 10
1960.59203999
 20
-553.17093801
 30
0.0
 11
1954.59203999
 21
-553.17093801
 31
0.0
  0
LINE
  5
21E
  8
0
  6
STRICHPUNKT2
 62
     1
 10
1960.59203999
 20
-553.17093801
 30
0.0
 11
1966.59203999
 21
-553.17093801
 31
0.0
  0
LINE
  5
21F
  8
0
  6
STRICHPUNKT2
 62
     1
 10
1960.59203999
 20
-553.17093801
 30
0.0
 11
1960.59203999
 21
-559.17093801
 31
0.0
  0
LINE
  5
220
  8
0
  6
STRICHPUNKT2
 62
     1
 10
1960.59203999
 20
-553.17093801
 30
0.0
 11
1960.59203999
 21
-547.17093801
 31
0.0
  0
LINE
  5
221
  8
0
  6
STRICHPUNKT2
 62
     1
 10
1935.59203999
 20
-568.17093801
 30
0.0
 11
1927.34203999
 21
-568.17093801
 31
0.0
  0
LINE
  5
222
  8
0
  6
STRICHPUNKT2
 62
     1
 10
1935.59203999
 20
-568.17093801
 30
0.0
 11
1943.84203999
 21
-568.17093801
 31
0.0
  0
LINE
  5
223
  8
0
  6
STRICHPUNKT2
 62
     1
 10
1935.59203999
 20
-568.17093801
 30
0.0
 11
1935.59203999
 21
-576.42093801
 31
0.0
  0
LINE
  5
224
  8
0
  6
STRICHPUNKT2
 62
     1
 10
1935.59203999
 20
-568.17093801
 30
0.0
 11
1935.59203999
 21
-559.92093801
 31
0.0
  0
LINE
  5
225
  8
0
  6
STRICHPUNKT2
 62
     1
 10
1910.59203999
 20
-583.17093801
 30
0.0
 11
1904.59203999
 21
-583.17093801
 31
0.0
  0
LINE
  5
226
  8
0
  6
STRICHPUNKT2
 62
     1
 10
1910.59203999
 20
-583.17093801
 30
0.0
 11
1916.59203999
 21
-583.17093801
 31
0.0
  0
LINE
  5
227
  8
0
  6
STRICHPUNKT2
 62
     1
 10
1910.59203999
 20
-583.17093801
 30
0.0
 11
1910.59203999
 21
-589.17093801
 31
0.0
  0
LINE
  5
228
  8
0
  6
STRICHPUNKT2
 62
     1
 10
1910.59203999
 20
-583.17093801
 30
0.0
 11
1910.59203999
 21
-577.17093801
 31
0.0
  0
LINE
  5
229
  8
0
 10
1895.59203999
 20
-592.17093801
 30
0.0
 11
1975.59203999
 21
-592.17093801
 31
0.0
  0
LINE
  5
22A
  8
0
 10
1975.59203999
 20
-608.17093801
 30
0.0
 11
1975.59203999
 21
-592.17093801
 31
0.0
  0
LINE
  5
22B
  8
0
 10
1895.59203999
 20
-608.17093801
 30
0.0
 11
1975.59203999
 21
-608.17093801
 31
0.0
  0
LINE
  5
22C
  8
0
 10
1895.59203999
 20
-592.17093801
 30
0.0
 11
1895.59203999
 21
-608.17093801
 31
0.0
  0
LINE
  5
22D
  8
0
 10
1895.59203999
 20
-608.17093801
 30
0.0
 11
1975.59203999
 21
-608.17093801
 31
0.0
  0
LINE
  5
22E
  8
0
  6
STRICHPUNKT2
 62
     1
 10
1935.59203999
 20
-608.17093801
 30
0.0
 11
1935.59203999
 21
-611.67093801
 31
0.0
  0
POLYLINE
  5
22F
  8
0
 66
     1
 10
0.0
 20
0.0
 30
0.0
  0
VERTEX
  5
230
  8
0
 10
2028.480995
 20
-645.20058908
 30
0.0
  0
VERTEX
  5
231
  8
0
 10
2028.480995
 20
-725.20058908
 30
0.0
  0
VERTEX
  5
232
  8
0
 10
2020.480995
 20
-725.20058908
 30
0.0
  0
SEQEND
  5
233
  8
0
  0
LINE
  5
234
  8
0
 10
2020.480995
 20
-645.20058908
 30
0.0
 11
2020.480995
 21
-725.20058908
 31
0.0
  0
LINE
  5
235
  8
0
 10
2028.480995
 20
-645.20058908
 30
0.0
 11
2020.480995
 21
-645.20058908
 31
0.0
  0
LINE
  5
236
  8
0
  6
STRICHPUNKT2
 62
     1
 10
2028.480995
 20
-710.20058908
 30
0.0
 11
2030.480995
 21
-710.20058908
 31
0.0
  0
LINE
  5
237
  8
0
  6
STRICHPUNKT2
 62
     1
 10
2018.480995
 20
-710.20058908
 30
0.0
 11
2020.480995
 21
-710.20058908
 31
0.0
  0
LINE
  5
238
  8
0
  6
STRICHPUNKT2
 62
     1
 10
2028.480995
 20
-660.20058908
 30
0.0
 11
2030.480995
 21
-660.20058908
 31
0.0
  0
LINE
  5
239
  8
0
  6
STRICHPUNKT2
 62
     1
 10
2018.480995
 20
-660.20058908
 30
0.0
 11
2020.480995
 21
-660.20058908
 31
0.0
  0
LINE
  5
23A
  8
0
  6
STRICHPUNKT2
 62
     1
 10
2028.480995
 20
-685.20058908
 30
0.0
 11
2031.230995
 21
-685.20058908
 31
0.0
  0
LINE
  5
23B
  8
0
  6
STRICHPUNKT2
 62
     1
 10
2017.730995
 20
-685.20058908
 30
0.0
 11
2020.480995
 21
-685.20058908
 31
0.0
  0
POLYLINE
  5
23C
  8
0
 66
     1
 10
0.0
 20
0.0
 30
0.0
  0
VERTEX
  5
23D
  8
0
 10
2028.480995
 20
-645.20058908
 30
0.0
  0
VERTEX
  5
23E
  8
0
 10
2036.480995
 20
-645.20058908
 30
0.0
  0
VERTEX
  5
23F
  8
0
 10
2036.480995
 20
-725.20058908
 30
0.0
  0
VERTEX
  5
240
  8
0
 10
2028.480995
 20
-725.20058908
 30
0.0
  0
SEQEND
  5
241
  8
0
  0
POLYLINE
  5
242
  8
0
 66
     1
 10
0.0
 20
0.0
 30
0.0
 70
     1
  0
VERTEX
  5
243
  8
0
 10
2113.480995
 20
-678.20058908
 30
0.0
 42
-1.0
  0
VERTEX
  5
244
  8
0
 10
2113.480995
 20
-692.20058908
 30
0.0
  0
VERTEX
  5
245
  8
0
 10
2067.480995
 20
-692.20058908
 30
0.0
 42
-1.0
  0
VERTEX
  5
246
  8
0
 10
2067.480995
 20
-678.20058908
 30
0.0
  0
SEQEND
  5
247
  8
0
  0
LINE
  5
248
  8
0
 10
2140.480995
 20
-725.20058908
 30
0.0
 11
2036.480995
 21
-725.20058908
 31
0.0
  0
LINE
  5
249
  8
0
 10
2036.480995
 20
-645.20058908
 30
0.0
 11
2036.480995
 21
-725.20058908
 31
0.0
  0
POLYLINE
  5
24A
  8
0
 66
     1
 10
0.0
 20
0.0
 30
0.0
  0
VERTEX
  5
24B
  8
0
 10
2036.480995
 20
-645.20058908
 30
0.0
  0
VERTEX
  5
24C
  8
0
 10
2140.480995
 20
-645.20058908
 30
0.0
  0
VERTEX
  5
24D
  8
0
 10
2140.480995
 20
-725.20058908
 30
0.0
  0
SEQEND
  5
24E
  8
0
  0
LINE
  5
24F
  8
0
  6
STRICHPUNKT2
 62
     1
 10
2123.980995
 20
-685.20058908
 30
0.0
 11
2056.980995
 21
-685.20058908
 31
0.0
  0
LINE
  5
250
  8
0
  6
STRICHPUNKT2
 62
     1
 10
2113.480995
 20
-674.70058908
 30
0.0
 11
2113.480995
 21
-695.70058908
 31
0.0
  0
LINE
  5
251
  8
0
  6
STRICHPUNKT2
 62
     1
 10
2067.480995
 20
-674.70058908
 30
0.0
 11
2067.480995
 21
-695.70058908
 31
0.0
  0
TEXT
  5
252
  8
TXT_DIM49
 10
2077.69873506
 20
-620.17307279
 30
0.0
 40
2.5
  1
120
  7
ARIAL
  0
LINE
  5
253
  8
0
 62
     4
 10
2139.480995
 20
-622.67307279
 30
0.0
 11
2141.480995
 21
-620.67307279
 31
0.0
  0
LINE
  5
254
  8
0
 62
     4
 10
2021.230995
 20
-620.92307279
 30
0.0
 11
2019.730995
 21
-622.42307279
 31
0.0
  0
LINE
  5
255
  8
0
 62
     4
 10
2140.480995
 20
-621.67307279
 30
0.0
 11
2020.480995
 21
-621.67307279
 31
0.0
  0
LINE
  5
256
  8
0
 62
     4
 10
2140.480995
 20
-619.67307279
 30
0.0
 11
2140.480995
 21
-623.67307279
 31
0.0
  0
LINE
  5
257
  8
0
 62
     4
 10
2020.480995
 20
-619.67307279
 30
0.0
 11
2020.480995
 21
-623.67307279
 31
0.0
  0
TEXT
  5
258
  8
TXT_DIM49
 10
2004.6861763
 20
-575.02577805
 30
0.0
 40
2.5
  1
70
 50
90.00020741
  7
ARIAL
  0
LINE
  5
259
  8
0
 62
     4
 10
2007.1861763
 20
-539.17093801
 30
0.0
 11
2005.1861763
 21
-537.17093801
 31
0.0
  0
LINE
  5
25A
  8
0
 62
     4
 10
2005.4361763
 20
-607.42093801
 30
0.0
 11
2006.9361763
 21
-608.92093801
 31
0.0
  0
LINE
  5
25B
  8
0
 62
     4
 10
2006.1861763
 20
-538.17093801
 30
0.0
 11
2006.1861763
 21
-608.17093801
 31
0.0
  0
LINE
  5
25C
  8
0
 62
     4
 10
2008.1861763
 20
-538.17093801
 30
0.0
 11
2004.1861763
 21
-538.17093801
 31
0.0
  0
LINE
  5
25D
  8
0
 62
     4
 10
2008.1861763
 20
-608.17093801
 30
0.0
 11
2004.1861763
 21
-608.17093801
 31
0.0
  0
TEXT
  5
25E
  8
TXT_DIM49
 10
2145.94232802
 20
-605.09835803
 30
0.0
 40
2.5
  1
8
 50
90.00020741
  7
ARIAL
  0
LINE
  5
25F
  8
0
 62
     4
 10
2148.44232802
 20
-601.17093801
 30
0.0
 11
2146.44232802
 21
-599.17093801
 31
0.0
  0
LINE
  5
260
  8
0
 62
     4
 10
2146.69232802
 20
-607.42093801
 30
0.0
 11
2148.19232802
 21
-608.92093801
 31
0.0
  0
LINE
  5
261
  8
0
 62
     4
 10
2147.44232802
 20
-600.17093801
 30
0.0
 11
2147.44232802
 21
-608.17093801
 31
0.0
  0
LINE
  5
262
  8
0
 62
     4
 10
2145.44232802
 20
-600.17093801
 30
0.0
 11
2149.44232802
 21
-600.17093801
 31
0.0
  0
LINE
  5
263
  8
0
 62
     4
 10
2145.44232802
 20
-608.17093801
 30
0.0
 11
2149.44232802
 21
-608.17093801
 31
0.0
  0
TEXT
  5
264
  8
TXT_DIM49
 10
2023.55357498
 20
-529.47757236
 30
0.0
 40
2.5
  1
8
  7
ARIAL
  0
LINE
  5
265
  8
0
 62
     4
 10
2027.480995
 20
-531.97757236
 30
0.0
 11
2029.480995
 21
-529.97757236
 31
0.0
  0
LINE
  5
266
  8
0
 62
     4
 10
2021.230995
 20
-530.22757236
 30
0.0
 11
2019.730995
 21
-531.72757236
 31
0.0
  0
LINE
  5
267
  8
0
 62
     4
 10
2028.480995
 20
-530.97757236
 30
0.0
 11
2020.480995
 21
-530.97757236
 31
0.0
  0
LINE
  5
268
  8
0
 62
     4
 10
2028.480995
 20
-532.97757236
 30
0.0
 11
2028.480995
 21
-528.97757236
 31
0.0
  0
LINE
  5
269
  8
0
 62
     4
 10
2020.480995
 20
-532.97757236
 30
0.0
 11
2020.480995
 21
-528.97757236
 31
0.0
  0
TEXT
  5
26A
  8
TXT_DIM49
 10
1901.23719995
 20
-526.67093801
 30
0.0
 40
2.5
  1
15
  7
ARIAL
  0
LINE
  5
26B
  8
0
 62
     4
 10
1896.59203999
 20
-527.17093801
 30
0.0
 11
1894.59203999
 21
-529.17093801
 31
0.0
  0
LINE
  5
26C
  8
0
 62
     4
 10
1909.84203999
 20
-528.92093801
 30
0.0
 11
1911.34203999
 21
-527.42093801
 31
0.0
  0
LINE
  5
26D
  8
0
 62
     4
 10
1895.59203999
 20
-528.17093801
 30
0.0
 11
1910.59203999
 21
-528.17093801
 31
0.0
  0
LINE
  5
26E
  8
0
 62
     4
 10
1895.59203999
 20
-530.17093801
 30
0.0
 11
1895.59203999
 21
-526.17093801
 31
0.0
  0
LINE
  5
26F
  8
0
 62
     4
 10
1910.59203999
 20
-530.17093801
 30
0.0
 11
1910.59203999
 21
-526.17093801
 31
0.0
  0
TEXT
  5
270
  8
TXT_DIM49
 10
1921.23719995
 20
-526.67093801
 30
0.0
 40
2.5
  1
25
  7
ARIAL
  0
LINE
  5
271
  8
0
 62
     4
 10
1911.59203999
 20
-527.17093801
 30
0.0
 11
1909.59203999
 21
-529.17093801
 31
0.0
  0
LINE
  5
272
  8
0
 62
     4
 10
1934.84203999
 20
-528.92093801
 30
0.0
 11
1936.34203999
 21
-527.42093801
 31
0.0
  0
LINE
  5
273
  8
0
 62
     4
 10
1910.59203999
 20
-528.17093801
 30
0.0
 11
1935.59203999
 21
-528.17093801
 31
0.0
  0
LINE
  5
274
  8
0
 62
     4
 10
1910.59203999
 20
-530.17093801
 30
0.0
 11
1910.59203999
 21
-526.17093801
 31
0.0
  0
LINE
  5
275
  8
0
 62
     4
 10
1935.59203999
 20
-530.17093801
 30
0.0
 11
1935.59203999
 21
-526.17093801
 31
0.0
  0
TEXT
  5
276
  8
TXT_DIM49
 10
1946.23719995
 20
-526.67093801
 30
0.0
 40
2.5
  1
25
  7
ARIAL
  0
LINE
  5
277
  8
0
 62
     4
 10
1936.59203999
 20
-527.17093801
 30
0.0
 11
1934.59203999
 21
-529.17093801
 31
0.0
  0
LINE
  5
278
  8
0
 62
     4
 10
1959.84203999
 20
-528.92093801
 30
0.0
 11
1961.34203999
 21
-527.42093801
 31
0.0
  0
LINE
  5
279
  8
0
 62
     4
 10
1935.59203999
 20
-528.17093801
 30
0.0
 11
1960.59203999
 21
-528.17093801
 31
0.0
  0
LINE
  5
27A
  8
0
 62
     4
 10
1935.59203999
 20
-530.17093801
 30
0.0
 11
1935.59203999
 21
-526.17093801
 31
0.0
  0
LINE
  5
27B
  8
0
 62
     4
 10
1960.59203999
 20
-530.17093801
 30
0.0
 11
1960.59203999
 21
-526.17093801
 31
0.0
  0
TEXT
  5
27C
  8
TXT_DIM49
 10
1966.23719995
 20
-526.67093801
 30
0.0
 40
2.5
  1
15
  7
ARIAL
  0
LINE
  5
27D
  8
0
 62
     4
 10
1961.59203999
 20
-527.17093801
 30
0.0
 11
1959.59203999
 21
-529.17093801
 31
0.0
  0
LINE
  5
27E
  8
0
 62
     4
 10
1974.84203999
 20
-528.92093801
 30
0.0
 11
1976.34203999
 21
-527.42093801
 31
0.0
  0
LINE
  5
27F
  8
0
 62
     4
 10
1960.59203999
 20
-528.17093801
 30
0.0
 11
1975.59203999
 21
-528.17093801
 31
0.0
  0
LINE
  5
280
  8
0
 62
     4
 10
1960.59203999
 20
-530.17093801
 30
0.0
 11
1960.59203999
 21
-526.17093801
 31
0.0
  0
LINE
  5
281
  8
0
 62
     4
 10
1975.59203999
 20
-530.17093801
 30
0.0
 11
1975.59203999
 21
-526.17093801
 31
0.0
  0
TEXT
  5
282
  8
TXT_DIM49
 10
1979.07015131
 20
-547.52577805
 30
0.0
 40
2.5
  1
15
 50
90.00020741
  7
ARIAL
  0
LINE
  5
283
  8
0
 62
     4
 10
1981.57015131
 20
-539.17093801
 30
0.0
 11
1979.57015131
 21
-537.17093801
 31
0.0
  0
LINE
  5
284
  8
0
 62
     4
 10
1979.82015131
 20
-552.42093801
 30
0.0
 11
1981.32015131
 21
-553.92093801
 31
0.0
  0
LINE
  5
285
  8
0
 62
     4
 10
1980.57015131
 20
-538.17093801
 30
0.0
 11
1980.57015131
 21
-553.17093801
 31
0.0
  0
LINE
  5
286
  8
0
 62
     4
 10
1978.57015131
 20
-538.17093801
 30
0.0
 11
1982.57015131
 21
-538.17093801
 31
0.0
  0
LINE
  5
287
  8
0
 62
     4
 10
1978.57015131
 20
-553.17093801
 30
0.0
 11
1982.57015131
 21
-553.17093801
 31
0.0
  0
TEXT
  5
288
  8
TXT_DIM49
 10
1979.07015131
 20
-562.52577805
 30
0.0
 40
2.5
  1
15
 50
90.00020741
  7
ARIAL
  0
LINE
  5
289
  8
0
 62
     4
 10
1981.57015131
 20
-554.17093801
 30
0.0
 11
1979.57015131
 21
-552.17093801
 31
0.0
  0
LINE
  5
28A
  8
0
 62
     4
 10
1979.82015131
 20
-567.42093801
 30
0.0
 11
1981.32015131
 21
-568.92093801
 31
0.0
  0
LINE
  5
28B
  8
0
 62
     4
 10
1980.57015131
 20
-553.17093801
 30
0.0
 11
1980.57015131
 21
-568.17093801
 31
0.0
  0
LINE
  5
28C
  8
0
 62
     4
 10
1978.57015131
 20
-553.17093801
 30
0.0
 11
1982.57015131
 21
-553.17093801
 31
0.0
  0
LINE
  5
28D
  8
0
 62
     4
 10
1978.57015131
 20
-568.17093801
 30
0.0
 11
1982.57015131
 21
-568.17093801
 31
0.0
  0
TEXT
  5
28E
  8
TXT_DIM49
 10
1979.07015131
 20
-577.52577805
 30
0.0
 40
2.5
  1
15
 50
90.00020741
  7
ARIAL
  0
LINE
  5
28F
  8
0
 62
     4
 10
1981.57015131
 20
-569.17093801
 30
0.0
 11
1979.57015131
 21
-567.17093801
 31
0.0
  0
LINE
  5
290
  8
0
 62
     4
 10
1979.82015131
 20
-582.42093801
 30
0.0
 11
1981.32015131
 21
-583.92093801
 31
0.0
  0
LINE
  5
291
  8
0
 62
     4
 10
1980.57015131
 20
-568.17093801
 30
0.0
 11
1980.57015131
 21
-583.17093801
 31
0.0
  0
LINE
  5
292
  8
0
 62
     4
 10
1978.57015131
 20
-568.17093801
 30
0.0
 11
1982.57015131
 21
-568.17093801
 31
0.0
  0
LINE
  5
293
  8
0
 62
     4
 10
1978.57015131
 20
-583.17093801
 30
0.0
 11
1982.57015131
 21
-583.17093801
 31
0.0
  0
TEXT
  5
294
  8
TXT_DIM49
 10
1979.07015131
 20
-597.52577805
 30
0.0
 40
2.5
  1
25
 50
90.00020741
  7
ARIAL
  0
LINE
  5
295
  8
0
 62
     4
 10
1981.57015131
 20
-584.17093801
 30
0.0
 11
1979.57015131
 21
-582.17093801
 31
0.0
  0
LINE
  5
296
  8
0
 62
     4
 10
1979.82015131
 20
-607.42093801
 30
0.0
 11
1981.32015131
 21
-608.92093801
 31
0.0
  0
LINE
  5
297
  8
0
 62
     4
 10
1980.57015131
 20
-583.17093801
 30
0.0
 11
1980.57015131
 21
-608.17093801
 31
0.0
  0
LINE
  5
298
  8
0
 62
     4
 10
1978.57015131
 20
-583.17093801
 30
0.0
 11
1982.57015131
 21
-583.17093801
 31
0.0
  0
LINE
  5
299
  8
0
 62
     4
 10
1978.57015131
 20
-608.17093801
 30
0.0
 11
1982.57015131
 21
-608.17093801
 31
0.0
  0
LINE
  5
29A
  8
0
 62
     5
 10
1906.59203999
 20
-583.17093801
 30
0.0
 11
1903.92297489
 21
-579.65754365
 31
0.0
  0
TEXT
  5
29B
  8
TXT_DIM49
 10
1899.48372129
 20
-580.90754365
 30
0.0
 40
2.5
  1
Ø8
  7
ARIAL
  0
LINE
  5
29C
  8
0
 62
     5
 10
1930.09203999
 20
-568.17093801
 30
0.0
 11
1926.98268119
 21
-564.82173028
 31
0.0
  0
TEXT
  5
29D
  8
TXT_DIM49
 10
1920.69903948
 20
-566.07173028
 30
0.0
 40
2.5
  1
Ø11
  7
ARIAL
  0
LINE
  5
29E
  8
0
 62
     5
 10
1956.59203999
 20
-553.17093801
 30
0.0
 11
1952.81453878
 21
-550.50016147
 31
0.0
  0
TEXT
  5
29F
  8
TXT_DIM49
 10
1948.37528519
 20
-551.75016147
 30
0.0
 40
2.5
  1
Ø8
  7
ARIAL
  0
TEXT
  5
2A0
  8
TXT_DIM49
 10
2145.67849471
 20
-667.05542912
 30
0.0
 40
2.5
  1
40
 50
90.00020741
  7
ARIAL
  0
LINE
  5
2A1
  8
0
 62
     4
 10
2148.17849471
 20
-646.20058908
 30
0.0
 11
2146.17849471
 21
-644.20058908
 31
0.0
  0
LINE
  5
2A2
  8
0
 62
     4
 10
2146.42849471
 20
-684.45058908
 30
0.0
 11
2147.92849471
 21
-685.95058908
 31
0.0
  0
LINE
  5
2A3
  8
0
 62
     4
 10
2147.17849471
 20
-645.20058908
 30
0.0
 11
2147.17849471
 21
-685.20058908
 31
0.0
  0
LINE
  5
2A4
  8
0
 62
     4
 10
2145.17849471
 20
-645.20058908
 30
0.0
 11
2149.17849471
 21
-645.20058908
 31
0.0
  0
LINE
  5
2A5
  8
0
 62
     4
 10
2145.17849471
 20
-685.20058908
 30
0.0
 11
2149.17849471
 21
-685.20058908
 31
0.0
  0
TEXT
  5
2A6
  8
TXT_DIM49
 10
2145.67849471
 20
-707.05542912
 30
0.0
 40
2.5
  1
40
 50
90.00020741
  7
ARIAL
  0
LINE
  5
2A7
  8
0
 62
     4
 10
2148.17849471
 20
-686.20058908
 30
0.0
 11
2146.17849471
 21
-684.20058908
 31
0.0
  0
LINE
  5
2A8
  8
0
 62
     4
 10
2146.42849471
 20
-724.45058908
 30
0.0
 11
2147.92849471
 21
-725.95058908
 31
0.0
  0
LINE
  5
2A9
  8
0
 62
     4
 10
2147.17849471
 20
-685.20058908
 30
0.0
 11
2147.17849471
 21
-725.20058908
 31
0.0
  0
LINE
  5
2AA
  8
0
 62
     4
 10
2145.17849471
 20
-685.20058908
 30
0.0
 11
2149.17849471
 21
-685.20058908
 31
0.0
  0
LINE
  5
2AB
  8
0
 62
     4
 10
2145.17849471
 20
-725.20058908
 30
0.0
 11
2149.17849471
 21
-725.20058908
 31
0.0
  0
TEXT
  5
2AC
  8
TXT_DIM49
 10
2125.12615496
 20
-636.58774628
 30
0.0
 40
2.5
  1
27
  7
ARIAL
  0
LINE
  5
2AD
  8
0
 62
     4
 10
2139.480995
 20
-639.08774628
 30
0.0
 11
2141.480995
 21
-637.08774628
 31
0.0
  0
LINE
  5
2AE
  8
0
 62
     4
 10
2114.230995
 20
-637.33774628
 30
0.0
 11
2112.730995
 21
-638.83774628
 31
0.0
  0
LINE
  5
2AF
  8
0
 62
     4
 10
2140.480995
 20
-638.08774628
 30
0.0
 11
2113.480995
 21
-638.08774628
 31
0.0
  0
LINE
  5
2B0
  8
0
 62
     4
 10
2140.480995
 20
-640.08774628
 30
0.0
 11
2140.480995
 21
-636.08774628
 31
0.0
  0
LINE
  5
2B1
  8
0
 62
     4
 10
2113.480995
 20
-640.08774628
 30
0.0
 11
2113.480995
 21
-636.08774628
 31
0.0
  0
TEXT
  5
2B2
  8
TXT_DIM49
 10
2088.62615496
 20
-636.58774628
 30
0.0
 40
2.5
  1
46
  7
ARIAL
  0
LINE
  5
2B3
  8
0
 62
     4
 10
2112.480995
 20
-639.08774628
 30
0.0
 11
2114.480995
 21
-637.08774628
 31
0.0
  0
LINE
  5
2B4
  8
0
 62
     4
 10
2068.230995
 20
-637.33774628
 30
0.0
 11
2066.730995
 21
-638.83774628
 31
0.0
  0
LINE
  5
2B5
  8
0
 62
     4
 10
2113.480995
 20
-638.08774628
 30
0.0
 11
2067.480995
 21
-638.08774628
 31
0.0
  0
LINE
  5
2B6
  8
0
 62
     4
 10
2113.480995
 20
-640.08774628
 30
0.0
 11
2113.480995
 21
-636.08774628
 31
0.0
  0
LINE
  5
2B7
  8
0
 62
     4
 10
2067.480995
 20
-640.08774628
 30
0.0
 11
2067.480995
 21
-636.08774628
 31
0.0
  0
TEXT
  5
2B8
  8
TXT_DIM49
 10
2042.12615496
 20
-636.58774628
 30
0.0
 40
2.5
  1
47
  7
ARIAL
  0
LINE
  5
2B9
  8
0
 62
     4
 10
2066.480995
 20
-639.08774628
 30
0.0
 11
2068.480995
 21
-637.08774628
 31
0.0
  0
LINE
  5
2BA
  8
0
 62
     4
 10
2021.230995
 20
-637.33774628
 30
0.0
 11
2019.730995
 21
-638.83774628
 31
0.0
  0
LINE
  5
2BB
  8
0
 62
     4
 10
2067.480995
 20
-638.08774628
 30
0.0
 11
2020.480995
 21
-638.08774628
 31
0.0
  0
LINE
  5
2BC
  8
0
 62
     4
 10
2067.480995
 20
-640.08774628
 30
0.0
 11
2067.480995
 21
-636.08774628
 31
0.0
  0
LINE
  5
2BD
  8
0
 62
     4
 10
2020.480995
 20
-640.08774628
 30
0.0
 11
2020.480995
 21
-636.08774628
 31
0.0
  0
TEXT
  5
2BE
  8
TXT_DIM49
 10
2005.67849471
 20
-687.05542912
 30
0.0
 40
2.5
  1
80
 50
90.00020741
  7
ARIAL
  0
LINE
  5
2BF
  8
0
 62
     4
 10
2008.17849471
 20
-646.20058908
 30
0.0
 11
2006.17849471
 21
-644.20058908
 31
0.0
  0
LINE
  5
2C0
  8
0
 62
     4
 10
2006.42849471
 20
-724.45058908
 30
0.0
 11
2007.92849471
 21
-725.95058908
 31
0.0
  0
LINE
  5
2C1
  8
0
 62
     4
 10
2007.17849471
 20
-645.20058908
 30
0.0
 11
2007.17849471
 21
-725.20058908
 31
0.0
  0
LINE
  5
2C2
  8
0
 62
     4
 10
2009.17849471
 20
-645.20058908
 30
0.0
 11
2005.17849471
 21
-645.20058908
 31
0.0
  0
LINE
  5
2C3
  8
0
 62
     4
 10
2009.17849471
 20
-725.20058908
 30
0.0
 11
2005.17849471
 21
-725.20058908
 31
0.0
  0
TEXT
  5
2C4
  8
TXT_DIM49
 10
2077.69873506
 20
-733.70058908
 30
0.0
 40
2.5
  1
120
  7
ARIAL
  0
LINE
  5
2C5
  8
0
 62
     4
 10
2021.480995
 20
-734.20058908
 30
0.0
 11
2019.480995
 21
-736.20058908
 31
0.0
  0
LINE
  5
2C6
  8
0
 62
     4
 10
2139.730995
 20
-735.95058908
 30
0.0
 11
2141.230995
 21
-734.45058908
 31
0.0
  0
LINE
  5
2C7
  8
0
 62
     4
 10
2020.480995
 20
-735.20058908
 30
0.0
 11
2140.480995
 21
-735.20058908
 31
0.0
  0
LINE
  5
2C8
  8
0
 62
     4
 10
2020.480995
 20
-733.20058908
 30
0.0
 11
2020.480995
 21
-737.20058908
 31
0.0
  0
LINE
  5
2C9
  8
0
 62
     4
 10
2140.480995
 20
-733.20058908
 30
0.0
 11
2140.480995
 21
-737.20058908
 31
0.0
  0
LINE
  5
2CA
  8
0
 62
     5
 10
2090.480995
 20
-678.20058908
 30
0.0
 11
2095.56924178
 21
-669.55390146
 31
0.0
  0
TEXT
  5
2CB
  8
TXT_DIM49
 10
2095.56924178
 20
-670.80390146
 30
0.0
 40
2.5
  1
Slobgat 14 x 60
  7
ARIAL
  0
ENDSEC
  0
EOF
