  0
SECTION
  2
HEADER
  9
$ACADVER
  1
AC1006
  9
$DWGCODEPAGE
  3
ansi_1252
  9
$INSBASE
 10
0.0
 20
0.0
 30
0.0
  9
$EXTMIN
 10
136.67748581
 20
-176.37270719
  9
$EXTMAX
 10
1365.22435017
 20
415.30698031
  9
$LIMMIN
 10
136.67748581
 20
-176.37270719
  9
$LIMMAX
 10
1365.22435017
 20
415.30698031
  9
$ORTHOMODE
 70
     0
  9
$REGENMODE
 70
     1
  9
$FILLMODE
 70
     1
  9
$QTEXTMODE
 70
     0
  9
$MIRRTEXT
 70
     1
  9
$DRAGMODE
 70
     2
  9
$LTSCALE
 40
1.0
  9
$OSMODE
 70
    37
  9
$ATTMODE
 70
     1
  9
$TEXTSIZE
 40
1.0
  9
$TRACEWID
 40
0.05
  9
$TEXTSTYLE
  7
STANDARD
  9
$CLAYER
  8
0
  9
$CELTYPE
  6
BYBLOCK
  9
$CECOLOR
 62
   256
  9
$DIMSCALE
 40
1.0
  9
$DIMASZ
 40
0.18
  9
$DIMEXO
 40
0.0625
  9
$DIMDLI
 40
0.38
  9
$DIMRND
 40
0.0
  9
$DIMDLE
 40
0.0
  9
$DIMEXE
 40
0.18
  9
$DIMTP
 40
0.0
  9
$DIMTM
 40
0.0
  9
$DIMTXT
 40
0.18
  9
$DIMCEN
 40
0.09
  9
$DIMTSZ
 40
0.0
  9
$DIMTOL
 70
     0
  9
$DIMLIM
 70
     0
  9
$DIMTIH
 70
     1
  9
$DIMTOH
 70
     1
  9
$DIMSE1
 70
     0
  9
$DIMSE2
 70
     0
  9
$DIMTAD
 70
     0
  9
$DIMZIN
 70
     0
  9
$DIMBLK
  1

  9
$DIMASO
 70
     1
  9
$DIMSHO
 70
     1
  9
$DIMPOST
  1

  9
$DIMAPOST
  1

  9
$DIMALT
 70
     0
  9
$DIMALTD
 70
     2
  9
$DIMALTF
 40
25.4
  9
$DIMLFAC
 40
1.0
  9
$DIMTOFL
 70
     0
  9
$DIMTVP
 40
0.0
  9
$DIMTIX
 70
     0
  9
$DIMSOXD
 70
     0
  9
$DIMSAH
 70
     0
  9
$DIMBLK1
  1

  9
$DIMBLK2
  1

  9
$LUNITS
 70
     2
  9
$LUPREC
 70
     4
  9
$SKETCHINC
 40
0.1
  9
$FILLETRAD
 40
0.5
  9
$AUNITS
 70
     0
  9
$AUPREC
 70
     0
  9
$MENU
  1
.
  9
$ELEVATION
 40
0.0
  9
$THICKNESS
 40
0.0
  9
$LIMCHECK
 70
     0
  9
$CHAMFERA
 40
0.0
  9
$CHAMFERB
 40
0.0
  9
$SKPOLY
 70
     0
  9
$TDCREATE
 40
2447893.125
  9
$TDUPDATE
 40
2460791.495212037
  9
$TDINDWG
 40
0.0
  9
$TDUSRTIMER
 40
0.0
  9
$USRTIMER
 70
     1
  9
$ANGBASE
 50
0.0
  9
$ANGDIR
 70
     0
  9
$PDMODE
 70
     0
  9
$PDSIZE
 40
0.0
  9
$PLINEWID
 40
0.0
  9
$COORDS
 70
     1
  9
$SPLFRAME
 70
     0
  9
$SPLINETYPE
 70
     6
  9
$SPLINESEGS
 70
     8
  9
$ATTDIA
 70
     0
  9
$ATTREQ
 70
     1
  9
$HANDLING
 70
     1
  9
$HANDSEED
  5
369
  9
$SURFTAB1
 70
     6
  9
$SURFTAB2
 70
     6
  9
$SURFTYPE
 70
     6
  9
$SURFU
 70
     6
  9
$SURFV
 70
     6
  9
$UCSNAME
  2

  9
$UCSORG
 10
0.0
 20
0.0
 30
0.0
  9
$UCSXDIR
 10
1.0
 20
0.0
 30
0.0
  9
$UCSYDIR
 10
0.0
 20
1.0
 30
0.0
  9
$USERI1
 70
     0
  9
$USERI2
 70
     0
  9
$USERI3
 70
     0
  9
$USERI4
 70
     0
  9
$USERI5
 70
     0
  9
$USERR1
 40
0.0
  9
$USERR2
 40
0.0
  9
$USERR3
 40
0.0
  9
$USERR4
 40
0.0
  9
$USERR5
 40
0.0
  9
$WORLDVIEW
 70
     1
  0
ENDSEC
  0
SECTION
  2
TABLES
  0
TABLE
  2
VPORT
 70
     1
  0
VPORT
  2
*ACTIVE
 70
     0
 10
0.0
 20
0.0
 11
1.0
 21
1.0
 12
750.95091799
 22
119.46713656
 13
0.0
 23
0.0
 14
1.0
 24
1.0
 15
0.0
 25
0.0
 16
0.0
 26
0.0
 36
1.0
 17
0.0
 27
0.0
 37
0.0
 40
591.6796875
 41
2.076371541
 42
50.0
 43
0.0
 44
0.0
 50
0.0
 51
0.0
 71
     0
 72
   100
 73
     1
 74
     1
 75
     0
 76
     0
 77
     0
 78
     0
  0
ENDTAB
  0
TABLE
  2
LTYPE
 70
    19
  0
LTYPE
  2
CONTINUOUS
 70
     0
  3
Solid line
 72
    65
 73
     0
 40
0.0
  0
LTYPE
  2
DOT
 70
     0
  3
..............
 72
    65
 73
     2
 40
2.0
 49
0.5
 49
-1.5
  0
LTYPE
  2
HIDDEN
 70
     0
  3
-- -- -- -- --
 72
    65
 73
     2
 40
7.0
 49
4.0
 49
-3.0
  0
LTYPE
  2
DASHDOT
 70
     0
  3
--.--.--.--.--
 72
    65
 73
     4
 40
8.5
 49
4.0
 49
-2.0
 49
0.5
 49
-2.0
  0
LTYPE
  2
STRICHPUNKT2
 70
     0
  3
--.--.--.--.--
 72
    65
 73
     4
 40
18.5
 49
10.0
 49
-4.0
 49
0.5
 49
-4.0
  0
LTYPE
  2
STRICHPUNKT3
 70
     0
  3
--.--.--.--.--
 72
    65
 73
     4
 40
35.5
 49
25.0
 49
-5.0
 49
0.5
 49
-5.0
  0
LTYPE
  2
PHANTOM
 70
     0
  3
--..--..--..--
 72
    65
 73
     6
 40
23.0
 49
10.0
 49
-4.0
 49
0.5
 49
-4.0
 49
0.5
 49
-4.0
  0
LTYPE
  2
PHANTOM2
 70
     0
  3
--..--..--..--
 72
    65
 73
     6
 40
33.0
 49
20.0
 49
-4.0
 49
0.5
 49
-4.0
 49
0.5
 49
-4.0
  0
LTYPE
  2
PHANTOM3
 70
     0
  3
--..--..--..--
 72
    65
 73
     6
 40
50.0
 49
37.0
 49
-4.0
 49
0.5
 49
-4.0
 49
0.5
 49
-4.0
  0
LTYPE
  2
STR3PKT
 70
     0
  3
--...--...--...
 72
    65
 73
     8
 40
31.5
 49
20.0
 49
-2.5
 49
0.5
 49
-2.5
 49
0.5
 49
-2.5
 49
0.5
 49
-2.5
  0
LTYPE
  2
2STRPKT
 70
     0
  3
--.--.--.--.--
 72
    65
 73
     6
 40
28.0
 49
10.0
 49
-2.5
 49
10.0
 49
-2.5
 49
0.5
 49
-2.5
  0
LTYPE
  2
GESTRICHELT2
 70
     0
  3
-- -- -- -- --
 72
    65
 73
     2
 40
25.0
 49
10.0
 49
-15.0
  0
LTYPE
  2
2STR2PKT
 70
     0
  3
--..--..--..--
 72
    65
 73
     8
 40
31.0
 49
10.0
 49
-2.5
 49
10.0
 49
-2.5
 49
0.5
 49
-2.5
 49
0.5
 49
-2.5
  0
LTYPE
  2
STR3PKT2
 70
     0
  3
--...--...--...
 72
    65
 73
     8
 40
21.0
 49
10.0
 49
-2.5
 49
0.5
 49
-2.5
 49
0.5
 49
-2.5
 49
0.5
 49
-2.0
  0
LTYPE
  2
2STR3PKT
 70
     0
  3
--...--...--...
 72
    65
 73
    10
 40
34.0
 49
10.0
 49
-2.5
 49
10.0
 49
-2.5
 49
0.5
 49
-2.5
 49
0.5
 49
-2.5
 49
0.5
 49
-2.5
  0
LTYPE
  2
STRKSTR
 70
     0
  3
-- - -- - -- -
 72
    65
 73
     4
 40
30.0
 49
20.0
 49
-2.5
 49
5.0
 49
-2.5
  0
LTYPE
  2
STRKSTR2
 70
     0
  3
-- - -- - -- -
 72
    65
 73
     6
 40
37.5
 49
20.0
 49
-2.5
 49
5.0
 49
-2.5
 49
5.0
 49
-2.5
  0
LTYPE
  2
STRKSTR3
 70
     0
  3
-- - -- - -- -
 72
    65
 73
     8
 40
45.0
 49
20.0
 49
-2.5
 49
5.0
 49
-2.5
 49
5.0
 49
-2.5
 49
5.0
 49
-2.5
  0
LTYPE
  2
PUNKT2
 70
     0
  3
..............
 72
    65
 73
     2
 40
3.5
 49
0.5
 49
-3.0
  0
ENDTAB
  0
TABLE
  2
LAYER
 70
    16
  0
LAYER
  2
0
 70
     0
 62
     7
  6
CONTINUOUS
  0
LAYER
  2
LE_GREEN
 70
     0
 62
     3
  6
CONTINUOUS
  0
LAYER
  2
LE_RED
 70
     0
 62
     1
  6
CONTINUOUS
  0
LAYER
  2
LE_ALL
 70
     0
 62
     7
  6
CONTINUOUS
  0
LAYER
  2
LE_HIDDEN1
 70
     0
 62
     3
  6
HIDDEN
  0
LAYER
  2
LE_HIDDEN
 70
     0
 62
     7
  6
CONTINUOUS
  0
LAYER
  2
LE_MIDDLE
 70
     0
 62
     7
  6
CONTINUOUS
  0
LAYER
  2
TXT_YELLOW
 70
     0
 62
     2
  6
CONTINUOUS
  0
LAYER
  2
TXT_DIM49
 70
     0
 62
     2
  6
CONTINUOUS
  0
LAYER
  2
TXT_ALL
 70
     0
 62
     7
  6
CONTINUOUS
  0
LAYER
  2
DIM49
 70
     0
 62
     4
  6
CONTINUOUS
  0
LAYER
  2
HATCH
 70
     0
 62
     3
  6
CONTINUOUS
  0
LAYER
  2
APPLE
 70
     0
 62
     7
  6
CONTINUOUS
  0
LAYER
  2
10
 70
     0
 62
     7
  6
CONTINUOUS
  0
LAYER
  2
20
 70
     0
 62
     7
  6
CONTINUOUS
  0
LAYER
  2
49
 70
     0
 62
     7
  6
CONTINUOUS
  0
ENDTAB
  0
TABLE
  2
STYLE
 70
     5
  0
STYLE
  2
MONOTXT
 70
     0
 40
0.0
 41
1.0
 50
0.0
 71
     0
 42
1.0
  3
monotxt.shx
  4

  0
STYLE
  2
STANDARD
 70
     0
 40
0.0
 41
1.0
 50
0.0
 71
     0
 42
1.0
  3
txt
  4

  0
STYLE
  2
ARIAL
 70
     0
 40
0.0
 41
1.0
 50
0.0
 71
     0
 42
1.0
  3
arial.ttf
  4

  0
STYLE
  2
ARIAL_NARROW
 70
     0
 40
0.0
 41
1.0
 50
0.0
 71
     0
 42
1.0
  3
ArialN.ttf
  4

  0
STYLE
  2
ISOCPEUR
 70
     0
 40
0.0
 41
1.0
 50
0.0
 71
     0
 42
1.0
  3
ISOCPEUR.ttf
  4

  0
ENDTAB
  0
TABLE
  2
VIEW
 70
     0
  0
ENDTAB
  0
TABLE
  2
UCS
 70
     0
  0
ENDTAB
  0
ENDSEC
  0
SECTION
  2
BLOCKS
  0
ENDSEC
  0
SECTION
  2
ENTITIES
  0
POLYLINE
  5
16D
  8
0
 66
     1
 10
0.0
 20
0.0
 30
0.0
 70
     1
  0
VERTEX
  5
16E
  8
0
 10
478.81311621
 20
-47.73065533
 30
0.0
  0
VERTEX
  5
16F
  8
0
 10
898.81311621
 20
-47.73065533
 30
0.0
  0
VERTEX
  5
170
  8
0
 10
898.81311621
 20
249.26934467
 30
0.0
  0
VERTEX
  5
171
  8
0
 10
478.81311621
 20
249.26934467
 30
0.0
  0
SEQEND
  5
172
  8
0
  0
POLYLINE
  5
173
  8
0
 66
     1
 10
0.0
 20
0.0
 30
0.0
 70
     1
  0
VERTEX
  5
174
  8
0
 10
483.81311621
 20
-42.73065533
 30
0.0
  0
VERTEX
  5
175
  8
0
 10
893.81311621
 20
-42.73065533
 30
0.0
  0
VERTEX
  5
176
  8
0
 10
893.81311621
 20
244.26934467
 30
0.0
  0
VERTEX
  5
177
  8
0
 10
483.81311621
 20
244.26934467
 30
0.0
  0
SEQEND
  5
178
  8
0
  0
LINE
  5
179
  8
0
 10
708.81311621
 20
-42.73065533
 30
0.0
 11
708.81311621
 21
-47.73065533
 31
0.0
  0
LINE
  5
17A
  8
0
 10
708.81311621
 20
244.26934467
 30
0.0
 11
708.81311621
 21
249.26934467
 31
0.0
  0
LINE
  5
17B
  8
0
 10
498.81311621
 20
-42.73065533
 30
0.0
 11
498.81311621
 21
-47.73065533
 31
0.0
  0
LINE
  5
17C
  8
0
 10
498.81311621
 20
244.26934467
 30
0.0
 11
498.81311621
 21
249.26934467
 31
0.0
  0
TEXT
  5
17D
  8
TXT_ALL
 62
     4
 10
897.81311621
 20
-46.73065533
 30
0.0
 40
2.5
  1

 50
90.00020741
  0
POLYLINE
  5
17E
  8
0
 66
     1
 10
0.0
 20
0.0
 30
0.0
  0
VERTEX
  5
17F
  8
0
 10
893.81311621
 20
234.26934467
 30
0.0
  0
VERTEX
  5
180
  8
0
 10
824.81981621
 20
234.26934467
 30
0.0
  0
VERTEX
  5
181
  8
0
 10
824.81981621
 20
244.26934467
 30
0.0
  0
SEQEND
  5
182
  8
0
  0
LINE
  5
183
  8
0
 10
826.72311621
 20
-23.23065533
 30
0.0
 11
686.83311621
 21
-23.23065533
 31
0.0
  0
LINE
  5
184
  8
0
 10
686.83311621
 20
-32.98065533
 30
0.0
 11
826.72311621
 21
-32.98065533
 31
0.0
  0
POLYLINE
  5
185
  8
0
 66
     1
 10
0.0
 20
0.0
 30
0.0
  0
VERTEX
  5
186
  8
0
 10
686.83311621
 20
-23.23065533
 30
0.0
  0
VERTEX
  5
187
  8
0
 10
686.83311621
 20
-32.98065533
 30
0.0
  0
VERTEX
  5
188
  8
0
 10
686.83311621
 20
-42.73065533
 30
0.0
  0
SEQEND
  5
189
  8
0
  0
POLYLINE
  5
18A
  8
0
 66
     1
 10
0.0
 20
0.0
 30
0.0
  0
VERTEX
  5
18B
  8
0
 10
756.77811621
 20
-23.23065533
 30
0.0
  0
VERTEX
  5
18C
  8
0
 10
756.77811621
 20
-32.98065533
 30
0.0
  0
VERTEX
  5
18D
  8
0
 10
756.77811621
 20
-42.73065533
 30
0.0
  0
SEQEND
  5
18E
  8
0
  0
TEXT
  5
18F
  8
TXT_ALL
 10
688.83311621
 20
-29.40565528
 30
0.0
 40
2.5999999
  1
E-mail: verkoop@jonkers-bouwmetaal.nl
  7
ARIAL
  0
TEXT
  5
190
  8
TXT_ALL
 10
688.83311621
 20
-39.15565528
 30
0.0
 40
2.5999999
  1
Telefoon: 0527-685156
  7
ARIAL
  0
TEXT
  5
191
  8
TXT_ALL
 10
758.77811621
 20
-39.15565528
 30
0.0
 40
2.5999999
  1
Website: www.jonkers-bouwmetaal.nl
  7
ARIAL
  0
TEXT
  5
192
  8
TXT_ALL
 10
758.77811621
 20
-29.40565528
 30
0.0
 40
2.5999999
  1
Adres: Hoornse Hop 10, 8321 WX Urk
  7
ARIAL
  0
TEXT
  5
193
  8
TXT_ALL
 10
487.25507647
 20
238.01934467
 30
0.0
 40
2.5
  1
Art. nr. 91006423
  7
ARIAL
  0
TEXT
  5
194
  8
TXT_ALL
 10
529.99311328
 20
238.01934467
 30
0.0
 40
2.5
  1
Omschrijving: L02-anker 500x80 60x10
  7
ARIAL
  0
LINE
  5
195
  8
0
 10
893.81311621
 20
234.26934467
 30
0.0
 11
483.81311621
 21
234.26934467
 31
0.0
  0
LINE
  5
196
  8
0
 10
526.83311621
 20
234.26934467
 30
0.0
 11
526.83311621
 21
244.26934467
 31
0.0
  0
LINE
  5
197
  8
0
 10
686.83311621
 20
234.26934467
 30
0.0
 11
686.83311621
 21
244.26934467
 31
0.0
  0
TEXT
  5
198
  8
TXT_ALL
 10
757.82681621
 20
238.01934467
 30
0.0
 40
2.5
  1
Behandeling: Thermisch Verzinkt
  7
ARIAL
  0
LINE
  5
199
  8
0
 10
826.72311621
 20
-23.23065533
 30
0.0
 11
893.81311621
 21
-23.23065533
 31
0.0
  0
LINE
  5
19A
  8
0
 10
826.72311621
 20
-42.73065533
 30
0.0
 11
826.72311621
 21
-23.23065533
 31
0.0
  0
LINE
  5
19B
  8
0
 10
826.72311621
 20
-42.73065533
 30
0.0
 11
826.72311621
 21
-23.23065533
 31
0.0
  0
TEXT
  5
19C
  8
TXT_ALL
 10
621.17831431
 20
-41.57612191
 30
0.0
 40
2.5
  1

  0
TEXT
  5
19D
  8
TXT_ALL
 10
742.31349727
 20
-31.48065533
 30
0.0
 40
2.5
  1

  0
POLYLINE
  5
19E
  8
0
 66
     1
 10
0.0
 20
0.0
 30
0.0
  0
VERTEX
  5
19F
  8
0
 10
824.81981621
 20
234.26934467
 30
0.0
  0
VERTEX
  5
1A0
  8
0
 10
755.82681621
 20
234.26934467
 30
0.0
  0
VERTEX
  5
1A1
  8
0
 10
755.82681621
 20
244.26934467
 30
0.0
  0
SEQEND
  5
1A2
  8
0
  0
TEXT
  5
1A3
  8
TXT_ALL
 10
826.81981621
 20
238.01934467
 30
0.0
 40
2.5
  1
Verpakkingshoeveelheid: 1 st.
  7
ARIAL
  0
TEXT
  5
1A4
  8
TXT_ALL
 10
688.83311621
 20
238.01934467
 30
0.0
 40
2.5
  1
Materiaal: S355
  7
ARIAL
  0
TEXT
  5
1A5
  8
TXT_ALL
 10
861.92960163
 20
-45.98016517
 30
0.0
 40
1.5
  1
Onderdeel van
  7
ARIAL
  0
POLYLINE
  5
1A6
  8
0
 66
     1
 10
0.0
 20
0.0
 30
0.0
  0
VERTEX
  5
2DF
  8
0
 10
512.25601657
 20
48.77275435
 30
0.0
  0
VERTEX
  5
2E0
  8
0
 10
512.4233213163129
 20
48.80009247546209
 30
0.0
  0
VERTEX
  5
2E1
  8
0
 10
512.5962058347859
 20
48.92170007965505
 30
0.0
  0
VERTEX
  5
2E2
  8
0
 10
512.7680262703439
 20
49.13290385055872
 30
0.0
  0
VERTEX
  5
2E3
  8
0
 10
512.9321796600216
 20
49.4255873457202
 30
0.0
  0
VERTEX
  5
2E4
  8
0
 10
513.082357681126
 20
49.78850290258485
 30
0.0
  0
VERTEX
  5
2E5
  8
0
 10
513.2127890765404
 20
50.20770387985952
 30
0.0
  0
VERTEX
  5
2E6
  8
0
 10
513.318461440897
 20
50.66708061911487
 30
0.0
  0
VERTEX
  5
2E7
  8
0
 10
513.3953138445045
 20
51.14897952992295
 30
0.0
  0
VERTEX
  5
2E8
  8
0
 10
513.4403928925984
 20
51.63488150743565
 30
0.0
  0
VERTEX
  5
2E9
  8
0
 10
513.4519662226453
 20
52.10611361119663
 30
0.0
  0
VERTEX
  5
2EA
  8
0
 10
513.4295890780625
 20
52.54456665576964
 30
0.0
  0
VERTEX
  5
2EB
  8
0
 10
513.3741213999652
 20
52.9333911365774
 30
0.0
  0
VERTEX
  5
2EC
  8
0
 10
513.2876947801113
 20
53.2576447469118
 30
0.0
  0
VERTEX
  5
2ED
  8
0
 10
513.1736305450256
 20
53.5048666023996
 30
0.0
  0
VERTEX
  5
2EE
  8
0
 10
513.0363121192844
 20
53.66555610579965
 30
0.0
  0
VERTEX
  5
2EF
  8
0
 10
512.8810165729681
 20
53.73353804962607
 30
0.0
  0
SEQEND
  5
360
  8
0
  0
POLYLINE
  5
1A7
  8
0
 66
     1
 10
0.0
 20
0.0
 30
0.0
  0
VERTEX
  5
2F0
  8
0
 10
512.8810165729681
 20
53.73353804962607
 30
0.0
  0
VERTEX
  5
2F1
  8
0
 10
512.713711826272
 20
53.70619992566969
 30
0.0
  0
VERTEX
  5
2F2
  8
0
 10
512.5408273072812
 20
53.58459232234073
 30
0.0
  0
VERTEX
  5
2F3
  8
0
 10
512.3690068711327
 20
53.37338855165581
 30
0.0
  0
VERTEX
  5
2F4
  8
0
 10
512.2048534808565
 20
53.08070505611093
 30
0.0
  0
VERTEX
  5
2F5
  8
0
 10
512.0546754592083
 20
52.71778949834683
 30
0.0
  0
VERTEX
  5
2F6
  8
0
 10
511.9242440633627
 20
52.29858851977974
 30
0.0
  0
VERTEX
  5
2F7
  8
0
 10
511.8185716987358
 20
51.8392117789909
 30
0.0
  0
VERTEX
  5
2F8
  8
0
 10
511.7417192950548
 20
51.35731286657919
 30
0.0
  0
VERTEX
  5
2F9
  8
0
 10
511.6966402471061
 20
50.87141088757189
 30
0.0
  0
VERTEX
  5
2FA
  8
0
 10
511.6850669174285
 20
50.40017878260124
 30
0.0
  0
VERTEX
  5
2FB
  8
0
 10
511.7074440625931
 20
49.96172573726493
 30
0.0
  0
VERTEX
  5
2FC
  8
0
 10
511.7629117414568
 20
49.57290125627647
 30
0.0
  0
VERTEX
  5
2FD
  8
0
 10
511.8493383622192
 20
49.24864764644574
 30
0.0
  0
VERTEX
  5
2FE
  8
0
 10
511.963402598299
 20
49.00142579220571
 30
0.0
  0
VERTEX
  5
2FF
  8
0
 10
512.1007210250542
 20
48.84073629080984
 30
0.0
  0
VERTEX
  5
300
  8
0
 10
512.256016572332
 20
48.7727543497062
 30
0.0
  0
SEQEND
  5
361
  8
0
  0
POLYLINE
  5
1A8
  8
0
 66
     1
 10
0.0
 20
0.0
 30
0.0
  0
VERTEX
  5
1A9
  8
0
 10
517.87181743
 20
70.07235356
 30
0.0
  0
VERTEX
  5
1AA
  8
0
 10
507.26521571
 20
60.71821009
 30
0.0
  0
VERTEX
  5
1AB
  8
0
 10
502.58814398
 20
61.30746574
 30
0.0
  0
SEQEND
  5
1AC
  8
0
  0
LINE
  5
1AD
  8
0
 10
513.19474569
 20
70.66160921
 30
0.0
 11
502.58814398
 21
61.30746574
 31
0.0
  0
LINE
  5
1AE
  8
0
 10
517.87181743
 20
70.07235356
 30
0.0
 11
513.19474569
 21
70.66160921
 31
0.0
  0
POLYLINE
  5
1AF
  8
0
 66
     1
 10
0.0
 20
0.0
 30
0.0
  0
VERTEX
  5
1B0
  8
0
 10
517.87181743
 20
70.07235356
 30
0.0
  0
VERTEX
  5
1B1
  8
0
 10
517.87181743
 20
41.78808231
 30
0.0
  0
VERTEX
  5
1B2
  8
0
 10
507.26521571
 20
32.43393884
 30
0.0
  0
VERTEX
  5
1B3
  8
0
 10
507.26521571
 20
60.71821009
 30
0.0
  0
SEQEND
  5
1B4
  8
0
  0
POLYLINE
  5
1B5
  8
0
 66
     1
 10
0.0
 20
0.0
 30
0.0
  0
VERTEX
  5
1B6
  8
0
 10
507.26521571
 20
32.43393884
 30
0.0
  0
VERTEX
  5
1B7
  8
0
 10
502.58814398
 20
33.02319449
 30
0.0
  0
VERTEX
  5
1B8
  8
0
 10
502.58814398
 20
61.30746574
 30
0.0
  0
SEQEND
  5
1B9
  8
0
  0
LINE
  5
1BA
  8
0
  6
STRICHPUNKT2
 62
     1
 10
513.7377845
 20
51.10583229
 30
0.0
 11
511.74171928
 21
51.35731287
 31
0.0
  0
LINE
  5
1BB
  8
0
  6
STRICHPUNKT2
 62
     1
 10
512.56851657
 20
51.2531462
 30
0.0
 11
512.56851657
 21
47.71761229
 31
0.0
  0
LINE
  5
1BC
  8
0
  6
STRICHPUNKT2
 62
     1
 10
512.56851657
 20
51.2531462
 30
0.0
 11
512.56851657
 21
54.78868011
 31
0.0
  0
LINE
  5
1BD
  8
0
  6
STRICHPUNKT2
 62
     1
 10
512.56851657
 20
51.2531462
 30
0.0
 11
513.89434178
 21
52.42241413
 31
0.0
  0
LINE
  5
1BE
  8
0
  6
STRICHPUNKT2
 62
     1
 10
512.56851657
 20
51.2531462
 30
0.0
 11
511.24269135
 21
50.08387827
 31
0.0
  0
POLYLINE
  5
1BF
  8
0
 66
     1
 10
0.0
 20
0.0
 30
0.0
  0
VERTEX
  5
301
  8
0
 10
721.85967284
 20
6.46971673
 30
0.0
  0
VERTEX
  5
302
  8
0
 10
721.7924213215646
 20
6.697322103152703
 30
0.0
  0
VERTEX
  5
303
  8
0
 10
721.5932512043905
 20
6.916180729477636
 30
0.0
  0
VERTEX
  5
304
  8
0
 10
721.2698164843678
 20
7.117881994721624
 30
0.0
  0
VERTEX
  5
305
  8
0
 10
720.834546576374
 20
7.294674632394369
 30
0.0
  0
VERTEX
  5
306
  8
0
 10
720.3041686588333
 20
7.439764600592039
 30
0.0
  0
VERTEX
  5
307
  8
0
 10
719.6990648576308
 20
7.547576173216889
 30
0.0
  0
VERTEX
  5
308
  8
0
 10
719.0424889724477
 20
7.613966212003811
 30
0.0
  0
VERTEX
  5
309
  8
0
 10
718.3596728462821
 20
7.636383385
 30
0.0
  0
VERTEX
  5
30A
  8
0
 10
717.6768567198752
 20
7.613966212820868
 30
0.0
  0
VERTEX
  5
30B
  8
0
 10
717.0202808339772
 20
7.547576174819603
 30
0.0
  0
VERTEX
  5
30C
  8
0
 10
716.4151770316136
 20
7.439764602918818
 30
0.0
  0
VERTEX
  5
30D
  8
0
 10
715.8847991125103
 20
7.294674635355797
 30
0.0
  0
VERTEX
  5
30E
  8
0
 10
715.4495292026127
 20
7.117881998203895
 30
0.0
  0
VERTEX
  5
30F
  8
0
 10
715.1260944804177
 20
6.916180733346929
 30
0.0
  0
VERTEX
  5
310
  8
0
 10
714.9269243608867
 20
6.697322107260322
 30
0.0
  0
VERTEX
  5
311
  8
0
 10
714.85967284
 20
6.469716734188092
 30
0.0
  0
SEQEND
  5
362
  8
0
  0
POLYLINE
  5
1C0
  8
0
 66
     1
 10
0.0
 20
0.0
 30
0.0
  0
VERTEX
  5
312
  8
0
 10
714.85967284
 20
6.469716734188092
 30
0.0
  0
VERTEX
  5
313
  8
0
 10
714.9269243562908
 20
6.242111360441464
 30
0.0
  0
VERTEX
  5
314
  8
0
 10
715.1260944720034
 20
6.023252733424333
 30
0.0
  0
VERTEX
  5
315
  8
0
 10
715.4495291912696
 20
5.821551467454795
 30
0.0
  0
VERTEX
  5
316
  8
0
 10
715.8847990991839
 20
5.644758829086345
 30
0.0
  0
VERTEX
  5
317
  8
0
 10
716.4151770172492
 20
5.499668860280504
 30
0.0
  0
VERTEX
  5
318
  8
0
 10
717.0202808194673
 20
5.39185728718379
 30
0.0
  0
VERTEX
  5
319
  8
0
 10
717.676856706012
 20
5.32546724809832
 30
0.0
  0
VERTEX
  5
31A
  8
0
 10
718.3596728337179
 20
5.303050075
 30
0.0
  0
VERTEX
  5
31B
  8
0
 10
719.0424889616652
 20
5.325467247281264
 30
0.0
  0
VERTEX
  5
31C
  8
0
 10
719.6990648489249
 20
5.391857285581076
 30
0.0
  0
VERTEX
  5
31D
  8
0
 10
720.304168652304
 20
5.499668857953724
 30
0.0
  0
VERTEX
  5
31E
  8
0
 10
720.8345465719319
 20
5.644758826124916
 30
0.0
  0
VERTEX
  5
31F
  8
0
 10
721.2698164817501
 20
5.821551463972524
 30
0.0
  0
VERTEX
  5
320
  8
0
 10
721.5932512031885
 20
6.02325272955504
 30
0.0
  0
VERTEX
  5
321
  8
0
 10
721.7924213212582
 20
6.242111356333845
 30
0.0
  0
VERTEX
  5
322
  8
0
 10
721.85967284
 20
6.46971673
 30
0.0
  0
SEQEND
  5
363
  8
0
  0
POLYLINE
  5
1C1
  8
0
 66
     1
 10
0.0
 20
0.0
 30
0.0
  0
VERTEX
  5
323
  8
0
 10
614.28702297
 20
20.0225967
 30
0.0
  0
VERTEX
  5
324
  8
0
 10
614.2197714515645
 20
20.2502020731527
 30
0.0
  0
VERTEX
  5
325
  8
0
 10
614.0206013343904
 20
20.46906069947764
 30
0.0
  0
VERTEX
  5
326
  8
0
 10
613.6971666143677
 20
20.67076196472162
 30
0.0
  0
VERTEX
  5
327
  8
0
 10
613.2618967063739
 20
20.84755460239437
 30
0.0
  0
VERTEX
  5
328
  8
0
 10
612.7315187888332
 20
20.99264457059204
 30
0.0
  0
VERTEX
  5
329
  8
0
 10
612.1264149876307
 20
21.10045614321689
 30
0.0
  0
VERTEX
  5
32A
  8
0
 10
611.4698391024476
 20
21.16684618200381
 30
0.0
  0
VERTEX
  5
32B
  8
0
 10
610.7870229762821
 20
21.189263355
 30
0.0
  0
VERTEX
  5
32C
  8
0
 10
610.1042068498751
 20
21.16684618282087
 30
0.0
  0
VERTEX
  5
32D
  8
0
 10
609.4476309639771
 20
21.1004561448196
 30
0.0
  0
VERTEX
  5
32E
  8
0
 10
608.8425271616135
 20
20.99264457291882
 30
0.0
  0
VERTEX
  5
32F
  8
0
 10
608.3121492425103
 20
20.8475546053558
 30
0.0
  0
VERTEX
  5
330
  8
0
 10
607.8768793326126
 20
20.67076196820389
 30
0.0
  0
VERTEX
  5
331
  8
0
 10
607.5534446104176
 20
20.46906070334693
 30
0.0
  0
VERTEX
  5
332
  8
0
 10
607.3542744908866
 20
20.25020207726032
 30
0.0
  0
VERTEX
  5
333
  8
0
 10
607.28702297
 20
20.02259670418809
 30
0.0
  0
SEQEND
  5
364
  8
0
  0
POLYLINE
  5
1C2
  8
0
 66
     1
 10
0.0
 20
0.0
 30
0.0
  0
VERTEX
  5
334
  8
0
 10
607.28702297
 20
20.02259670418809
 30
0.0
  0
VERTEX
  5
335
  8
0
 10
607.3542744862907
 20
19.79499133044147
 30
0.0
  0
VERTEX
  5
336
  8
0
 10
607.5534446020033
 20
19.57613270342434
 30
0.0
  0
VERTEX
  5
337
  8
0
 10
607.8768793212695
 20
19.3744314374548
 30
0.0
  0
VERTEX
  5
338
  8
0
 10
608.3121492291838
 20
19.19763879908635
 30
0.0
  0
VERTEX
  5
339
  8
0
 10
608.8425271472491
 20
19.0525488302805
 30
0.0
  0
VERTEX
  5
33A
  8
0
 10
609.4476309494672
 20
18.94473725718379
 30
0.0
  0
VERTEX
  5
33B
  8
0
 10
610.1042068360119
 20
18.87834721809832
 30
0.0
  0
VERTEX
  5
33C
  8
0
 10
610.7870229637178
 20
18.855930045
 30
0.0
  0
VERTEX
  5
33D
  8
0
 10
611.4698390916651
 20
18.87834721728127
 30
0.0
  0
VERTEX
  5
33E
  8
0
 10
612.1264149789248
 20
18.94473725558108
 30
0.0
  0
VERTEX
  5
33F
  8
0
 10
612.731518782304
 20
19.05254882795372
 30
0.0
  0
VERTEX
  5
340
  8
0
 10
613.2618967019318
 20
19.19763879612492
 30
0.0
  0
VERTEX
  5
341
  8
0
 10
613.69716661175
 20
19.37443143397252
 30
0.0
  0
VERTEX
  5
342
  8
0
 10
614.0206013331884
 20
19.57613269955504
 30
0.0
  0
VERTEX
  5
343
  8
0
 10
614.2197714512581
 20
19.79499132633385
 30
0.0
  0
VERTEX
  5
344
  8
0
 10
614.28702297
 20
20.0225967
 30
0.0
  0
SEQEND
  5
365
  8
0
  0
LINE
  5
1C3
  8
0
 10
736.44173065
 20
-1.15363326
 30
0.0
 11
511.94228744
 21
27.13063798
 31
0.0
  0
LINE
  5
1C4
  8
0
 10
522.54888916
 20
36.48478145
 30
0.0
 11
511.94228744
 21
27.13063798
 31
0.0
  0
POLYLINE
  5
1C5
  8
0
 66
     1
 10
0.0
 20
0.0
 30
0.0
  0
VERTEX
  5
1C6
  8
0
 10
522.54888916
 20
36.48478145
 30
0.0
  0
VERTEX
  5
1C7
  8
0
 10
747.04833237
 20
8.2005102
 30
0.0
  0
VERTEX
  5
1C8
  8
0
 10
736.44173065
 20
-1.15363326
 30
0.0
  0
VERTEX
  5
1C9
  8
0
 10
736.44173065
 20
-5.86767847
 30
0.0
  0
VERTEX
  5
1CA
  8
0
 10
511.94228744
 20
22.41659278
 30
0.0
  0
SEQEND
  5
1CB
  8
0
  0
LINE
  5
1CC
  8
0
 10
511.94228744
 20
27.13063798
 30
0.0
 11
511.94228744
 21
22.41659278
 31
0.0
  0
LINE
  5
1CD
  8
0
 10
747.04833237
 20
3.486465
 30
0.0
 11
736.44173065
 21
-5.86767847
 31
0.0
  0
LINE
  5
1CE
  8
0
 10
747.04833237
 20
8.2005102
 30
0.0
 11
747.04833237
 21
3.486465
 31
0.0
  0
LINE
  5
1CF
  8
0
  6
STRICHPUNKT2
 62
     1
 10
610.78702297
 20
21.43681026
 30
0.0
 11
610.78702297
 21
18.85593003
 31
0.0
  0
LINE
  5
1D0
  8
0
  6
STRICHPUNKT2
 62
     1
 10
610.78702297
 20
20.0225967
 30
0.0
 11
615.4640947
 21
19.43334105
 31
0.0
  0
LINE
  5
1D1
  8
0
  6
STRICHPUNKT2
 62
     1
 10
610.78702297
 20
20.0225967
 30
0.0
 11
606.10995124
 21
20.61185235
 31
0.0
  0
LINE
  5
1D2
  8
0
  6
STRICHPUNKT2
 62
     1
 10
610.78702297
 20
20.0225967
 30
0.0
 11
612.55478992
 21
21.58162061
 31
0.0
  0
LINE
  5
1D3
  8
0
  6
STRICHPUNKT2
 62
     1
 10
610.78702297
 20
20.0225967
 30
0.0
 11
609.01925602
 21
18.46357279
 31
0.0
  0
LINE
  5
1D4
  8
0
  6
STRICHPUNKT2
 62
     1
 10
718.35967284
 20
7.88393029
 30
0.0
 11
718.35967284
 21
5.30305006
 31
0.0
  0
LINE
  5
1D5
  8
0
  6
STRICHPUNKT2
 62
     1
 10
718.35967284
 20
6.46971673
 30
0.0
 11
723.03674457
 21
5.88046107
 31
0.0
  0
LINE
  5
1D6
  8
0
  6
STRICHPUNKT2
 62
     1
 10
718.35967284
 20
6.46971673
 30
0.0
 11
713.68260111
 21
7.05897238
 31
0.0
  0
LINE
  5
1D7
  8
0
  6
STRICHPUNKT2
 62
     1
 10
718.35967284
 20
6.46971673
 30
0.0
 11
720.12743979
 21
8.02874064
 31
0.0
  0
LINE
  5
1D8
  8
0
  6
STRICHPUNKT2
 62
     1
 10
718.35967284
 20
6.46971673
 30
0.0
 11
716.59190589
 21
4.91069281
 31
0.0
  0
POLYLINE
  5
1D9
  8
0
 66
     1
 10
0.0
 20
0.0
 30
0.0
  0
VERTEX
  5
1DA
  8
0
 10
517.87181743
 20
41.78808231
 30
0.0
  0
VERTEX
  5
1DB
  8
0
 10
507.26521571
 20
32.43393884
 30
0.0
  0
VERTEX
  5
1DC
  8
0
 10
502.58814398
 20
33.02319449
 30
0.0
  0
SEQEND
  5
1DD
  8
0
  0
POLYLINE
  5
1DE
  8
0
 66
     1
 10
0.0
 20
0.0
 30
0.0
  0
VERTEX
  5
345
  8
0
 10
517.8718174354856
 20
41.78808230468233
 30
0.0
  0
VERTEX
  5
346
  8
0
 10
517.9616860612493
 20
40.85709533030783
 30
0.0
  0
VERTEX
  5
347
  8
0
 10
518.2278383280448
 20
39.93924089917501
 30
0.0
  0
VERTEX
  5
348
  8
0
 10
518.660046153607
 20
39.06979164202943
 30
0.0
  0
VERTEX
  5
349
  8
0
 10
519.2417000337277
 20
38.28216000594229
 30
0.0
  0
VERTEX
  5
34A
  8
0
 10
519.9504473361823
 20
37.60661423271849
 30
0.0
  0
VERTEX
  5
34B
  8
0
 10
520.7590512998419
 20
37.06911516734871
 30
0.0
  0
VERTEX
  5
34C
  8
0
 10
521.6364377281216
 20
36.69031859730402
 30
0.0
  0
VERTEX
  5
34D
  8
0
 10
522.5488891529174
 20
36.48478146221414
 30
0.0
  0
SEQEND
  5
366
  8
0
  0
POLYLINE
  5
1DF
  8
0
 66
     1
 10
0.0
 20
0.0
 30
0.0
  0
VERTEX
  5
1E0
  8
0
 10
522.54888916
 20
36.48478145
 30
0.0
  0
VERTEX
  5
1E1
  8
0
 10
511.94228744
 20
27.13063798
 30
0.0
  0
SEQEND
  5
1E2
  8
0
  0
POLYLINE
  5
1E3
  8
0
 66
     1
 10
0.0
 20
0.0
 30
0.0
  0
VERTEX
  5
34E
  8
0
 10
507.2652157154856
 20
32.43393883468233
 30
0.0
  0
VERTEX
  5
34F
  8
0
 10
507.3550843412494
 20
31.50295186030782
 30
0.0
  0
VERTEX
  5
350
  8
0
 10
507.6212366080447
 20
30.585097429175
 30
0.0
  0
VERTEX
  5
351
  8
0
 10
508.0534444336069
 20
29.71564817202943
 30
0.0
  0
VERTEX
  5
352
  8
0
 10
508.6350983137277
 20
28.92801653594229
 30
0.0
  0
VERTEX
  5
353
  8
0
 10
509.3438456161821
 20
28.2524707627185
 30
0.0
  0
VERTEX
  5
354
  8
0
 10
510.1524495798418
 20
27.71497169734871
 30
0.0
  0
VERTEX
  5
355
  8
0
 10
511.0298360081215
 20
27.33617512730402
 30
0.0
  0
VERTEX
  5
356
  8
0
 10
511.9422874329173
 20
27.13063799221415
 30
0.0
  0
SEQEND
  5
367
  8
0
  0
POLYLINE
  5
1E4
  8
0
 66
     1
 10
0.0
 20
0.0
 30
0.0
  0
VERTEX
  5
1E5
  8
0
 10
511.94228744
 20
27.13063798
 30
0.0
  0
VERTEX
  5
1E6
  8
0
 10
511.94228744
 20
22.41659278
 30
0.0
  0
SEQEND
  5
1E7
  8
0
  0
POLYLINE
  5
1E8
  8
0
 66
     1
 10
0.0
 20
0.0
 30
0.0
  0
VERTEX
  5
357
  8
0
 10
502.5881439909712
 20
33.02319447936465
 30
0.0
  0
VERTEX
  5
358
  8
0
 10
502.7678812424987
 20
31.16122053061565
 30
0.0
  0
VERTEX
  5
359
  8
0
 10
503.3001857760894
 20
29.32551166835001
 30
0.0
  0
VERTEX
  5
35A
  8
0
 10
504.1646014272138
 20
27.58661315405886
 30
0.0
  0
VERTEX
  5
35B
  8
0
 10
505.3279091874555
 20
26.01134988188458
 30
0.0
  0
VERTEX
  5
35C
  8
0
 10
506.7454037923643
 20
24.66025833543699
 30
0.0
  0
VERTEX
  5
35D
  8
0
 10
508.3626117196836
 20
23.58526020469742
 30
0.0
  0
VERTEX
  5
35E
  8
0
 10
510.117384576243
 20
22.82766706460804
 30
0.0
  0
VERTEX
  5
35F
  8
0
 10
511.9422874258345
 20
22.41659279442829
 30
0.0
  0
SEQEND
  5
368
  8
0
  0
POLYLINE
  5
1E9
  8
0
 66
     1
 10
0.0
 20
0.0
 30
0.0
  0
VERTEX
  5
1EA
  8
0
 10
630.79604826
 20
179.76265214
 30
0.0
  0
VERTEX
  5
1EB
  8
0
 10
630.79604826
 20
209.76265214
 30
0.0
  0
VERTEX
  5
1EC
  8
0
 10
625.79604826
 20
209.76265214
 30
0.0
  0
SEQEND
  5
1ED
  8
0
  0
LINE
  5
1EE
  8
0
 10
625.79604826
 20
179.76265214
 30
0.0
 11
625.79604826
 21
209.76265214
 31
0.0
  0
LINE
  5
1EF
  8
0
 10
630.79604826
 20
179.76265214
 30
0.0
 11
625.79604826
 21
179.76265214
 31
0.0
  0
LINE
  5
1F0
  8
0
  6
STRICHPUNKT2
 62
     1
 10
625.79604826
 20
194.76265214
 30
0.0
 11
624.54604826
 21
194.76265214
 31
0.0
  0
LINE
  5
1F1
  8
0
  6
STRICHPUNKT2
 62
     1
 10
632.04604826
 20
194.76265214
 30
0.0
 11
630.79604826
 21
194.76265214
 31
0.0
  0
POLYLINE
  5
1F2
  8
0
 66
     1
 10
0.0
 20
0.0
 30
0.0
  0
VERTEX
  5
1F3
  8
0
 10
875.79604826
 20
174.76265214
 30
0.0
  0
VERTEX
  5
1F4
  8
0
 10
635.79604826
 20
174.76265214
 30
0.0
  0
VERTEX
  5
1F5
  8
0
 10
635.79604826
 20
169.76265214
 30
0.0
  0
SEQEND
  5
1F6
  8
0
  0
LINE
  5
1F7
  8
0
 10
875.79604826
 20
169.76265214
 30
0.0
 11
635.79604826
 21
169.76265214
 31
0.0
  0
LINE
  5
1F8
  8
0
 10
875.79604826
 20
174.76265214
 30
0.0
 11
875.79604826
 21
169.76265214
 31
0.0
  0
LINE
  5
1F9
  8
0
  6
STRICHPUNKT2
 62
     1
 10
735.79604826
 20
169.76265214
 30
0.0
 11
735.79604826
 21
168.26265214
 31
0.0
  0
LINE
  5
1FA
  8
0
  6
STRICHPUNKT2
 62
     1
 10
735.79604826
 20
176.26265214
 30
0.0
 11
735.79604826
 21
174.76265214
 31
0.0
  0
LINE
  5
1FB
  8
0
  6
STRICHPUNKT2
 62
     1
 10
850.79604826
 20
169.76265214
 30
0.0
 11
850.79604826
 21
168.26265214
 31
0.0
  0
LINE
  5
1FC
  8
0
  6
STRICHPUNKT2
 62
     1
 10
850.79604826
 20
176.26265214
 30
0.0
 11
850.79604826
 21
174.76265214
 31
0.0
  0
POLYLINE
  5
1FD
  8
0
 66
     1
 10
0.0
 20
0.0
 30
0.0
  0
VERTEX
  5
1FE
  8
0
 10
635.79604826
 20
174.76265214
 30
0.0
 42
-0.414213562
  0
VERTEX
  5
1FF
  8
0
 10
630.79604826
 20
179.76265214
 30
0.0
  0
VERTEX
  5
200
  8
0
 10
625.79604826
 20
179.76265214
 30
0.0
  0
SEQEND
  5
201
  8
0
  0
ARC
  5
202
  8
0
 10
635.79604826
 20
179.76265214
 30
0.0
 40
10.0
 50
180.0
 51
-90.0
  0
LINE
  5
203
  8
0
 10
635.79604826
 20
174.76265214
 30
0.0
 11
635.79604826
 21
169.76265214
 31
0.0
  0
POLYLINE
  5
204
  8
0
 66
     1
 10
0.0
 20
0.0
 30
0.0
  0
VERTEX
  5
205
  8
0
 10
630.79604826
 20
131.39967528
 30
0.0
  0
VERTEX
  5
206
  8
0
 10
630.79604826
 20
101.39967528
 30
0.0
  0
VERTEX
  5
207
  8
0
 10
625.79604826
 20
101.39967528
 30
0.0
  0
SEQEND
  5
208
  8
0
  0
LINE
  5
209
  8
0
 10
625.79604826
 20
131.39967528
 30
0.0
 11
625.79604826
 21
101.39967528
 31
0.0
  0
LINE
  5
20A
  8
0
 10
630.79604826
 20
131.39967528
 30
0.0
 11
625.79604826
 21
131.39967528
 31
0.0
  0
LINE
  5
20B
  8
0
  6
STRICHPUNKT2
 62
     1
 10
625.79604826
 20
116.39967528
 30
0.0
 11
624.54604826
 21
116.39967528
 31
0.0
  0
LINE
  5
20C
  8
0
  6
STRICHPUNKT2
 62
     1
 10
632.04604826
 20
116.39967528
 30
0.0
 11
630.79604826
 21
116.39967528
 31
0.0
  0
CIRCLE
  5
20D
  8
0
 10
850.79604826
 20
116.39967528
 30
0.0
 40
3.5
  0
CIRCLE
  5
20E
  8
0
 10
735.79604826
 20
116.39967528
 30
0.0
 40
3.5
  0
LINE
  5
20F
  8
0
 10
875.79604826
 20
101.39967528
 30
0.0
 11
635.79604826
 21
101.39967528
 31
0.0
  0
LINE
  5
210
  8
0
 10
635.79604826
 20
131.39967528
 30
0.0
 11
635.79604826
 21
101.39967528
 31
0.0
  0
POLYLINE
  5
211
  8
0
 66
     1
 10
0.0
 20
0.0
 30
0.0
  0
VERTEX
  5
212
  8
0
 10
635.79604826
 20
131.39967528
 30
0.0
  0
VERTEX
  5
213
  8
0
 10
875.79604826
 20
131.39967528
 30
0.0
  0
VERTEX
  5
214
  8
0
 10
875.79604826
 20
101.39967528
 30
0.0
  0
SEQEND
  5
215
  8
0
  0
LINE
  5
216
  8
0
  6
STRICHPUNKT2
 62
     1
 10
735.79604826
 20
116.39967528
 30
0.0
 11
740.79604826
 21
116.39967528
 31
0.0
  0
LINE
  5
217
  8
0
  6
STRICHPUNKT2
 62
     1
 10
735.79604826
 20
116.39967528
 30
0.0
 11
730.79604826
 21
116.39967528
 31
0.0
  0
LINE
  5
218
  8
0
  6
STRICHPUNKT2
 62
     1
 10
735.79604826
 20
116.39967528
 30
0.0
 11
735.79604826
 21
121.39967528
 31
0.0
  0
LINE
  5
219
  8
0
  6
STRICHPUNKT2
 62
     1
 10
735.79604826
 20
116.39967528
 30
0.0
 11
735.79604826
 21
111.39967528
 31
0.0
  0
LINE
  5
21A
  8
0
  6
STRICHPUNKT2
 62
     1
 10
850.79604826
 20
116.39967528
 30
0.0
 11
855.79604826
 21
116.39967528
 31
0.0
  0
LINE
  5
21B
  8
0
  6
STRICHPUNKT2
 62
     1
 10
850.79604826
 20
116.39967528
 30
0.0
 11
845.79604826
 21
116.39967528
 31
0.0
  0
LINE
  5
21C
  8
0
  6
STRICHPUNKT2
 62
     1
 10
850.79604826
 20
116.39967528
 30
0.0
 11
850.79604826
 21
121.39967528
 31
0.0
  0
LINE
  5
21D
  8
0
  6
STRICHPUNKT2
 62
     1
 10
850.79604826
 20
116.39967528
 30
0.0
 11
850.79604826
 21
111.39967528
 31
0.0
  0
POLYLINE
  5
21E
  8
0
 66
     1
 10
0.0
 20
0.0
 30
0.0
  0
VERTEX
  5
21F
  8
0
 10
630.79604826
 20
131.39967528
 30
0.0
  0
VERTEX
  5
220
  8
0
 10
635.79604826
 20
131.39967528
 30
0.0
  0
VERTEX
  5
221
  8
0
 10
635.79604826
 20
101.39967528
 30
0.0
  0
VERTEX
  5
222
  8
0
 10
630.79604826
 20
101.39967528
 30
0.0
  0
SEQEND
  5
223
  8
0
  0
CIRCLE
  5
224
  8
0
 10
569.39909674
 20
194.76265214
 30
0.0
 40
2.5
  0
LINE
  5
225
  8
0
 10
554.39909674
 20
209.76265214
 30
0.0
 11
584.39909674
 21
209.76265214
 31
0.0
  0
LINE
  5
226
  8
0
 10
584.39909674
 20
179.76265214
 30
0.0
 11
584.39909674
 21
209.76265214
 31
0.0
  0
LINE
  5
227
  8
0
 10
554.39909674
 20
179.76265214
 30
0.0
 11
584.39909674
 21
179.76265214
 31
0.0
  0
LINE
  5
228
  8
0
 10
554.39909674
 20
209.76265214
 30
0.0
 11
554.39909674
 21
179.76265214
 31
0.0
  0
LINE
  5
229
  8
0
  6
STRICHPUNKT2
 62
     1
 10
569.39909674
 20
194.76265214
 30
0.0
 11
569.39909674
 21
191.01265214
 31
0.0
  0
LINE
  5
22A
  8
0
  6
STRICHPUNKT2
 62
     1
 10
569.39909674
 20
194.76265214
 30
0.0
 11
569.39909674
 21
198.51265214
 31
0.0
  0
LINE
  5
22B
  8
0
  6
STRICHPUNKT2
 62
     1
 10
569.39909674
 20
194.76265214
 30
0.0
 11
565.64909674
 21
194.76265214
 31
0.0
  0
LINE
  5
22C
  8
0
  6
STRICHPUNKT2
 62
     1
 10
569.39909674
 20
194.76265214
 30
0.0
 11
573.14909674
 21
194.76265214
 31
0.0
  0
LINE
  5
22D
  8
0
 10
554.39909674
 20
169.76265214
 30
0.0
 11
584.39909674
 21
169.76265214
 31
0.0
  0
LINE
  5
22E
  8
0
  6
STRICHPUNKT2
 62
     1
 10
569.39909674
 20
169.76265214
 30
0.0
 11
569.39909674
 21
168.26265214
 31
0.0
  0
LINE
  5
22F
  8
0
 10
554.39909674
 20
179.76265214
 30
0.0
 11
584.39909674
 21
179.76265214
 31
0.0
  0
LINE
  5
230
  8
0
 10
584.39909674
 20
169.76265214
 30
0.0
 11
584.39909674
 21
179.76265214
 31
0.0
  0
LINE
  5
231
  8
0
 10
554.39909674
 20
169.76265214
 30
0.0
 11
584.39909674
 21
169.76265214
 31
0.0
  0
LINE
  5
232
  8
0
 10
554.39909674
 20
179.76265214
 30
0.0
 11
554.39909674
 21
169.76265214
 31
0.0
  0
TEXT
  5
233
  8
TXT_DIM49
 10
626.44114396
 20
217.3527958
 30
0.0
 40
2.5
  1
10
  7
ARIAL
  0
LINE
  5
234
  8
0
 62
     4
 10
626.79604826
 20
216.8527958
 30
0.0
 11
624.79604826
 21
214.8527958
 31
0.0
  0
LINE
  5
235
  8
0
 62
     4
 10
630.04604826
 20
215.1027958
 30
0.0
 11
631.54604826
 21
216.6027958
 31
0.0
  0
LINE
  5
236
  8
0
 62
     4
 10
625.79604826
 20
215.8527958
 30
0.0
 11
630.79604826
 21
215.8527958
 31
0.0
  0
LINE
  5
237
  8
0
 62
     4
 10
625.79604826
 20
213.8527958
 30
0.0
 11
625.79604826
 21
217.8527958
 31
0.0
  0
LINE
  5
238
  8
0
 62
     4
 10
630.79604826
 20
213.8527958
 30
0.0
 11
630.79604826
 21
217.8527958
 31
0.0
  0
TEXT
  5
239
  8
TXT_DIM49
 10
750.51375971
 20
217.3527958
 30
0.0
 40
2.5
  1
490
  7
ARIAL
  0
LINE
  5
23A
  8
0
 62
     4
 10
631.79604826
 20
216.8527958
 30
0.0
 11
629.79604826
 21
214.8527958
 31
0.0
  0
LINE
  5
23B
  8
0
 62
     4
 10
875.04604826
 20
215.1027958
 30
0.0
 11
876.54604826
 21
216.6027958
 31
0.0
  0
LINE
  5
23C
  8
0
 62
     4
 10
630.79604826
 20
215.8527958
 30
0.0
 11
875.79604826
 21
215.8527958
 31
0.0
  0
LINE
  5
23D
  8
0
 62
     4
 10
630.79604826
 20
213.8527958
 30
0.0
 11
630.79604826
 21
217.8527958
 31
0.0
  0
LINE
  5
23E
  8
0
 62
     4
 10
875.79604826
 20
213.8527958
 30
0.0
 11
875.79604826
 21
217.8527958
 31
0.0
  0
TEXT
  5
23F
  8
TXT_DIM49
 10
678.01369176
 20
140.90417715
 30
0.0
 40
2.5
  1
220
  7
ARIAL
  0
LINE
  5
240
  8
0
 62
     4
 10
626.79604826
 20
140.40417715
 30
0.0
 11
624.79604826
 21
138.40417715
 31
0.0
  0
LINE
  5
241
  8
0
 62
     4
 10
735.04604826
 20
138.65417715
 30
0.0
 11
736.54604826
 21
140.15417715
 31
0.0
  0
LINE
  5
242
  8
0
 62
     4
 10
625.79604826
 20
139.40417715
 30
0.0
 11
735.79604826
 21
139.40417715
 31
0.0
  0
LINE
  5
243
  8
0
 62
     4
 10
625.79604826
 20
137.40417715
 30
0.0
 11
625.79604826
 21
141.40417715
 31
0.0
  0
LINE
  5
244
  8
0
 62
     4
 10
735.79604826
 20
137.40417715
 30
0.0
 11
735.79604826
 21
141.40417715
 31
0.0
  0
TEXT
  5
245
  8
TXT_DIM49
 10
790.51369176
 20
140.90417715
 30
0.0
 40
2.5
  1
230
  7
ARIAL
  0
LINE
  5
246
  8
0
 62
     4
 10
736.79604826
 20
140.40417715
 30
0.0
 11
734.79604826
 21
138.40417715
 31
0.0
  0
LINE
  5
247
  8
0
 62
     4
 10
850.04604826
 20
138.65417715
 30
0.0
 11
851.54604826
 21
140.15417715
 31
0.0
  0
LINE
  5
248
  8
0
 62
     4
 10
735.79604826
 20
139.40417715
 30
0.0
 11
850.79604826
 21
139.40417715
 31
0.0
  0
LINE
  5
249
  8
0
 62
     4
 10
735.79604826
 20
137.40417715
 30
0.0
 11
735.79604826
 21
141.40417715
 31
0.0
  0
LINE
  5
24A
  8
0
 62
     4
 10
850.79604826
 20
137.40417715
 30
0.0
 11
850.79604826
 21
141.40417715
 31
0.0
  0
TEXT
  5
24B
  8
TXT_DIM49
 10
861.44114396
 20
140.90417715
 30
0.0
 40
2.5
  1
50
  7
ARIAL
  0
LINE
  5
24C
  8
0
 62
     4
 10
851.79604826
 20
140.40417715
 30
0.0
 11
849.79604826
 21
138.40417715
 31
0.0
  0
LINE
  5
24D
  8
0
 62
     4
 10
875.04604826
 20
138.65417715
 30
0.0
 11
876.54604826
 21
140.15417715
 31
0.0
  0
LINE
  5
24E
  8
0
 62
     4
 10
850.79604826
 20
139.40417715
 30
0.0
 11
875.79604826
 21
139.40417715
 31
0.0
  0
LINE
  5
24F
  8
0
 62
     4
 10
850.79604826
 20
137.40417715
 30
0.0
 11
850.79604826
 21
141.40417715
 31
0.0
  0
LINE
  5
250
  8
0
 62
     4
 10
875.79604826
 20
137.40417715
 30
0.0
 11
875.79604826
 21
141.40417715
 31
0.0
  0
TEXT
  5
251
  8
TXT_DIM49
 10
880.37089348
 20
122.04477099
 30
0.0
 40
2.5
  1
30
 50
90.00020741
  7
ARIAL
  0
LINE
  5
252
  8
0
 62
     4
 10
882.87089348
 20
130.39967528
 30
0.0
 11
880.87089348
 21
132.39967528
 31
0.0
  0
LINE
  5
253
  8
0
 62
     4
 10
881.12089348
 20
117.14967528
 30
0.0
 11
882.62089348
 21
115.64967528
 31
0.0
  0
LINE
  5
254
  8
0
 62
     4
 10
881.87089348
 20
131.39967528
 30
0.0
 11
881.87089348
 21
116.39967528
 31
0.0
  0
LINE
  5
255
  8
0
 62
     4
 10
879.87089348
 20
131.39967528
 30
0.0
 11
883.87089348
 21
131.39967528
 31
0.0
  0
LINE
  5
256
  8
0
 62
     4
 10
879.87089348
 20
116.39967528
 30
0.0
 11
883.87089348
 21
116.39967528
 31
0.0
  0
TEXT
  5
257
  8
TXT_DIM49
 10
880.37089348
 20
107.04477099
 30
0.0
 40
2.5
  1
30
 50
90.00020741
  7
ARIAL
  0
LINE
  5
258
  8
0
 62
     4
 10
882.87089348
 20
115.39967528
 30
0.0
 11
880.87089348
 21
117.39967528
 31
0.0
  0
LINE
  5
259
  8
0
 62
     4
 10
881.12089348
 20
102.14967528
 30
0.0
 11
882.62089348
 21
100.64967528
 31
0.0
  0
LINE
  5
25A
  8
0
 62
     4
 10
881.87089348
 20
116.39967528
 30
0.0
 11
881.87089348
 21
101.39967528
 31
0.0
  0
LINE
  5
25B
  8
0
 62
     4
 10
879.87089348
 20
116.39967528
 30
0.0
 11
883.87089348
 21
116.39967528
 31
0.0
  0
LINE
  5
25C
  8
0
 62
     4
 10
879.87089348
 20
101.39967528
 30
0.0
 11
883.87089348
 21
101.39967528
 31
0.0
  0
TEXT
  5
25D
  8
TXT_DIM49
 10
618.3818337
 20
114.54477099
 30
0.0
 40
2.5
  1
60
 50
90.00020741
  7
ARIAL
  0
LINE
  5
25E
  8
0
 62
     4
 10
620.8818337
 20
130.39967528
 30
0.0
 11
618.8818337
 21
132.39967528
 31
0.0
  0
LINE
  5
25F
  8
0
 62
     4
 10
619.1318337
 20
102.14967528
 30
0.0
 11
620.6318337
 21
100.64967528
 31
0.0
  0
LINE
  5
260
  8
0
 62
     4
 10
619.8818337
 20
131.39967528
 30
0.0
 11
619.8818337
 21
101.39967528
 31
0.0
  0
LINE
  5
261
  8
0
 62
     4
 10
621.8818337
 20
131.39967528
 30
0.0
 11
617.8818337
 21
131.39967528
 31
0.0
  0
LINE
  5
262
  8
0
 62
     4
 10
621.8818337
 20
101.39967528
 30
0.0
 11
617.8818337
 21
101.39967528
 31
0.0
  0
LINE
  5
263
  8
0
 62
     5
 10
735.79604826
 20
116.39967528
 30
0.0
 11
729.80629911
 21
109.27074071
 31
0.0
  0
TEXT
  5
264
  8
TXT_DIM49
 10
723.52269981
 20
108.02074071
 30
0.0
 40
2.5
  1
Ø14
  7
ARIAL
  0
LINE
  5
265
  8
0
 62
     5
 10
850.79604826
 20
116.39967528
 30
0.0
 11
845.99310149
 21
109.52863726
 31
0.0
  0
TEXT
  5
266
  8
TXT_DIM49
 10
839.7095022
 20
108.27863726
 30
0.0
 40
2.5
  1
Ø14
  7
ARIAL
  0
TEXT
  5
267
  8
TXT_DIM49
 10
560.04419244
 20
217.50634655
 30
0.0
 40
2.5
  1
30
  7
ARIAL
  0
LINE
  5
268
  8
0
 62
     4
 10
555.39909674
 20
217.00634655
 30
0.0
 11
553.39909674
 21
215.00634655
 31
0.0
  0
LINE
  5
269
  8
0
 62
     4
 10
568.64909674
 20
215.25634655
 30
0.0
 11
570.14909674
 21
216.75634655
 31
0.0
  0
LINE
  5
26A
  8
0
 62
     4
 10
554.39909674
 20
216.00634655
 30
0.0
 11
569.39909674
 21
216.00634655
 31
0.0
  0
LINE
  5
26B
  8
0
 62
     4
 10
554.39909674
 20
214.00634655
 30
0.0
 11
554.39909674
 21
218.00634655
 31
0.0
  0
LINE
  5
26C
  8
0
 62
     4
 10
569.39909674
 20
214.00634655
 30
0.0
 11
569.39909674
 21
218.00634655
 31
0.0
  0
TEXT
  5
26D
  8
TXT_DIM49
 10
575.04419244
 20
217.50634655
 30
0.0
 40
2.5
  1
30
  7
ARIAL
  0
LINE
  5
26E
  8
0
 62
     4
 10
570.39909674
 20
217.00634655
 30
0.0
 11
568.39909674
 21
215.00634655
 31
0.0
  0
LINE
  5
26F
  8
0
 62
     4
 10
583.64909674
 20
215.25634655
 30
0.0
 11
585.14909674
 21
216.75634655
 31
0.0
  0
LINE
  5
270
  8
0
 62
     4
 10
569.39909674
 20
216.00634655
 30
0.0
 11
584.39909674
 21
216.00634655
 31
0.0
  0
LINE
  5
271
  8
0
 62
     4
 10
569.39909674
 20
214.00634655
 30
0.0
 11
569.39909674
 21
218.00634655
 31
0.0
  0
LINE
  5
272
  8
0
 62
     4
 10
584.39909674
 20
214.00634655
 30
0.0
 11
584.39909674
 21
218.00634655
 31
0.0
  0
TEXT
  5
273
  8
TXT_DIM49
 10
544.81000178
 20
200.40774784
 30
0.0
 40
2.5
  1
30
 50
90.00020741
  7
ARIAL
  0
LINE
  5
274
  8
0
 62
     4
 10
547.31000178
 20
208.76265214
 30
0.0
 11
545.31000178
 21
210.76265214
 31
0.0
  0
LINE
  5
275
  8
0
 62
     4
 10
545.56000178
 20
195.51265214
 30
0.0
 11
547.06000178
 21
194.01265214
 31
0.0
  0
LINE
  5
276
  8
0
 62
     4
 10
546.31000178
 20
209.76265214
 30
0.0
 11
546.31000178
 21
194.76265214
 31
0.0
  0
LINE
  5
277
  8
0
 62
     4
 10
548.31000178
 20
209.76265214
 30
0.0
 11
544.31000178
 21
209.76265214
 31
0.0
  0
LINE
  5
278
  8
0
 62
     4
 10
548.31000178
 20
194.76265214
 30
0.0
 11
544.31000178
 21
194.76265214
 31
0.0
  0
TEXT
  5
279
  8
TXT_DIM49
 10
544.81000178
 20
180.40774784
 30
0.0
 40
2.5
  1
50
 50
90.00020741
  7
ARIAL
  0
LINE
  5
27A
  8
0
 62
     4
 10
547.31000178
 20
193.76265214
 30
0.0
 11
545.31000178
 21
195.76265214
 31
0.0
  0
LINE
  5
27B
  8
0
 62
     4
 10
545.56000178
 20
170.51265214
 30
0.0
 11
547.06000178
 21
169.01265214
 31
0.0
  0
LINE
  5
27C
  8
0
 62
     4
 10
546.31000178
 20
194.76265214
 30
0.0
 11
546.31000178
 21
169.76265214
 31
0.0
  0
LINE
  5
27D
  8
0
 62
     4
 10
548.31000178
 20
194.76265214
 30
0.0
 11
544.31000178
 21
194.76265214
 31
0.0
  0
LINE
  5
27E
  8
0
 62
     4
 10
548.31000178
 20
169.76265214
 30
0.0
 11
544.31000178
 21
169.76265214
 31
0.0
  0
LINE
  5
27F
  8
0
 62
     5
 10
569.39909674
 20
194.76265214
 30
0.0
 11
573.13689737
 21
190.41537114
 31
0.0
  0
TEXT
  5
280
  8
TXT_DIM49
 10
573.13689737
 20
189.16537114
 30
0.0
 40
2.5
  1
Ø10
  7
ARIAL
  0
ENDSEC
  0
EOF
