  0
SECTION
  2
HEADER
  9
$ACADVER
  1
AC1006
  9
$DWGCODEPAGE
  3
ansi_1252
  9
$INSBASE
 10
0.0
 20
0.0
 30
0.0
  9
$EXTMIN
 10
2399.33079525
 20
-907.12317059
  9
$EXTMAX
 10
3221.22518939
 20
-528.44817059
  9
$LIMMIN
 10
2399.33079525
 20
-907.12317059
  9
$LIMMAX
 10
3221.22518939
 20
-528.44817059
  9
$ORTHOMODE
 70
     0
  9
$REGENMODE
 70
     1
  9
$FILLMODE
 70
     1
  9
$QTEXTMODE
 70
     0
  9
$MIRRTEXT
 70
     1
  9
$DRAGMODE
 70
     2
  9
$LTSCALE
 40
1.0
  9
$OSMODE
 70
    37
  9
$ATTMODE
 70
     1
  9
$TEXTSIZE
 40
1.0
  9
$TRACEWID
 40
0.05
  9
$TEXTSTYLE
  7
STANDARD
  9
$CLAYER
  8
0
  9
$CELTYPE
  6
BYBLOCK
  9
$CECOLOR
 62
   256
  9
$DIMSCALE
 40
1.0
  9
$DIMASZ
 40
0.18
  9
$DIMEXO
 40
0.0625
  9
$DIMDLI
 40
0.38
  9
$DIMRND
 40
0.0
  9
$DIMDLE
 40
0.0
  9
$DIMEXE
 40
0.18
  9
$DIMTP
 40
0.0
  9
$DIMTM
 40
0.0
  9
$DIMTXT
 40
0.18
  9
$DIMCEN
 40
0.09
  9
$DIMTSZ
 40
0.0
  9
$DIMTOL
 70
     0
  9
$DIMLIM
 70
     0
  9
$DIMTIH
 70
     1
  9
$DIMTOH
 70
     1
  9
$DIMSE1
 70
     0
  9
$DIMSE2
 70
     0
  9
$DIMTAD
 70
     0
  9
$DIMZIN
 70
     0
  9
$DIMBLK
  1

  9
$DIMASO
 70
     1
  9
$DIMSHO
 70
     1
  9
$DIMPOST
  1

  9
$DIMAPOST
  1

  9
$DIMALT
 70
     0
  9
$DIMALTD
 70
     2
  9
$DIMALTF
 40
25.4
  9
$DIMLFAC
 40
1.0
  9
$DIMTOFL
 70
     0
  9
$DIMTVP
 40
0.0
  9
$DIMTIX
 70
     0
  9
$DIMSOXD
 70
     0
  9
$DIMSAH
 70
     0
  9
$DIMBLK1
  1

  9
$DIMBLK2
  1

  9
$LUNITS
 70
     2
  9
$LUPREC
 70
     4
  9
$SKETCHINC
 40
0.1
  9
$FILLETRAD
 40
0.5
  9
$AUNITS
 70
     0
  9
$AUPREC
 70
     0
  9
$MENU
  1
.
  9
$ELEVATION
 40
0.0
  9
$THICKNESS
 40
0.0
  9
$LIMCHECK
 70
     0
  9
$CHAMFERA
 40
0.0
  9
$CHAMFERB
 40
0.0
  9
$SKPOLY
 70
     0
  9
$TDCREATE
 40
2447893.125
  9
$TDUPDATE
 40
2460791.486806042
  9
$TDINDWG
 40
0.0
  9
$TDUSRTIMER
 40
0.0
  9
$USRTIMER
 70
     1
  9
$ANGBASE
 50
0.0
  9
$ANGDIR
 70
     0
  9
$PDMODE
 70
     0
  9
$PDSIZE
 40
0.0
  9
$PLINEWID
 40
0.0
  9
$COORDS
 70
     1
  9
$SPLFRAME
 70
     0
  9
$SPLINETYPE
 70
     6
  9
$SPLINESEGS
 70
     8
  9
$ATTDIA
 70
     0
  9
$ATTREQ
 70
     1
  9
$HANDLING
 70
     1
  9
$HANDSEED
  5
2ED
  9
$SURFTAB1
 70
     6
  9
$SURFTAB2
 70
     6
  9
$SURFTYPE
 70
     6
  9
$SURFU
 70
     6
  9
$SURFV
 70
     6
  9
$UCSNAME
  2

  9
$UCSORG
 10
0.0
 20
0.0
 30
0.0
  9
$UCSXDIR
 10
1.0
 20
0.0
 30
0.0
  9
$UCSYDIR
 10
0.0
 20
1.0
 30
0.0
  9
$USERI1
 70
     0
  9
$USERI2
 70
     0
  9
$USERI3
 70
     0
  9
$USERI4
 70
     0
  9
$USERI5
 70
     0
  9
$USERR1
 40
0.0
  9
$USERR2
 40
0.0
  9
$USERR3
 40
0.0
  9
$USERR4
 40
0.0
  9
$USERR5
 40
0.0
  9
$WORLDVIEW
 70
     1
  0
ENDSEC
  0
SECTION
  2
TABLES
  0
TABLE
  2
VPORT
 70
     1
  0
VPORT
  2
*ACTIVE
 70
     0
 10
0.0
 20
0.0
 11
1.0
 21
1.0
 12
2810.27799232
 22
-717.78567059
 13
0.0
 23
0.0
 14
1.0
 24
1.0
 15
0.0
 25
0.0
 16
0.0
 26
0.0
 36
1.0
 17
0.0
 27
0.0
 37
0.0
 40
378.675
 41
2.170447994
 42
50.0
 43
0.0
 44
0.0
 50
0.0
 51
0.0
 71
     0
 72
   100
 73
     1
 74
     1
 75
     0
 76
     0
 77
     0
 78
     0
  0
ENDTAB
  0
TABLE
  2
LTYPE
 70
    19
  0
LTYPE
  2
CONTINUOUS
 70
     0
  3
Solid line
 72
    65
 73
     0
 40
0.0
  0
LTYPE
  2
DOT
 70
     0
  3
..............
 72
    65
 73
     2
 40
2.0
 49
0.5
 49
-1.5
  0
LTYPE
  2
HIDDEN
 70
     0
  3
-- -- -- -- --
 72
    65
 73
     2
 40
7.0
 49
4.0
 49
-3.0
  0
LTYPE
  2
DASHDOT
 70
     0
  3
--.--.--.--.--
 72
    65
 73
     4
 40
8.5
 49
4.0
 49
-2.0
 49
0.5
 49
-2.0
  0
LTYPE
  2
STRICHPUNKT2
 70
     0
  3
--.--.--.--.--
 72
    65
 73
     4
 40
18.5
 49
10.0
 49
-4.0
 49
0.5
 49
-4.0
  0
LTYPE
  2
STRICHPUNKT3
 70
     0
  3
--.--.--.--.--
 72
    65
 73
     4
 40
35.5
 49
25.0
 49
-5.0
 49
0.5
 49
-5.0
  0
LTYPE
  2
PHANTOM
 70
     0
  3
--..--..--..--
 72
    65
 73
     6
 40
23.0
 49
10.0
 49
-4.0
 49
0.5
 49
-4.0
 49
0.5
 49
-4.0
  0
LTYPE
  2
PHANTOM2
 70
     0
  3
--..--..--..--
 72
    65
 73
     6
 40
33.0
 49
20.0
 49
-4.0
 49
0.5
 49
-4.0
 49
0.5
 49
-4.0
  0
LTYPE
  2
PHANTOM3
 70
     0
  3
--..--..--..--
 72
    65
 73
     6
 40
50.0
 49
37.0
 49
-4.0
 49
0.5
 49
-4.0
 49
0.5
 49
-4.0
  0
LTYPE
  2
STR3PKT
 70
     0
  3
--...--...--...
 72
    65
 73
     8
 40
31.5
 49
20.0
 49
-2.5
 49
0.5
 49
-2.5
 49
0.5
 49
-2.5
 49
0.5
 49
-2.5
  0
LTYPE
  2
2STRPKT
 70
     0
  3
--.--.--.--.--
 72
    65
 73
     6
 40
28.0
 49
10.0
 49
-2.5
 49
10.0
 49
-2.5
 49
0.5
 49
-2.5
  0
LTYPE
  2
GESTRICHELT2
 70
     0
  3
-- -- -- -- --
 72
    65
 73
     2
 40
25.0
 49
10.0
 49
-15.0
  0
LTYPE
  2
2STR2PKT
 70
     0
  3
--..--..--..--
 72
    65
 73
     8
 40
31.0
 49
10.0
 49
-2.5
 49
10.0
 49
-2.5
 49
0.5
 49
-2.5
 49
0.5
 49
-2.5
  0
LTYPE
  2
STR3PKT2
 70
     0
  3
--...--...--...
 72
    65
 73
     8
 40
21.0
 49
10.0
 49
-2.5
 49
0.5
 49
-2.5
 49
0.5
 49
-2.5
 49
0.5
 49
-2.0
  0
LTYPE
  2
2STR3PKT
 70
     0
  3
--...--...--...
 72
    65
 73
    10
 40
34.0
 49
10.0
 49
-2.5
 49
10.0
 49
-2.5
 49
0.5
 49
-2.5
 49
0.5
 49
-2.5
 49
0.5
 49
-2.5
  0
LTYPE
  2
STRKSTR
 70
     0
  3
-- - -- - -- -
 72
    65
 73
     4
 40
30.0
 49
20.0
 49
-2.5
 49
5.0
 49
-2.5
  0
LTYPE
  2
STRKSTR2
 70
     0
  3
-- - -- - -- -
 72
    65
 73
     6
 40
37.5
 49
20.0
 49
-2.5
 49
5.0
 49
-2.5
 49
5.0
 49
-2.5
  0
LTYPE
  2
STRKSTR3
 70
     0
  3
-- - -- - -- -
 72
    65
 73
     8
 40
45.0
 49
20.0
 49
-2.5
 49
5.0
 49
-2.5
 49
5.0
 49
-2.5
 49
5.0
 49
-2.5
  0
LTYPE
  2
PUNKT2
 70
     0
  3
..............
 72
    65
 73
     2
 40
3.5
 49
0.5
 49
-3.0
  0
ENDTAB
  0
TABLE
  2
LAYER
 70
    16
  0
LAYER
  2
0
 70
     0
 62
     7
  6
CONTINUOUS
  0
LAYER
  2
LE_GREEN
 70
     0
 62
     3
  6
CONTINUOUS
  0
LAYER
  2
LE_RED
 70
     0
 62
     1
  6
CONTINUOUS
  0
LAYER
  2
LE_ALL
 70
     0
 62
     7
  6
CONTINUOUS
  0
LAYER
  2
LE_HIDDEN1
 70
     0
 62
     3
  6
HIDDEN
  0
LAYER
  2
LE_HIDDEN
 70
     0
 62
     7
  6
CONTINUOUS
  0
LAYER
  2
LE_MIDDLE
 70
     0
 62
     7
  6
CONTINUOUS
  0
LAYER
  2
TXT_YELLOW
 70
     0
 62
     2
  6
CONTINUOUS
  0
LAYER
  2
TXT_DIM49
 70
     0
 62
     2
  6
CONTINUOUS
  0
LAYER
  2
TXT_ALL
 70
     0
 62
     7
  6
CONTINUOUS
  0
LAYER
  2
DIM49
 70
     0
 62
     4
  6
CONTINUOUS
  0
LAYER
  2
HATCH
 70
     0
 62
     3
  6
CONTINUOUS
  0
LAYER
  2
APPLE
 70
     0
 62
     7
  6
CONTINUOUS
  0
LAYER
  2
10
 70
     0
 62
     7
  6
CONTINUOUS
  0
LAYER
  2
20
 70
     0
 62
     7
  6
CONTINUOUS
  0
LAYER
  2
49
 70
     0
 62
     7
  6
CONTINUOUS
  0
ENDTAB
  0
TABLE
  2
STYLE
 70
     5
  0
STYLE
  2
MONOTXT
 70
     0
 40
0.0
 41
1.0
 50
0.0
 71
     0
 42
1.0
  3
monotxt.shx
  4

  0
STYLE
  2
STANDARD
 70
     0
 40
0.0
 41
1.0
 50
0.0
 71
     0
 42
1.0
  3
txt
  4

  0
STYLE
  2
ARIAL
 70
     0
 40
0.0
 41
1.0
 50
0.0
 71
     0
 42
1.0
  3
arial.ttf
  4

  0
STYLE
  2
ARIAL_NARROW
 70
     0
 40
0.0
 41
1.0
 50
0.0
 71
     0
 42
1.0
  3
ArialN.ttf
  4

  0
STYLE
  2
ISOCPEUR
 70
     0
 40
0.0
 41
1.0
 50
0.0
 71
     0
 42
1.0
  3
ISOCPEUR.ttf
  4

  0
ENDTAB
  0
TABLE
  2
VIEW
 70
     0
  0
ENDTAB
  0
TABLE
  2
UCS
 70
     0
  0
ENDTAB
  0
ENDSEC
  0
SECTION
  2
BLOCKS
  0
ENDSEC
  0
SECTION
  2
ENTITIES
  0
POLYLINE
  5
16D
  8
0
 66
     1
 10
0.0
 20
0.0
 30
0.0
 70
     1
  0
VERTEX
  5
16E
  8
0
 10
2545.2219837
 20
-854.09659147
 30
0.0
  0
VERTEX
  5
16F
  8
0
 10
2965.2219837
 20
-854.09659147
 30
0.0
  0
VERTEX
  5
170
  8
0
 10
2965.2219837
 20
-557.09659147
 30
0.0
  0
VERTEX
  5
171
  8
0
 10
2545.2219837
 20
-557.09659147
 30
0.0
  0
SEQEND
  5
172
  8
0
  0
POLYLINE
  5
173
  8
0
 66
     1
 10
0.0
 20
0.0
 30
0.0
 70
     1
  0
VERTEX
  5
174
  8
0
 10
2550.2219837
 20
-849.09659147
 30
0.0
  0
VERTEX
  5
175
  8
0
 10
2960.2219837
 20
-849.09659147
 30
0.0
  0
VERTEX
  5
176
  8
0
 10
2960.2219837
 20
-562.09659147
 30
0.0
  0
VERTEX
  5
177
  8
0
 10
2550.2219837
 20
-562.09659147
 30
0.0
  0
SEQEND
  5
178
  8
0
  0
LINE
  5
179
  8
0
 10
2775.2219837
 20
-849.09659147
 30
0.0
 11
2775.2219837
 21
-854.09659147
 31
0.0
  0
LINE
  5
17A
  8
0
 10
2775.2219837
 20
-562.09659147
 30
0.0
 11
2775.2219837
 21
-557.09659147
 31
0.0
  0
LINE
  5
17B
  8
0
 10
2565.2219837
 20
-849.09659147
 30
0.0
 11
2565.2219837
 21
-854.09659147
 31
0.0
  0
LINE
  5
17C
  8
0
 10
2565.2219837
 20
-562.09659147
 30
0.0
 11
2565.2219837
 21
-557.09659147
 31
0.0
  0
TEXT
  5
17D
  8
TXT_ALL
 62
     4
 10
2964.2219837
 20
-853.09659147
 30
0.0
 40
2.5
  1

 50
90.00020741
  0
POLYLINE
  5
17E
  8
0
 66
     1
 10
0.0
 20
0.0
 30
0.0
  0
VERTEX
  5
17F
  8
0
 10
2960.2219837
 20
-572.09659147
 30
0.0
  0
VERTEX
  5
180
  8
0
 10
2891.2286837
 20
-572.09659147
 30
0.0
  0
VERTEX
  5
181
  8
0
 10
2891.2286837
 20
-562.09659147
 30
0.0
  0
SEQEND
  5
182
  8
0
  0
LINE
  5
183
  8
0
 10
2893.1319837
 20
-829.59659147
 30
0.0
 11
2753.2419837
 21
-829.59659147
 31
0.0
  0
LINE
  5
184
  8
0
 10
2753.2419837
 20
-839.34659147
 30
0.0
 11
2893.1319837
 21
-839.34659147
 31
0.0
  0
POLYLINE
  5
185
  8
0
 66
     1
 10
0.0
 20
0.0
 30
0.0
  0
VERTEX
  5
186
  8
0
 10
2753.2419837
 20
-829.59659147
 30
0.0
  0
VERTEX
  5
187
  8
0
 10
2753.2419837
 20
-839.34659147
 30
0.0
  0
VERTEX
  5
188
  8
0
 10
2753.2419837
 20
-849.09659147
 30
0.0
  0
SEQEND
  5
189
  8
0
  0
POLYLINE
  5
18A
  8
0
 66
     1
 10
0.0
 20
0.0
 30
0.0
  0
VERTEX
  5
18B
  8
0
 10
2823.1869837
 20
-829.59659147
 30
0.0
  0
VERTEX
  5
18C
  8
0
 10
2823.1869837
 20
-839.34659147
 30
0.0
  0
VERTEX
  5
18D
  8
0
 10
2823.1869837
 20
-849.09659147
 30
0.0
  0
SEQEND
  5
18E
  8
0
  0
TEXT
  5
18F
  8
TXT_ALL
 10
2755.2419837
 20
-835.77159142
 30
0.0
 40
2.5999999
  1
E-mail: verkoop@jonkers-bouwmetaal.nl
  7
ARIAL
  0
TEXT
  5
190
  8
TXT_ALL
 10
2755.2419837
 20
-845.52159142
 30
0.0
 40
2.5999999
  1
Telefoon: 0527-685156
  7
ARIAL
  0
TEXT
  5
191
  8
TXT_ALL
 10
2825.1869837
 20
-845.52159142
 30
0.0
 40
2.5999999
  1
Website: www.jonkers-bouwmetaal.nl
  7
ARIAL
  0
TEXT
  5
192
  8
TXT_ALL
 10
2825.1869837
 20
-835.77159142
 30
0.0
 40
2.5999999
  1
Adres: Hoornse Hop 10, 8321 WX Urk
  7
ARIAL
  0
TEXT
  5
193
  8
TXT_ALL
 10
2553.66394395
 20
-568.34659147
 30
0.0
 40
2.5
  1
Art. nr. 91006321
  7
ARIAL
  0
TEXT
  5
194
  8
TXT_ALL
 10
2596.40198077
 20
-568.34659147
 30
0.0
 40
2.5
  1
Omschrijving: J02-Anker 170x25 60x8
  7
ARIAL
  0
LINE
  5
195
  8
0
 10
2960.2219837
 20
-572.09659147
 30
0.0
 11
2550.2219837
 21
-572.09659147
 31
0.0
  0
LINE
  5
196
  8
0
 10
2593.2419837
 20
-572.09659147
 30
0.0
 11
2593.2419837
 21
-562.09659147
 31
0.0
  0
LINE
  5
197
  8
0
 10
2753.2419837
 20
-572.09659147
 30
0.0
 11
2753.2419837
 21
-562.09659147
 31
0.0
  0
TEXT
  5
198
  8
TXT_ALL
 10
2824.2356837
 20
-568.34659147
 30
0.0
 40
2.5
  1
Behandeling: Thermisch Verzinkt
  7
ARIAL
  0
LINE
  5
199
  8
0
 10
2893.1319837
 20
-829.59659147
 30
0.0
 11
2960.2219837
 21
-829.59659147
 31
0.0
  0
LINE
  5
19A
  8
0
 10
2893.1319837
 20
-849.09659147
 30
0.0
 11
2893.1319837
 21
-829.59659147
 31
0.0
  0
LINE
  5
19B
  8
0
 10
2893.1319837
 20
-849.09659147
 30
0.0
 11
2893.1319837
 21
-829.59659147
 31
0.0
  0
TEXT
  5
19C
  8
TXT_ALL
 10
2687.58718179
 20
-847.94205805
 30
0.0
 40
2.5
  1

  0
TEXT
  5
19D
  8
TXT_ALL
 10
2808.72236476
 20
-837.84659147
 30
0.0
 40
2.5
  1

  0
POLYLINE
  5
19E
  8
0
 66
     1
 10
0.0
 20
0.0
 30
0.0
  0
VERTEX
  5
19F
  8
0
 10
2891.2286837
 20
-572.09659147
 30
0.0
  0
VERTEX
  5
1A0
  8
0
 10
2822.2356837
 20
-572.09659147
 30
0.0
  0
VERTEX
  5
1A1
  8
0
 10
2822.2356837
 20
-562.09659147
 30
0.0
  0
SEQEND
  5
1A2
  8
0
  0
TEXT
  5
1A3
  8
TXT_ALL
 10
2893.2286837
 20
-568.34659147
 30
0.0
 40
2.5
  1
Verpakkingshoeveelheid: 1 st.
  7
ARIAL
  0
TEXT
  5
1A4
  8
TXT_ALL
 10
2755.2419837
 20
-568.34659147
 30
0.0
 40
2.5
  1
Materiaal: S355
  7
ARIAL
  0
TEXT
  5
1A5
  8
TXT_ALL
 10
2927.71440661
 20
-852.34610131
 30
0.0
 40
1.5
  1
Onderdeel van
  7
ARIAL
  0
POLYLINE
  5
1A6
  8
0
 66
     1
 10
0.0
 20
0.0
 30
0.0
  0
VERTEX
  5
2A7
  8
0
 10
2583.081360293605
 20
-766.8281032260138
 30
0.0
  0
VERTEX
  5
2A8
  8
0
 10
2583.225150094222
 20
-768.3176823845744
 30
0.0
  0
VERTEX
  5
2A9
  8
0
 10
2583.650993720402
 20
-769.7862494740609
 30
0.0
  0
VERTEX
  5
2AA
  8
0
 10
2584.342526240552
 20
-771.177368285293
 30
0.0
  0
VERTEX
  5
2AB
  8
0
 10
2585.273172447964
 20
-772.4375789029647
 30
0.0
  0
VERTEX
  5
2AC
  8
0
 10
2586.407168131111
 20
-773.5184521401906
 30
0.0
  0
VERTEX
  5
2AD
  8
0
 10
2587.700934472216
 20
-774.3784506449829
 30
0.0
  0
VERTEX
  5
2AE
  8
0
 10
2589.104752756772
 20
-774.9845251573805
 30
0.0
  0
VERTEX
  5
2AF
  8
0
 10
2590.564675035839
 20
-775.3133845739629
 30
0.0
  0
SEQEND
  5
2E6
  8
0
  0
LINE
  5
1A7
  8
0
 10
2611.77787849
 20
-756.60509766
 30
0.0
 11
2590.56467505
 21
-775.31338459
 31
0.0
  0
POLYLINE
  5
1A8
  8
0
 66
     1
 10
0.0
 20
0.0
 30
0.0
  0
VERTEX
  5
2B0
  8
0
 10
2604.294563733606
 20
-748.1198162860138
 30
0.0
  0
VERTEX
  5
2B1
  8
0
 10
2604.438353534222
 20
-749.6093954445744
 30
0.0
  0
VERTEX
  5
2B2
  8
0
 10
2604.864197160402
 20
-751.0779625340609
 30
0.0
  0
VERTEX
  5
2B3
  8
0
 10
2605.555729680552
 20
-752.469081345293
 30
0.0
  0
VERTEX
  5
2B4
  8
0
 10
2606.486375887965
 20
-753.7292919629647
 30
0.0
  0
VERTEX
  5
2B5
  8
0
 10
2607.620371571111
 20
-754.8101652001906
 30
0.0
  0
VERTEX
  5
2B6
  8
0
 10
2608.914137912217
 20
-755.6701637049829
 30
0.0
  0
VERTEX
  5
2B7
  8
0
 10
2610.317956196772
 20
-756.2762382173805
 30
0.0
  0
VERTEX
  5
2B8
  8
0
 10
2611.777878475839
 20
-756.6050976339629
 30
0.0
  0
SEQEND
  5
2E7
  8
0
  0
LINE
  5
1A9
  8
0
 10
2604.29456372
 20
-748.11981628
 30
0.0
 11
2583.08136028
 21
-766.82810322
 31
0.0
  0
LINE
  5
1AA
  8
0
 10
2575.59804551
 20
-765.88529417
 30
0.0
 11
2583.08136028
 21
-766.82810322
 31
0.0
  0
POLYLINE
  5
1AB
  8
0
 66
     1
 10
0.0
 20
0.0
 30
0.0
  0
VERTEX
  5
2B9
  8
0
 10
2575.598045537211
 20
-765.8852941920277
 30
0.0
  0
VERTEX
  5
2BA
  8
0
 10
2575.885625138443
 20
-768.8644525091487
 30
0.0
  0
VERTEX
  5
2BB
  8
0
 10
2576.737312390805
 20
-771.8015866881217
 30
0.0
  0
VERTEX
  5
2BC
  8
0
 10
2578.120377431103
 20
-774.5838243105861
 30
0.0
  0
VERTEX
  5
2BD
  8
0
 10
2579.981669845929
 20
-777.1042455459294
 30
0.0
  0
VERTEX
  5
2BE
  8
0
 10
2582.249661212222
 20
-779.2659920203811
 30
0.0
  0
VERTEX
  5
2BF
  8
0
 10
2584.837193894432
 20
-780.9859890299659
 30
0.0
  0
VERTEX
  5
2C0
  8
0
 10
2587.644830463544
 20
-782.1981380547609
 30
0.0
  0
VERTEX
  5
2C1
  8
0
 10
2590.564675021678
 20
-782.8558568879259
 30
0.0
  0
SEQEND
  5
2E8
  8
0
  0
LINE
  5
1AC
  8
0
 10
2590.56467505
 20
-782.85585692
 30
0.0
 11
2590.56467505
 21
-775.31338459
 31
0.0
  0
POLYLINE
  5
1AD
  8
0
 66
     1
 10
0.0
 20
0.0
 30
0.0
  0
VERTEX
  5
2C2
  8
0
 10
2688.64812579
 20
-777.8622052616238
 30
0.0
  0
VERTEX
  5
2C3
  8
0
 10
2688.789853721549
 20
-778.3293602758987
 30
0.0
  0
VERTEX
  5
2C4
  8
0
 10
2689.20929843846
 20
-778.7775984573024
 30
0.0
  0
VERTEX
  5
2C5
  8
0
 10
2689.889475073809
 20
-779.1887689851072
 30
0.0
  0
VERTEX
  5
2C6
  8
0
 10
2690.802840761583
 20
-779.546222044888
 30
0.0
  0
VERTEX
  5
2C7
  8
0
 10
2691.912409949136
 20
-779.8354830410484
 30
0.0
  0
VERTEX
  5
2C8
  8
0
 10
2693.173252078909
 20
-780.0448387266973
 30
0.0
  0
SEQEND
  5
2E9
  8
0
  0
POLYLINE
  5
1AE
  8
0
 66
     1
 10
0.0
 20
0.0
 30
0.0
  0
VERTEX
  5
2C9
  8
0
 10
2698.122999543064
 20
-775.6795718185908
 30
0.0
  0
VERTEX
  5
2CA
  8
0
 10
2696.819642286805
 20
-775.5617814408096
 30
0.0
  0
VERTEX
  5
2CB
  8
0
 10
2695.47268521995
 20
-775.529604917818
 30
0.0
  0
VERTEX
  5
2CC
  8
0
 10
2694.132257447087
 20
-775.5842397490212
 30
0.0
  0
VERTEX
  5
2CD
  8
0
 10
2692.848245074963
 20
-775.7236526141043
 30
0.0
  0
VERTEX
  5
2CE
  8
0
 10
2691.668434623338
 20
-775.9426550462133
 30
0.0
  0
VERTEX
  5
2CF
  8
0
 10
2690.636734575252
 20
-776.2330965288294
 30
0.0
  0
VERTEX
  5
2D0
  8
0
 10
2689.791541254452
 20
-776.5841678299307
 30
0.0
  0
VERTEX
  5
2D1
  8
0
 10
2689.164309846421
 20
-776.9828032843943
 30
0.0
  0
VERTEX
  5
2D2
  8
0
 10
2688.77838374467
 20
-777.4141670530677
 30
0.0
  0
VERTEX
  5
2D3
  8
0
 10
2688.64812579
 20
-777.8622052616238
 30
0.0
  0
SEQEND
  5
2EA
  8
0
  0
POLYLINE
  5
1AF
  8
0
 66
     1
 10
0.0
 20
0.0
 30
0.0
  0
VERTEX
  5
1B0
  8
0
 10
2698.12299952
 20
-775.6795718
 30
0.0
  0
VERTEX
  5
1B1
  8
0
 10
2722.44377254
 20
-778.74370118
 30
0.0
  0
SEQEND
  5
1B2
  8
0
  0
POLYLINE
  5
1B3
  8
0
 66
     1
 10
0.0
 20
0.0
 30
0.0
  0
VERTEX
  5
2D4
  8
0
 10
2726.9688988
 20
-780.92633466
 30
0.0
  0
VERTEX
  5
2D5
  8
0
 10
2726.827170865755
 20
-780.4591796497048
 30
0.0
  0
VERTEX
  5
2D6
  8
0
 10
2726.407726150835
 20
-780.0109414721471
 30
0.0
  0
VERTEX
  5
2D7
  8
0
 10
2725.727549521803
 20
-779.5997709475996
 30
0.0
  0
VERTEX
  5
2D8
  8
0
 10
2724.814183843961
 20
-779.2423178900814
 30
0.0
  0
VERTEX
  5
2D9
  8
0
 10
2723.704614668945
 20
-778.9530568948584
 30
0.0
  0
VERTEX
  5
2DA
  8
0
 10
2722.443772553064
 20
-778.7437012085908
 30
0.0
  0
SEQEND
  5
2EB
  8
0
  0
POLYLINE
  5
1B4
  8
0
 66
     1
 10
0.0
 20
0.0
 30
0.0
  0
VERTEX
  5
2DB
  8
0
 10
2717.494025088909
 20
-783.1089681166973
 30
0.0
  0
VERTEX
  5
2DC
  8
0
 10
2718.797382345487
 20
-783.2267584915835
 30
0.0
  0
VERTEX
  5
2DD
  8
0
 10
2720.14433941096
 20
-783.2589350118401
 30
0.0
  0
VERTEX
  5
2DE
  8
0
 10
2721.484767180937
 20
-783.2043001781673
 30
0.0
  0
VERTEX
  5
2DF
  8
0
 10
2722.768779548925
 20
-783.064887310966
 30
0.0
  0
VERTEX
  5
2E0
  8
0
 10
2723.948589995455
 20
-782.8458848771538
 30
0.0
  0
VERTEX
  5
2E1
  8
0
 10
2724.980290037806
 20
-782.5554433932895
 30
0.0
  0
VERTEX
  5
2E2
  8
0
 10
2725.825483352556
 20
-782.2043720914095
 30
0.0
  0
VERTEX
  5
2E3
  8
0
 10
2726.452714754538
 20
-781.805736636628
 30
0.0
  0
VERTEX
  5
2E4
  8
0
 10
2726.838640850534
 20
-781.3743728680661
 30
0.0
  0
VERTEX
  5
2E5
  8
0
 10
2726.9688988
 20
-780.92633466
 30
0.0
  0
SEQEND
  5
2EC
  8
0
  0
LINE
  5
1B5
  8
0
 10
2717.49402507
 20
-783.10896813
 30
0.0
 11
2693.17325205
 21
-780.04483875
 31
0.0
  0
LINE
  5
1B6
  8
0
 10
2755.83168788
 20
-774.75417171
 30
0.0
 11
2734.61848444
 21
-793.46245864
 31
0.0
  0
LINE
  5
1B7
  8
0
 10
2590.56467505
 20
-775.31338459
 30
0.0
 11
2734.61848444
 21
-793.46245864
 31
0.0
  0
LINE
  5
1B8
  8
0
 10
2611.77787849
 20
-756.60509766
 30
0.0
 11
2590.56467505
 21
-775.31338459
 31
0.0
  0
LINE
  5
1B9
  8
0
 10
2755.83168788
 20
-774.75417171
 30
0.0
 11
2611.77787849
 21
-756.60509766
 31
0.0
  0
LINE
  5
1BA
  8
0
 10
2755.83168788
 20
-782.29664404
 30
0.0
 11
2755.83168788
 21
-774.75417171
 31
0.0
  0
POLYLINE
  5
1BB
  8
0
 66
     1
 10
0.0
 20
0.0
 30
0.0
  0
VERTEX
  5
1BC
  8
0
 10
2755.83168788
 20
-782.29664404
 30
0.0
  0
VERTEX
  5
1BD
  8
0
 10
2734.61848444
 20
-801.00493097
 30
0.0
  0
VERTEX
  5
1BE
  8
0
 10
2734.61848444
 20
-793.46245864
 30
0.0
  0
SEQEND
  5
1BF
  8
0
  0
LINE
  5
1C0
  8
0
 10
2590.56467505
 20
-782.85585692
 30
0.0
 11
2734.61848444
 21
-801.00493097
 31
0.0
  0
LINE
  5
1C1
  8
0
 10
2590.56467505
 20
-782.85585692
 30
0.0
 11
2590.56467505
 21
-775.31338459
 31
0.0
  0
LINE
  5
1C2
  8
0
  6
STRICHPUNKT2
 62
     1
 10
2695.64812579
 20
-775.03377815
 30
0.0
 11
2695.64812579
 21
-780.35664353
 31
0.0
  0
LINE
  5
1C3
  8
0
  6
STRICHPUNKT2
 62
     1
 10
2719.9688988
 20
-778.09790753
 30
0.0
 11
2719.9688988
 21
-783.25966799
 31
0.0
  0
LINE
  5
1C4
  8
0
  6
STRICHPUNKT2
 62
     1
 10
2686.29398232
 20
-776.68369397
 30
0.0
 11
2729.32304227
 21
-782.10484596
 31
0.0
  0
LINE
  5
1C5
  8
0
  6
STRICHPUNKT2
 62
     1
 10
2692.11259188
 20
-780.98025309
 30
0.0
 11
2699.18365969
 21
-774.74415745
 31
0.0
  0
LINE
  5
1C6
  8
0
  6
STRICHPUNKT2
 62
     1
 10
2716.4333649
 20
-784.04438248
 30
0.0
 11
2723.50443271
 21
-777.80828684
 31
0.0
  0
POLYLINE
  5
1C7
  8
0
 66
     1
 10
0.0
 20
0.0
 30
0.0
  0
VERTEX
  5
1C8
  8
0
 10
2604.29456372
 20
-748.11981628
 30
0.0
  0
VERTEX
  5
1C9
  8
0
 10
2583.08136028
 20
-766.82810322
 30
0.0
  0
VERTEX
  5
1CA
  8
0
 10
2583.08136028
 20
-758.34282184
 30
0.0
  0
SEQEND
  5
1CB
  8
0
  0
LINE
  5
1CC
  8
0
 10
2604.29456372
 20
-739.63453491
 30
0.0
 11
2583.08136028
 21
-758.34282184
 31
0.0
  0
LINE
  5
1CD
  8
0
 10
2604.29456372
 20
-739.63453491
 30
0.0
 11
2604.29456372
 21
-748.11981628
 31
0.0
  0
LINE
  5
1CE
  8
0
 10
2596.81124894
 20
-738.69172587
 30
0.0
 11
2604.29456372
 21
-739.63453491
 31
0.0
  0
POLYLINE
  5
1CF
  8
0
 66
     1
 10
0.0
 20
0.0
 30
0.0
  0
VERTEX
  5
1D0
  8
0
 10
2596.81124894
 20
-738.69172587
 30
0.0
  0
VERTEX
  5
1D1
  8
0
 10
2575.59804551
 20
-757.4000128
 30
0.0
  0
VERTEX
  5
1D2
  8
0
 10
2583.08136028
 20
-758.34282184
 30
0.0
  0
SEQEND
  5
1D3
  8
0
  0
LINE
  5
1D4
  8
0
 10
2575.59804551
 20
-765.88529417
 30
0.0
 11
2575.59804551
 21
-757.4000128
 31
0.0
  0
LINE
  5
1D5
  8
0
 10
2575.59804551
 20
-765.88529417
 30
0.0
 11
2583.08136028
 21
-766.82810322
 31
0.0
  0
POLYLINE
  5
1D6
  8
0
 66
     1
 10
0.0
 20
0.0
 30
0.0
  0
VERTEX
  5
1D7
  8
0
 10
2711.78645989
 20
-619.18825196
 30
0.0
 42
0.414213562
  0
VERTEX
  5
1D8
  8
0
 10
2727.78645989
 20
-635.18825196
 30
0.0
  0
VERTEX
  5
1D9
  8
0
 10
2727.78645989
 20
-627.18825196
 30
0.0
  0
SEQEND
  5
1DA
  8
0
  0
ARC
  5
1DB
  8
0
 10
2727.78645989
 20
-619.18825196
 30
0.0
 40
8.0
 50
-180.0
 51
-90.0
  0
LINE
  5
1DC
  8
0
 10
2711.78645989
 20
-619.18825196
 30
0.0
 11
2719.78645989
 21
-619.18825196
 31
0.0
  0
POLYLINE
  5
1DD
  8
0
 66
     1
 10
0.0
 20
0.0
 30
0.0
  0
VERTEX
  5
1DE
  8
0
 10
2727.78645989
 20
-635.18825196
 30
0.0
  0
VERTEX
  5
1DF
  8
0
 10
2881.78645989
 20
-635.18825196
 30
0.0
  0
VERTEX
  5
1E0
  8
0
 10
2881.78645989
 20
-627.18825196
 30
0.0
  0
SEQEND
  5
1E1
  8
0
  0
LINE
  5
1E2
  8
0
 10
2727.78645989
 20
-627.18825196
 30
0.0
 11
2881.78645989
 21
-627.18825196
 31
0.0
  0
LINE
  5
1E3
  8
0
 10
2727.78645989
 20
-635.18825196
 30
0.0
 11
2727.78645989
 21
-627.18825196
 31
0.0
  0
LINE
  5
1E4
  8
0
  6
STRICHPUNKT2
 62
     1
 10
2828.78645989
 20
-635.18825196
 30
0.0
 11
2828.78645989
 21
-638.18825196
 31
0.0
  0
LINE
  5
1E5
  8
0
  6
STRICHPUNKT2
 62
     1
 10
2828.78645989
 20
-624.18825196
 30
0.0
 11
2828.78645989
 21
-627.18825196
 31
0.0
  0
LINE
  5
1E6
  8
0
  6
STRICHPUNKT2
 62
     1
 10
2854.78645989
 20
-635.18825196
 30
0.0
 11
2854.78645989
 21
-638.18825196
 31
0.0
  0
LINE
  5
1E7
  8
0
  6
STRICHPUNKT2
 62
     1
 10
2854.78645989
 20
-624.18825196
 30
0.0
 11
2854.78645989
 21
-627.18825196
 31
0.0
  0
POLYLINE
  5
1E8
  8
0
 66
     1
 10
0.0
 20
0.0
 30
0.0
  0
VERTEX
  5
1E9
  8
0
 10
2711.78645989
 20
-619.18825196
 30
0.0
  0
VERTEX
  5
1EA
  8
0
 10
2711.78645989
 20
-610.18825196
 30
0.0
  0
VERTEX
  5
1EB
  8
0
 10
2719.78645989
 20
-610.18825196
 30
0.0
  0
SEQEND
  5
1EC
  8
0
  0
LINE
  5
1ED
  8
0
 10
2719.78645989
 20
-619.18825196
 30
0.0
 11
2719.78645989
 21
-610.18825196
 31
0.0
  0
LINE
  5
1EE
  8
0
 10
2711.78645989
 20
-619.18825196
 30
0.0
 11
2719.78645989
 21
-619.18825196
 31
0.0
  0
LINE
  5
1EF
  8
0
 10
2679.09842899
 20
-619.18825196
 30
0.0
 11
2679.09842899
 21
-635.18825196
 31
0.0
  0
LINE
  5
1F0
  8
0
 10
2619.09842899
 20
-635.18825196
 30
0.0
 11
2679.09842899
 21
-635.18825196
 31
0.0
  0
POLYLINE
  5
1F1
  8
0
 66
     1
 10
0.0
 20
0.0
 30
0.0
  0
VERTEX
  5
1F2
  8
0
 10
2619.09842899
 20
-635.18825196
 30
0.0
  0
VERTEX
  5
1F3
  8
0
 10
2619.09842899
 20
-619.18825196
 30
0.0
  0
VERTEX
  5
1F4
  8
0
 10
2679.09842899
 20
-619.18825196
 30
0.0
  0
SEQEND
  5
1F5
  8
0
  0
LINE
  5
1F6
  8
0
 10
2619.09842899
 20
-635.18825196
 30
0.0
 11
2679.09842899
 21
-635.18825196
 31
0.0
  0
LINE
  5
1F7
  8
0
  6
STRICHPUNKT2
 62
     1
 10
2649.09842899
 20
-635.18825196
 30
0.0
 11
2649.09842899
 21
-638.18825196
 31
0.0
  0
LINE
  5
1F8
  8
0
 10
2679.09842899
 20
-619.18825196
 30
0.0
 11
2679.09842899
 21
-610.18825196
 31
0.0
  0
LINE
  5
1F9
  8
0
 10
2619.09842899
 20
-610.18825196
 30
0.0
 11
2679.09842899
 21
-610.18825196
 31
0.0
  0
POLYLINE
  5
1FA
  8
0
 66
     1
 10
0.0
 20
0.0
 30
0.0
  0
VERTEX
  5
1FB
  8
0
 10
2619.09842899
 20
-610.18825196
 30
0.0
  0
VERTEX
  5
1FC
  8
0
 10
2619.09842899
 20
-619.18825196
 30
0.0
  0
VERTEX
  5
1FD
  8
0
 10
2679.09842899
 20
-619.18825196
 30
0.0
  0
SEQEND
  5
1FE
  8
0
  0
LINE
  5
1FF
  8
0
 10
2719.78645989
 20
-715.79899547
 30
0.0
 11
2727.78645989
 21
-715.79899547
 31
0.0
  0
LINE
  5
200
  8
0
 10
2727.78645989
 20
-655.79899547
 30
0.0
 11
2727.78645989
 21
-715.79899547
 31
0.0
  0
LINE
  5
201
  8
0
 10
2727.78645989
 20
-655.79899547
 30
0.0
 11
2719.78645989
 21
-655.79899547
 31
0.0
  0
POLYLINE
  5
202
  8
0
 66
     1
 10
0.0
 20
0.0
 30
0.0
 70
     1
  0
VERTEX
  5
203
  8
0
 10
2828.78645989
 20
-692.79899547
 30
0.0
 42
-1.0
  0
VERTEX
  5
204
  8
0
 10
2828.78645989
 20
-678.79899547
 30
0.0
  0
VERTEX
  5
205
  8
0
 10
2854.78645989
 20
-678.79899547
 30
0.0
 42
-1.0
  0
VERTEX
  5
206
  8
0
 10
2854.78645989
 20
-692.79899547
 30
0.0
  0
SEQEND
  5
207
  8
0
  0
LINE
  5
208
  8
0
 10
2881.78645989
 20
-655.79899547
 30
0.0
 11
2881.78645989
 21
-715.79899547
 31
0.0
  0
LINE
  5
209
  8
0
 10
2727.78645989
 20
-715.79899547
 30
0.0
 11
2881.78645989
 21
-715.79899547
 31
0.0
  0
LINE
  5
20A
  8
0
 10
2727.78645989
 20
-655.79899547
 30
0.0
 11
2727.78645989
 21
-715.79899547
 31
0.0
  0
LINE
  5
20B
  8
0
 10
2881.78645989
 20
-655.79899547
 30
0.0
 11
2727.78645989
 21
-655.79899547
 31
0.0
  0
LINE
  5
20C
  8
0
  6
STRICHPUNKT2
 62
     1
 10
2818.78645989
 20
-685.79899547
 30
0.0
 11
2864.78645989
 21
-685.79899547
 31
0.0
  0
LINE
  5
20D
  8
0
  6
STRICHPUNKT2
 62
     1
 10
2828.78645989
 20
-695.79899547
 30
0.0
 11
2828.78645989
 21
-675.79899547
 31
0.0
  0
LINE
  5
20E
  8
0
  6
STRICHPUNKT2
 62
     1
 10
2854.78645989
 20
-695.79899547
 30
0.0
 11
2854.78645989
 21
-675.79899547
 31
0.0
  0
POLYLINE
  5
20F
  8
0
 66
     1
 10
0.0
 20
0.0
 30
0.0
  0
VERTEX
  5
210
  8
0
 10
2711.78645989
 20
-655.79899547
 30
0.0
  0
VERTEX
  5
211
  8
0
 10
2711.78645989
 20
-715.79899547
 30
0.0
  0
VERTEX
  5
212
  8
0
 10
2719.78645989
 20
-715.79899547
 30
0.0
  0
SEQEND
  5
213
  8
0
  0
LINE
  5
214
  8
0
 10
2719.78645989
 20
-655.79899547
 30
0.0
 11
2719.78645989
 21
-715.79899547
 31
0.0
  0
LINE
  5
215
  8
0
 10
2711.78645989
 20
-655.79899547
 30
0.0
 11
2719.78645989
 21
-655.79899547
 31
0.0
  0
TEXT
  5
216
  8
TXT_DIM49
 10
2794.00409409
 20
-643.29720167
 30
0.0
 40
2.5
  1
170
  7
ARIAL
  0
LINE
  5
217
  8
0
 62
     4
 10
2712.78645989
 20
-643.79720167
 30
0.0
 11
2710.78645989
 21
-645.79720167
 31
0.0
  0
LINE
  5
218
  8
0
 62
     4
 10
2881.03645989
 20
-645.54720167
 30
0.0
 11
2882.53645989
 21
-644.04720167
 31
0.0
  0
LINE
  5
219
  8
0
 62
     4
 10
2711.78645989
 20
-644.79720167
 30
0.0
 11
2881.78645989
 21
-644.79720167
 31
0.0
  0
LINE
  5
21A
  8
0
 62
     4
 10
2711.78645989
 20
-642.79720167
 30
0.0
 11
2711.78645989
 21
-646.79720167
 31
0.0
  0
LINE
  5
21B
  8
0
 62
     4
 10
2881.78645989
 20
-642.79720167
 30
0.0
 11
2881.78645989
 21
-646.79720167
 31
0.0
  0
TEXT
  5
21C
  8
TXT_DIM49
 10
2889.37302468
 20
-632.11570726
 30
0.0
 40
2.5
  1
8
 50
90.00020741
  7
ARIAL
  0
LINE
  5
21D
  8
0
 62
     4
 10
2891.87302468
 20
-628.18825196
 30
0.0
 11
2889.87302468
 21
-626.18825196
 31
0.0
  0
LINE
  5
21E
  8
0
 62
     4
 10
2890.12302468
 20
-634.43825196
 30
0.0
 11
2891.62302468
 21
-635.93825196
 31
0.0
  0
LINE
  5
21F
  8
0
 62
     4
 10
2890.87302468
 20
-627.18825196
 30
0.0
 11
2890.87302468
 21
-635.18825196
 31
0.0
  0
LINE
  5
220
  8
0
 62
     4
 10
2888.87302468
 20
-627.18825196
 30
0.0
 11
2892.87302468
 21
-627.18825196
 31
0.0
  0
LINE
  5
221
  8
0
 62
     4
 10
2888.87302468
 20
-635.18825196
 30
0.0
 11
2892.87302468
 21
-635.18825196
 31
0.0
  0
TEXT
  5
222
  8
TXT_DIM49
 10
2647.24351838
 20
-603.68825196
 30
0.0
 40
2.5
  1
60
  7
ARIAL
  0
LINE
  5
223
  8
0
 62
     4
 10
2620.09842899
 20
-604.18825196
 30
0.0
 11
2618.09842899
 21
-606.18825196
 31
0.0
  0
LINE
  5
224
  8
0
 62
     4
 10
2678.34842899
 20
-605.93825196
 30
0.0
 11
2679.84842899
 21
-604.43825196
 31
0.0
  0
LINE
  5
225
  8
0
 62
     4
 10
2619.09842899
 20
-605.18825196
 30
0.0
 11
2679.09842899
 21
-605.18825196
 31
0.0
  0
LINE
  5
226
  8
0
 62
     4
 10
2619.09842899
 20
-607.18825196
 30
0.0
 11
2619.09842899
 21
-603.18825196
 31
0.0
  0
LINE
  5
227
  8
0
 62
     4
 10
2679.09842899
 20
-607.18825196
 30
0.0
 11
2679.09842899
 21
-603.18825196
 31
0.0
  0
TEXT
  5
228
  8
TXT_DIM49
 10
2606.76904967
 20
-624.54316257
 30
0.0
 40
2.5
  1
25
 50
90.00020741
  7
ARIAL
  0
LINE
  5
229
  8
0
 62
     4
 10
2609.26904967
 20
-611.18825196
 30
0.0
 11
2607.26904967
 21
-609.18825196
 31
0.0
  0
LINE
  5
22A
  8
0
 62
     4
 10
2607.51904967
 20
-634.43825196
 30
0.0
 11
2609.01904967
 21
-635.93825196
 31
0.0
  0
LINE
  5
22B
  8
0
 62
     4
 10
2608.26904967
 20
-610.18825196
 30
0.0
 11
2608.26904967
 21
-635.18825196
 31
0.0
  0
LINE
  5
22C
  8
0
 62
     4
 10
2610.26904967
 20
-610.18825196
 30
0.0
 11
2606.26904967
 21
-610.18825196
 31
0.0
  0
LINE
  5
22D
  8
0
 62
     4
 10
2610.26904967
 20
-635.18825196
 30
0.0
 11
2606.26904967
 21
-635.18825196
 31
0.0
  0
TEXT
  5
22E
  8
TXT_DIM49
 10
2695.50959865
 20
-687.65390608
 30
0.0
 40
2.5
  1
60
 50
90.00020741
  7
ARIAL
  0
LINE
  5
22F
  8
0
 62
     4
 10
2698.00959865
 20
-656.79899547
 30
0.0
 11
2696.00959865
 21
-654.79899547
 31
0.0
  0
LINE
  5
230
  8
0
 62
     4
 10
2696.25959865
 20
-715.04899547
 30
0.0
 11
2697.75959865
 21
-716.54899547
 31
0.0
  0
LINE
  5
231
  8
0
 62
     4
 10
2697.00959865
 20
-655.79899547
 30
0.0
 11
2697.00959865
 21
-715.79899547
 31
0.0
  0
LINE
  5
232
  8
0
 62
     4
 10
2699.00959865
 20
-655.79899547
 30
0.0
 11
2695.00959865
 21
-655.79899547
 31
0.0
  0
LINE
  5
233
  8
0
 62
     4
 10
2699.00959865
 20
-715.79899547
 30
0.0
 11
2695.00959865
 21
-715.79899547
 31
0.0
  0
TEXT
  5
234
  8
TXT_DIM49
 10
2887.52550299
 20
-672.65390608
 30
0.0
 40
2.5
  1
30
 50
90.00020741
  7
ARIAL
  0
LINE
  5
235
  8
0
 62
     4
 10
2890.02550299
 20
-656.79899547
 30
0.0
 11
2888.02550299
 21
-654.79899547
 31
0.0
  0
LINE
  5
236
  8
0
 62
     4
 10
2888.27550299
 20
-685.04899547
 30
0.0
 11
2889.77550299
 21
-686.54899547
 31
0.0
  0
LINE
  5
237
  8
0
 62
     4
 10
2889.02550299
 20
-655.79899547
 30
0.0
 11
2889.02550299
 21
-685.79899547
 31
0.0
  0
LINE
  5
238
  8
0
 62
     4
 10
2887.02550299
 20
-655.79899547
 30
0.0
 11
2891.02550299
 21
-655.79899547
 31
0.0
  0
LINE
  5
239
  8
0
 62
     4
 10
2887.02550299
 20
-685.79899547
 30
0.0
 11
2891.02550299
 21
-685.79899547
 31
0.0
  0
TEXT
  5
23A
  8
TXT_DIM49
 10
2887.52550299
 20
-702.65390608
 30
0.0
 40
2.5
  1
30
 50
90.00020741
  7
ARIAL
  0
LINE
  5
23B
  8
0
 62
     4
 10
2890.02550299
 20
-686.79899547
 30
0.0
 11
2888.02550299
 21
-684.79899547
 31
0.0
  0
LINE
  5
23C
  8
0
 62
     4
 10
2888.27550299
 20
-715.04899547
 30
0.0
 11
2889.77550299
 21
-716.54899547
 31
0.0
  0
LINE
  5
23D
  8
0
 62
     4
 10
2889.02550299
 20
-685.79899547
 30
0.0
 11
2889.02550299
 21
-715.79899547
 31
0.0
  0
LINE
  5
23E
  8
0
 62
     4
 10
2887.02550299
 20
-685.79899547
 30
0.0
 11
2891.02550299
 21
-685.79899547
 31
0.0
  0
LINE
  5
23F
  8
0
 62
     4
 10
2887.02550299
 20
-715.79899547
 30
0.0
 11
2891.02550299
 21
-715.79899547
 31
0.0
  0
TEXT
  5
240
  8
TXT_DIM49
 10
2859.93154928
 20
-708.68948997
 30
0.0
 40
2.5
  1
40
  7
ARIAL
  0
LINE
  5
241
  8
0
 62
     4
 10
2880.78645989
 20
-711.18948997
 30
0.0
 11
2882.78645989
 21
-709.18948997
 31
0.0
  0
LINE
  5
242
  8
0
 62
     4
 10
2842.53645989
 20
-709.43948997
 30
0.0
 11
2841.03645989
 21
-710.93948997
 31
0.0
  0
LINE
  5
243
  8
0
 62
     4
 10
2881.78645989
 20
-710.18948997
 30
0.0
 11
2841.78645989
 21
-710.18948997
 31
0.0
  0
LINE
  5
244
  8
0
 62
     4
 10
2881.78645989
 20
-712.18948997
 30
0.0
 11
2881.78645989
 21
-708.18948997
 31
0.0
  0
LINE
  5
245
  8
0
 62
     4
 10
2841.78645989
 20
-708.18948997
 30
0.0
 11
2841.78645989
 21
-712.18948997
 31
0.0
  0
TEXT
  5
246
  8
TXT_DIM49
 10
2869.93154928
 20
-678.68948997
 30
0.0
 40
2.5
  1
20
  7
ARIAL
  0
LINE
  5
247
  8
0
 62
     4
 10
2880.78645989
 20
-681.18948997
 30
0.0
 11
2882.78645989
 21
-679.18948997
 31
0.0
  0
LINE
  5
248
  8
0
 62
     4
 10
2862.53645989
 20
-679.43948997
 30
0.0
 11
2861.03645989
 21
-680.93948997
 31
0.0
  0
LINE
  5
249
  8
0
 62
     4
 10
2881.78645989
 20
-680.18948997
 30
0.0
 11
2861.78645989
 21
-680.18948997
 31
0.0
  0
LINE
  5
24A
  8
0
 62
     4
 10
2881.78645989
 20
-682.18948997
 30
0.0
 11
2881.78645989
 21
-678.18948997
 31
0.0
  0
LINE
  5
24B
  8
0
 62
     4
 10
2861.78645989
 20
-682.18948997
 30
0.0
 11
2861.78645989
 21
-678.18948997
 31
0.0
  0
LINE
  5
24C
  8
0
 62
     5
 10
2841.78645989
 20
-678.79899547
 30
0.0
 11
2834.62468757
 21
-671.78253949
 31
0.0
  0
TEXT
  5
24D
  8
TXT_DIM49
 10
2811.55325926
 20
-673.03253949
 30
0.0
 40
2.5
  1
Slobgat 14 x 40
  7
ARIAL
  0
ENDSEC
  0
EOF
