  0
SECTION
  2
HEADER
  9
$ACADVER
  1
AC1006
  9
$DWGCODEPAGE
  3
ansi_1252
  9
$INSBASE
 10
0.0
 20
0.0
 30
0.0
  9
$EXTMIN
 10
326.00510892
 20
-1168.86875226
  9
$EXTMAX
 10
1147.89950306
 20
-790.19375226
  9
$LIMMIN
 10
326.00510892
 20
-1168.86875226
  9
$LIMMAX
 10
1147.89950306
 20
-790.19375226
  9
$ORTHOMODE
 70
     0
  9
$REGENMODE
 70
     1
  9
$FILLMODE
 70
     1
  9
$QTEXTMODE
 70
     0
  9
$MIRRTEXT
 70
     1
  9
$DRAGMODE
 70
     2
  9
$LTSCALE
 40
1.0
  9
$OSMODE
 70
    37
  9
$ATTMODE
 70
     1
  9
$TEXTSIZE
 40
1.0
  9
$TRACEWID
 40
0.05
  9
$TEXTSTYLE
  7
STANDARD
  9
$CLAYER
  8
0
  9
$CELTYPE
  6
BYBLOCK
  9
$CECOLOR
 62
   256
  9
$DIMSCALE
 40
1.0
  9
$DIMASZ
 40
0.18
  9
$DIMEXO
 40
0.0625
  9
$DIMDLI
 40
0.38
  9
$DIMRND
 40
0.0
  9
$DIMDLE
 40
0.0
  9
$DIMEXE
 40
0.18
  9
$DIMTP
 40
0.0
  9
$DIMTM
 40
0.0
  9
$DIMTXT
 40
0.18
  9
$DIMCEN
 40
0.09
  9
$DIMTSZ
 40
0.0
  9
$DIMTOL
 70
     0
  9
$DIMLIM
 70
     0
  9
$DIMTIH
 70
     1
  9
$DIMTOH
 70
     1
  9
$DIMSE1
 70
     0
  9
$DIMSE2
 70
     0
  9
$DIMTAD
 70
     0
  9
$DIMZIN
 70
     0
  9
$DIMBLK
  1

  9
$DIMASO
 70
     1
  9
$DIMSHO
 70
     1
  9
$DIMPOST
  1

  9
$DIMAPOST
  1

  9
$DIMALT
 70
     0
  9
$DIMALTD
 70
     2
  9
$DIMALTF
 40
25.4
  9
$DIMLFAC
 40
1.0
  9
$DIMTOFL
 70
     0
  9
$DIMTVP
 40
0.0
  9
$DIMTIX
 70
     0
  9
$DIMSOXD
 70
     0
  9
$DIMSAH
 70
     0
  9
$DIMBLK1
  1

  9
$DIMBLK2
  1

  9
$LUNITS
 70
     2
  9
$LUPREC
 70
     4
  9
$SKETCHINC
 40
0.1
  9
$FILLETRAD
 40
0.5
  9
$AUNITS
 70
     0
  9
$AUPREC
 70
     0
  9
$MENU
  1
.
  9
$ELEVATION
 40
0.0
  9
$THICKNESS
 40
0.0
  9
$LIMCHECK
 70
     0
  9
$CHAMFERA
 40
0.0
  9
$CHAMFERB
 40
0.0
  9
$SKPOLY
 70
     0
  9
$TDCREATE
 40
2447893.125
  9
$TDUPDATE
 40
2460791.48751368
  9
$TDINDWG
 40
0.0
  9
$TDUSRTIMER
 40
0.0
  9
$USRTIMER
 70
     1
  9
$ANGBASE
 50
0.0
  9
$ANGDIR
 70
     0
  9
$PDMODE
 70
     0
  9
$PDSIZE
 40
0.0
  9
$PLINEWID
 40
0.0
  9
$COORDS
 70
     1
  9
$SPLFRAME
 70
     0
  9
$SPLINETYPE
 70
     6
  9
$SPLINESEGS
 70
     8
  9
$ATTDIA
 70
     0
  9
$ATTREQ
 70
     1
  9
$HANDLING
 70
     1
  9
$HANDSEED
  5
32F
  9
$SURFTAB1
 70
     6
  9
$SURFTAB2
 70
     6
  9
$SURFTYPE
 70
     6
  9
$SURFU
 70
     6
  9
$SURFV
 70
     6
  9
$UCSNAME
  2

  9
$UCSORG
 10
0.0
 20
0.0
 30
0.0
  9
$UCSXDIR
 10
1.0
 20
0.0
 30
0.0
  9
$UCSYDIR
 10
0.0
 20
1.0
 30
0.0
  9
$USERI1
 70
     0
  9
$USERI2
 70
     0
  9
$USERI3
 70
     0
  9
$USERI4
 70
     0
  9
$USERI5
 70
     0
  9
$USERR1
 40
0.0
  9
$USERR2
 40
0.0
  9
$USERR3
 40
0.0
  9
$USERR4
 40
0.0
  9
$USERR5
 40
0.0
  9
$WORLDVIEW
 70
     1
  0
ENDSEC
  0
SECTION
  2
TABLES
  0
TABLE
  2
VPORT
 70
     1
  0
VPORT
  2
*ACTIVE
 70
     0
 10
0.0
 20
0.0
 11
1.0
 21
1.0
 12
736.95230599
 22
-979.53125226
 13
0.0
 23
0.0
 14
1.0
 24
1.0
 15
0.0
 25
0.0
 16
0.0
 26
0.0
 36
1.0
 17
0.0
 27
0.0
 37
0.0
 40
378.675
 41
2.170447994
 42
50.0
 43
0.0
 44
0.0
 50
0.0
 51
0.0
 71
     0
 72
   100
 73
     1
 74
     1
 75
     0
 76
     0
 77
     0
 78
     0
  0
ENDTAB
  0
TABLE
  2
LTYPE
 70
    19
  0
LTYPE
  2
CONTINUOUS
 70
     0
  3
Solid line
 72
    65
 73
     0
 40
0.0
  0
LTYPE
  2
DOT
 70
     0
  3
..............
 72
    65
 73
     2
 40
2.0
 49
0.5
 49
-1.5
  0
LTYPE
  2
HIDDEN
 70
     0
  3
-- -- -- -- --
 72
    65
 73
     2
 40
7.0
 49
4.0
 49
-3.0
  0
LTYPE
  2
DASHDOT
 70
     0
  3
--.--.--.--.--
 72
    65
 73
     4
 40
8.5
 49
4.0
 49
-2.0
 49
0.5
 49
-2.0
  0
LTYPE
  2
STRICHPUNKT2
 70
     0
  3
--.--.--.--.--
 72
    65
 73
     4
 40
18.5
 49
10.0
 49
-4.0
 49
0.5
 49
-4.0
  0
LTYPE
  2
STRICHPUNKT3
 70
     0
  3
--.--.--.--.--
 72
    65
 73
     4
 40
35.5
 49
25.0
 49
-5.0
 49
0.5
 49
-5.0
  0
LTYPE
  2
PHANTOM
 70
     0
  3
--..--..--..--
 72
    65
 73
     6
 40
23.0
 49
10.0
 49
-4.0
 49
0.5
 49
-4.0
 49
0.5
 49
-4.0
  0
LTYPE
  2
PHANTOM2
 70
     0
  3
--..--..--..--
 72
    65
 73
     6
 40
33.0
 49
20.0
 49
-4.0
 49
0.5
 49
-4.0
 49
0.5
 49
-4.0
  0
LTYPE
  2
PHANTOM3
 70
     0
  3
--..--..--..--
 72
    65
 73
     6
 40
50.0
 49
37.0
 49
-4.0
 49
0.5
 49
-4.0
 49
0.5
 49
-4.0
  0
LTYPE
  2
STR3PKT
 70
     0
  3
--...--...--...
 72
    65
 73
     8
 40
31.5
 49
20.0
 49
-2.5
 49
0.5
 49
-2.5
 49
0.5
 49
-2.5
 49
0.5
 49
-2.5
  0
LTYPE
  2
2STRPKT
 70
     0
  3
--.--.--.--.--
 72
    65
 73
     6
 40
28.0
 49
10.0
 49
-2.5
 49
10.0
 49
-2.5
 49
0.5
 49
-2.5
  0
LTYPE
  2
GESTRICHELT2
 70
     0
  3
-- -- -- -- --
 72
    65
 73
     2
 40
25.0
 49
10.0
 49
-15.0
  0
LTYPE
  2
2STR2PKT
 70
     0
  3
--..--..--..--
 72
    65
 73
     8
 40
31.0
 49
10.0
 49
-2.5
 49
10.0
 49
-2.5
 49
0.5
 49
-2.5
 49
0.5
 49
-2.5
  0
LTYPE
  2
STR3PKT2
 70
     0
  3
--...--...--...
 72
    65
 73
     8
 40
21.0
 49
10.0
 49
-2.5
 49
0.5
 49
-2.5
 49
0.5
 49
-2.5
 49
0.5
 49
-2.0
  0
LTYPE
  2
2STR3PKT
 70
     0
  3
--...--...--...
 72
    65
 73
    10
 40
34.0
 49
10.0
 49
-2.5
 49
10.0
 49
-2.5
 49
0.5
 49
-2.5
 49
0.5
 49
-2.5
 49
0.5
 49
-2.5
  0
LTYPE
  2
STRKSTR
 70
     0
  3
-- - -- - -- -
 72
    65
 73
     4
 40
30.0
 49
20.0
 49
-2.5
 49
5.0
 49
-2.5
  0
LTYPE
  2
STRKSTR2
 70
     0
  3
-- - -- - -- -
 72
    65
 73
     6
 40
37.5
 49
20.0
 49
-2.5
 49
5.0
 49
-2.5
 49
5.0
 49
-2.5
  0
LTYPE
  2
STRKSTR3
 70
     0
  3
-- - -- - -- -
 72
    65
 73
     8
 40
45.0
 49
20.0
 49
-2.5
 49
5.0
 49
-2.5
 49
5.0
 49
-2.5
 49
5.0
 49
-2.5
  0
LTYPE
  2
PUNKT2
 70
     0
  3
..............
 72
    65
 73
     2
 40
3.5
 49
0.5
 49
-3.0
  0
ENDTAB
  0
TABLE
  2
LAYER
 70
    17
  0
LAYER
  2
0
 70
     0
 62
     7
  6
CONTINUOUS
  0
LAYER
  2
LE_GREEN
 70
     0
 62
     3
  6
CONTINUOUS
  0
LAYER
  2
LE_RED
 70
     0
 62
     1
  6
CONTINUOUS
  0
LAYER
  2
LE_ALL
 70
     0
 62
     7
  6
CONTINUOUS
  0
LAYER
  2
LE_HIDDEN1
 70
     0
 62
     3
  6
HIDDEN
  0
LAYER
  2
LE_HIDDEN
 70
     0
 62
     7
  6
CONTINUOUS
  0
LAYER
  2
LE_MIDDLE
 70
     0
 62
     7
  6
CONTINUOUS
  0
LAYER
  2
TXT_YELLOW
 70
     0
 62
     2
  6
CONTINUOUS
  0
LAYER
  2
TXT_DIM49
 70
     0
 62
     2
  6
CONTINUOUS
  0
LAYER
  2
TXT_ALL
 70
     0
 62
     7
  6
CONTINUOUS
  0
LAYER
  2
DIM49
 70
     0
 62
     4
  6
CONTINUOUS
  0
LAYER
  2
HATCH
 70
     0
 62
     3
  6
CONTINUOUS
  0
LAYER
  2
APPLE
 70
     0
 62
     7
  6
CONTINUOUS
  0
LAYER
  2
10
 70
     0
 62
     7
  6
CONTINUOUS
  0
LAYER
  2
20
 70
     0
 62
     7
  6
CONTINUOUS
  0
LAYER
  2
47
 70
     0
 62
     7
  6
CONTINUOUS
  0
LAYER
  2
49
 70
     0
 62
     7
  6
CONTINUOUS
  0
ENDTAB
  0
TABLE
  2
STYLE
 70
     5
  0
STYLE
  2
MONOTXT
 70
     0
 40
0.0
 41
1.0
 50
0.0
 71
     0
 42
1.0
  3
monotxt.shx
  4

  0
STYLE
  2
STANDARD
 70
     0
 40
0.0
 41
1.0
 50
0.0
 71
     0
 42
1.0
  3
txt
  4

  0
STYLE
  2
ARIAL
 70
     0
 40
0.0
 41
1.0
 50
0.0
 71
     0
 42
1.0
  3
arial.ttf
  4

  0
STYLE
  2
ARIAL_NARROW
 70
     0
 40
0.0
 41
1.0
 50
0.0
 71
     0
 42
1.0
  3
ArialN.ttf
  4

  0
STYLE
  2
ISOCPEUR
 70
     0
 40
0.0
 41
1.0
 50
0.0
 71
     0
 42
1.0
  3
ISOCPEUR.ttf
  4

  0
ENDTAB
  0
TABLE
  2
VIEW
 70
     0
  0
ENDTAB
  0
TABLE
  2
UCS
 70
     0
  0
ENDTAB
  0
ENDSEC
  0
SECTION
  2
BLOCKS
  0
ENDSEC
  0
SECTION
  2
ENTITIES
  0
POLYLINE
  5
16E
  8
0
 66
     1
 10
0.0
 20
0.0
 30
0.0
 70
     1
  0
VERTEX
  5
16F
  8
0
 10
543.6968889
 20
-1162.78441461
 30
0.0
  0
VERTEX
  5
170
  8
0
 10
963.6968889
 20
-1162.78441461
 30
0.0
  0
VERTEX
  5
171
  8
0
 10
963.6968889
 20
-865.78441461
 30
0.0
  0
VERTEX
  5
172
  8
0
 10
543.6968889
 20
-865.78441461
 30
0.0
  0
SEQEND
  5
173
  8
0
  0
POLYLINE
  5
174
  8
0
 66
     1
 10
0.0
 20
0.0
 30
0.0
 70
     1
  0
VERTEX
  5
175
  8
0
 10
548.6968889
 20
-1157.78441461
 30
0.0
  0
VERTEX
  5
176
  8
0
 10
958.6968889
 20
-1157.78441461
 30
0.0
  0
VERTEX
  5
177
  8
0
 10
958.6968889
 20
-870.78441461
 30
0.0
  0
VERTEX
  5
178
  8
0
 10
548.6968889
 20
-870.78441461
 30
0.0
  0
SEQEND
  5
179
  8
0
  0
LINE
  5
17A
  8
0
 10
773.6968889
 20
-1157.78441461
 30
0.0
 11
773.6968889
 21
-1162.78441461
 31
0.0
  0
LINE
  5
17B
  8
0
 10
773.6968889
 20
-870.78441461
 30
0.0
 11
773.6968889
 21
-865.78441461
 31
0.0
  0
LINE
  5
17C
  8
0
 10
563.6968889
 20
-1157.78441461
 30
0.0
 11
563.6968889
 21
-1162.78441461
 31
0.0
  0
LINE
  5
17D
  8
0
 10
563.6968889
 20
-870.78441461
 30
0.0
 11
563.6968889
 21
-865.78441461
 31
0.0
  0
TEXT
  5
17E
  8
TXT_ALL
 62
     4
 10
962.6968889
 20
-1161.78441461
 30
0.0
 40
2.5
  1

 50
90.00020741
  0
POLYLINE
  5
17F
  8
0
 66
     1
 10
0.0
 20
0.0
 30
0.0
  0
VERTEX
  5
180
  8
0
 10
958.6968889
 20
-880.78441461
 30
0.0
  0
VERTEX
  5
181
  8
0
 10
889.7035889
 20
-880.78441461
 30
0.0
  0
VERTEX
  5
182
  8
0
 10
889.7035889
 20
-870.78441461
 30
0.0
  0
SEQEND
  5
183
  8
0
  0
LINE
  5
184
  8
0
 10
891.6068889
 20
-1138.28441461
 30
0.0
 11
751.7168889
 21
-1138.28441461
 31
0.0
  0
LINE
  5
185
  8
0
 10
751.7168889
 20
-1148.03441461
 30
0.0
 11
891.6068889
 21
-1148.03441461
 31
0.0
  0
POLYLINE
  5
186
  8
0
 66
     1
 10
0.0
 20
0.0
 30
0.0
  0
VERTEX
  5
187
  8
0
 10
751.7168889
 20
-1138.28441461
 30
0.0
  0
VERTEX
  5
188
  8
0
 10
751.7168889
 20
-1148.03441461
 30
0.0
  0
VERTEX
  5
189
  8
0
 10
751.7168889
 20
-1157.78441461
 30
0.0
  0
SEQEND
  5
18A
  8
0
  0
POLYLINE
  5
18B
  8
0
 66
     1
 10
0.0
 20
0.0
 30
0.0
  0
VERTEX
  5
18C
  8
0
 10
821.6618889
 20
-1138.28441461
 30
0.0
  0
VERTEX
  5
18D
  8
0
 10
821.6618889
 20
-1148.03441461
 30
0.0
  0
VERTEX
  5
18E
  8
0
 10
821.6618889
 20
-1157.78441461
 30
0.0
  0
SEQEND
  5
18F
  8
0
  0
TEXT
  5
190
  8
TXT_ALL
 10
753.7168889
 20
-1144.45941456
 30
0.0
 40
2.5999999
  1
E-mail: verkoop@jonkers-bouwmetaal.nl
  7
ARIAL
  0
TEXT
  5
191
  8
TXT_ALL
 10
753.7168889
 20
-1154.20941456
 30
0.0
 40
2.5999999
  1
Telefoon: 0527-685156
  7
ARIAL
  0
TEXT
  5
192
  8
TXT_ALL
 10
823.6618889
 20
-1154.20941456
 30
0.0
 40
2.5999999
  1
Website: www.jonkers-bouwmetaal.nl
  7
ARIAL
  0
TEXT
  5
193
  8
TXT_ALL
 10
823.6618889
 20
-1144.45941456
 30
0.0
 40
2.5999999
  1
Adres: Hoornse Hop 10, 8321 WX Urk
  7
ARIAL
  0
TEXT
  5
194
  8
TXT_ALL
 10
552.13884916
 20
-877.03441461
 30
0.0
 40
2.5
  1
Art. nr. 91006321-02
  7
ARIAL
  0
TEXT
  5
195
  8
TXT_ALL
 10
594.87688597
 20
-877.03441461
 30
0.0
 40
2.5
  1
Omschrijving: J03-Anker 170x25 60x8
  7
ARIAL
  0
LINE
  5
196
  8
0
 10
958.6968889
 20
-880.78441461
 30
0.0
 11
548.6968889
 21
-880.78441461
 31
0.0
  0
LINE
  5
197
  8
0
 10
591.7168889
 20
-880.78441461
 30
0.0
 11
591.7168889
 21
-870.78441461
 31
0.0
  0
LINE
  5
198
  8
0
 10
751.7168889
 20
-880.78441461
 30
0.0
 11
751.7168889
 21
-870.78441461
 31
0.0
  0
TEXT
  5
199
  8
TXT_ALL
 10
822.7105889
 20
-877.03441461
 30
0.0
 40
2.5
  1
Behandeling: Thermisch Verzinkt
  7
ARIAL
  0
LINE
  5
19A
  8
0
 10
891.6068889
 20
-1138.28441461
 30
0.0
 11
958.6968889
 21
-1138.28441461
 31
0.0
  0
LINE
  5
19B
  8
0
 10
891.6068889
 20
-1157.78441461
 30
0.0
 11
891.6068889
 21
-1138.28441461
 31
0.0
  0
LINE
  5
19C
  8
0
 10
891.6068889
 20
-1157.78441461
 30
0.0
 11
891.6068889
 21
-1138.28441461
 31
0.0
  0
TEXT
  5
19D
  8
TXT_ALL
 10
686.062087
 20
-1156.6298812
 30
0.0
 40
2.5
  1

  0
TEXT
  5
19E
  8
TXT_ALL
 10
807.19726996
 20
-1146.53441461
 30
0.0
 40
2.5
  1

  0
POLYLINE
  5
19F
  8
0
 66
     1
 10
0.0
 20
0.0
 30
0.0
  0
VERTEX
  5
1A0
  8
0
 10
889.7035889
 20
-880.78441461
 30
0.0
  0
VERTEX
  5
1A1
  8
0
 10
820.7105889
 20
-880.78441461
 30
0.0
  0
VERTEX
  5
1A2
  8
0
 10
820.7105889
 20
-870.78441461
 30
0.0
  0
SEQEND
  5
1A3
  8
0
  0
TEXT
  5
1A4
  8
TXT_ALL
 10
891.7035889
 20
-877.03441461
 30
0.0
 40
2.5
  1
Verpakkingshoeveelheid: 1 st.
  7
ARIAL
  0
TEXT
  5
1A5
  8
TXT_ALL
 10
753.7168889
 20
-877.03441461
 30
0.0
 40
2.5
  1
Materiaal: S355
  7
ARIAL
  0
TEXT
  5
1A6
  8
TXT_ALL
 10
926.18931182
 20
-1161.03392446
 30
0.0
 40
1.5
  1
Onderdeel van
  7
ARIAL
  0
LINE
  5
1A7
  8
0
 10
614.54751579
 20
-1039.16816886
 30
0.0
 11
579.53095185
 21
-1066.74448184
 31
0.0
  0
LINE
  5
1A8
  8
0
 10
579.53095185
 20
-1059.32478655
 30
0.0
 11
579.53095185
 21
-1066.74448184
 31
0.0
  0
LINE
  5
1A9
  8
0
 10
614.54751579
 20
-1031.74847357
 30
0.0
 11
579.53095185
 21
-1059.32478655
 31
0.0
  0
LINE
  5
1AA
  8
0
 10
614.54751579
 20
-1039.16816886
 30
0.0
 11
614.54751579
 21
-1031.74847357
 31
0.0
  0
LINE
  5
1AB
  8
0
 10
608.05123959
 20
-1029.10592658
 30
0.0
 11
614.54751579
 21
-1031.74847357
 31
0.0
  0
POLYLINE
  5
1AC
  8
0
 66
     1
 10
0.0
 20
0.0
 30
0.0
  0
VERTEX
  5
1AD
  8
0
 10
608.05123959
 20
-1029.10592658
 30
0.0
  0
VERTEX
  5
1AE
  8
0
 10
573.03467566
 20
-1056.68223956
 30
0.0
  0
VERTEX
  5
1AF
  8
0
 10
579.53095185
 20
-1059.32478655
 30
0.0
  0
SEQEND
  5
1B0
  8
0
  0
POLYLINE
  5
1B1
  8
0
 66
     1
 10
0.0
 20
0.0
 30
0.0
  0
VERTEX
  5
1B2
  8
0
 10
573.03467566
 20
-1056.68223956
 30
0.0
  0
VERTEX
  5
1B3
  8
0
 10
573.03467566
 20
-1064.10193484
 30
0.0
  0
VERTEX
  5
1B4
  8
0
 10
579.53095185
 20
-1066.74448184
 30
0.0
  0
SEQEND
  5
1B5
  8
0
  0
LINE
  5
1B6
  8
0
 10
687.00767343
 20
-1092.589167435778
 30
0.0
 11
687.0995884571518
 21
-1093.229104686398
 31
0.0
  0
POLYLINE
  5
1B7
  8
0
 66
     1
 10
0.0
 20
0.0
 30
0.0
  0
VERTEX
  5
2DB
  8
0
 10
700.9157584100959
 20
-1091.949230238665
 30
0.0
  0
VERTEX
  5
2DC
  8
0
 10
700.5568386688847
 20
-1091.190303685069
 30
0.0
  0
VERTEX
  5
2DD
  8
0
 10
699.9403927278889
 20
-1090.486383236259
 30
0.0
  0
VERTEX
  5
2DE
  8
0
 10
699.0906604672713
 20
-1089.865148443985
 30
0.0
  0
VERTEX
  5
2DF
  8
0
 10
698.041055049157
 20
-1089.351027495562
 30
0.0
  0
VERTEX
  5
2E0
  8
0
 10
696.8328490456588
 20
-1088.96423664898
 30
0.0
  0
VERTEX
  5
2E1
  8
0
 10
695.5135515192738
 20
-1088.719985289435
 30
0.0
  0
VERTEX
  5
2E2
  8
0
 10
694.1350398720774
 20
-1088.627877866062
 30
0.0
  0
VERTEX
  5
2E3
  8
0
 10
692.7515199231186
 20
-1088.691536225898
 30
0.0
  0
VERTEX
  5
2E4
  8
0
 10
691.4173944278303
 20
-1088.908457195653
 30
0.0
  0
VERTEX
  5
2E5
  8
0
 10
690.1851238535097
 20
-1089.270111011463
 30
0.0
  0
VERTEX
  5
2E6
  8
0
 10
689.1031635294295
 20
-1089.762276726166
 30
0.0
  0
VERTEX
  5
2E7
  8
0
 10
688.2140582869406
 20
-1090.365601405219
 30
0.0
  0
VERTEX
  5
2E8
  8
0
 10
687.5527695121059
 20
-1091.05636112257
 30
0.0
  0
VERTEX
  5
2E9
  8
0
 10
687.1453003944821
 20
-1091.807393832603
 30
0.0
  0
VERTEX
  5
2EA
  8
0
 10
687.00767343
 20
-1092.589167435778
 30
0.0
  0
SEQEND
  5
328
  8
0
  0
POLYLINE
  5
1B8
  8
0
 66
     1
 10
0.0
 20
0.0
 30
0.0
  0
VERTEX
  5
1B9
  8
0
 10
700.91575841
 20
-1091.94923023
 30
0.0
  0
VERTEX
  5
1BA
  8
0
 10
705.11530325
 20
-1106.47179874
 30
0.0
  0
SEQEND
  5
1BB
  8
0
  0
LINE
  5
1BC
  8
0
 10
705.20721827
 20
-1107.11173596
 30
0.0
 11
705.115303250096
 21
-1106.471798748665
 31
0.0
  0
POLYLINE
  5
1BD
  8
0
 66
     1
 10
0.0
 20
0.0
 30
0.0
  0
VERTEX
  5
2EB
  8
0
 10
691.2991332971518
 20
-1107.751673196398
 30
0.0
  0
VERTEX
  5
2EC
  8
0
 10
691.6580530464935
 20
-1108.510599747996
 30
0.0
  0
VERTEX
  5
2ED
  8
0
 10
692.2744989945293
 20
-1109.214520194003
 30
0.0
  0
VERTEX
  5
2EE
  8
0
 10
693.124231260865
 20
-1109.835754982834
 30
0.0
  0
VERTEX
  5
2EF
  8
0
 10
694.173836683214
 20
-1110.349875927354
 30
0.0
  0
VERTEX
  5
2F0
  8
0
 10
695.3820426893745
 20
-1110.736666769766
 30
0.0
  0
VERTEX
  5
2F1
  8
0
 10
696.7013402168346
 20
-1110.980918125067
 30
0.0
  0
VERTEX
  5
2F2
  8
0
 10
698.0798518635747
 20
-1111.073025544305
 30
0.0
  0
VERTEX
  5
2F3
  8
0
 10
699.4633718106658
 20
-1111.009367180615
 30
0.0
  0
VERTEX
  5
2F4
  8
0
 10
700.7974973028511
 20
-1110.792446207431
 30
0.0
  0
VERTEX
  5
2F5
  8
0
 10
702.0297678730543
 20
-1110.430792388737
 30
0.0
  0
VERTEX
  5
2F6
  8
0
 10
703.1117281922564
 20
-1109.938626671782
 30
0.0
  0
VERTEX
  5
2F7
  8
0
 10
704.0008334293783
 20
-1109.33530199116
 30
0.0
  0
VERTEX
  5
2F8
  8
0
 10
704.6621221986342
 20
-1108.644542272941
 30
0.0
  0
VERTEX
  5
2F9
  8
0
 10
705.069591310736
 20
-1107.893509562724
 30
0.0
  0
VERTEX
  5
2FA
  8
0
 10
705.20721827
 20
-1107.11173596
 30
0.0
  0
SEQEND
  5
329
  8
0
  0
LINE
  5
1BE
  8
0
 10
691.29913329
 20
-1107.75167318
 30
0.0
 11
687.09958845
 21
-1093.22910467
 31
0.0
  0
POLYLINE
  5
1BF
  8
0
 66
     1
 10
0.0
 20
0.0
 30
0.0
  0
VERTEX
  5
1C0
  8
0
 10
704.02925593
 20
-1109.31139153
 30
0.0
  0
VERTEX
  5
1C1
  8
0
 10
700.91575841
 20
-1098.54451493
 30
0.0
  0
SEQEND
  5
1C2
  8
0
  0
POLYLINE
  5
1C3
  8
0
 66
     1
 10
0.0
 20
0.0
 30
0.0
  0
VERTEX
  5
2FB
  8
0
 10
700.9157584100959
 20
-1098.544514938665
 30
0.0
  0
VERTEX
  5
2FC
  8
0
 10
700.5553393469731
 20
-1097.783341773433
 30
0.0
  0
VERTEX
  5
2FD
  8
0
 10
699.935884398728
 20
-1097.077598721948
 30
0.0
  0
VERTEX
  5
2FE
  8
0
 10
699.0819001701335
 20
-1096.455206081048
 30
0.0
  0
VERTEX
  5
2FF
  8
0
 10
698.0271716104124
 20
-1095.940786675214
 30
0.0
  0
VERTEX
  5
300
  8
0
 10
696.8134254279059
 20
-1095.554691739192
 30
0.0
  0
VERTEX
  5
301
  8
0
 10
695.4886793163517
 20
-1095.312195791377
 30
0.0
  0
VERTEX
  5
302
  8
0
 10
694.1053422999611
 20
-1095.222892350022
 30
0.0
  0
VERTEX
  5
303
  8
0
 10
692.7181413506056
 20
-1095.290314398675
 30
0.0
  0
VERTEX
  5
304
  8
0
 10
691.381956303377
 20
-1095.511794615841
 30
0.0
  0
VERTEX
  5
305
  8
0
 10
690.1496487246387
 20
-1095.87857089838
 30
0.0
  0
VERTEX
  5
306
  8
0
 10
689.0699706259395
 20
-1096.376133003986
 30
0.0
  0
VERTEX
  5
307
  8
0
 10
688.1856357583306
 20
-1096.984796599027
 30
0.0
  0
SEQEND
  5
32A
  8
0
  0
LINE
  5
1C4
  8
0
 10
746.09710881
 20
-1099.27503018
 30
0.0
 11
711.08054487
 21
-1126.85134316
 31
0.0
  0
LINE
  5
1C5
  8
0
 10
586.02722805
 20
-1075.98231353
 30
0.0
 11
711.08054487
 21
-1126.85134316
 31
0.0
  0
LINE
  5
1C6
  8
0
 10
621.04379199
 20
-1048.40600055
 30
0.0
 11
586.02722805
 21
-1075.98231353
 31
0.0
  0
LINE
  5
1C7
  8
0
 10
746.09710881
 20
-1099.27503018
 30
0.0
 11
621.04379199
 21
-1048.40600055
 31
0.0
  0
LINE
  5
1C8
  8
0
 10
746.09710881
 20
-1105.87031488
 30
0.0
 11
746.09710881
 21
-1099.27503018
 31
0.0
  0
POLYLINE
  5
1C9
  8
0
 66
     1
 10
0.0
 20
0.0
 30
0.0
  0
VERTEX
  5
1CA
  8
0
 10
746.09710881
 20
-1105.87031488
 30
0.0
  0
VERTEX
  5
1CB
  8
0
 10
711.08054487
 20
-1133.44662786
 30
0.0
  0
VERTEX
  5
1CC
  8
0
 10
711.08054487
 20
-1126.85134316
 30
0.0
  0
SEQEND
  5
1CD
  8
0
  0
LINE
  5
1CE
  8
0
 10
586.02722805
 20
-1082.57759823
 30
0.0
 11
711.08054487
 21
-1133.44662786
 31
0.0
  0
LINE
  5
1CF
  8
0
 10
586.02722805
 20
-1082.57759823
 30
0.0
 11
586.02722805
 21
-1075.98231353
 31
0.0
  0
LINE
  5
1D0
  8
0
  6
STRICHPUNKT2
 62
     1
 10
694.00767343
 20
-1089.70373039
 30
0.0
 11
694.00767343
 21
-1102.0698892
 31
0.0
  0
LINE
  5
1D1
  8
0
  6
STRICHPUNKT2
 62
     1
 10
698.20721827
 20
-1104.2262989
 30
0.0
 11
698.20721827
 21
-1116.59245772
 31
0.0
  0
LINE
  5
1D2
  8
0
  6
STRICHPUNKT2
 62
     1
 10
692.3117034
 20
-1086.72428401
 30
0.0
 11
699.9031883
 21
-1112.9766194
 31
0.0
  0
LINE
  5
1D3
  8
0
  6
STRICHPUNKT2
 62
     1
 10
683.64554596
 20
-1093.54907328
 30
0.0
 11
704.3698009
 21
-1091.62926162
 31
0.0
  0
LINE
  5
1D4
  8
0
  6
STRICHPUNKT2
 62
     1
 10
687.8450908
 20
-1108.07164179
 30
0.0
 11
708.56934574
 21
-1106.15183013
 31
0.0
  0
LINE
  5
1D5
  8
0
  6
STRICHPUNKT2
 62
     1
 10
692.3117034
 20
-1093.31956871
 30
0.0
 11
699.9031883
 21
-1119.5719041
 31
0.0
  0
LINE
  5
1D6
  8
0
  6
STRICHPUNKT2
 62
     1
 10
683.64554596
 20
-1100.14435797
 30
0.0
 11
704.3698009
 21
-1098.22454632
 31
0.0
  0
LINE
  5
1D7
  8
0
  6
STRICHPUNKT2
 62
     1
 10
687.8450908
 20
-1114.66692649
 30
0.0
 11
708.56934574
 21
-1112.74711483
 31
0.0
  0
LINE
  5
1D8
  8
0
  6
STRICHPUNKT2
 62
     1
 10
694.00767343
 20
-1092.58916745
 30
0.0
 11
698.20721827
 21
-1107.11173596
 31
0.0
  0
LINE
  5
1D9
  8
0
  6
STRICHPUNKT2
 62
     1
 10
694.00767343
 20
-1092.58916745
 30
0.0
 11
692.39246387
 21
-1087.00356417
 31
0.0
  0
LINE
  5
1DA
  8
0
  6
STRICHPUNKT2
 62
     1
 10
698.20721827
 20
-1107.11173596
 30
0.0
 11
699.82242783
 21
-1112.69733924
 31
0.0
  0
LINE
  5
1DB
  8
0
  6
STRICHPUNKT2
 62
     1
 10
694.00767343
 20
-1092.58916745
 30
0.0
 11
684.1389806
 21
-1093.50336347
 31
0.0
  0
LINE
  5
1DC
  8
0
  6
STRICHPUNKT2
 62
     1
 10
698.20721827
 20
-1107.11173596
 30
0.0
 11
688.33852544
 21
-1108.02593199
 31
0.0
  0
LINE
  5
1DD
  8
0
  6
STRICHPUNKT2
 62
     1
 10
694.00767343
 20
-1092.58916745
 30
0.0
 11
703.87636625
 21
-1091.67497142
 31
0.0
  0
LINE
  5
1DE
  8
0
  6
STRICHPUNKT2
 62
     1
 10
698.20721827
 20
-1107.11173596
 30
0.0
 11
708.0759111
 21
-1106.19753993
 31
0.0
  0
LINE
  5
1DF
  8
0
  6
STRICHPUNKT2
 62
     1
 10
694.00767343
 20
-1092.58916745
 30
0.0
 11
698.20721827
 21
-1107.11173596
 31
0.0
  0
LINE
  5
1E0
  8
0
  6
STRICHPUNKT2
 62
     1
 10
694.00767343
 20
-1092.58916745
 30
0.0
 11
692.39246387
 21
-1087.00356417
 31
0.0
  0
LINE
  5
1E1
  8
0
  6
STRICHPUNKT2
 62
     1
 10
698.20721827
 20
-1107.11173596
 30
0.0
 11
699.82242783
 21
-1112.69733924
 31
0.0
  0
LINE
  5
1E2
  8
0
  6
STRICHPUNKT2
 62
     1
 10
694.00767343
 20
-1092.58916745
 30
0.0
 11
684.1389806
 21
-1093.50336347
 31
0.0
  0
LINE
  5
1E3
  8
0
  6
STRICHPUNKT2
 62
     1
 10
698.20721827
 20
-1107.11173596
 30
0.0
 11
688.33852544
 21
-1108.02593199
 31
0.0
  0
LINE
  5
1E4
  8
0
  6
STRICHPUNKT2
 62
     1
 10
694.00767343
 20
-1092.58916745
 30
0.0
 11
703.87636625
 21
-1091.67497142
 31
0.0
  0
LINE
  5
1E5
  8
0
  6
STRICHPUNKT2
 62
     1
 10
698.20721827
 20
-1107.11173596
 30
0.0
 11
708.0759111
 21
-1106.19753993
 31
0.0
  0
LINE
  5
1E6
  8
0
  6
STRICHPUNKT2
 62
     1
 10
694.00767343
 20
-1092.58916745
 30
0.0
 11
698.20721827
 21
-1107.11173596
 31
0.0
  0
LINE
  5
1E7
  8
0
  6
STRICHPUNKT2
 62
     1
 10
694.00767343
 20
-1092.58916745
 30
0.0
 11
692.39246387
 21
-1087.00356417
 31
0.0
  0
LINE
  5
1E8
  8
0
  6
STRICHPUNKT2
 62
     1
 10
698.20721827
 20
-1107.11173596
 30
0.0
 11
699.82242783
 21
-1112.69733924
 31
0.0
  0
LINE
  5
1E9
  8
0
  6
STRICHPUNKT2
 62
     1
 10
694.00767343
 20
-1092.58916745
 30
0.0
 11
684.1389806
 21
-1093.50336347
 31
0.0
  0
LINE
  5
1EA
  8
0
  6
STRICHPUNKT2
 62
     1
 10
698.20721827
 20
-1107.11173596
 30
0.0
 11
688.33852544
 21
-1108.02593199
 31
0.0
  0
LINE
  5
1EB
  8
0
  6
STRICHPUNKT2
 62
     1
 10
694.00767343
 20
-1092.58916745
 30
0.0
 11
703.87636625
 21
-1091.67497142
 31
0.0
  0
LINE
  5
1EC
  8
0
  6
STRICHPUNKT2
 62
     1
 10
698.20721827
 20
-1107.11173596
 30
0.0
 11
708.0759111
 21
-1106.19753993
 31
0.0
  0
POLYLINE
  5
1ED
  8
0
 66
     1
 10
0.0
 20
0.0
 30
0.0
  0
VERTEX
  5
308
  8
0
 10
579.5309518504605
 20
-1066.744481814341
 30
0.0
  0
VERTEX
  5
309
  8
0
 10
579.655775971868
 20
-1068.081933831699
 30
0.0
  0
VERTEX
  5
30A
  8
0
 10
580.0254514244826
 20
-1069.469539918139
 30
0.0
  0
VERTEX
  5
30B
  8
0
 10
580.625771787919
 20
-1070.853975149722
 30
0.0
  0
VERTEX
  5
30C
  8
0
 10
581.4336670871799
 20
-1072.182036456682
 30
0.0
  0
VERTEX
  5
30D
  8
0
 10
582.4180903588614
 20
-1073.40268718757
 30
0.0
  0
VERTEX
  5
30E
  8
0
 10
583.5412107685498
 20
-1074.469018419156
 30
0.0
  0
VERTEX
  5
30F
  8
0
 10
584.7598674285783
 20
-1075.340051640048
 30
0.0
  0
VERTEX
  5
310
  8
0
 10
586.0272280467424
 20
-1075.982313531914
 30
0.0
  0
SEQEND
  5
32B
  8
0
  0
LINE
  5
1EE
  8
0
 10
621.04379199
 20
-1048.40600055
 30
0.0
 11
586.02722805
 21
-1075.98231353
 31
0.0
  0
POLYLINE
  5
1EF
  8
0
 66
     1
 10
0.0
 20
0.0
 30
0.0
  0
VERTEX
  5
311
  8
0
 10
614.5475157904606
 20
-1039.168168834341
 30
0.0
  0
VERTEX
  5
312
  8
0
 10
614.6723399118681
 20
-1040.505620851698
 30
0.0
  0
VERTEX
  5
313
  8
0
 10
615.0420153644827
 20
-1041.893226938139
 30
0.0
  0
VERTEX
  5
314
  8
0
 10
615.6423357279191
 20
-1043.277662169722
 30
0.0
  0
VERTEX
  5
315
  8
0
 10
616.4502310271799
 20
-1044.605723476682
 30
0.0
  0
VERTEX
  5
316
  8
0
 10
617.4346542988615
 20
-1045.82637420757
 30
0.0
  0
VERTEX
  5
317
  8
0
 10
618.5577747085499
 20
-1046.892705439156
 30
0.0
  0
VERTEX
  5
318
  8
0
 10
619.7764313685784
 20
-1047.763738660048
 30
0.0
  0
VERTEX
  5
319
  8
0
 10
621.0437919867425
 20
-1048.406000551914
 30
0.0
  0
SEQEND
  5
32C
  8
0
  0
LINE
  5
1F0
  8
0
 10
614.54751579
 20
-1039.16816886
 30
0.0
 11
579.53095185
 21
-1066.74448184
 31
0.0
  0
LINE
  5
1F1
  8
0
 10
573.03467566
 20
-1064.10193484
 30
0.0
 11
579.53095185
 21
-1066.74448184
 31
0.0
  0
POLYLINE
  5
1F2
  8
0
 66
     1
 10
0.0
 20
0.0
 30
0.0
  0
VERTEX
  5
31A
  8
0
 10
573.034675650921
 20
-1064.101934798682
 30
0.0
  0
VERTEX
  5
31B
  8
0
 10
573.284323893736
 20
-1066.776838833397
 30
0.0
  0
VERTEX
  5
31C
  8
0
 10
574.0236747989653
 20
-1069.552051006278
 30
0.0
  0
VERTEX
  5
31D
  8
0
 10
575.2243155258379
 20
-1072.320921469444
 30
0.0
  0
VERTEX
  5
31E
  8
0
 10
576.8401061243599
 20
-1074.977044083364
 30
0.0
  0
VERTEX
  5
31F
  8
0
 10
578.8089526677228
 20
-1077.41834554514
 30
0.0
  0
VERTEX
  5
320
  8
0
 10
581.0551934870996
 20
-1079.551008008311
 30
0.0
  0
VERTEX
  5
321
  8
0
 10
583.4925068071568
 20
-1081.293074450097
 30
0.0
  0
VERTEX
  5
322
  8
0
 10
586.0272280434846
 20
-1082.577598233828
 30
0.0
  0
SEQEND
  5
32D
  8
0
  0
LINE
  5
1F3
  8
0
 10
586.02722805
 20
-1082.57759823
 30
0.0
 11
586.02722805
 21
-1075.98231353
 31
0.0
  0
POLYLINE
  5
1F4
  8
0
 66
     1
 10
0.0
 20
0.0
 30
0.0
  0
VERTEX
  5
1F5
  8
0
 10
722.83432663
 20
-918.94875981
 30
0.0
  0
VERTEX
  5
1F6
  8
0
 10
722.83432663
 20
-927.94875981
 30
0.0
  0
VERTEX
  5
1F7
  8
0
 10
730.83432663
 20
-927.94875981
 30
0.0
  0
SEQEND
  5
1F8
  8
0
  0
LINE
  5
1F9
  8
0
 10
730.83432663
 20
-918.94875981
 30
0.0
 11
730.83432663
 21
-927.94875981
 31
0.0
  0
LINE
  5
1FA
  8
0
 10
722.83432663
 20
-918.94875981
 30
0.0
 11
730.83432663
 21
-918.94875981
 31
0.0
  0
POLYLINE
  5
1FB
  8
0
 66
     1
 10
0.0
 20
0.0
 30
0.0
  0
VERTEX
  5
1FC
  8
0
 10
738.83432663
 20
-943.94875981
 30
0.0
  0
VERTEX
  5
1FD
  8
0
 10
892.83432663
 20
-943.94875981
 30
0.0
  0
VERTEX
  5
1FE
  8
0
 10
892.83432663
 20
-935.94875981
 30
0.0
  0
SEQEND
  5
1FF
  8
0
  0
LINE
  5
200
  8
0
 10
738.83432663
 20
-935.94875981
 30
0.0
 11
892.83432663
 21
-935.94875981
 31
0.0
  0
LINE
  5
201
  8
0
 10
738.83432663
 20
-943.94875981
 30
0.0
 11
738.83432663
 21
-935.94875981
 31
0.0
  0
LINE
  5
202
  8
0
  6
STRICHPUNKT2
 62
     1
 10
843.64193848
 20
-932.44875981
 30
0.0
 11
843.64193848
 21
-947.44875981
 31
0.0
  0
LINE
  5
203
  8
0
  6
STRICHPUNKT2
 62
     1
 10
862.02671479
 20
-932.44875981
 30
0.0
 11
862.02671479
 21
-947.44875981
 31
0.0
  0
POLYLINE
  5
204
  8
0
 66
     1
 10
0.0
 20
0.0
 30
0.0
  0
VERTEX
  5
205
  8
0
 10
722.83432663
 20
-927.94875981
 30
0.0
 42
0.414213562
  0
VERTEX
  5
206
  8
0
 10
738.83432663
 20
-943.94875981
 30
0.0
  0
VERTEX
  5
207
  8
0
 10
738.83432663
 20
-935.94875981
 30
0.0
  0
SEQEND
  5
208
  8
0
  0
ARC
  5
209
  8
0
 10
738.83432663
 20
-927.94875981
 30
0.0
 40
8.0
 50
-180.0
 51
-90.0
  0
LINE
  5
20A
  8
0
 10
722.83432663
 20
-927.94875981
 30
0.0
 11
730.83432663
 21
-927.94875981
 31
0.0
  0
LINE
  5
20B
  8
0
 10
665.46282467
 20
-918.94875981
 30
0.0
 11
665.46282467
 21
-927.94875981
 31
0.0
  0
LINE
  5
20C
  8
0
 10
605.46282467
 20
-927.94875981
 30
0.0
 11
665.46282467
 21
-927.94875981
 31
0.0
  0
POLYLINE
  5
20D
  8
0
 66
     1
 10
0.0
 20
0.0
 30
0.0
  0
VERTEX
  5
20E
  8
0
 10
605.46282467
 20
-927.94875981
 30
0.0
  0
VERTEX
  5
20F
  8
0
 10
605.46282467
 20
-918.94875981
 30
0.0
  0
VERTEX
  5
210
  8
0
 10
665.46282467
 20
-918.94875981
 30
0.0
  0
SEQEND
  5
211
  8
0
  0
LINE
  5
212
  8
0
 10
605.46282467
 20
-943.94875981
 30
0.0
 11
665.46282467
 21
-943.94875981
 31
0.0
  0
LINE
  5
213
  8
0
  6
STRICHPUNKT2
 62
     1
 10
626.27043651
 20
-932.44875981
 30
0.0
 11
626.27043651
 21
-947.44875981
 31
0.0
  0
LINE
  5
214
  8
0
  6
STRICHPUNKT2
 62
     1
 10
644.65521282
 20
-932.44875981
 30
0.0
 11
644.65521282
 21
-947.44875981
 31
0.0
  0
LINE
  5
215
  8
0
 10
665.46282467
 20
-927.94875981
 30
0.0
 11
665.46282467
 21
-943.94875981
 31
0.0
  0
LINE
  5
216
  8
0
 10
605.46282467
 20
-943.94875981
 30
0.0
 11
665.46282467
 21
-943.94875981
 31
0.0
  0
POLYLINE
  5
217
  8
0
 66
     1
 10
0.0
 20
0.0
 30
0.0
  0
VERTEX
  5
218
  8
0
 10
605.46282467
 20
-943.94875981
 30
0.0
  0
VERTEX
  5
219
  8
0
 10
605.46282467
 20
-927.94875981
 30
0.0
  0
VERTEX
  5
21A
  8
0
 10
665.46282467
 20
-927.94875981
 30
0.0
  0
SEQEND
  5
21B
  8
0
  0
POLYLINE
  5
21C
  8
0
 66
     1
 10
0.0
 20
0.0
 30
0.0
  0
VERTEX
  5
21D
  8
0
 10
722.83432663
 20
-970.71210057
 30
0.0
  0
VERTEX
  5
21E
  8
0
 10
722.83432663
 20
-1030.71210057
 30
0.0
  0
VERTEX
  5
21F
  8
0
 10
730.83432663
 20
-1030.71210057
 30
0.0
  0
SEQEND
  5
220
  8
0
  0
LINE
  5
221
  8
0
 10
730.83432663
 20
-970.71210057
 30
0.0
 11
730.83432663
 21
-1030.71210057
 31
0.0
  0
LINE
  5
222
  8
0
 10
722.83432663
 20
-970.71210057
 30
0.0
 11
730.83432663
 21
-970.71210057
 31
0.0
  0
POLYLINE
  5
223
  8
0
 66
     1
 10
0.0
 20
0.0
 30
0.0
 70
     1
  0
VERTEX
  5
224
  8
0
 10
838.69219101
 20
-996.46945988
 30
0.0
 42
-1.0
  0
VERTEX
  5
225
  8
0
 10
848.59168595
 20
-986.56996495
 30
0.0
  0
VERTEX
  5
226
  8
0
 10
866.97646226
 20
-1004.95474126
 30
0.0
 42
-1.0
  0
VERTEX
  5
227
  8
0
 10
857.07696732
 20
-1014.8542362
 30
0.0
  0
SEQEND
  5
228
  8
0
  0
LINE
  5
229
  8
0
 10
892.83432663
 20
-970.71210057
 30
0.0
 11
892.83432663
 21
-1030.71210057
 31
0.0
  0
LINE
  5
22A
  8
0
 10
738.83432663
 20
-1030.71210057
 30
0.0
 11
892.83432663
 21
-1030.71210057
 31
0.0
  0
LINE
  5
22B
  8
0
 10
738.83432663
 20
-970.71210057
 30
0.0
 11
738.83432663
 21
-1030.71210057
 31
0.0
  0
LINE
  5
22C
  8
0
 10
892.83432663
 20
-970.71210057
 30
0.0
 11
738.83432663
 21
-970.71210057
 31
0.0
  0
LINE
  5
22D
  8
0
  6
STRICHPUNKT2
 62
     1
 10
836.21731728
 20
-984.09509121
 30
0.0
 11
869.45133599
 21
-1017.32910993
 31
0.0
  0
LINE
  5
22E
  8
0
  6
STRICHPUNKT2
 62
     1
 10
836.21731728
 20
-998.94433362
 30
0.0
 11
851.06655968
 21
-984.09509121
 31
0.0
  0
LINE
  5
22F
  8
0
  6
STRICHPUNKT2
 62
     1
 10
854.60209359
 20
-1017.32910993
 30
0.0
 11
869.45133599
 21
-1002.47986752
 31
0.0
  0
LINE
  5
230
  8
0
  6
STRICHPUNKT2
 62
     1
 10
836.21731728
 20
-984.09509121
 30
0.0
 11
869.45133599
 21
-1017.32910993
 31
0.0
  0
LINE
  5
231
  8
0
  6
STRICHPUNKT2
 62
     1
 10
836.21731728
 20
-998.94433362
 30
0.0
 11
851.06655968
 21
-984.09509121
 31
0.0
  0
LINE
  5
232
  8
0
  6
STRICHPUNKT2
 62
     1
 10
854.60209359
 20
-1017.32910993
 30
0.0
 11
869.45133599
 21
-1002.47986752
 31
0.0
  0
LINE
  5
233
  8
0
  6
STRICHPUNKT2
 62
     1
 10
843.64193848
 20
-991.51971242
 30
0.0
 11
862.02671479
 21
-1009.90448873
 31
0.0
  0
LINE
  5
234
  8
0
  6
STRICHPUNKT2
 62
     1
 10
843.64193848
 20
-991.51971242
 30
0.0
 11
836.57087067
 21
-984.4486446
 31
0.0
  0
LINE
  5
235
  8
0
  6
STRICHPUNKT2
 62
     1
 10
862.02671479
 20
-1009.90448873
 30
0.0
 11
869.0977826
 21
-1016.97555654
 31
0.0
  0
LINE
  5
236
  8
0
  6
STRICHPUNKT2
 62
     1
 10
843.64193848
 20
-991.51971242
 30
0.0
 11
836.57087067
 21
-998.59078023
 31
0.0
  0
LINE
  5
237
  8
0
  6
STRICHPUNKT2
 62
     1
 10
862.02671479
 20
-1009.90448873
 30
0.0
 11
854.95564698
 21
-1016.97555654
 31
0.0
  0
LINE
  5
238
  8
0
  6
STRICHPUNKT2
 62
     1
 10
843.64193848
 20
-991.51971242
 30
0.0
 11
850.71300629
 21
-984.4486446
 31
0.0
  0
LINE
  5
239
  8
0
  6
STRICHPUNKT2
 62
     1
 10
862.02671479
 20
-1009.90448873
 30
0.0
 11
869.0977826
 21
-1002.83342091
 31
0.0
  0
LINE
  5
23A
  8
0
  6
STRICHPUNKT2
 62
     1
 10
843.64193848
 20
-991.51971242
 30
0.0
 11
862.02671479
 21
-1009.90448873
 31
0.0
  0
LINE
  5
23B
  8
0
  6
STRICHPUNKT2
 62
     1
 10
843.64193848
 20
-991.51971242
 30
0.0
 11
836.57087067
 21
-984.4486446
 31
0.0
  0
LINE
  5
23C
  8
0
  6
STRICHPUNKT2
 62
     1
 10
862.02671479
 20
-1009.90448873
 30
0.0
 11
869.0977826
 21
-1016.97555654
 31
0.0
  0
LINE
  5
23D
  8
0
  6
STRICHPUNKT2
 62
     1
 10
843.64193848
 20
-991.51971242
 30
0.0
 11
836.57087067
 21
-998.59078023
 31
0.0
  0
LINE
  5
23E
  8
0
  6
STRICHPUNKT2
 62
     1
 10
862.02671479
 20
-1009.90448873
 30
0.0
 11
854.95564698
 21
-1016.97555654
 31
0.0
  0
LINE
  5
23F
  8
0
  6
STRICHPUNKT2
 62
     1
 10
843.64193848
 20
-991.51971242
 30
0.0
 11
850.71300629
 21
-984.4486446
 31
0.0
  0
LINE
  5
240
  8
0
  6
STRICHPUNKT2
 62
     1
 10
862.02671479
 20
-1009.90448873
 30
0.0
 11
869.0977826
 21
-1002.83342091
 31
0.0
  0
LINE
  5
241
  8
0
  6
STRICHPUNKT2
 62
     1
 10
843.64193848
 20
-991.51971242
 30
0.0
 11
862.02671479
 21
-1009.90448873
 31
0.0
  0
LINE
  5
242
  8
0
  6
STRICHPUNKT2
 62
     1
 10
843.64193848
 20
-991.51971242
 30
0.0
 11
836.57087067
 21
-984.4486446
 31
0.0
  0
LINE
  5
243
  8
0
  6
STRICHPUNKT2
 62
     1
 10
862.02671479
 20
-1009.90448873
 30
0.0
 11
869.0977826
 21
-1016.97555654
 31
0.0
  0
LINE
  5
244
  8
0
  6
STRICHPUNKT2
 62
     1
 10
843.64193848
 20
-991.51971242
 30
0.0
 11
836.57087067
 21
-998.59078023
 31
0.0
  0
LINE
  5
245
  8
0
  6
STRICHPUNKT2
 62
     1
 10
862.02671479
 20
-1009.90448873
 30
0.0
 11
854.95564698
 21
-1016.97555654
 31
0.0
  0
LINE
  5
246
  8
0
  6
STRICHPUNKT2
 62
     1
 10
843.64193848
 20
-991.51971242
 30
0.0
 11
850.71300629
 21
-984.4486446
 31
0.0
  0
LINE
  5
247
  8
0
  6
STRICHPUNKT2
 62
     1
 10
862.02671479
 20
-1009.90448873
 30
0.0
 11
869.0977826
 21
-1002.83342091
 31
0.0
  0
LINE
  5
248
  8
0
 10
730.83432663
 20
-1030.71210057
 30
0.0
 11
738.83432663
 21
-1030.71210057
 31
0.0
  0
LINE
  5
249
  8
0
 10
738.83432663
 20
-970.71210057
 30
0.0
 11
738.83432663
 21
-1030.71210057
 31
0.0
  0
LINE
  5
24A
  8
0
 10
738.83432663
 20
-970.71210057
 30
0.0
 11
730.83432663
 21
-970.71210057
 31
0.0
  0
TEXT
  5
24B
  8
TXT_DIM49
 10
805.05206669
 20
-955.22612767
 30
0.0
 40
2.5
  1
170
  7
ARIAL
  0
LINE
  5
24C
  8
0
 62
     4
 10
723.83432663
 20
-955.72612767
 30
0.0
 11
721.83432663
 21
-957.72612767
 31
0.0
  0
LINE
  5
24D
  8
0
 62
     4
 10
892.08432663
 20
-957.47612767
 30
0.0
 11
893.58432663
 21
-955.97612767
 31
0.0
  0
LINE
  5
24E
  8
0
 62
     4
 10
722.83432663
 20
-956.72612767
 30
0.0
 11
892.83432663
 21
-956.72612767
 31
0.0
  0
LINE
  5
24F
  8
0
 62
     4
 10
722.83432663
 20
-954.72612767
 30
0.0
 11
722.83432663
 21
-958.72612767
 31
0.0
  0
LINE
  5
250
  8
0
 62
     4
 10
892.83432663
 20
-954.72612767
 30
0.0
 11
892.83432663
 21
-958.72612767
 31
0.0
  0
TEXT
  5
251
  8
TXT_DIM49
 10
901.33432663
 20
-940.87617983
 30
0.0
 40
2.5
  1
8
 50
90.00020741
  7
ARIAL
  0
LINE
  5
252
  8
0
 62
     4
 10
903.83432663
 20
-936.94875981
 30
0.0
 11
901.83432663
 21
-934.94875981
 31
0.0
  0
LINE
  5
253
  8
0
 62
     4
 10
902.08432663
 20
-943.19875981
 30
0.0
 11
903.58432663
 21
-944.69875981
 31
0.0
  0
LINE
  5
254
  8
0
 62
     4
 10
902.83432663
 20
-935.94875981
 30
0.0
 11
902.83432663
 21
-943.94875981
 31
0.0
  0
LINE
  5
255
  8
0
 62
     4
 10
900.83432663
 20
-935.94875981
 30
0.0
 11
904.83432663
 21
-935.94875981
 31
0.0
  0
LINE
  5
256
  8
0
 62
     4
 10
900.83432663
 20
-943.94875981
 30
0.0
 11
904.83432663
 21
-943.94875981
 31
0.0
  0
TEXT
  5
257
  8
TXT_DIM49
 10
633.60798463
 20
-907.44875981
 30
0.0
 40
2.5
  1
60
  7
ARIAL
  0
LINE
  5
258
  8
0
 62
     4
 10
606.46282467
 20
-907.94875981
 30
0.0
 11
604.46282467
 21
-909.94875981
 31
0.0
  0
LINE
  5
259
  8
0
 62
     4
 10
664.71282467
 20
-909.69875981
 30
0.0
 11
666.21282467
 21
-908.19875981
 31
0.0
  0
LINE
  5
25A
  8
0
 62
     4
 10
605.46282467
 20
-908.94875981
 30
0.0
 11
665.46282467
 21
-908.94875981
 31
0.0
  0
LINE
  5
25B
  8
0
 62
     4
 10
605.46282467
 20
-910.94875981
 30
0.0
 11
605.46282467
 21
-906.94875981
 31
0.0
  0
LINE
  5
25C
  8
0
 62
     4
 10
665.46282467
 20
-910.94875981
 30
0.0
 11
665.46282467
 21
-906.94875981
 31
0.0
  0
TEXT
  5
25D
  8
TXT_DIM49
 10
593.76958218
 20
-933.30359985
 30
0.0
 40
2.5
  1
25
 50
90.00020741
  7
ARIAL
  0
LINE
  5
25E
  8
0
 62
     4
 10
596.26958218
 20
-919.94875981
 30
0.0
 11
594.26958218
 21
-917.94875981
 31
0.0
  0
LINE
  5
25F
  8
0
 62
     4
 10
594.51958218
 20
-943.19875981
 30
0.0
 11
596.01958218
 21
-944.69875981
 31
0.0
  0
LINE
  5
260
  8
0
 62
     4
 10
595.26958218
 20
-918.94875981
 30
0.0
 11
595.26958218
 21
-943.94875981
 31
0.0
  0
LINE
  5
261
  8
0
 62
     4
 10
597.26958218
 20
-918.94875981
 30
0.0
 11
593.26958218
 21
-918.94875981
 31
0.0
  0
LINE
  5
262
  8
0
 62
     4
 10
597.26958218
 20
-943.94875981
 30
0.0
 11
593.26958218
 21
-943.94875981
 31
0.0
  0
TEXT
  5
263
  8
TXT_DIM49
 10
857.63030007
 20
-982.97074653
 30
0.0
 40
2.5
  1
21
 50
90.00020741
  7
ARIAL
  0
LINE
  5
264
  8
0
 62
     4
 10
860.13030007
 20
-971.71210057
 30
0.0
 11
858.13030007
 21
-969.71210057
 31
0.0
  0
LINE
  5
265
  8
0
 62
     4
 10
858.38030007
 20
-990.76971242
 30
0.0
 11
859.88030007
 21
-992.26971242
 31
0.0
  0
LINE
  5
266
  8
0
 62
     4
 10
859.13030007
 20
-970.71210057
 30
0.0
 11
859.13030007
 21
-991.51971242
 31
0.0
  0
LINE
  5
267
  8
0
 62
     4
 10
861.13030007
 20
-970.71210057
 30
0.0
 11
857.13030007
 21
-970.71210057
 31
0.0
  0
LINE
  5
268
  8
0
 62
     4
 10
857.13030007
 20
-991.51971242
 30
0.0
 11
861.13030007
 21
-991.51971242
 31
0.0
  0
TEXT
  5
269
  8
TXT_DIM49
 10
871.62154409
 20
-1022.16313469
 30
0.0
 40
2.5
  1
21
 50
90.00020741
  7
ARIAL
  0
LINE
  5
26A
  8
0
 62
     4
 10
872.12154409
 20
-1029.71210057
 30
0.0
 11
874.12154409
 21
-1031.71210057
 31
0.0
  0
LINE
  5
26B
  8
0
 62
     4
 10
873.87154409
 20
-1010.65448873
 30
0.0
 11
872.37154409
 21
-1009.15448873
 31
0.0
  0
LINE
  5
26C
  8
0
 62
     4
 10
873.12154409
 20
-1030.71210057
 30
0.0
 11
873.12154409
 21
-1009.90448873
 31
0.0
  0
LINE
  5
26D
  8
0
 62
     4
 10
875.12154409
 20
-1030.71210057
 30
0.0
 11
871.12154409
 21
-1030.71210057
 31
0.0
  0
LINE
  5
26E
  8
0
 62
     4
 10
871.12154409
 20
-1009.90448873
 30
0.0
 11
875.12154409
 21
-1009.90448873
 31
0.0
  0
TEXT
  5
26F
  8
TXT_DIM49
 10
875.57568067
 20
-1039.21210057
 30
0.0
 40
2.5
  1
31
  7
ARIAL
  0
LINE
  5
270
  8
0
 62
     4
 10
891.83432663
 20
-1041.71210057
 30
0.0
 11
893.83432663
 21
-1039.71210057
 31
0.0
  0
LINE
  5
271
  8
0
 62
     4
 10
862.77671479
 20
-1039.96210057
 30
0.0
 11
861.27671479
 21
-1041.46210057
 31
0.0
  0
LINE
  5
272
  8
0
 62
     4
 10
892.83432663
 20
-1040.71210057
 30
0.0
 11
862.02671479
 21
-1040.71210057
 31
0.0
  0
LINE
  5
273
  8
0
 62
     4
 10
892.83432663
 20
-1038.71210057
 30
0.0
 11
892.83432663
 21
-1042.71210057
 31
0.0
  0
LINE
  5
274
  8
0
 62
     4
 10
862.02671479
 20
-1038.71210057
 30
0.0
 11
862.02671479
 21
-1042.71210057
 31
0.0
  0
TEXT
  5
275
  8
TXT_DIM49
 10
866.38329252
 20
-964.6470755
 30
0.0
 40
2.5
  1
49
  7
ARIAL
  0
LINE
  5
276
  8
0
 62
     4
 10
891.83432663
 20
-967.1470755
 30
0.0
 11
893.83432663
 21
-965.1470755
 31
0.0
  0
LINE
  5
277
  8
0
 62
     4
 10
844.39193848
 20
-965.3970755
 30
0.0
 11
842.89193848
 21
-966.8970755
 31
0.0
  0
LINE
  5
278
  8
0
 62
     4
 10
892.83432663
 20
-966.1470755
 30
0.0
 11
843.64193848
 21
-966.1470755
 31
0.0
  0
LINE
  5
279
  8
0
 62
     4
 10
892.83432663
 20
-968.1470755
 30
0.0
 11
892.83432663
 21
-964.1470755
 31
0.0
  0
LINE
  5
27A
  8
0
 62
     4
 10
843.64193848
 20
-968.1470755
 30
0.0
 11
843.64193848
 21
-964.1470755
 31
0.0
  0
LINE
  5
27B
  8
0
 62
     5
 10
847.88457917
 20
-1005.66184804
 30
0.0
 11
835.10747628
 21
-1004.3850218
 31
0.0
  0
TEXT
  5
27C
  8
TXT_DIM49
 10
812.03636523
 20
-1005.6350218
 30
0.0
 40
2.5
  1
Slobgat 14 x 40
  7
ARIAL
  0
TEXT
  5
27D
  8
TXT_DIM49
 10
843.08389314
 20
-1021.07696463
 30
0.0
 40
2.5
  1
45
 50
67.500157265
  7
ARIAL
  0
TEXT
  5
27E
  8
TXT_DIM49
 10
844.50352624
 20
-1017.64966714
 30
0.0
 40
2.5
  1
°
 50
67.500157265
  7
ARIAL
  0
LINE
  5
27F
  8
0
 62
     4
 10
844.18890376
 20
-1029.73245688
 30
0.0
 11
842.14900353
 21
-1031.69174426
 31
0.0
  0
LINE
  5
280
  8
0
 62
     4
 10
850.82673272
 20
-1009.68582206
 30
0.0
 11
852.94762223
 21
-1009.64307064
 31
0.0
  0
POLYLINE
  5
281
  8
0
 62
     4
 66
     1
 10
0.0
 20
0.0
 30
0.0
  0
VERTEX
  5
323
  8
0
 62
     4
 10
851.8871775777797
 20
-1009.6644461856
 30
0.0
  0
VERTEX
  5
324
  8
0
 62
     4
 10
848.1854086100125
 20
-1014.175064582944
 30
0.0
  0
VERTEX
  5
325
  8
0
 62
     4
 10
845.434746107897
 20
-1019.321192009845
 30
0.0
  0
VERTEX
  5
326
  8
0
 62
     4
 10
843.7408964905717
 20
-1024.905065671954
 30
0.0
  0
VERTEX
  5
327
  8
0
 62
     4
 10
843.1689534499993
 20
-1030.712100432312
 30
0.0
  0
SEQEND
  5
32E
  8
0
 62
     4
  0
ENDSEC
  0
EOF
