  0
SECTION
  2
HEADER
  9
$ACADVER
  1
AC1006
  9
$DWGCODEPAGE
  3
ansi_1252
  9
$INSBASE
 10
0.0
 20
0.0
 30
0.0
  9
$EXTMIN
 10
-165.73621233
 20
-100.92225597
  9
$EXTMAX
 10
596.87906247
 20
250.44081603
  9
$LIMMIN
 10
-165.73621233
 20
-100.92225597
  9
$LIMMAX
 10
596.87906247
 20
250.44081603
  9
$ORTHOMODE
 70
     0
  9
$REGENMODE
 70
     1
  9
$FILLMODE
 70
     1
  9
$QTEXTMODE
 70
     0
  9
$MIRRTEXT
 70
     1
  9
$DRAGMODE
 70
     2
  9
$LTSCALE
 40
1.0
  9
$OSMODE
 70
    37
  9
$ATTMODE
 70
     1
  9
$TEXTSIZE
 40
1.0
  9
$TRACEWID
 40
0.05
  9
$TEXTSTYLE
  7
STANDARD
  9
$CLAYER
  8
0
  9
$CELTYPE
  6
BYBLOCK
  9
$CECOLOR
 62
   256
  9
$DIMSCALE
 40
1.0
  9
$DIMASZ
 40
0.18
  9
$DIMEXO
 40
0.0625
  9
$DIMDLI
 40
0.38
  9
$DIMRND
 40
0.0
  9
$DIMDLE
 40
0.0
  9
$DIMEXE
 40
0.18
  9
$DIMTP
 40
0.0
  9
$DIMTM
 40
0.0
  9
$DIMTXT
 40
0.18
  9
$DIMCEN
 40
0.09
  9
$DIMTSZ
 40
0.0
  9
$DIMTOL
 70
     0
  9
$DIMLIM
 70
     0
  9
$DIMTIH
 70
     1
  9
$DIMTOH
 70
     1
  9
$DIMSE1
 70
     0
  9
$DIMSE2
 70
     0
  9
$DIMTAD
 70
     0
  9
$DIMZIN
 70
     0
  9
$DIMBLK
  1

  9
$DIMASO
 70
     1
  9
$DIMSHO
 70
     1
  9
$DIMPOST
  1

  9
$DIMAPOST
  1

  9
$DIMALT
 70
     0
  9
$DIMALTD
 70
     2
  9
$DIMALTF
 40
25.4
  9
$DIMLFAC
 40
1.0
  9
$DIMTOFL
 70
     0
  9
$DIMTVP
 40
0.0
  9
$DIMTIX
 70
     0
  9
$DIMSOXD
 70
     0
  9
$DIMSAH
 70
     0
  9
$DIMBLK1
  1

  9
$DIMBLK2
  1

  9
$LUNITS
 70
     2
  9
$LUPREC
 70
     4
  9
$SKETCHINC
 40
0.1
  9
$FILLETRAD
 40
0.5
  9
$AUNITS
 70
     0
  9
$AUPREC
 70
     0
  9
$MENU
  1
.
  9
$ELEVATION
 40
0.0
  9
$THICKNESS
 40
0.0
  9
$LIMCHECK
 70
     0
  9
$CHAMFERA
 40
0.0
  9
$CHAMFERB
 40
0.0
  9
$SKPOLY
 70
     0
  9
$TDCREATE
 40
2447893.125
  9
$TDUPDATE
 40
2460791.477133368
  9
$TDINDWG
 40
0.0
  9
$TDUSRTIMER
 40
0.0
  9
$USRTIMER
 70
     1
  9
$ANGBASE
 50
0.0
  9
$ANGDIR
 70
     0
  9
$PDMODE
 70
     0
  9
$PDSIZE
 40
0.0
  9
$PLINEWID
 40
0.0
  9
$COORDS
 70
     1
  9
$SPLFRAME
 70
     0
  9
$SPLINETYPE
 70
     6
  9
$SPLINESEGS
 70
     8
  9
$ATTDIA
 70
     0
  9
$ATTREQ
 70
     1
  9
$HANDLING
 70
     1
  9
$HANDSEED
  5
43B
  9
$SURFTAB1
 70
     6
  9
$SURFTAB2
 70
     6
  9
$SURFTYPE
 70
     6
  9
$SURFU
 70
     6
  9
$SURFV
 70
     6
  9
$UCSNAME
  2

  9
$UCSORG
 10
0.0
 20
0.0
 30
0.0
  9
$UCSXDIR
 10
1.0
 20
0.0
 30
0.0
  9
$UCSYDIR
 10
0.0
 20
1.0
 30
0.0
  9
$USERI1
 70
     0
  9
$USERI2
 70
     0
  9
$USERI3
 70
     0
  9
$USERI4
 70
     0
  9
$USERI5
 70
     0
  9
$USERR1
 40
0.0
  9
$USERR2
 40
0.0
  9
$USERR3
 40
0.0
  9
$USERR4
 40
0.0
  9
$USERR5
 40
0.0
  9
$WORLDVIEW
 70
     1
  0
ENDSEC
  0
SECTION
  2
TABLES
  0
TABLE
  2
VPORT
 70
     1
  0
VPORT
  2
*ACTIVE
 70
     0
 10
0.0
 20
0.0
 11
1.0
 21
1.0
 12
215.57142507
 22
74.75928003
 13
0.0
 23
0.0
 14
1.0
 24
1.0
 15
0.0
 25
0.0
 16
0.0
 26
0.0
 36
1.0
 17
0.0
 27
0.0
 37
0.0
 40
351.363072
 41
2.170447994
 42
50.0
 43
0.0
 44
0.0
 50
0.0
 51
0.0
 71
     0
 72
   100
 73
     1
 74
     1
 75
     0
 76
     0
 77
     0
 78
     0
  0
ENDTAB
  0
TABLE
  2
LTYPE
 70
    19
  0
LTYPE
  2
CONTINUOUS
 70
     0
  3
Solid line
 72
    65
 73
     0
 40
0.0
  0
LTYPE
  2
DOT
 70
     0
  3
..............
 72
    65
 73
     2
 40
2.0
 49
0.5
 49
-1.5
  0
LTYPE
  2
HIDDEN
 70
     0
  3
-- -- -- -- --
 72
    65
 73
     2
 40
7.0
 49
4.0
 49
-3.0
  0
LTYPE
  2
DASHDOT
 70
     0
  3
--.--.--.--.--
 72
    65
 73
     4
 40
8.5
 49
4.0
 49
-2.0
 49
0.5
 49
-2.0
  0
LTYPE
  2
STRICHPUNKT2
 70
     0
  3
--.--.--.--.--
 72
    65
 73
     4
 40
18.5
 49
10.0
 49
-4.0
 49
0.5
 49
-4.0
  0
LTYPE
  2
STRICHPUNKT3
 70
     0
  3
--.--.--.--.--
 72
    65
 73
     4
 40
35.5
 49
25.0
 49
-5.0
 49
0.5
 49
-5.0
  0
LTYPE
  2
PHANTOM
 70
     0
  3
--..--..--..--
 72
    65
 73
     6
 40
23.0
 49
10.0
 49
-4.0
 49
0.5
 49
-4.0
 49
0.5
 49
-4.0
  0
LTYPE
  2
PHANTOM2
 70
     0
  3
--..--..--..--
 72
    65
 73
     6
 40
33.0
 49
20.0
 49
-4.0
 49
0.5
 49
-4.0
 49
0.5
 49
-4.0
  0
LTYPE
  2
PHANTOM3
 70
     0
  3
--..--..--..--
 72
    65
 73
     6
 40
50.0
 49
37.0
 49
-4.0
 49
0.5
 49
-4.0
 49
0.5
 49
-4.0
  0
LTYPE
  2
STR3PKT
 70
     0
  3
--...--...--...
 72
    65
 73
     8
 40
31.5
 49
20.0
 49
-2.5
 49
0.5
 49
-2.5
 49
0.5
 49
-2.5
 49
0.5
 49
-2.5
  0
LTYPE
  2
2STRPKT
 70
     0
  3
--.--.--.--.--
 72
    65
 73
     6
 40
28.0
 49
10.0
 49
-2.5
 49
10.0
 49
-2.5
 49
0.5
 49
-2.5
  0
LTYPE
  2
GESTRICHELT2
 70
     0
  3
-- -- -- -- --
 72
    65
 73
     2
 40
25.0
 49
10.0
 49
-15.0
  0
LTYPE
  2
2STR2PKT
 70
     0
  3
--..--..--..--
 72
    65
 73
     8
 40
31.0
 49
10.0
 49
-2.5
 49
10.0
 49
-2.5
 49
0.5
 49
-2.5
 49
0.5
 49
-2.5
  0
LTYPE
  2
STR3PKT2
 70
     0
  3
--...--...--...
 72
    65
 73
     8
 40
21.0
 49
10.0
 49
-2.5
 49
0.5
 49
-2.5
 49
0.5
 49
-2.5
 49
0.5
 49
-2.0
  0
LTYPE
  2
2STR3PKT
 70
     0
  3
--...--...--...
 72
    65
 73
    10
 40
34.0
 49
10.0
 49
-2.5
 49
10.0
 49
-2.5
 49
0.5
 49
-2.5
 49
0.5
 49
-2.5
 49
0.5
 49
-2.5
  0
LTYPE
  2
STRKSTR
 70
     0
  3
-- - -- - -- -
 72
    65
 73
     4
 40
30.0
 49
20.0
 49
-2.5
 49
5.0
 49
-2.5
  0
LTYPE
  2
STRKSTR2
 70
     0
  3
-- - -- - -- -
 72
    65
 73
     6
 40
37.5
 49
20.0
 49
-2.5
 49
5.0
 49
-2.5
 49
5.0
 49
-2.5
  0
LTYPE
  2
STRKSTR3
 70
     0
  3
-- - -- - -- -
 72
    65
 73
     8
 40
45.0
 49
20.0
 49
-2.5
 49
5.0
 49
-2.5
 49
5.0
 49
-2.5
 49
5.0
 49
-2.5
  0
LTYPE
  2
PUNKT2
 70
     0
  3
..............
 72
    65
 73
     2
 40
3.5
 49
0.5
 49
-3.0
  0
ENDTAB
  0
TABLE
  2
LAYER
 70
    17
  0
LAYER
  2
0
 70
     0
 62
     7
  6
CONTINUOUS
  0
LAYER
  2
LE_GREEN
 70
     0
 62
     3
  6
CONTINUOUS
  0
LAYER
  2
LE_RED
 70
     0
 62
     1
  6
CONTINUOUS
  0
LAYER
  2
LE_ALL
 70
     0
 62
     7
  6
CONTINUOUS
  0
LAYER
  2
LE_HIDDEN1
 70
     0
 62
     3
  6
HIDDEN
  0
LAYER
  2
LE_HIDDEN
 70
     0
 62
     7
  6
CONTINUOUS
  0
LAYER
  2
LE_MIDDLE
 70
     0
 62
     7
  6
CONTINUOUS
  0
LAYER
  2
TXT_YELLOW
 70
     0
 62
     2
  6
CONTINUOUS
  0
LAYER
  2
TXT_DIM49
 70
     0
 62
     2
  6
CONTINUOUS
  0
LAYER
  2
TXT_ALL
 70
     0
 62
     7
  6
CONTINUOUS
  0
LAYER
  2
DIM49
 70
     0
 62
     4
  6
CONTINUOUS
  0
LAYER
  2
HATCH
 70
     0
 62
     3
  6
CONTINUOUS
  0
LAYER
  2
APPLE
 70
     0
 62
     7
  6
CONTINUOUS
  0
LAYER
  2
10
 70
     0
 62
     7
  6
CONTINUOUS
  0
LAYER
  2
20
 70
     0
 62
     7
  6
CONTINUOUS
  0
LAYER
  2
47
 70
     0
 62
     7
  6
CONTINUOUS
  0
LAYER
  2
49
 70
     0
 62
     7
  6
CONTINUOUS
  0
ENDTAB
  0
TABLE
  2
STYLE
 70
     5
  0
STYLE
  2
MONOTXT
 70
     0
 40
0.0
 41
1.0
 50
0.0
 71
     0
 42
1.0
  3
monotxt.shx
  4

  0
STYLE
  2
STANDARD
 70
     0
 40
0.0
 41
1.0
 50
0.0
 71
     0
 42
1.0
  3
txt
  4

  0
STYLE
  2
ARIAL
 70
     0
 40
0.0
 41
1.0
 50
0.0
 71
     0
 42
1.0
  3
arial.ttf
  4

  0
STYLE
  2
ARIAL_NARROW
 70
     0
 40
0.0
 41
1.0
 50
0.0
 71
     0
 42
1.0
  3
ArialN.ttf
  4

  0
STYLE
  2
ISOCPEUR
 70
     0
 40
0.0
 41
1.0
 50
0.0
 71
     0
 42
1.0
  3
ISOCPEUR.ttf
  4

  0
ENDTAB
  0
TABLE
  2
VIEW
 70
     0
  0
ENDTAB
  0
TABLE
  2
UCS
 70
     0
  0
ENDTAB
  0
ENDSEC
  0
SECTION
  2
BLOCKS
  0
ENDSEC
  0
SECTION
  2
ENTITIES
  0
POLYLINE
  5
16E
  8
0
 66
     1
 10
0.0
 20
0.0
 30
0.0
 70
     1
  0
VERTEX
  5
16F
  8
0
 10
-40.84996997
 20
-72.28894959
 30
0.0
  0
VERTEX
  5
170
  8
0
 10
379.15003003
 20
-72.28894959
 30
0.0
  0
VERTEX
  5
171
  8
0
 10
379.15003003
 20
224.71105041
 30
0.0
  0
VERTEX
  5
172
  8
0
 10
-40.84996997
 20
224.71105041
 30
0.0
  0
SEQEND
  5
173
  8
0
  0
POLYLINE
  5
174
  8
0
 66
     1
 10
0.0
 20
0.0
 30
0.0
 70
     1
  0
VERTEX
  5
175
  8
0
 10
-35.84996997
 20
-67.28894959
 30
0.0
  0
VERTEX
  5
176
  8
0
 10
374.15003003
 20
-67.28894959
 30
0.0
  0
VERTEX
  5
177
  8
0
 10
374.15003003
 20
219.71105041
 30
0.0
  0
VERTEX
  5
178
  8
0
 10
-35.84996997
 20
219.71105041
 30
0.0
  0
SEQEND
  5
179
  8
0
  0
LINE
  5
17A
  8
0
 10
189.15003003
 20
-67.28894959
 30
0.0
 11
189.15003003
 21
-72.28894959
 31
0.0
  0
LINE
  5
17B
  8
0
 10
189.15003003
 20
219.71105041
 30
0.0
 11
189.15003003
 21
224.71105041
 31
0.0
  0
LINE
  5
17C
  8
0
 10
-20.84996997
 20
-67.28894959
 30
0.0
 11
-20.84996997
 21
-72.28894959
 31
0.0
  0
LINE
  5
17D
  8
0
 10
-20.84996997
 20
219.71105041
 30
0.0
 11
-20.84996997
 21
224.71105041
 31
0.0
  0
TEXT
  5
17E
  8
TXT_ALL
 62
     4
 10
378.15003003
 20
-71.28894959
 30
0.0
 40
2.5
  1

 50
90.00020741
  0
POLYLINE
  5
17F
  8
0
 66
     1
 10
0.0
 20
0.0
 30
0.0
  0
VERTEX
  5
180
  8
0
 10
374.15003003
 20
209.71105041
 30
0.0
  0
VERTEX
  5
181
  8
0
 10
305.15673003
 20
209.71105041
 30
0.0
  0
VERTEX
  5
182
  8
0
 10
305.15673003
 20
219.71105041
 30
0.0
  0
SEQEND
  5
183
  8
0
  0
LINE
  5
184
  8
0
 10
307.06003003
 20
-47.78894959
 30
0.0
 11
167.17003003
 21
-47.78894959
 31
0.0
  0
LINE
  5
185
  8
0
 10
167.17003003
 20
-57.53894959
 30
0.0
 11
307.06003003
 21
-57.53894959
 31
0.0
  0
POLYLINE
  5
186
  8
0
 66
     1
 10
0.0
 20
0.0
 30
0.0
  0
VERTEX
  5
187
  8
0
 10
167.17003003
 20
-47.78894959
 30
0.0
  0
VERTEX
  5
188
  8
0
 10
167.17003003
 20
-57.53894959
 30
0.0
  0
VERTEX
  5
189
  8
0
 10
167.17003003
 20
-67.28894959
 30
0.0
  0
SEQEND
  5
18A
  8
0
  0
POLYLINE
  5
18B
  8
0
 66
     1
 10
0.0
 20
0.0
 30
0.0
  0
VERTEX
  5
18C
  8
0
 10
237.11503003
 20
-47.78894959
 30
0.0
  0
VERTEX
  5
18D
  8
0
 10
237.11503003
 20
-57.53894959
 30
0.0
  0
VERTEX
  5
18E
  8
0
 10
237.11503003
 20
-67.28894959
 30
0.0
  0
SEQEND
  5
18F
  8
0
  0
TEXT
  5
190
  8
TXT_ALL
 10
169.17003003
 20
-53.96394954
 30
0.0
 40
2.5999999
  1
E-mail: verkoop@jonkers-bouwmetaal.nl
  7
ARIAL
  0
TEXT
  5
191
  8
TXT_ALL
 10
169.17003003
 20
-63.71394954
 30
0.0
 40
2.5999999
  1
Telefoon: 0527-685156
  7
ARIAL
  0
TEXT
  5
192
  8
TXT_ALL
 10
239.11503003
 20
-63.71394954
 30
0.0
 40
2.5999999
  1
Website: www.jonkers-bouwmetaal.nl
  7
ARIAL
  0
TEXT
  5
193
  8
TXT_ALL
 10
239.11503003
 20
-53.96394954
 30
0.0
 40
2.5999999
  1
Adres: Hoornse Hop 10, 8321 WX Urk
  7
ARIAL
  0
TEXT
  5
194
  8
TXT_ALL
 10
-32.40800972
 20
213.46105041
 30
0.0
 40
2.5
  1
Art. nr. 91006269
  7
ARIAL
  0
TEXT
  5
195
  8
TXT_ALL
 10
10.3300271
 20
213.46105041
 30
0.0
 40
2.5
  1
Omschrijving: H2003-anker 200x200 100x10
  7
ARIAL
  0
LINE
  5
196
  8
0
 10
374.15003003
 20
209.71105041
 30
0.0
 11
-35.84996997
 21
209.71105041
 31
0.0
  0
LINE
  5
197
  8
0
 10
7.17003003
 20
209.71105041
 30
0.0
 11
7.17003003
 21
219.71105041
 31
0.0
  0
LINE
  5
198
  8
0
 10
167.17003003
 20
209.71105041
 30
0.0
 11
167.17003003
 21
219.71105041
 31
0.0
  0
TEXT
  5
199
  8
TXT_ALL
 10
238.16373003
 20
213.46105041
 30
0.0
 40
2.5
  1
Behandeling: Thermisch Verzinkt
  7
ARIAL
  0
LINE
  5
19A
  8
0
 10
307.06003003
 20
-47.78894959
 30
0.0
 11
374.15003003
 21
-47.78894959
 31
0.0
  0
LINE
  5
19B
  8
0
 10
307.06003003
 20
-67.28894959
 30
0.0
 11
307.06003003
 21
-47.78894959
 31
0.0
  0
LINE
  5
19C
  8
0
 10
307.06003003
 20
-67.28894959
 30
0.0
 11
307.06003003
 21
-47.78894959
 31
0.0
  0
TEXT
  5
19D
  8
TXT_ALL
 10
101.51522812
 20
-66.13441618
 30
0.0
 40
2.5
  1

  0
TEXT
  5
19E
  8
TXT_ALL
 10
222.65041109
 20
-56.03894959
 30
0.0
 40
2.5
  1

  0
POLYLINE
  5
19F
  8
0
 66
     1
 10
0.0
 20
0.0
 30
0.0
  0
VERTEX
  5
1A0
  8
0
 10
305.15673003
 20
209.71105041
 30
0.0
  0
VERTEX
  5
1A1
  8
0
 10
236.16373003
 20
209.71105041
 30
0.0
  0
VERTEX
  5
1A2
  8
0
 10
236.16373003
 20
219.71105041
 30
0.0
  0
SEQEND
  5
1A3
  8
0
  0
TEXT
  5
1A4
  8
TXT_ALL
 10
307.15673003
 20
213.46105041
 30
0.0
 40
2.5
  1
Verpakkingshoeveelheid: 1 st.
  7
ARIAL
  0
TEXT
  5
1A5
  8
TXT_ALL
 10
169.17003003
 20
213.46105041
 30
0.0
 40
2.5
  1
Materiaal: S355
  7
ARIAL
  0
TEXT
  5
1A6
  8
TXT_ALL
 10
341.93167726
 20
-70.53845944
 30
0.0
 40
1.5
  1
Onderdeel van
  7
ARIAL
  0
POLYLINE
  5
1A7
  8
0
 66
     1
 10
0.0
 20
0.0
 30
0.0
  0
VERTEX
  5
359
  8
0
 10
13.89691034
 20
-6.58232304
 30
0.0
  0
VERTEX
  5
35A
  8
0
 10
14.06148404438632
 20
-6.556168923290065
 30
0.0
  0
VERTEX
  5
35B
  8
0
 10
14.2315630561997
 20
-6.438676527846011
 30
0.0
  0
VERTEX
  5
35C
  8
0
 10
14.40081762018576
 20
-6.234218516111516
 30
0.0
  0
VERTEX
  5
35D
  8
0
 10
14.56294866419972
 20
-5.950404111354525
 30
0.0
  0
VERTEX
  5
35E
  8
0
 10
14.71192222898462
 20
-5.597795908575036
 30
0.0
  0
VERTEX
  5
35F
  8
0
 10
14.84219403136048
 20
-5.18951677108517
 30
0.0
  0
VERTEX
  5
360
  8
0
 10
14.94891580335587
 20
-4.740761442717414
 30
0.0
  0
VERTEX
  5
361
  8
0
 10
15.02811572804968
 20
-4.268231051773195
 30
0.0
  0
VERTEX
  5
362
  8
0
 10
15.07684625692233
 20
-3.789511552527832
 30
0.0
  0
VERTEX
  5
363
  8
0
 10
15.09329380746362
 20
-3.322419236559123
 30
0.0
  0
SEQEND
  5
426
  8
0
  0
POLYLINE
  5
1A8
  8
0
 66
     1
 10
0.0
 20
0.0
 30
0.0
  0
VERTEX
  5
364
  8
0
 10
13.32552687253638
 20
-4.881443134979653
 30
0.0
  0
VERTEX
  5
365
  8
0
 10
13.34342272538315
 20
-5.337558305792465
 30
0.0
  0
VERTEX
  5
366
  8
0
 10
13.39638561757954
 20
-5.743638367604188
 30
0.0
  0
VERTEX
  5
367
  8
0
 10
13.48227088586088
 20
-6.083239637772841
 30
0.0
  0
VERTEX
  5
368
  8
0
 10
13.59760071826827
 20
-6.342610405646702
 30
0.0
  0
VERTEX
  5
369
  8
0
 10
13.73770498360937
 20
-6.511247790157206
 30
0.0
  0
VERTEX
  5
36A
  8
0
 10
13.89691034233191
 20
-6.582323040293794
 30
0.0
  0
SEQEND
  5
427
  8
0
  0
POLYLINE
  5
1A9
  8
0
 66
     1
 10
0.0
 20
0.0
 30
0.0
  0
VERTEX
  5
1AA
  8
0
 10
13.32552686
 20
-4.88144314
 30
0.0
  0
VERTEX
  5
1AB
  8
0
 10
13.32552686
 20
9.26069248
 30
0.0
  0
SEQEND
  5
1AC
  8
0
  0
POLYLINE
  5
1AD
  8
0
 66
     1
 10
0.0
 20
0.0
 30
0.0
  0
VERTEX
  5
36B
  8
0
 10
14.52191034296803
 20
12.52059628962606
 30
0.0
  0
VERTEX
  5
36C
  8
0
 10
14.35733663874189
 20
12.49444217463282
 30
0.0
  0
VERTEX
  5
36D
  8
0
 10
14.18725762697226
 20
12.37694978085548
 30
0.0
  0
VERTEX
  5
36E
  8
0
 10
14.01800306291191
 20
12.1724917706757
 30
0.0
  0
VERTEX
  5
36F
  8
0
 10
13.85587201870837
 20
11.88867736730356
 30
0.0
  0
VERTEX
  5
370
  8
0
 10
13.70689845362566
 20
11.53606916568753
 30
0.0
  0
VERTEX
  5
371
  8
0
 10
13.57662665085484
 20
11.12779002909641
 30
0.0
  0
VERTEX
  5
372
  8
0
 10
13.46990487838205
 20
10.67903470132925
 30
0.0
  0
VERTEX
  5
373
  8
0
 10
13.39070495314617
 20
10.20650431066512
 30
0.0
  0
VERTEX
  5
374
  8
0
 10
13.34197442368693
 20
9.727784811368927
 30
0.0
  0
VERTEX
  5
375
  8
0
 10
13.32552687253638
 20
9.260692495020347
 30
0.0
  0
SEQEND
  5
428
  8
0
  0
POLYLINE
  5
1AE
  8
0
 66
     1
 10
0.0
 20
0.0
 30
0.0
  0
VERTEX
  5
376
  8
0
 10
15.09329380746362
 20
10.81971639344088
 30
0.0
  0
VERTEX
  5
377
  8
0
 10
15.07539795427653
 20
11.27583155993341
 30
0.0
  0
VERTEX
  5
378
  8
0
 10
15.02243506233153
 20
11.68191161808178
 30
0.0
  0
VERTEX
  5
379
  8
0
 10
14.93654979484777
 20
12.02151288566336
 30
0.0
  0
VERTEX
  5
37A
  8
0
 10
14.82121996369452
 20
12.28088365235783
 30
0.0
  0
VERTEX
  5
37B
  8
0
 10
14.68111569993639
 20
12.44952103731746
 30
0.0
  0
VERTEX
  5
37C
  8
0
 10
14.52191034296803
 20
12.52059628962606
 30
0.0
  0
SEQEND
  5
429
  8
0
  0
LINE
  5
1AF
  8
0
 10
15.09329382
 20
10.81971639
 30
0.0
 11
15.09329382
 21
-3.32241923
 31
0.0
  0
LINE
  5
1B0
  8
0
 10
13.32552686
 20
-3.09970153
 30
0.0
 11
15.09329382
 21
-3.32241923
 31
0.0
  0
LINE
  5
1B1
  8
0
 10
13.54649773
 20
11.01459438
 30
0.0
 11
15.09329382
 21
10.81971639
 31
0.0
  0
POLYLINE
  5
1B2
  8
0
 66
     1
 10
0.0
 20
0.0
 30
0.0
  0
VERTEX
  5
37D
  8
0
 10
5.05807557233191
 20
-14.37744259029379
 30
0.0
  0
VERTEX
  5
37E
  8
0
 10
5.222649276598299
 20
-14.35128847234059
 30
0.0
  0
VERTEX
  5
37F
  8
0
 10
5.39272828819341
 20
-14.23379607595444
 30
0.0
  0
VERTEX
  5
380
  8
0
 10
5.561982851889389
 20
-14.02933806360133
 30
0.0
  0
VERTEX
  5
381
  8
0
 10
5.724113895570609
 20
-13.74552365855011
 30
0.0
  0
VERTEX
  5
382
  8
0
 10
5.873087460010037
 20
-13.39291545578098
 30
0.0
  0
VERTEX
  5
383
  8
0
 10
6.003359262056695
 20
-12.98463631856747
 30
0.0
  0
VERTEX
  5
384
  8
0
 10
6.110081033765507
 20
-12.53588099068758
 30
0.0
  0
VERTEX
  5
385
  8
0
 10
6.189280958237584
 20
-12.06335060037596
 30
0.0
  0
VERTEX
  5
386
  8
0
 10
6.238011486970199
 20
-11.5846311018332
 30
0.0
  0
VERTEX
  5
387
  8
0
 10
6.254459037463615
 20
-11.11753878655912
 30
0.0
  0
SEQEND
  5
42A
  8
0
  0
POLYLINE
  5
1B3
  8
0
 66
     1
 10
0.0
 20
0.0
 30
0.0
  0
VERTEX
  5
388
  8
0
 10
4.486692102536384
 20
-12.67656268497965
 30
0.0
  0
VERTEX
  5
389
  8
0
 10
4.504587955299968
 20
-13.13267785478029
 30
0.0
  0
VERTEX
  5
38A
  8
0
 10
4.557550847253537
 20
-13.53875791585341
 30
0.0
  0
VERTEX
  5
38B
  8
0
 10
4.64343611515223
 20
-13.87835918566336
 30
0.0
  0
VERTEX
  5
38C
  8
0
 10
4.75876594706881
 20
-14.13772995363687
 30
0.0
  0
VERTEX
  5
38D
  8
0
 10
4.898870211852501
 20
-14.30636733875016
 30
0.0
  0
VERTEX
  5
38E
  8
0
 10
5.05807557
 20
-14.37744259
 30
0.0
  0
SEQEND
  5
42B
  8
0
  0
POLYLINE
  5
1B4
  8
0
 66
     1
 10
0.0
 20
0.0
 30
0.0
  0
VERTEX
  5
1B5
  8
0
 10
4.4866921
 20
-12.6765627
 30
0.0
  0
VERTEX
  5
1B6
  8
0
 10
4.4866921
 20
1.46557293
 30
0.0
  0
SEQEND
  5
1B7
  8
0
  0
POLYLINE
  5
1B8
  8
0
 66
     1
 10
0.0
 20
0.0
 30
0.0
  0
VERTEX
  5
38F
  8
0
 10
5.683075572968031
 20
4.725476729626064
 30
0.0
  0
VERTEX
  5
390
  8
0
 10
5.518501868741889
 20
4.699322614632818
 30
0.0
  0
VERTEX
  5
391
  8
0
 10
5.348422856972259
 20
4.581830220855482
 30
0.0
  0
VERTEX
  5
392
  8
0
 10
5.179168292911911
 20
4.3773722106757
 30
0.0
  0
VERTEX
  5
393
  8
0
 10
5.017037248708369
 20
4.093557807303563
 30
0.0
  0
VERTEX
  5
394
  8
0
 10
4.868063683625659
 20
3.740949605687525
 30
0.0
  0
VERTEX
  5
395
  8
0
 10
4.737791880854843
 20
3.332670469096406
 30
0.0
  0
VERTEX
  5
396
  8
0
 10
4.631070108382053
 20
2.883915141329248
 30
0.0
  0
VERTEX
  5
397
  8
0
 10
4.551870183146171
 20
2.411384750665122
 30
0.0
  0
VERTEX
  5
398
  8
0
 10
4.503139653686929
 20
1.932665251368927
 30
0.0
  0
VERTEX
  5
399
  8
0
 10
4.486692102536384
 20
1.465572935020347
 30
0.0
  0
SEQEND
  5
42C
  8
0
  0
POLYLINE
  5
1B9
  8
0
 66
     1
 10
0.0
 20
0.0
 30
0.0
  0
VERTEX
  5
39A
  8
0
 10
6.254459037463616
 20
3.024596833440877
 30
0.0
  0
VERTEX
  5
39B
  8
0
 10
6.236563184276528
 20
3.480711999933408
 30
0.0
  0
VERTEX
  5
39C
  8
0
 10
6.183600292331533
 20
3.886792058081781
 30
0.0
  0
VERTEX
  5
39D
  8
0
 10
6.097715024847768
 20
4.226393325663361
 30
0.0
  0
VERTEX
  5
39E
  8
0
 10
5.98238519369452
 20
4.485764092357825
 30
0.0
  0
VERTEX
  5
39F
  8
0
 10
5.842280929936391
 20
4.65440147731746
 30
0.0
  0
VERTEX
  5
3A0
  8
0
 10
5.683075572968031
 20
4.725476729626064
 30
0.0
  0
SEQEND
  5
42D
  8
0
  0
LINE
  5
1BA
  8
0
 10
6.25445905
 20
3.02459684
 30
0.0
 11
6.25445905
 21
-11.11753879
 31
0.0
  0
LINE
  5
1BB
  8
0
 10
4.4866921
 20
-10.89482108
 30
0.0
 11
6.25445905
 21
-11.11753879
 31
0.0
  0
LINE
  5
1BC
  8
0
 10
4.70766297
 20
3.21947483
 30
0.0
 11
6.25445905
 21
3.02459684
 31
0.0
  0
POLYLINE
  5
1BD
  8
0
 66
     1
 10
0.0
 20
0.0
 30
0.0
  0
VERTEX
  5
3A1
  8
0
 10
6.82584253
 20
39.03607861
 30
0.0
  0
VERTEX
  5
3A2
  8
0
 10
6.97950685418111
 20
39.05773773375852
 30
0.0
  0
VERTEX
  5
3A3
  8
0
 10
7.138342523137849
 20
39.15944785722456
 30
0.0
  0
SEQEND
  5
42E
  8
0
  0
POLYLINE
  5
1BE
  8
0
 66
     1
 10
0.0
 20
0.0
 30
0.0
  0
VERTEX
  5
3A4
  8
0
 10
7.138342531196275
 20
43.8734930577786
 30
0.0
  0
VERTEX
  5
3A5
  8
0
 10
6.9639657351415
 20
43.67338275627517
 30
0.0
  0
VERTEX
  5
3A6
  8
0
 10
6.796443267834989
 20
43.38848946531583
 30
0.0
  0
VERTEX
  5
3A7
  8
0
 10
6.642360031038306
 20
43.03001164898515
 30
0.0
  0
VERTEX
  5
3A8
  8
0
 10
6.507772662966749
 20
42.61204020053581
 30
0.0
  0
VERTEX
  5
3A9
  8
0
 10
6.397971466535193
 20
42.15100456356082
 30
0.0
  0
VERTEX
  5
3AA
  8
0
 10
6.317272460385368
 20
41.66502693042561
 30
0.0
  0
VERTEX
  5
3AB
  8
0
 10
6.268847726664204
 20
41.1732099028526
 30
0.0
  0
VERTEX
  5
3AC
  8
0
 10
6.254600724170453
 20
40.69488561499251
 30
0.0
  0
VERTEX
  5
3AD
  8
0
 10
6.275091468007325
 20
40.24885583413289
 30
0.0
  0
VERTEX
  5
3AE
  8
0
 10
6.329514516747429
 20
39.85265290884112
 30
0.0
  0
VERTEX
  5
3AF
  8
0
 10
6.4157306323812
 20
39.52185061487781
 30
0.0
  0
VERTEX
  5
3B0
  8
0
 10
6.53035086857302
 20
39.26945198785524
 30
0.0
  0
VERTEX
  5
3B1
  8
0
 10
6.66886978191971
 20
39.10537820545437
 30
0.0
  0
VERTEX
  5
3B2
  8
0
 10
6.82584253
 20
39.03607861
 30
0.0
  0
SEQEND
  5
42F
  8
0
  0
POLYLINE
  5
1BF
  8
0
 66
     1
 10
0.0
 20
0.0
 30
0.0
  0
VERTEX
  5
1C0
  8
0
 10
7.13834253
 20
43.87349306
 30
0.0
  0
VERTEX
  5
1C1
  8
0
 10
12.44164339
 20
48.55056479
 30
0.0
  0
SEQEND
  5
1C2
  8
0
  0
POLYLINE
  5
1C3
  8
0
 66
     1
 10
0.0
 20
0.0
 30
0.0
  0
VERTEX
  5
3B3
  8
0
 10
12.75414339296803
 20
48.67393403962607
 30
0.0
  0
VERTEX
  5
3B4
  8
0
 10
12.60047906459272
 20
48.65227491575741
 30
0.0
  0
VERTEX
  5
3B5
  8
0
 10
12.44164339119627
 20
48.5505647877786
 30
0.0
  0
SEQEND
  5
430
  8
0
  0
POLYLINE
  5
1C4
  8
0
 66
     1
 10
0.0
 20
0.0
 30
0.0
  0
VERTEX
  5
3B6
  8
0
 10
12.44164338313785
 20
43.83651958722456
 30
0.0
  0
VERTEX
  5
3B7
  8
0
 10
12.61602017947855
 20
44.03662988609305
 30
0.0
  0
VERTEX
  5
3B8
  8
0
 10
12.78354264726859
 20
44.3215231748889
 30
0.0
  0
VERTEX
  5
3B9
  8
0
 10
12.9376258847141
 20
44.68000098958991
 30
0.0
  0
VERTEX
  5
3BA
  8
0
 10
13.07221325356201
 20
45.09797243697898
 30
0.0
  0
VERTEX
  5
3BB
  8
0
 10
13.18201445085625
 20
45.55900807347155
 30
0.0
  0
VERTEX
  5
3BC
  8
0
 10
13.26271345791244
 20
46.0449857066845
 30
0.0
  0
VERTEX
  5
3BD
  8
0
 10
13.31113819254162
 20
46.53680273485374
 30
0.0
  0
VERTEX
  5
3BE
  8
0
 10
13.32538519590548
 20
47.01512702376599
 30
0.0
  0
VERTEX
  5
3BF
  8
0
 10
13.30489445286548
 20
47.46115680605436
 30
0.0
  0
VERTEX
  5
3C0
  8
0
 10
13.25047140481933
 20
47.85735973305982
 30
0.0
  0
VERTEX
  5
3C1
  8
0
 10
13.16425528975364
 20
48.18816202892292
 30
0.0
  0
VERTEX
  5
3C2
  8
0
 10
13.04963505398853
 20
48.44056065793041
 30
0.0
  0
VERTEX
  5
3C3
  8
0
 10
12.91111614091954
 20
48.60463444230324
 30
0.0
  0
VERTEX
  5
3C4
  8
0
 10
12.75414339296803
 20
48.67393403962607
 30
0.0
  0
SEQEND
  5
431
  8
0
  0
LINE
  5
1C5
  8
0
 10
12.44164339
 20
43.83651959
 30
0.0
 11
7.13834253
 21
39.15944785
 31
0.0
  0
LINE
  5
1C6
  8
0
 10
6.55370856
 20
39.23310481
 30
0.0
 11
7.13834253
 21
39.15944785
 31
0.0
  0
LINE
  5
1C7
  8
0
 10
7.76457165
 20
44.42577524
 30
0.0
 11
12.44164339
 21
43.83651959
 31
0.0
  0
POLYLINE
  5
1C8
  8
0
 66
     1
 10
0.0
 20
0.0
 30
0.0
  0
VERTEX
  5
3C5
  8
0
 10
6.82584253
 20
57.89225944
 30
0.0
  0
VERTEX
  5
3C6
  8
0
 10
6.97950685418111
 20
57.91391856375852
 30
0.0
  0
VERTEX
  5
3C7
  8
0
 10
7.138342523137849
 20
58.01562868722456
 30
0.0
  0
SEQEND
  5
432
  8
0
  0
POLYLINE
  5
1C9
  8
0
 66
     1
 10
0.0
 20
0.0
 30
0.0
  0
VERTEX
  5
3C8
  8
0
 10
7.138342531196275
 20
62.7296738877786
 30
0.0
  0
VERTEX
  5
3C9
  8
0
 10
6.9639657351415
 20
62.52956358627517
 30
0.0
  0
VERTEX
  5
3CA
  8
0
 10
6.796443267834989
 20
62.24467029531583
 30
0.0
  0
VERTEX
  5
3CB
  8
0
 10
6.642360031038306
 20
61.88619247898515
 30
0.0
  0
VERTEX
  5
3CC
  8
0
 10
6.507772662966749
 20
61.46822103053581
 30
0.0
  0
VERTEX
  5
3CD
  8
0
 10
6.397971466535193
 20
61.00718539356082
 30
0.0
  0
VERTEX
  5
3CE
  8
0
 10
6.317272460385368
 20
60.52120776042561
 30
0.0
  0
VERTEX
  5
3CF
  8
0
 10
6.268847726664204
 20
60.0293907328526
 30
0.0
  0
VERTEX
  5
3D0
  8
0
 10
6.254600724170453
 20
59.55106644499251
 30
0.0
  0
VERTEX
  5
3D1
  8
0
 10
6.275091468007325
 20
59.10503666413289
 30
0.0
  0
VERTEX
  5
3D2
  8
0
 10
6.329514516747429
 20
58.70883373884112
 30
0.0
  0
VERTEX
  5
3D3
  8
0
 10
6.4157306323812
 20
58.37803144487781
 30
0.0
  0
VERTEX
  5
3D4
  8
0
 10
6.53035086857302
 20
58.12563281785524
 30
0.0
  0
VERTEX
  5
3D5
  8
0
 10
6.66886978191971
 20
57.96155903545437
 30
0.0
  0
VERTEX
  5
3D6
  8
0
 10
6.82584253
 20
57.89225944
 30
0.0
  0
SEQEND
  5
433
  8
0
  0
POLYLINE
  5
1CA
  8
0
 66
     1
 10
0.0
 20
0.0
 30
0.0
  0
VERTEX
  5
1CB
  8
0
 10
7.13834253
 20
62.72967389
 30
0.0
  0
VERTEX
  5
1CC
  8
0
 10
12.44164339
 20
67.40674563
 30
0.0
  0
SEQEND
  5
1CD
  8
0
  0
POLYLINE
  5
1CE
  8
0
 66
     1
 10
0.0
 20
0.0
 30
0.0
  0
VERTEX
  5
3D7
  8
0
 10
12.75414339296803
 20
67.53011486962608
 30
0.0
  0
VERTEX
  5
3D8
  8
0
 10
12.60047906459272
 20
67.5084557457574
 30
0.0
  0
VERTEX
  5
3D9
  8
0
 10
12.44164339119627
 20
67.4067456177786
 30
0.0
  0
SEQEND
  5
434
  8
0
  0
POLYLINE
  5
1CF
  8
0
 66
     1
 10
0.0
 20
0.0
 30
0.0
  0
VERTEX
  5
3DA
  8
0
 10
12.44164338313785
 20
62.69270041722456
 30
0.0
  0
VERTEX
  5
3DB
  8
0
 10
12.61602017947855
 20
62.89281071609305
 30
0.0
  0
VERTEX
  5
3DC
  8
0
 10
12.78354264726859
 20
63.1777040048889
 30
0.0
  0
VERTEX
  5
3DD
  8
0
 10
12.9376258847141
 20
63.53618181958991
 30
0.0
  0
VERTEX
  5
3DE
  8
0
 10
13.07221325356201
 20
63.95415326697898
 30
0.0
  0
VERTEX
  5
3DF
  8
0
 10
13.18201445085625
 20
64.41518890347155
 30
0.0
  0
VERTEX
  5
3E0
  8
0
 10
13.26271345791244
 20
64.9011665366845
 30
0.0
  0
VERTEX
  5
3E1
  8
0
 10
13.31113819254162
 20
65.39298356485374
 30
0.0
  0
VERTEX
  5
3E2
  8
0
 10
13.32538519590548
 20
65.871307853766
 30
0.0
  0
VERTEX
  5
3E3
  8
0
 10
13.30489445286548
 20
66.31733763605436
 30
0.0
  0
VERTEX
  5
3E4
  8
0
 10
13.25047140481933
 20
66.71354056305982
 30
0.0
  0
VERTEX
  5
3E5
  8
0
 10
13.16425528975364
 20
67.04434285892292
 30
0.0
  0
VERTEX
  5
3E6
  8
0
 10
13.04963505398853
 20
67.2967414879304
 30
0.0
  0
VERTEX
  5
3E7
  8
0
 10
12.91111614091954
 20
67.46081527230325
 30
0.0
  0
VERTEX
  5
3E8
  8
0
 10
12.75414339296803
 20
67.53011486962608
 30
0.0
  0
SEQEND
  5
435
  8
0
  0
LINE
  5
1D0
  8
0
 10
12.44164339
 20
62.69270042
 30
0.0
 11
7.13834253
 21
58.01562868
 31
0.0
  0
LINE
  5
1D1
  8
0
 10
6.55370856
 20
58.08928564
 30
0.0
 11
7.13834253
 21
58.01562868
 31
0.0
  0
LINE
  5
1D2
  8
0
 10
7.76457165
 20
63.28195607
 30
0.0
 11
12.44164339
 21
62.69270042
 31
0.0
  0
POLYLINE
  5
1D3
  8
0
 66
     1
 10
0.0
 20
0.0
 30
0.0
  0
VERTEX
  5
1D4
  8
0
 10
18.62882772
 20
77.57737452
 30
0.0
  0
VERTEX
  5
1D5
  8
0
 10
0.95115819
 20
61.98713541
 30
0.0
  0
VERTEX
  5
1D6
  8
0
 10
-3.72591354
 20
62.57639106
 30
0.0
  0
SEQEND
  5
1D7
  8
0
  0
LINE
  5
1D8
  8
0
 10
13.95175599
 20
78.16663017
 30
0.0
 11
-3.72591354
 21
62.57639106
 31
0.0
  0
LINE
  5
1D9
  8
0
 10
18.62882772
 20
77.57737452
 30
0.0
 11
13.95175599
 21
78.16663017
 31
0.0
  0
POLYLINE
  5
1DA
  8
0
 66
     1
 10
0.0
 20
0.0
 30
0.0
  0
VERTEX
  5
1DB
  8
0
 10
18.62882772
 20
77.57737452
 30
0.0
  0
VERTEX
  5
1DC
  8
0
 10
18.62882772
 20
-7.27543922
 30
0.0
  0
VERTEX
  5
1DD
  8
0
 10
0.95115819
 20
-22.86567833
 30
0.0
  0
VERTEX
  5
1DE
  8
0
 10
0.95115819
 20
61.98713541
 30
0.0
  0
SEQEND
  5
1DF
  8
0
  0
LINE
  5
1E0
  8
0
 10
-3.72591354
 20
-22.27642268
 30
0.0
 11
-3.72591354
 21
62.57639106
 31
0.0
  0
LINE
  5
1E1
  8
0
  6
STRICHPUNKT2
 62
     1
 10
8.30761046
 20
60.22533738
 30
0.0
 11
6.31154524
 21
60.47681795
 31
0.0
  0
LINE
  5
1E2
  8
0
  6
STRICHPUNKT2
 62
     1
 10
13.61091132
 20
64.90240911
 30
0.0
 11
10.10310752
 21
65.34435085
 31
0.0
  0
LINE
  5
1E3
  8
0
  6
STRICHPUNKT2
 62
     1
 10
5.81251731
 20
59.20338335
 30
0.0
 11
13.7674686
 21
66.21899095
 31
0.0
  0
LINE
  5
1E4
  8
0
  6
STRICHPUNKT2
 62
     1
 10
7.13834253
 20
56.83711738
 30
0.0
 11
7.13834253
 21
63.90818519
 31
0.0
  0
LINE
  5
1E5
  8
0
  6
STRICHPUNKT2
 62
     1
 10
12.44164339
 20
61.51418912
 30
0.0
 11
12.44164339
 21
68.58525693
 31
0.0
  0
LINE
  5
1E6
  8
0
  6
STRICHPUNKT2
 62
     1
 10
8.30761046
 20
41.36915654
 30
0.0
 11
6.31154524
 21
41.62063712
 31
0.0
  0
LINE
  5
1E7
  8
0
  6
STRICHPUNKT2
 62
     1
 10
13.61091132
 20
46.04622828
 30
0.0
 11
10.10310752
 21
46.48817002
 31
0.0
  0
LINE
  5
1E8
  8
0
  6
STRICHPUNKT2
 62
     1
 10
5.81251731
 20
40.34720252
 30
0.0
 11
13.7674686
 21
47.36281012
 31
0.0
  0
LINE
  5
1E9
  8
0
  6
STRICHPUNKT2
 62
     1
 10
7.13834253
 20
37.98093655
 30
0.0
 11
7.13834253
 21
45.05200436
 31
0.0
  0
LINE
  5
1EA
  8
0
  6
STRICHPUNKT2
 62
     1
 10
12.44164339
 20
42.65800828
 30
0.0
 11
12.44164339
 21
49.7290761
 31
0.0
  0
LINE
  5
1EB
  8
0
  6
STRICHPUNKT2
 62
     1
 10
6.53984351
 20
-12.04436465
 30
0.0
 11
4.4866921
 21
-11.78569189
 31
0.0
  0
LINE
  5
1EC
  8
0
  6
STRICHPUNKT2
 62
     1
 10
6.53984351
 20
2.09777097
 30
0.0
 11
4.54377829
 21
2.34925155
 31
0.0
  0
LINE
  5
1ED
  8
0
  6
STRICHPUNKT2
 62
     1
 10
5.37057557
 20
-15.43258465
 30
0.0
 11
5.37057557
 21
5.78061879
 31
0.0
  0
LINE
  5
1EE
  8
0
  6
STRICHPUNKT2
 62
     1
 10
6.69640079
 20
-10.72778281
 30
0.0
 11
4.04475036
 21
-13.06631868
 31
0.0
  0
LINE
  5
1EF
  8
0
  6
STRICHPUNKT2
 62
     1
 10
6.69640079
 20
3.41435282
 30
0.0
 11
4.04475036
 21
1.07581695
 31
0.0
  0
LINE
  5
1F0
  8
0
  6
STRICHPUNKT2
 62
     1
 10
15.37867827
 20
-4.2492451
 30
0.0
 11
13.32552686
 21
-3.99057234
 31
0.0
  0
LINE
  5
1F1
  8
0
  6
STRICHPUNKT2
 62
     1
 10
15.37867827
 20
9.89289052
 30
0.0
 11
13.38261305
 21
10.1443711
 31
0.0
  0
LINE
  5
1F2
  8
0
  6
STRICHPUNKT2
 62
     1
 10
14.20941034
 20
-7.63746509
 30
0.0
 11
14.20941034
 21
13.57573834
 31
0.0
  0
LINE
  5
1F3
  8
0
  6
STRICHPUNKT2
 62
     1
 10
15.53523555
 20
-2.93266325
 30
0.0
 11
12.88358512
 21
-5.27119912
 31
0.0
  0
LINE
  5
1F4
  8
0
  6
STRICHPUNKT2
 62
     1
 10
15.53523555
 20
11.20947237
 30
0.0
 11
12.88358512
 21
8.8709365
 31
0.0
  0
LINE
  5
1F5
  8
0
 10
18.62882772
 20
-7.27543922
 30
0.0
 11
0.95115819
 21
-22.86567833
 31
0.0
  0
POLYLINE
  5
1F6
  8
0
 66
     1
 10
0.0
 20
0.0
 30
0.0
  0
VERTEX
  5
3E9
  8
0
 10
18.62882773548559
 20
-7.275439225317673
 30
0.0
  0
VERTEX
  5
3EA
  8
0
 10
18.71869636124935
 20
-8.206426199692174
 30
0.0
  0
VERTEX
  5
3EB
  8
0
 10
18.98484862804474
 20
-9.124280630824993
 30
0.0
  0
VERTEX
  5
3EC
  8
0
 10
19.41705645360694
 20
-9.993729887970574
 30
0.0
  0
VERTEX
  5
3ED
  8
0
 10
19.99871033372776
 20
-10.78136152405771
 30
0.0
  0
VERTEX
  5
3EE
  8
0
 10
20.70745763618217
 20
-11.45690729728151
 30
0.0
  0
VERTEX
  5
3EF
  8
0
 10
21.5160615998418
 20
-11.99440636265129
 30
0.0
  0
VERTEX
  5
3F0
  8
0
 10
22.39344802812151
 20
-12.37320293269598
 30
0.0
  0
VERTEX
  5
3F1
  8
0
 10
23.30589945291727
 20
-12.57874006778585
 30
0.0
  0
SEQEND
  5
436
  8
0
  0
POLYLINE
  5
1F7
  8
0
 66
     1
 10
0.0
 20
0.0
 30
0.0
  0
VERTEX
  5
1F8
  8
0
 10
23.30589946
 20
-12.57874008
 30
0.0
  0
VERTEX
  5
1F9
  8
0
 10
5.62822993
 20
-28.16897919
 30
0.0
  0
SEQEND
  5
1FA
  8
0
  0
POLYLINE
  5
1FB
  8
0
 66
     1
 10
0.0
 20
0.0
 30
0.0
  0
VERTEX
  5
3F2
  8
0
 10
0.951158205485588
 20
-22.86567833531767
 30
0.0
  0
VERTEX
  5
3F3
  8
0
 10
1.041026831249351
 20
-23.79666530969217
 30
0.0
  0
VERTEX
  5
3F4
  8
0
 10
1.307179098044747
 20
-24.71451974082499
 30
0.0
  0
VERTEX
  5
3F5
  8
0
 10
1.739386923606941
 20
-25.58396899797057
 30
0.0
  0
VERTEX
  5
3F6
  8
0
 10
2.321040803727758
 20
-26.37160063405771
 30
0.0
  0
VERTEX
  5
3F7
  8
0
 10
3.029788106182169
 20
-27.04714640728151
 30
0.0
  0
VERTEX
  5
3F8
  8
0
 10
3.8383920698418
 20
-27.58464547265129
 30
0.0
  0
VERTEX
  5
3F9
  8
0
 10
4.715778498121514
 20
-27.96344204269598
 30
0.0
  0
VERTEX
  5
3FA
  8
0
 10
5.628229922917269
 20
-28.16897917778585
 30
0.0
  0
SEQEND
  5
437
  8
0
  0
POLYLINE
  5
1FC
  8
0
 66
     1
 10
0.0
 20
0.0
 30
0.0
  0
VERTEX
  5
3FB
  8
0
 10
-3.725913519028824
 20
-22.27642269063534
 30
0.0
  0
VERTEX
  5
3FC
  8
0
 10
-3.546176267501297
 20
-24.13839663938435
 30
0.0
  0
VERTEX
  5
3FD
  8
0
 10
-3.013871733910506
 20
-25.97410550164998
 30
0.0
  0
VERTEX
  5
3FE
  8
0
 10
-2.149456082786117
 20
-27.71300401594115
 30
0.0
  0
VERTEX
  5
3FF
  8
0
 10
-0.9861483225444845
 20
-29.28826728811542
 30
0.0
  0
VERTEX
  5
400
  8
0
 10
0.4313462823643377
 20
-30.63935883456302
 30
0.0
  0
VERTEX
  5
401
  8
0
 10
2.0485542096836
 20
-31.71435696530258
 30
0.0
  0
VERTEX
  5
402
  8
0
 10
3.803327066243027
 20
-32.47195010539196
 30
0.0
  0
VERTEX
  5
403
  8
0
 10
5.628229915834538
 20
-32.88302437557171
 30
0.0
  0
SEQEND
  5
438
  8
0
  0
POLYLINE
  5
1FD
  8
0
 66
     1
 10
0.0
 20
0.0
 30
0.0
  0
VERTEX
  5
404
  8
0
 10
55.38363856
 20
-25.08790484
 30
0.0
  0
VERTEX
  5
405
  8
0
 10
55.3163870415645
 20
-24.8602994668473
 30
0.0
  0
VERTEX
  5
406
  8
0
 10
55.11721692439052
 20
-24.64144084052236
 30
0.0
  0
VERTEX
  5
407
  8
0
 10
54.79378220436772
 20
-24.43973957527838
 30
0.0
  0
VERTEX
  5
408
  8
0
 10
54.35851229637399
 20
-24.26294693760563
 30
0.0
  0
VERTEX
  5
409
  8
0
 10
53.82813437883324
 20
-24.11785696940796
 30
0.0
  0
VERTEX
  5
40A
  8
0
 10
53.22303057763077
 20
-24.01004539678311
 30
0.0
  0
VERTEX
  5
40B
  8
0
 10
52.5664546924477
 20
-23.94365535799619
 30
0.0
  0
VERTEX
  5
40C
  8
0
 10
51.88363856628214
 20
-23.921238185
 30
0.0
  0
VERTEX
  5
40D
  8
0
 10
51.20082243987516
 20
-23.94365535717913
 30
0.0
  0
VERTEX
  5
40E
  8
0
 10
50.54424655397711
 20
-24.0100453951804
 30
0.0
  0
VERTEX
  5
40F
  8
0
 10
49.93914275161358
 20
-24.11785696708118
 30
0.0
  0
VERTEX
  5
410
  8
0
 10
49.4087648325103
 20
-24.2629469346442
 30
0.0
  0
VERTEX
  5
411
  8
0
 10
48.97349492261262
 20
-24.43973957179611
 30
0.0
  0
VERTEX
  5
412
  8
0
 10
48.65006020041762
 20
-24.64144083665307
 30
0.0
  0
VERTEX
  5
413
  8
0
 10
48.45089008088667
 20
-24.86029946273968
 30
0.0
  0
VERTEX
  5
414
  8
0
 10
48.38363856
 20
-25.08790483581191
 30
0.0
  0
SEQEND
  5
439
  8
0
  0
POLYLINE
  5
1FE
  8
0
 66
     1
 10
0.0
 20
0.0
 30
0.0
  0
VERTEX
  5
415
  8
0
 10
48.38363856
 20
-25.08790483581191
 30
0.0
  0
VERTEX
  5
416
  8
0
 10
48.45089007629073
 20
-25.31551020955854
 30
0.0
  0
VERTEX
  5
417
  8
0
 10
48.65006019200337
 20
-25.53436883657567
 30
0.0
  0
VERTEX
  5
418
  8
0
 10
48.97349491126957
 20
-25.73607010254521
 30
0.0
  0
VERTEX
  5
419
  8
0
 10
49.40876481918387
 20
-25.91286274091366
 30
0.0
  0
VERTEX
  5
41A
  8
0
 10
49.93914273724921
 20
-26.0579527097195
 30
0.0
  0
VERTEX
  5
41B
  8
0
 10
50.54424653946726
 20
-26.16576428281621
 30
0.0
  0
VERTEX
  5
41C
  8
0
 10
51.20082242601195
 20
-26.23215432190168
 30
0.0
  0
VERTEX
  5
41D
  8
0
 10
51.88363855371787
 20
-26.254571495
 30
0.0
  0
VERTEX
  5
41E
  8
0
 10
52.5664546816652
 20
-26.23215432271873
 30
0.0
  0
VERTEX
  5
41F
  8
0
 10
53.22303056892486
 20
-26.16576428441892
 30
0.0
  0
VERTEX
  5
420
  8
0
 10
53.82813437230398
 20
-26.05795271204628
 30
0.0
  0
VERTEX
  5
421
  8
0
 10
54.35851229193185
 20
-25.91286274387508
 30
0.0
  0
VERTEX
  5
422
  8
0
 10
54.7937822017501
 20
-25.73607010602748
 30
0.0
  0
VERTEX
  5
423
  8
0
 10
55.11721692318849
 20
-25.53436884044496
 30
0.0
  0
VERTEX
  5
424
  8
0
 10
55.31638704125811
 20
-25.31551021366615
 30
0.0
  0
VERTEX
  5
425
  8
0
 10
55.38363856
 20
-25.08790484
 30
0.0
  0
SEQEND
  5
43A
  8
0
  0
LINE
  5
1FF
  8
0
 10
89.81552113
 20
-38.77558091
 30
0.0
 11
5.62822993
 21
-28.16897919
 31
0.0
  0
LINE
  5
200
  8
0
 10
23.30589946
 20
-12.57874008
 30
0.0
 11
5.62822993
 21
-28.16897919
 31
0.0
  0
POLYLINE
  5
201
  8
0
 66
     1
 10
0.0
 20
0.0
 30
0.0
  0
VERTEX
  5
202
  8
0
 10
23.30589946
 20
-12.57874008
 30
0.0
  0
VERTEX
  5
203
  8
0
 10
107.49319066
 20
-23.1853418
 30
0.0
  0
VERTEX
  5
204
  8
0
 10
89.81552113
 20
-38.77558091
 30
0.0
  0
VERTEX
  5
205
  8
0
 10
89.81552113
 20
-43.48962612
 30
0.0
  0
VERTEX
  5
206
  8
0
 10
5.62822993
 20
-32.8830244
 30
0.0
  0
SEQEND
  5
207
  8
0
  0
LINE
  5
208
  8
0
 10
107.49319066
 20
-27.899387
 30
0.0
 11
89.81552113
 21
-43.48962612
 31
0.0
  0
LINE
  5
209
  8
0
 10
107.49319066
 20
-23.1853418
 30
0.0
 11
107.49319066
 21
-27.899387
 31
0.0
  0
LINE
  5
20A
  8
0
  6
STRICHPUNKT2
 62
     1
 10
51.88363856
 20
-23.67369128
 30
0.0
 11
51.88363856
 21
-26.25457151
 31
0.0
  0
LINE
  5
20B
  8
0
  6
STRICHPUNKT2
 62
     1
 10
51.88363856
 20
-25.08790484
 30
0.0
 11
47.20656682
 21
-24.49864919
 31
0.0
  0
LINE
  5
20C
  8
0
  6
STRICHPUNKT2
 62
     1
 10
51.88363856
 20
-25.08790484
 30
0.0
 11
56.56071029
 21
-25.67716049
 31
0.0
  0
LINE
  5
20D
  8
0
  6
STRICHPUNKT2
 62
     1
 10
51.88363856
 20
-25.08790484
 30
0.0
 11
50.11587161
 21
-26.64692875
 31
0.0
  0
LINE
  5
20E
  8
0
  6
STRICHPUNKT2
 62
     1
 10
51.88363856
 20
-25.08790484
 30
0.0
 11
53.65140551
 21
-23.52888093
 31
0.0
  0
POLYLINE
  5
20F
  8
0
 66
     1
 10
0.0
 20
0.0
 30
0.0
  0
VERTEX
  5
210
  8
0
 10
201.27408646
 20
98.2954869
 30
0.0
  0
VERTEX
  5
211
  8
0
 10
201.27408646
 20
188.2954869
 30
0.0
  0
VERTEX
  5
212
  8
0
 10
196.27408646
 20
188.2954869
 30
0.0
  0
SEQEND
  5
213
  8
0
  0
LINE
  5
214
  8
0
 10
196.27408646
 20
98.2954869
 30
0.0
 11
196.27408646
 21
188.2954869
 31
0.0
  0
LINE
  5
215
  8
0
  6
STRICHPUNKT2
 62
     1
 10
196.27408646
 20
180.7954869
 30
0.0
 11
195.02408646
 21
180.7954869
 31
0.0
  0
LINE
  5
216
  8
0
  6
STRICHPUNKT2
 62
     1
 10
202.52408646
 20
180.7954869
 30
0.0
 11
201.27408646
 21
180.7954869
 31
0.0
  0
LINE
  5
217
  8
0
  6
STRICHPUNKT2
 62
     1
 10
196.27408646
 20
120.7954869
 30
0.0
 11
195.02408646
 21
120.7954869
 31
0.0
  0
LINE
  5
218
  8
0
  6
STRICHPUNKT2
 62
     1
 10
202.52408646
 20
120.7954869
 30
0.0
 11
201.27408646
 21
120.7954869
 31
0.0
  0
LINE
  5
219
  8
0
  6
STRICHPUNKT2
 62
     1
 10
196.27408646
 20
105.7954869
 30
0.0
 11
195.02408646
 21
105.7954869
 31
0.0
  0
LINE
  5
21A
  8
0
  6
STRICHPUNKT2
 62
     1
 10
202.52408646
 20
105.7954869
 30
0.0
 11
201.27408646
 21
105.7954869
 31
0.0
  0
LINE
  5
21B
  8
0
  6
STRICHPUNKT2
 62
     1
 10
196.27408646
 20
160.7954869
 30
0.0
 11
195.02408646
 21
160.7954869
 31
0.0
  0
LINE
  5
21C
  8
0
  6
STRICHPUNKT2
 62
     1
 10
202.52408646
 20
160.7954869
 30
0.0
 11
201.27408646
 21
160.7954869
 31
0.0
  0
ARC
  5
21D
  8
0
 10
206.27408646
 20
98.2954869
 30
0.0
 40
5.0
 50
180.0
 51
-90.0
  0
ARC
  5
21E
  8
0
 10
206.27408646
 20
98.2954869
 30
0.0
 40
10.0
 50
180.0
 51
-90.0
  0
LINE
  5
21F
  8
0
 10
296.27408646
 20
93.2954869
 30
0.0
 11
206.27408646
 21
93.2954869
 31
0.0
  0
LINE
  5
220
  8
0
 10
296.27408646
 20
88.2954869
 30
0.0
 11
206.27408646
 21
88.2954869
 31
0.0
  0
LINE
  5
221
  8
0
 10
296.27408646
 20
93.2954869
 30
0.0
 11
296.27408646
 21
88.2954869
 31
0.0
  0
LINE
  5
222
  8
0
  6
STRICHPUNKT2
 62
     1
 10
246.27408646
 20
88.2954869
 30
0.0
 11
246.27408646
 21
86.7954869
 31
0.0
  0
LINE
  5
223
  8
0
  6
STRICHPUNKT2
 62
     1
 10
246.27408646
 20
94.7954869
 30
0.0
 11
246.27408646
 21
93.2954869
 31
0.0
  0
POLYLINE
  5
224
  8
0
 66
     1
 10
0.0
 20
0.0
 30
0.0
 70
     1
  0
VERTEX
  5
225
  8
0
 10
94.34581535
 20
120.7954869
 30
0.0
  0
VERTEX
  5
226
  8
0
 10
94.34581535
 20
105.7954869
 30
0.0
 42
1.0
  0
VERTEX
  5
227
  8
0
 10
99.34581535
 20
105.7954869
 30
0.0
  0
VERTEX
  5
228
  8
0
 10
99.34581535
 20
120.7954869
 30
0.0
 42
1.0
  0
SEQEND
  5
229
  8
0
  0
POLYLINE
  5
22A
  8
0
 66
     1
 10
0.0
 20
0.0
 30
0.0
 70
     1
  0
VERTEX
  5
22B
  8
0
 10
119.34581535
 20
120.7954869
 30
0.0
  0
VERTEX
  5
22C
  8
0
 10
119.34581535
 20
105.7954869
 30
0.0
 42
1.0
  0
VERTEX
  5
22D
  8
0
 10
124.34581535
 20
105.7954869
 30
0.0
  0
VERTEX
  5
22E
  8
0
 10
124.34581535
 20
120.7954869
 30
0.0
 42
1.0
  0
SEQEND
  5
22F
  8
0
  0
POLYLINE
  5
230
  8
0
 66
     1
 10
0.0
 20
0.0
 30
0.0
 70
     1
  0
VERTEX
  5
231
  8
0
 10
101.84581535
 20
158.2954869
 30
0.0
  0
VERTEX
  5
232
  8
0
 10
116.84581535
 20
158.2954869
 30
0.0
 42
1.0
  0
VERTEX
  5
233
  8
0
 10
116.84581535
 20
163.2954869
 30
0.0
  0
VERTEX
  5
234
  8
0
 10
101.84581535
 20
163.2954869
 30
0.0
 42
1.0
  0
SEQEND
  5
235
  8
0
  0
POLYLINE
  5
236
  8
0
 66
     1
 10
0.0
 20
0.0
 30
0.0
 70
     1
  0
VERTEX
  5
237
  8
0
 10
101.84581535
 20
178.2954869
 30
0.0
  0
VERTEX
  5
238
  8
0
 10
116.84581535
 20
178.2954869
 30
0.0
 42
1.0
  0
VERTEX
  5
239
  8
0
 10
116.84581535
 20
183.2954869
 30
0.0
  0
VERTEX
  5
23A
  8
0
 10
101.84581535
 20
183.2954869
 30
0.0
 42
1.0
  0
SEQEND
  5
23B
  8
0
  0
LINE
  5
23C
  8
0
 10
84.34581535
 20
188.2954869
 30
0.0
 11
134.34581535
 21
188.2954869
 31
0.0
  0
LINE
  5
23D
  8
0
 10
134.34581535
 20
98.2954869
 30
0.0
 11
134.34581535
 21
188.2954869
 31
0.0
  0
LINE
  5
23E
  8
0
 10
84.34581535
 20
98.2954869
 30
0.0
 11
134.34581535
 21
98.2954869
 31
0.0
  0
LINE
  5
23F
  8
0
 10
84.34581535
 20
188.2954869
 30
0.0
 11
84.34581535
 21
98.2954869
 31
0.0
  0
LINE
  5
240
  8
0
  6
STRICHPUNKT2
 62
     1
 10
120.59581535
 20
180.7954869
 30
0.0
 11
98.09581535
 21
180.7954869
 31
0.0
  0
LINE
  5
241
  8
0
  6
STRICHPUNKT2
 62
     1
 10
116.84581535
 20
177.0454869
 30
0.0
 11
116.84581535
 21
184.5454869
 31
0.0
  0
LINE
  5
242
  8
0
  6
STRICHPUNKT2
 62
     1
 10
101.84581535
 20
177.0454869
 30
0.0
 11
101.84581535
 21
184.5454869
 31
0.0
  0
LINE
  5
243
  8
0
  6
STRICHPUNKT2
 62
     1
 10
120.59581535
 20
160.7954869
 30
0.0
 11
98.09581535
 21
160.7954869
 31
0.0
  0
LINE
  5
244
  8
0
  6
STRICHPUNKT2
 62
     1
 10
116.84581535
 20
157.0454869
 30
0.0
 11
116.84581535
 21
164.5454869
 31
0.0
  0
LINE
  5
245
  8
0
  6
STRICHPUNKT2
 62
     1
 10
101.84581535
 20
157.0454869
 30
0.0
 11
101.84581535
 21
164.5454869
 31
0.0
  0
LINE
  5
246
  8
0
  6
STRICHPUNKT2
 62
     1
 10
121.84581535
 20
102.0454869
 30
0.0
 11
121.84581535
 21
124.5454869
 31
0.0
  0
LINE
  5
247
  8
0
  6
STRICHPUNKT2
 62
     1
 10
118.09581535
 20
105.7954869
 30
0.0
 11
125.59581535
 21
105.7954869
 31
0.0
  0
LINE
  5
248
  8
0
  6
STRICHPUNKT2
 62
     1
 10
118.09581535
 20
120.7954869
 30
0.0
 11
125.59581535
 21
120.7954869
 31
0.0
  0
LINE
  5
249
  8
0
  6
STRICHPUNKT2
 62
     1
 10
96.84581535
 20
102.0454869
 30
0.0
 11
96.84581535
 21
124.5454869
 31
0.0
  0
LINE
  5
24A
  8
0
  6
STRICHPUNKT2
 62
     1
 10
93.09581535
 20
105.7954869
 30
0.0
 11
100.59581535
 21
105.7954869
 31
0.0
  0
LINE
  5
24B
  8
0
  6
STRICHPUNKT2
 62
     1
 10
93.09581535
 20
120.7954869
 30
0.0
 11
100.59581535
 21
120.7954869
 31
0.0
  0
LINE
  5
24C
  8
0
 10
84.34581535
 20
98.2954869
 30
0.0
 11
134.34581535
 21
98.2954869
 31
0.0
  0
LINE
  5
24D
  8
0
 10
134.34581535
 20
88.2954869
 30
0.0
 11
134.34581535
 21
98.2954869
 31
0.0
  0
LINE
  5
24E
  8
0
 10
84.34581535
 20
88.2954869
 30
0.0
 11
134.34581535
 21
88.2954869
 31
0.0
  0
LINE
  5
24F
  8
0
 10
84.34581535
 20
98.2954869
 30
0.0
 11
84.34581535
 21
88.2954869
 31
0.0
  0
LINE
  5
250
  8
0
 10
84.34581535
 20
88.2954869
 30
0.0
 11
134.34581535
 21
88.2954869
 31
0.0
  0
LINE
  5
251
  8
0
  6
STRICHPUNKT2
 62
     1
 10
109.34581535
 20
88.2954869
 30
0.0
 11
109.34581535
 21
86.7954869
 31
0.0
  0
POLYLINE
  5
252
  8
0
 66
     1
 10
0.0
 20
0.0
 30
0.0
  0
VERTEX
  5
253
  8
0
 10
201.27408646
 20
60.58699398
 30
0.0
  0
VERTEX
  5
254
  8
0
 10
201.27408646
 20
10.58699398
 30
0.0
  0
VERTEX
  5
255
  8
0
 10
196.27408646
 20
10.58699398
 30
0.0
  0
SEQEND
  5
256
  8
0
  0
LINE
  5
257
  8
0
 10
196.27408646
 20
60.58699398
 30
0.0
 11
196.27408646
 21
10.58699398
 31
0.0
  0
LINE
  5
258
  8
0
 10
201.27408646
 20
60.58699398
 30
0.0
 11
196.27408646
 21
60.58699398
 31
0.0
  0
LINE
  5
259
  8
0
  6
STRICHPUNKT2
 62
     1
 10
196.27408646
 20
28.08699398
 30
0.0
 11
195.02408646
 21
28.08699398
 31
0.0
  0
LINE
  5
25A
  8
0
  6
STRICHPUNKT2
 62
     1
 10
202.52408646
 20
28.08699398
 30
0.0
 11
201.27408646
 21
28.08699398
 31
0.0
  0
LINE
  5
25B
  8
0
  6
STRICHPUNKT2
 62
     1
 10
196.27408646
 20
43.08699398
 30
0.0
 11
195.02408646
 21
43.08699398
 31
0.0
  0
LINE
  5
25C
  8
0
  6
STRICHPUNKT2
 62
     1
 10
202.52408646
 20
43.08699398
 30
0.0
 11
201.27408646
 21
43.08699398
 31
0.0
  0
LINE
  5
25D
  8
0
  6
STRICHPUNKT2
 62
     1
 10
196.27408646
 20
23.08699398
 30
0.0
 11
195.02408646
 21
23.08699398
 31
0.0
  0
LINE
  5
25E
  8
0
  6
STRICHPUNKT2
 62
     1
 10
202.52408646
 20
23.08699398
 30
0.0
 11
201.27408646
 21
23.08699398
 31
0.0
  0
LINE
  5
25F
  8
0
  6
STRICHPUNKT2
 62
     1
 10
196.27408646
 20
48.08699398
 30
0.0
 11
195.02408646
 21
48.08699398
 31
0.0
  0
LINE
  5
260
  8
0
  6
STRICHPUNKT2
 62
     1
 10
202.52408646
 20
48.08699398
 30
0.0
 11
201.27408646
 21
48.08699398
 31
0.0
  0
POLYLINE
  5
261
  8
0
 66
     1
 10
0.0
 20
0.0
 30
0.0
  0
VERTEX
  5
262
  8
0
 10
201.27408646
 20
60.58699398
 30
0.0
  0
VERTEX
  5
263
  8
0
 10
206.27408646
 20
60.58699398
 30
0.0
  0
VERTEX
  5
264
  8
0
 10
206.27408646
 20
10.58699398
 30
0.0
  0
VERTEX
  5
265
  8
0
 10
201.27408646
 20
10.58699398
 30
0.0
  0
SEQEND
  5
266
  8
0
  0
CIRCLE
  5
267
  8
0
 10
246.27408646
 20
35.58699398
 30
0.0
 40
3.5
  0
LINE
  5
268
  8
0
 10
296.27408646
 20
10.58699398
 30
0.0
 11
206.27408646
 21
10.58699398
 31
0.0
  0
LINE
  5
269
  8
0
 10
206.27408646
 20
60.58699398
 30
0.0
 11
206.27408646
 21
10.58699398
 31
0.0
  0
POLYLINE
  5
26A
  8
0
 66
     1
 10
0.0
 20
0.0
 30
0.0
  0
VERTEX
  5
26B
  8
0
 10
206.27408646
 20
60.58699398
 30
0.0
  0
VERTEX
  5
26C
  8
0
 10
296.27408646
 20
60.58699398
 30
0.0
  0
VERTEX
  5
26D
  8
0
 10
296.27408646
 20
10.58699398
 30
0.0
  0
SEQEND
  5
26E
  8
0
  0
LINE
  5
26F
  8
0
  6
STRICHPUNKT2
 62
     1
 10
246.27408646
 20
35.58699398
 30
0.0
 11
241.27408646
 21
35.58699398
 31
0.0
  0
LINE
  5
270
  8
0
  6
STRICHPUNKT2
 62
     1
 10
246.27408646
 20
35.58699398
 30
0.0
 11
251.27408646
 21
35.58699398
 31
0.0
  0
LINE
  5
271
  8
0
  6
STRICHPUNKT2
 62
     1
 10
246.27408646
 20
35.58699398
 30
0.0
 11
246.27408646
 21
30.58699398
 31
0.0
  0
LINE
  5
272
  8
0
  6
STRICHPUNKT2
 62
     1
 10
246.27408646
 20
35.58699398
 30
0.0
 11
246.27408646
 21
40.58699398
 31
0.0
  0
TEXT
  5
273
  8
TXT_DIM49
 10
180.67876906
 20
135.41573379
 30
0.0
 40
2.5
  1
200
 50
90.00020741
  7
ARIAL
  0
LINE
  5
274
  8
0
 62
     4
 10
183.17876906
 20
187.2954869
 30
0.0
 11
181.17876906
 21
189.2954869
 31
0.0
  0
LINE
  5
275
  8
0
 62
     4
 10
181.42876906
 20
89.0454869
 30
0.0
 11
182.92876906
 21
87.5454869
 31
0.0
  0
LINE
  5
276
  8
0
 62
     4
 10
182.17876906
 20
188.2954869
 30
0.0
 11
182.17876906
 21
88.2954869
 31
0.0
  0
LINE
  5
277
  8
0
 62
     4
 10
184.17876906
 20
188.2954869
 30
0.0
 11
180.17876906
 21
188.2954869
 31
0.0
  0
LINE
  5
278
  8
0
 62
     4
 10
184.17876906
 20
88.2954869
 30
0.0
 11
180.17876906
 21
88.2954869
 31
0.0
  0
TEXT
  5
279
  8
TXT_DIM49
 10
243.39433335
 20
80.98093878
 30
0.0
 40
2.5
  1
200
  7
ARIAL
  0
LINE
  5
27A
  8
0
 62
     4
 10
197.27408646
 20
80.48093878
 30
0.0
 11
195.27408646
 21
78.48093878
 31
0.0
  0
LINE
  5
27B
  8
0
 62
     4
 10
295.52408646
 20
78.73093878
 30
0.0
 11
297.02408646
 21
80.23093878
 31
0.0
  0
LINE
  5
27C
  8
0
 62
     4
 10
196.27408646
 20
79.48093878
 30
0.0
 11
296.27408646
 21
79.48093878
 31
0.0
  0
LINE
  5
27D
  8
0
 62
     4
 10
196.27408646
 20
81.48093878
 30
0.0
 11
196.27408646
 21
77.48093878
 31
0.0
  0
LINE
  5
27E
  8
0
 62
     4
 10
296.27408646
 20
81.48093878
 30
0.0
 11
296.27408646
 21
77.48093878
 31
0.0
  0
TEXT
  5
27F
  8
TXT_DIM49
 10
304.77408646
 20
88.87565146
 30
0.0
 40
2.5
  1
10
 50
90.00020741
  7
ARIAL
  0
LINE
  5
280
  8
0
 62
     4
 10
307.27408646
 20
92.2954869
 30
0.0
 11
305.27408646
 21
94.2954869
 31
0.0
  0
LINE
  5
281
  8
0
 62
     4
 10
305.52408646
 20
89.0454869
 30
0.0
 11
307.02408646
 21
87.5454869
 31
0.0
  0
LINE
  5
282
  8
0
 62
     4
 10
306.27408646
 20
93.2954869
 30
0.0
 11
306.27408646
 21
88.2954869
 31
0.0
  0
LINE
  5
283
  8
0
 62
     4
 10
304.27408646
 20
93.2954869
 30
0.0
 11
308.27408646
 21
93.2954869
 31
0.0
  0
LINE
  5
284
  8
0
 62
     4
 10
304.27408646
 20
88.2954869
 30
0.0
 11
308.27408646
 21
88.2954869
 31
0.0
  0
TEXT
  5
285
  8
TXT_DIM49
 10
196.85425101
 20
195.5472627
 30
0.0
 40
2.5
  1
10
  7
ARIAL
  0
LINE
  5
286
  8
0
 62
     4
 10
197.27408646
 20
195.0472627
 30
0.0
 11
195.27408646
 21
193.0472627
 31
0.0
  0
LINE
  5
287
  8
0
 62
     4
 10
200.52408646
 20
193.2972627
 30
0.0
 11
202.02408646
 21
194.7972627
 31
0.0
  0
LINE
  5
288
  8
0
 62
     4
 10
196.27408646
 20
194.0472627
 30
0.0
 11
201.27408646
 21
194.0472627
 31
0.0
  0
LINE
  5
289
  8
0
 62
     4
 10
196.27408646
 20
192.0472627
 30
0.0
 11
196.27408646
 21
196.0472627
 31
0.0
  0
LINE
  5
28A
  8
0
 62
     4
 10
201.27408646
 20
192.0472627
 30
0.0
 11
201.27408646
 21
196.0472627
 31
0.0
  0
TEXT
  5
28B
  8
TXT_DIM49
 10
123.6759799
 20
192.43171928
 30
0.0
 40
2.5
  1
35
  7
ARIAL
  0
LINE
  5
28C
  8
0
 62
     4
 10
133.34581535
 20
189.93171928
 30
0.0
 11
135.34581535
 21
191.93171928
 31
0.0
  0
LINE
  5
28D
  8
0
 62
     4
 10
117.59581535
 20
191.68171928
 30
0.0
 11
116.09581535
 21
190.18171928
 31
0.0
  0
LINE
  5
28E
  8
0
 62
     4
 10
134.34581535
 20
190.93171928
 30
0.0
 11
116.84581535
 21
190.93171928
 31
0.0
  0
LINE
  5
28F
  8
0
 62
     4
 10
134.34581535
 20
188.93171928
 30
0.0
 11
134.34581535
 21
192.93171928
 31
0.0
  0
LINE
  5
290
  8
0
 62
     4
 10
116.84581535
 20
188.93171928
 30
0.0
 11
116.84581535
 21
192.93171928
 31
0.0
  0
TEXT
  5
291
  8
TXT_DIM49
 10
107.4259799
 20
192.43171928
 30
0.0
 40
2.5
  1
30
  7
ARIAL
  0
LINE
  5
292
  8
0
 62
     4
 10
115.84581535
 20
189.93171928
 30
0.0
 11
117.84581535
 21
191.93171928
 31
0.0
  0
LINE
  5
293
  8
0
 62
     4
 10
102.59581535
 20
191.68171928
 30
0.0
 11
101.09581535
 21
190.18171928
 31
0.0
  0
LINE
  5
294
  8
0
 62
     4
 10
116.84581535
 20
190.93171928
 30
0.0
 11
101.84581535
 21
190.93171928
 31
0.0
  0
LINE
  5
295
  8
0
 62
     4
 10
116.84581535
 20
188.93171928
 30
0.0
 11
116.84581535
 21
192.93171928
 31
0.0
  0
LINE
  5
296
  8
0
 62
     4
 10
101.84581535
 20
188.93171928
 30
0.0
 11
101.84581535
 21
192.93171928
 31
0.0
  0
TEXT
  5
297
  8
TXT_DIM49
 10
91.1759799
 20
192.43171928
 30
0.0
 40
2.5
  1
35
  7
ARIAL
  0
LINE
  5
298
  8
0
 62
     4
 10
100.84581535
 20
189.93171928
 30
0.0
 11
102.84581535
 21
191.93171928
 31
0.0
  0
LINE
  5
299
  8
0
 62
     4
 10
85.09581535
 20
191.68171928
 30
0.0
 11
83.59581535
 21
190.18171928
 31
0.0
  0
LINE
  5
29A
  8
0
 62
     4
 10
101.84581535
 20
190.93171928
 30
0.0
 11
84.34581535
 21
190.93171928
 31
0.0
  0
LINE
  5
29B
  8
0
 62
     4
 10
101.84581535
 20
188.93171928
 30
0.0
 11
101.84581535
 21
192.93171928
 31
0.0
  0
LINE
  5
29C
  8
0
 62
     4
 10
84.34581535
 20
188.93171928
 30
0.0
 11
84.34581535
 21
192.93171928
 31
0.0
  0
TEXT
  5
29D
  8
TXT_DIM49
 10
138.03366781
 20
182.62565146
 30
0.0
 40
2.5
  1
15
 50
90.00020741
  7
ARIAL
  0
LINE
  5
29E
  8
0
 62
     4
 10
140.53366781
 20
187.2954869
 30
0.0
 11
138.53366781
 21
189.2954869
 31
0.0
  0
LINE
  5
29F
  8
0
 62
     4
 10
138.78366781
 20
181.5454869
 30
0.0
 11
140.28366781
 21
180.0454869
 31
0.0
  0
LINE
  5
2A0
  8
0
 62
     4
 10
139.53366781
 20
188.2954869
 30
0.0
 11
139.53366781
 21
180.7954869
 31
0.0
  0
LINE
  5
2A1
  8
0
 62
     4
 10
137.53366781
 20
188.2954869
 30
0.0
 11
141.53366781
 21
188.2954869
 31
0.0
  0
LINE
  5
2A2
  8
0
 62
     4
 10
137.53366781
 20
180.7954869
 30
0.0
 11
141.53366781
 21
180.7954869
 31
0.0
  0
TEXT
  5
2A3
  8
TXT_DIM49
 10
138.03366781
 20
168.87565146
 30
0.0
 40
2.5
  1
40
 50
90.00020741
  7
ARIAL
  0
LINE
  5
2A4
  8
0
 62
     4
 10
140.53366781
 20
179.7954869
 30
0.0
 11
138.53366781
 21
181.7954869
 31
0.0
  0
LINE
  5
2A5
  8
0
 62
     4
 10
138.78366781
 20
161.5454869
 30
0.0
 11
140.28366781
 21
160.0454869
 31
0.0
  0
LINE
  5
2A6
  8
0
 62
     4
 10
139.53366781
 20
180.7954869
 30
0.0
 11
139.53366781
 21
160.7954869
 31
0.0
  0
LINE
  5
2A7
  8
0
 62
     4
 10
137.53366781
 20
180.7954869
 30
0.0
 11
141.53366781
 21
180.7954869
 31
0.0
  0
LINE
  5
2A8
  8
0
 62
     4
 10
137.53366781
 20
160.7954869
 30
0.0
 11
141.53366781
 21
160.7954869
 31
0.0
  0
TEXT
  5
2A9
  8
TXT_DIM49
 10
138.03366781
 20
138.87565146
 30
0.0
 40
2.5
  1
80
 50
90.00020741
  7
ARIAL
  0
LINE
  5
2AA
  8
0
 62
     4
 10
140.53366781
 20
159.7954869
 30
0.0
 11
138.53366781
 21
161.7954869
 31
0.0
  0
LINE
  5
2AB
  8
0
 62
     4
 10
138.78366781
 20
121.5454869
 30
0.0
 11
140.28366781
 21
120.0454869
 31
0.0
  0
LINE
  5
2AC
  8
0
 62
     4
 10
139.53366781
 20
160.7954869
 30
0.0
 11
139.53366781
 21
120.7954869
 31
0.0
  0
LINE
  5
2AD
  8
0
 62
     4
 10
137.53366781
 20
160.7954869
 30
0.0
 11
141.53366781
 21
160.7954869
 31
0.0
  0
LINE
  5
2AE
  8
0
 62
     4
 10
137.53366781
 20
120.7954869
 30
0.0
 11
141.53366781
 21
120.7954869
 31
0.0
  0
TEXT
  5
2AF
  8
TXT_DIM49
 10
138.03366781
 20
111.37565146
 30
0.0
 40
2.5
  1
30
 50
90.00020741
  7
ARIAL
  0
LINE
  5
2B0
  8
0
 62
     4
 10
140.53366781
 20
119.7954869
 30
0.0
 11
138.53366781
 21
121.7954869
 31
0.0
  0
LINE
  5
2B1
  8
0
 62
     4
 10
138.78366781
 20
106.5454869
 30
0.0
 11
140.28366781
 21
105.0454869
 31
0.0
  0
LINE
  5
2B2
  8
0
 62
     4
 10
139.53366781
 20
120.7954869
 30
0.0
 11
139.53366781
 21
105.7954869
 31
0.0
  0
LINE
  5
2B3
  8
0
 62
     4
 10
137.53366781
 20
120.7954869
 30
0.0
 11
141.53366781
 21
120.7954869
 31
0.0
  0
LINE
  5
2B4
  8
0
 62
     4
 10
137.53366781
 20
105.7954869
 30
0.0
 11
141.53366781
 21
105.7954869
 31
0.0
  0
TEXT
  5
2B5
  8
TXT_DIM49
 10
138.03366781
 20
95.12565146
 30
0.0
 40
2.5
  1
35
 50
90.00020741
  7
ARIAL
  0
LINE
  5
2B6
  8
0
 62
     4
 10
140.53366781
 20
104.7954869
 30
0.0
 11
138.53366781
 21
106.7954869
 31
0.0
  0
LINE
  5
2B7
  8
0
 62
     4
 10
138.78366781
 20
89.0454869
 30
0.0
 11
140.28366781
 21
87.5454869
 31
0.0
  0
LINE
  5
2B8
  8
0
 62
     4
 10
139.53366781
 20
105.7954869
 30
0.0
 11
139.53366781
 21
88.2954869
 31
0.0
  0
LINE
  5
2B9
  8
0
 62
     4
 10
137.53366781
 20
105.7954869
 30
0.0
 11
141.53366781
 21
105.7954869
 31
0.0
  0
LINE
  5
2BA
  8
0
 62
     4
 10
137.53366781
 20
88.2954869
 30
0.0
 11
141.53366781
 21
88.2954869
 31
0.0
  0
TEXT
  5
2BB
  8
TXT_DIM49
 10
126.1759799
 20
84.64486108
 30
0.0
 40
2.5
  1
25
  7
ARIAL
  0
LINE
  5
2BC
  8
0
 62
     4
 10
133.34581535
 20
82.14486108
 30
0.0
 11
135.34581535
 21
84.14486108
 31
0.0
  0
LINE
  5
2BD
  8
0
 62
     4
 10
122.59581535
 20
83.89486108
 30
0.0
 11
121.09581535
 21
82.39486108
 31
0.0
  0
LINE
  5
2BE
  8
0
 62
     4
 10
134.34581535
 20
83.14486108
 30
0.0
 11
121.84581535
 21
83.14486108
 31
0.0
  0
LINE
  5
2BF
  8
0
 62
     4
 10
134.34581535
 20
85.14486108
 30
0.0
 11
134.34581535
 21
81.14486108
 31
0.0
  0
LINE
  5
2C0
  8
0
 62
     4
 10
121.84581535
 20
85.14486108
 30
0.0
 11
121.84581535
 21
81.14486108
 31
0.0
  0
TEXT
  5
2C1
  8
TXT_DIM49
 10
107.4259799
 20
84.64486108
 30
0.0
 40
2.5
  1
50
  7
ARIAL
  0
LINE
  5
2C2
  8
0
 62
     4
 10
120.84581535
 20
82.14486108
 30
0.0
 11
122.84581535
 21
84.14486108
 31
0.0
  0
LINE
  5
2C3
  8
0
 62
     4
 10
97.59581535
 20
83.89486108
 30
0.0
 11
96.09581535
 21
82.39486108
 31
0.0
  0
LINE
  5
2C4
  8
0
 62
     4
 10
121.84581535
 20
83.14486108
 30
0.0
 11
96.84581535
 21
83.14486108
 31
0.0
  0
LINE
  5
2C5
  8
0
 62
     4
 10
121.84581535
 20
85.14486108
 30
0.0
 11
121.84581535
 21
81.14486108
 31
0.0
  0
LINE
  5
2C6
  8
0
 62
     4
 10
96.84581535
 20
85.14486108
 30
0.0
 11
96.84581535
 21
81.14486108
 31
0.0
  0
TEXT
  5
2C7
  8
TXT_DIM49
 10
88.6759799
 20
84.64486108
 30
0.0
 40
2.5
  1
25
  7
ARIAL
  0
LINE
  5
2C8
  8
0
 62
     4
 10
95.84581535
 20
82.14486108
 30
0.0
 11
97.84581535
 21
84.14486108
 31
0.0
  0
LINE
  5
2C9
  8
0
 62
     4
 10
85.09581535
 20
83.89486108
 30
0.0
 11
83.59581535
 21
82.39486108
 31
0.0
  0
LINE
  5
2CA
  8
0
 62
     4
 10
96.84581535
 20
83.14486108
 30
0.0
 11
84.34581535
 21
83.14486108
 31
0.0
  0
LINE
  5
2CB
  8
0
 62
     4
 10
96.84581535
 20
85.14486108
 30
0.0
 11
96.84581535
 21
81.14486108
 31
0.0
  0
LINE
  5
2CC
  8
0
 62
     4
 10
84.34581535
 20
85.14486108
 30
0.0
 11
84.34581535
 21
81.14486108
 31
0.0
  0
LINE
  5
2CD
  8
0
 62
     5
 10
99.34581535
 20
120.7954869
 30
0.0
 11
103.14338104
 21
129.83500056
 31
0.0
  0
LINE
  5
2CE
  8
0
 62
     5
 10
119.34581535
 20
120.7954869
 30
0.0
 11
103.14338104
 21
129.83500056
 31
0.0
  0
TEXT
  5
2CF
  8
TXT_DIM49
 10
103.14338104
 20
128.58500056
 30
0.0
 40
2.5
  1
Slobgat 10 x 40
  7
ARIAL
  0
LINE
  5
2D0
  8
0
 62
     5
 10
101.84581535
 20
178.2954869
 30
0.0
 11
103.9853083
 21
171.53846434
 31
0.0
  0
LINE
  5
2D1
  8
0
 62
     5
 10
101.84581535
 20
163.2954869
 30
0.0
 11
103.9853083
 21
171.53846434
 31
0.0
  0
TEXT
  5
2D2
  8
TXT_DIM49
 10
103.9853083
 20
170.28846434
 30
0.0
 40
2.5
  1
Slobgat 10 x 40
  7
ARIAL
  0
TEXT
  5
2D3
  8
TXT_DIM49
 10
268.39433335
 20
68.01504168
 30
0.0
 40
2.5
  1
100
  7
ARIAL
  0
LINE
  5
2D4
  8
0
 62
     4
 10
295.27408646
 20
65.51504168
 30
0.0
 11
297.27408646
 21
67.51504168
 31
0.0
  0
LINE
  5
2D5
  8
0
 62
     4
 10
247.02408646
 20
67.26504168
 30
0.0
 11
245.52408646
 21
65.76504168
 31
0.0
  0
LINE
  5
2D6
  8
0
 62
     4
 10
296.27408646
 20
66.51504168
 30
0.0
 11
246.27408646
 21
66.51504168
 31
0.0
  0
LINE
  5
2D7
  8
0
 62
     4
 10
296.27408646
 20
64.51504168
 30
0.0
 11
296.27408646
 21
68.51504168
 31
0.0
  0
LINE
  5
2D8
  8
0
 62
     4
 10
246.27408646
 20
64.51504168
 30
0.0
 11
246.27408646
 21
68.51504168
 31
0.0
  0
TEXT
  5
2D9
  8
TXT_DIM49
 10
218.39433335
 20
68.01504168
 30
0.0
 40
2.5
  1
100
  7
ARIAL
  0
LINE
  5
2DA
  8
0
 62
     4
 10
245.27408646
 20
65.51504168
 30
0.0
 11
247.27408646
 21
67.51504168
 31
0.0
  0
LINE
  5
2DB
  8
0
 62
     4
 10
197.02408646
 20
67.26504168
 30
0.0
 11
195.52408646
 21
65.76504168
 31
0.0
  0
LINE
  5
2DC
  8
0
 62
     4
 10
246.27408646
 20
66.51504168
 30
0.0
 11
196.27408646
 21
66.51504168
 31
0.0
  0
LINE
  5
2DD
  8
0
 62
     4
 10
246.27408646
 20
64.51504168
 30
0.0
 11
246.27408646
 21
68.51504168
 31
0.0
  0
LINE
  5
2DE
  8
0
 62
     4
 10
196.27408646
 20
64.51504168
 30
0.0
 11
196.27408646
 21
68.51504168
 31
0.0
  0
TEXT
  5
2DF
  8
TXT_DIM49
 10
303.46128461
 20
46.16715853
 30
0.0
 40
2.5
  1
50
 50
90.00020741
  7
ARIAL
  0
LINE
  5
2E0
  8
0
 62
     4
 10
305.96128461
 20
59.58699398
 30
0.0
 11
303.96128461
 21
61.58699398
 31
0.0
  0
LINE
  5
2E1
  8
0
 62
     4
 10
304.21128461
 20
36.33699398
 30
0.0
 11
305.71128461
 21
34.83699398
 31
0.0
  0
LINE
  5
2E2
  8
0
 62
     4
 10
304.96128461
 20
60.58699398
 30
0.0
 11
304.96128461
 21
35.58699398
 31
0.0
  0
LINE
  5
2E3
  8
0
 62
     4
 10
302.96128461
 20
60.58699398
 30
0.0
 11
306.96128461
 21
60.58699398
 31
0.0
  0
LINE
  5
2E4
  8
0
 62
     4
 10
302.96128461
 20
35.58699398
 30
0.0
 11
306.96128461
 21
35.58699398
 31
0.0
  0
TEXT
  5
2E5
  8
TXT_DIM49
 10
303.46128461
 20
21.16715853
 30
0.0
 40
2.5
  1
50
 50
90.00020741
  7
ARIAL
  0
LINE
  5
2E6
  8
0
 62
     4
 10
305.96128461
 20
34.58699398
 30
0.0
 11
303.96128461
 21
36.58699398
 31
0.0
  0
LINE
  5
2E7
  8
0
 62
     4
 10
304.21128461
 20
11.33699398
 30
0.0
 11
305.71128461
 21
9.83699398
 31
0.0
  0
LINE
  5
2E8
  8
0
 62
     4
 10
304.96128461
 20
35.58699398
 30
0.0
 11
304.96128461
 21
10.58699398
 31
0.0
  0
LINE
  5
2E9
  8
0
 62
     4
 10
302.96128461
 20
35.58699398
 30
0.0
 11
306.96128461
 21
35.58699398
 31
0.0
  0
LINE
  5
2EA
  8
0
 62
     4
 10
302.96128461
 20
10.58699398
 30
0.0
 11
306.96128461
 21
10.58699398
 31
0.0
  0
TEXT
  5
2EB
  8
TXT_DIM49
 10
184.77408646
 20
32.70724087
 30
0.0
 40
2.5
  1
100
 50
90.00020741
  7
ARIAL
  0
LINE
  5
2EC
  8
0
 62
     4
 10
187.27408646
 20
59.58699398
 30
0.0
 11
185.27408646
 21
61.58699398
 31
0.0
  0
LINE
  5
2ED
  8
0
 62
     4
 10
185.52408646
 20
11.33699398
 30
0.0
 11
187.02408646
 21
9.83699398
 31
0.0
  0
LINE
  5
2EE
  8
0
 62
     4
 10
186.27408646
 20
60.58699398
 30
0.0
 11
186.27408646
 21
10.58699398
 31
0.0
  0
LINE
  5
2EF
  8
0
 62
     4
 10
188.27408646
 20
60.58699398
 30
0.0
 11
184.27408646
 21
60.58699398
 31
0.0
  0
LINE
  5
2F0
  8
0
 62
     4
 10
188.27408646
 20
10.58699398
 30
0.0
 11
184.27408646
 21
10.58699398
 31
0.0
  0
LINE
  5
2F1
  8
0
 62
     5
 10
249.77408646
 20
35.58699398
 30
0.0
 11
254.8022213
 21
40.71890627
 31
0.0
  0
TEXT
  5
2F2
  8
TXT_DIM49
 10
254.8022213
 20
39.46890627
 30
0.0
 40
2.5
  1
Ø14
  7
ARIAL
  0
ENDSEC
  0
EOF
