  0
SECTION
  2
HEADER
  9
$ACADVER
  1
AC1006
  9
$DWGCODEPAGE
  3
ansi_1252
  9
$INSBASE
 10
0.0
 20
0.0
 30
0.0
  9
$EXTMIN
 10
1694.10343766
 20
-779.30832511
  9
$EXTMAX
 10
2515.9978318
 20
-400.63332511
  9
$LIMMIN
 10
1694.10343766
 20
-779.30832511
  9
$LIMMAX
 10
2515.9978318
 20
-400.63332511
  9
$ORTHOMODE
 70
     0
  9
$REGENMODE
 70
     1
  9
$FILLMODE
 70
     1
  9
$QTEXTMODE
 70
     0
  9
$MIRRTEXT
 70
     1
  9
$DRAGMODE
 70
     2
  9
$LTSCALE
 40
1.0
  9
$OSMODE
 70
    37
  9
$ATTMODE
 70
     1
  9
$TEXTSIZE
 40
1.0
  9
$TRACEWID
 40
0.05
  9
$TEXTSTYLE
  7
STANDARD
  9
$CLAYER
  8
0
  9
$CELTYPE
  6
BYBLOCK
  9
$CECOLOR
 62
   256
  9
$DIMSCALE
 40
1.0
  9
$DIMASZ
 40
0.18
  9
$DIMEXO
 40
0.0625
  9
$DIMDLI
 40
0.38
  9
$DIMRND
 40
0.0
  9
$DIMDLE
 40
0.0
  9
$DIMEXE
 40
0.18
  9
$DIMTP
 40
0.0
  9
$DIMTM
 40
0.0
  9
$DIMTXT
 40
0.18
  9
$DIMCEN
 40
0.09
  9
$DIMTSZ
 40
0.0
  9
$DIMTOL
 70
     0
  9
$DIMLIM
 70
     0
  9
$DIMTIH
 70
     1
  9
$DIMTOH
 70
     1
  9
$DIMSE1
 70
     0
  9
$DIMSE2
 70
     0
  9
$DIMTAD
 70
     0
  9
$DIMZIN
 70
     0
  9
$DIMBLK
  1

  9
$DIMASO
 70
     1
  9
$DIMSHO
 70
     1
  9
$DIMPOST
  1

  9
$DIMAPOST
  1

  9
$DIMALT
 70
     0
  9
$DIMALTD
 70
     2
  9
$DIMALTF
 40
25.4
  9
$DIMLFAC
 40
1.0
  9
$DIMTOFL
 70
     0
  9
$DIMTVP
 40
0.0
  9
$DIMTIX
 70
     0
  9
$DIMSOXD
 70
     0
  9
$DIMSAH
 70
     0
  9
$DIMBLK1
  1

  9
$DIMBLK2
  1

  9
$LUNITS
 70
     2
  9
$LUPREC
 70
     4
  9
$SKETCHINC
 40
0.1
  9
$FILLETRAD
 40
0.5
  9
$AUNITS
 70
     0
  9
$AUPREC
 70
     0
  9
$MENU
  1
.
  9
$ELEVATION
 40
0.0
  9
$THICKNESS
 40
0.0
  9
$LIMCHECK
 70
     0
  9
$CHAMFERA
 40
0.0
  9
$CHAMFERB
 40
0.0
  9
$SKPOLY
 70
     0
  9
$TDCREATE
 40
2447893.125
  9
$TDUPDATE
 40
2460791.477037477
  9
$TDINDWG
 40
0.0
  9
$TDUSRTIMER
 40
0.0
  9
$USRTIMER
 70
     1
  9
$ANGBASE
 50
0.0
  9
$ANGDIR
 70
     0
  9
$PDMODE
 70
     0
  9
$PDSIZE
 40
0.0
  9
$PLINEWID
 40
0.0
  9
$COORDS
 70
     1
  9
$SPLFRAME
 70
     0
  9
$SPLINETYPE
 70
     6
  9
$SPLINESEGS
 70
     8
  9
$ATTDIA
 70
     0
  9
$ATTREQ
 70
     1
  9
$HANDLING
 70
     1
  9
$HANDSEED
  5
3B7
  9
$SURFTAB1
 70
     6
  9
$SURFTAB2
 70
     6
  9
$SURFTYPE
 70
     6
  9
$SURFU
 70
     6
  9
$SURFV
 70
     6
  9
$UCSNAME
  2

  9
$UCSORG
 10
0.0
 20
0.0
 30
0.0
  9
$UCSXDIR
 10
1.0
 20
0.0
 30
0.0
  9
$UCSYDIR
 10
0.0
 20
1.0
 30
0.0
  9
$USERI1
 70
     0
  9
$USERI2
 70
     0
  9
$USERI3
 70
     0
  9
$USERI4
 70
     0
  9
$USERI5
 70
     0
  9
$USERR1
 40
0.0
  9
$USERR2
 40
0.0
  9
$USERR3
 40
0.0
  9
$USERR4
 40
0.0
  9
$USERR5
 40
0.0
  9
$WORLDVIEW
 70
     1
  0
ENDSEC
  0
SECTION
  2
TABLES
  0
TABLE
  2
VPORT
 70
     1
  0
VPORT
  2
*ACTIVE
 70
     0
 10
0.0
 20
0.0
 11
1.0
 21
1.0
 12
2105.05063473
 22
-589.97082511
 13
0.0
 23
0.0
 14
1.0
 24
1.0
 15
0.0
 25
0.0
 16
0.0
 26
0.0
 36
1.0
 17
0.0
 27
0.0
 37
0.0
 40
378.675
 41
2.170447994
 42
50.0
 43
0.0
 44
0.0
 50
0.0
 51
0.0
 71
     0
 72
   100
 73
     1
 74
     1
 75
     0
 76
     0
 77
     0
 78
     0
  0
ENDTAB
  0
TABLE
  2
LTYPE
 70
    19
  0
LTYPE
  2
CONTINUOUS
 70
     0
  3
Solid line
 72
    65
 73
     0
 40
0.0
  0
LTYPE
  2
DOT
 70
     0
  3
..............
 72
    65
 73
     2
 40
2.0
 49
0.5
 49
-1.5
  0
LTYPE
  2
HIDDEN
 70
     0
  3
-- -- -- -- --
 72
    65
 73
     2
 40
7.0
 49
4.0
 49
-3.0
  0
LTYPE
  2
DASHDOT
 70
     0
  3
--.--.--.--.--
 72
    65
 73
     4
 40
8.5
 49
4.0
 49
-2.0
 49
0.5
 49
-2.0
  0
LTYPE
  2
STRICHPUNKT2
 70
     0
  3
--.--.--.--.--
 72
    65
 73
     4
 40
18.5
 49
10.0
 49
-4.0
 49
0.5
 49
-4.0
  0
LTYPE
  2
STRICHPUNKT3
 70
     0
  3
--.--.--.--.--
 72
    65
 73
     4
 40
35.5
 49
25.0
 49
-5.0
 49
0.5
 49
-5.0
  0
LTYPE
  2
PHANTOM
 70
     0
  3
--..--..--..--
 72
    65
 73
     6
 40
23.0
 49
10.0
 49
-4.0
 49
0.5
 49
-4.0
 49
0.5
 49
-4.0
  0
LTYPE
  2
PHANTOM2
 70
     0
  3
--..--..--..--
 72
    65
 73
     6
 40
33.0
 49
20.0
 49
-4.0
 49
0.5
 49
-4.0
 49
0.5
 49
-4.0
  0
LTYPE
  2
PHANTOM3
 70
     0
  3
--..--..--..--
 72
    65
 73
     6
 40
50.0
 49
37.0
 49
-4.0
 49
0.5
 49
-4.0
 49
0.5
 49
-4.0
  0
LTYPE
  2
STR3PKT
 70
     0
  3
--...--...--...
 72
    65
 73
     8
 40
31.5
 49
20.0
 49
-2.5
 49
0.5
 49
-2.5
 49
0.5
 49
-2.5
 49
0.5
 49
-2.5
  0
LTYPE
  2
2STRPKT
 70
     0
  3
--.--.--.--.--
 72
    65
 73
     6
 40
28.0
 49
10.0
 49
-2.5
 49
10.0
 49
-2.5
 49
0.5
 49
-2.5
  0
LTYPE
  2
GESTRICHELT2
 70
     0
  3
-- -- -- -- --
 72
    65
 73
     2
 40
25.0
 49
10.0
 49
-15.0
  0
LTYPE
  2
2STR2PKT
 70
     0
  3
--..--..--..--
 72
    65
 73
     8
 40
31.0
 49
10.0
 49
-2.5
 49
10.0
 49
-2.5
 49
0.5
 49
-2.5
 49
0.5
 49
-2.5
  0
LTYPE
  2
STR3PKT2
 70
     0
  3
--...--...--...
 72
    65
 73
     8
 40
21.0
 49
10.0
 49
-2.5
 49
0.5
 49
-2.5
 49
0.5
 49
-2.5
 49
0.5
 49
-2.0
  0
LTYPE
  2
2STR3PKT
 70
     0
  3
--...--...--...
 72
    65
 73
    10
 40
34.0
 49
10.0
 49
-2.5
 49
10.0
 49
-2.5
 49
0.5
 49
-2.5
 49
0.5
 49
-2.5
 49
0.5
 49
-2.5
  0
LTYPE
  2
STRKSTR
 70
     0
  3
-- - -- - -- -
 72
    65
 73
     4
 40
30.0
 49
20.0
 49
-2.5
 49
5.0
 49
-2.5
  0
LTYPE
  2
STRKSTR2
 70
     0
  3
-- - -- - -- -
 72
    65
 73
     6
 40
37.5
 49
20.0
 49
-2.5
 49
5.0
 49
-2.5
 49
5.0
 49
-2.5
  0
LTYPE
  2
STRKSTR3
 70
     0
  3
-- - -- - -- -
 72
    65
 73
     8
 40
45.0
 49
20.0
 49
-2.5
 49
5.0
 49
-2.5
 49
5.0
 49
-2.5
 49
5.0
 49
-2.5
  0
LTYPE
  2
PUNKT2
 70
     0
  3
..............
 72
    65
 73
     2
 40
3.5
 49
0.5
 49
-3.0
  0
ENDTAB
  0
TABLE
  2
LAYER
 70
    16
  0
LAYER
  2
0
 70
     0
 62
     7
  6
CONTINUOUS
  0
LAYER
  2
LE_GREEN
 70
     0
 62
     3
  6
CONTINUOUS
  0
LAYER
  2
LE_RED
 70
     0
 62
     1
  6
CONTINUOUS
  0
LAYER
  2
LE_ALL
 70
     0
 62
     7
  6
CONTINUOUS
  0
LAYER
  2
LE_HIDDEN1
 70
     0
 62
     3
  6
HIDDEN
  0
LAYER
  2
LE_HIDDEN
 70
     0
 62
     7
  6
CONTINUOUS
  0
LAYER
  2
LE_MIDDLE
 70
     0
 62
     7
  6
CONTINUOUS
  0
LAYER
  2
TXT_YELLOW
 70
     0
 62
     2
  6
CONTINUOUS
  0
LAYER
  2
TXT_DIM49
 70
     0
 62
     2
  6
CONTINUOUS
  0
LAYER
  2
TXT_ALL
 70
     0
 62
     7
  6
CONTINUOUS
  0
LAYER
  2
DIM49
 70
     0
 62
     4
  6
CONTINUOUS
  0
LAYER
  2
HATCH
 70
     0
 62
     3
  6
CONTINUOUS
  0
LAYER
  2
APPLE
 70
     0
 62
     7
  6
CONTINUOUS
  0
LAYER
  2
10
 70
     0
 62
     7
  6
CONTINUOUS
  0
LAYER
  2
20
 70
     0
 62
     7
  6
CONTINUOUS
  0
LAYER
  2
49
 70
     0
 62
     7
  6
CONTINUOUS
  0
ENDTAB
  0
TABLE
  2
STYLE
 70
     5
  0
STYLE
  2
MONOTXT
 70
     0
 40
0.0
 41
1.0
 50
0.0
 71
     0
 42
1.0
  3
monotxt.shx
  4

  0
STYLE
  2
STANDARD
 70
     0
 40
0.0
 41
1.0
 50
0.0
 71
     0
 42
1.0
  3
txt
  4

  0
STYLE
  2
ARIAL
 70
     0
 40
0.0
 41
1.0
 50
0.0
 71
     0
 42
1.0
  3
arial.ttf
  4

  0
STYLE
  2
ARIAL_NARROW
 70
     0
 40
0.0
 41
1.0
 50
0.0
 71
     0
 42
1.0
  3
ArialN.ttf
  4

  0
STYLE
  2
ISOCPEUR
 70
     0
 40
0.0
 41
1.0
 50
0.0
 71
     0
 42
1.0
  3
ISOCPEUR.ttf
  4

  0
ENDTAB
  0
TABLE
  2
VIEW
 70
     0
  0
ENDTAB
  0
TABLE
  2
UCS
 70
     0
  0
ENDTAB
  0
ENDSEC
  0
SECTION
  2
BLOCKS
  0
ENDSEC
  0
SECTION
  2
ENTITIES
  0
POLYLINE
  5
16D
  8
0
 66
     1
 10
0.0
 20
0.0
 30
0.0
 70
     1
  0
VERTEX
  5
16E
  8
0
 10
1830.4439564
 20
-719.8305171
 30
0.0
  0
VERTEX
  5
16F
  8
0
 10
2250.4439564
 20
-719.8305171
 30
0.0
  0
VERTEX
  5
170
  8
0
 10
2250.4439564
 20
-422.8305171
 30
0.0
  0
VERTEX
  5
171
  8
0
 10
1830.4439564
 20
-422.8305171
 30
0.0
  0
SEQEND
  5
172
  8
0
  0
POLYLINE
  5
173
  8
0
 66
     1
 10
0.0
 20
0.0
 30
0.0
 70
     1
  0
VERTEX
  5
174
  8
0
 10
1835.4439564
 20
-714.8305171
 30
0.0
  0
VERTEX
  5
175
  8
0
 10
2245.4439564
 20
-714.8305171
 30
0.0
  0
VERTEX
  5
176
  8
0
 10
2245.4439564
 20
-427.8305171
 30
0.0
  0
VERTEX
  5
177
  8
0
 10
1835.4439564
 20
-427.8305171
 30
0.0
  0
SEQEND
  5
178
  8
0
  0
LINE
  5
179
  8
0
 10
2060.4439564
 20
-714.8305171
 30
0.0
 11
2060.4439564
 21
-719.8305171
 31
0.0
  0
LINE
  5
17A
  8
0
 10
2060.4439564
 20
-427.8305171
 30
0.0
 11
2060.4439564
 21
-422.8305171
 31
0.0
  0
LINE
  5
17B
  8
0
 10
1850.4439564
 20
-714.8305171
 30
0.0
 11
1850.4439564
 21
-719.8305171
 31
0.0
  0
LINE
  5
17C
  8
0
 10
1850.4439564
 20
-427.8305171
 30
0.0
 11
1850.4439564
 21
-422.8305171
 31
0.0
  0
TEXT
  5
17D
  8
TXT_ALL
 62
     4
 10
2249.4439564
 20
-718.8305171
 30
0.0
 40
2.5
  1

 50
90.00020741
  0
POLYLINE
  5
17E
  8
0
 66
     1
 10
0.0
 20
0.0
 30
0.0
  0
VERTEX
  5
17F
  8
0
 10
2245.4439564
 20
-437.8305171
 30
0.0
  0
VERTEX
  5
180
  8
0
 10
2176.4506564
 20
-437.8305171
 30
0.0
  0
VERTEX
  5
181
  8
0
 10
2176.4506564
 20
-427.8305171
 30
0.0
  0
SEQEND
  5
182
  8
0
  0
LINE
  5
183
  8
0
 10
2178.3539564
 20
-695.3305171
 30
0.0
 11
2038.4639564
 21
-695.3305171
 31
0.0
  0
LINE
  5
184
  8
0
 10
2038.4639564
 20
-705.0805171
 30
0.0
 11
2178.3539564
 21
-705.0805171
 31
0.0
  0
POLYLINE
  5
185
  8
0
 66
     1
 10
0.0
 20
0.0
 30
0.0
  0
VERTEX
  5
186
  8
0
 10
2038.4639564
 20
-695.3305171
 30
0.0
  0
VERTEX
  5
187
  8
0
 10
2038.4639564
 20
-705.0805171
 30
0.0
  0
VERTEX
  5
188
  8
0
 10
2038.4639564
 20
-714.8305171
 30
0.0
  0
SEQEND
  5
189
  8
0
  0
POLYLINE
  5
18A
  8
0
 66
     1
 10
0.0
 20
0.0
 30
0.0
  0
VERTEX
  5
18B
  8
0
 10
2108.4089564
 20
-695.3305171
 30
0.0
  0
VERTEX
  5
18C
  8
0
 10
2108.4089564
 20
-705.0805171
 30
0.0
  0
VERTEX
  5
18D
  8
0
 10
2108.4089564
 20
-714.8305171
 30
0.0
  0
SEQEND
  5
18E
  8
0
  0
TEXT
  5
18F
  8
TXT_ALL
 10
2040.4639564
 20
-701.50551705
 30
0.0
 40
2.5999999
  1
E-mail: verkoop@jonkers-bouwmetaal.nl
  7
ARIAL
  0
TEXT
  5
190
  8
TXT_ALL
 10
2040.4639564
 20
-711.25551705
 30
0.0
 40
2.5999999
  1
Telefoon: 0527-685156
  7
ARIAL
  0
TEXT
  5
191
  8
TXT_ALL
 10
2110.4089564
 20
-711.25551705
 30
0.0
 40
2.5999999
  1
Website: www.jonkers-bouwmetaal.nl
  7
ARIAL
  0
TEXT
  5
192
  8
TXT_ALL
 10
2110.4089564
 20
-701.50551705
 30
0.0
 40
2.5999999
  1
Adres: Hoornse Hop 10, 8321 WX Urk
  7
ARIAL
  0
TEXT
  5
193
  8
TXT_ALL
 10
1838.88591665
 20
-434.0805171
 30
0.0
 40
2.5
  1
Art. nr. 91006268
  7
ARIAL
  0
TEXT
  5
194
  8
TXT_ALL
 10
1881.62395347
 20
-434.0805171
 30
0.0
 40
2.5
  1
Omschrijving: H801-anker 80x80 100x6
  7
ARIAL
  0
LINE
  5
195
  8
0
 10
2245.4439564
 20
-437.8305171
 30
0.0
 11
1835.4439564
 21
-437.8305171
 31
0.0
  0
LINE
  5
196
  8
0
 10
1878.4639564
 20
-437.8305171
 30
0.0
 11
1878.4639564
 21
-427.8305171
 31
0.0
  0
LINE
  5
197
  8
0
 10
2038.4639564
 20
-437.8305171
 30
0.0
 11
2038.4639564
 21
-427.8305171
 31
0.0
  0
TEXT
  5
198
  8
TXT_ALL
 10
2109.4576564
 20
-434.0805171
 30
0.0
 40
2.5
  1
Behandeling: Thermisch Verzinkt
  7
ARIAL
  0
LINE
  5
199
  8
0
 10
2178.3539564
 20
-695.3305171
 30
0.0
 11
2245.4439564
 21
-695.3305171
 31
0.0
  0
LINE
  5
19A
  8
0
 10
2178.3539564
 20
-714.8305171
 30
0.0
 11
2178.3539564
 21
-695.3305171
 31
0.0
  0
LINE
  5
19B
  8
0
 10
2178.3539564
 20
-714.8305171
 30
0.0
 11
2178.3539564
 21
-695.3305171
 31
0.0
  0
TEXT
  5
19C
  8
TXT_ALL
 10
1972.80915449
 20
-713.67598368
 30
0.0
 40
2.5
  1

  0
TEXT
  5
19D
  8
TXT_ALL
 10
2093.94433746
 20
-703.5805171
 30
0.0
 40
2.5
  1

  0
POLYLINE
  5
19E
  8
0
 66
     1
 10
0.0
 20
0.0
 30
0.0
  0
VERTEX
  5
19F
  8
0
 10
2176.4506564
 20
-437.8305171
 30
0.0
  0
VERTEX
  5
1A0
  8
0
 10
2107.4576564
 20
-437.8305171
 30
0.0
  0
VERTEX
  5
1A1
  8
0
 10
2107.4576564
 20
-427.8305171
 30
0.0
  0
SEQEND
  5
1A2
  8
0
  0
TEXT
  5
1A3
  8
TXT_ALL
 10
2178.4506564
 20
-434.0805171
 30
0.0
 40
2.5
  1
Verpakkingshoeveelheid: 1 st.
  7
ARIAL
  0
TEXT
  5
1A4
  8
TXT_ALL
 10
2040.4639564
 20
-434.0805171
 30
0.0
 40
2.5
  1
Materiaal: S355
  7
ARIAL
  0
TEXT
  5
1A5
  8
TXT_ALL
 10
2212.75231682
 20
-718.08002695
 30
0.0
 40
1.5
  1
Onderdeel van
  7
ARIAL
  0
POLYLINE
  5
1A6
  8
0
 66
     1
 10
0.0
 20
0.0
 30
0.0
  0
VERTEX
  5
325
  8
0
 10
1878.234848308311
 20
-627.2360992110471
 30
0.0
  0
VERTEX
  5
326
  8
0
 10
1877.766395017342
 20
-627.3126459581285
 30
0.0
  0
VERTEX
  5
327
  8
0
 10
1877.282318363984
 20
-627.6531472473652
 30
0.0
  0
VERTEX
  5
328
  8
0
 10
1876.801221142595
 20
-628.2445178051368
 30
0.0
  0
VERTEX
  5
329
  8
0
 10
1876.341591649632
 20
-629.0640315925011
 30
0.0
  0
VERTEX
  5
32A
  8
0
 10
1875.921093188786
 20
-630.0801951541263
 30
0.0
  0
VERTEX
  5
32B
  8
0
 10
1875.555885280128
 20
-631.2539578941215
 30
0.0
  0
VERTEX
  5
32C
  8
0
 10
1875.260002658807
 20
-632.5402127685397
 30
0.0
  0
VERTEX
  5
32D
  8
0
 10
1875.044815928054
 20
-633.8895297237842
 30
0.0
  0
VERTEX
  5
32E
  8
0
 10
1874.918594593273
 20
-635.2500552658528
 30
0.0
  0
VERTEX
  5
32F
  8
0
 10
1874.886189269584
 20
-636.5695051610359
 30
0.0
  0
VERTEX
  5
330
  8
0
 10
1874.948845275406
 20
-637.7971736897025
 30
0.0
  0
VERTEX
  5
331
  8
0
 10
1875.104154775568
 20
-638.8858822386725
 30
0.0
  0
VERTEX
  5
332
  8
0
 10
1875.346149313064
 20
-639.7937923488688
 30
0.0
  0
VERTEX
  5
333
  8
0
 10
1875.66552917351
 20
-640.4860135438388
 30
0.0
  0
VERTEX
  5
334
  8
0
 10
1876.050020767949
 20
-640.9359441512013
 30
0.0
  0
VERTEX
  5
335
  8
0
 10
1876.4848483
 20
-641.1262935899999
 30
0.0
  0
SEQEND
  5
3AA
  8
0
  0
POLYLINE
  5
1A7
  8
0
 66
     1
 10
0.0
 20
0.0
 30
0.0
  0
VERTEX
  5
336
  8
0
 10
1876.4848483
 20
-641.1262935899999
 30
0.0
  0
VERTEX
  5
337
  8
0
 10
1876.953301590326
 20
-641.0497468385139
 30
0.0
  0
VERTEX
  5
338
  8
0
 10
1877.437378242676
 20
-640.7092455462047
 30
0.0
  0
VERTEX
  5
339
  8
0
 10
1877.918475462815
 20
-640.1178749867503
 30
0.0
  0
VERTEX
  5
33A
  8
0
 10
1878.378104954417
 20
-639.2983611990545
 30
0.0
  0
VERTEX
  5
33B
  8
0
 10
1878.798603413924
 20
-638.2821976383182
 30
0.0
  0
VERTEX
  5
33C
  8
0
 10
1879.163811321393
 20
-637.1084349002201
 30
0.0
  0
VERTEX
  5
33D
  8
0
 10
1879.459693941781
 20
-635.8221800284293
 30
0.0
  0
VERTEX
  5
33E
  8
0
 10
1879.674880671946
 20
-634.4728630762157
 30
0.0
  0
VERTEX
  5
33F
  8
0
 10
1879.801102006545
 20
-633.1123375372292
 30
0.0
  0
VERTEX
  5
340
  8
0
 10
1879.833507330486
 20
-631.7928876448226
 30
0.0
  0
VERTEX
  5
341
  8
0
 10
1879.770851325346
 20
-630.5652191182893
 30
0.0
  0
VERTEX
  5
342
  8
0
 10
1879.615541826259
 20
-629.4765105705122
 30
0.0
  0
VERTEX
  5
343
  8
0
 10
1879.373547290164
 20
-628.5686004603322
 30
0.0
  0
VERTEX
  5
344
  8
0
 10
1879.054167431347
 20
-627.8763792640424
 30
0.0
  0
VERTEX
  5
345
  8
0
 10
1878.669675838647
 20
-627.4264486539531
 30
0.0
  0
VERTEX
  5
346
  8
0
 10
1878.234848308311
 20
-627.2360992110471
 30
0.0
  0
SEQEND
  5
3AB
  8
0
  0
POLYLINE
  5
1A8
  8
0
 66
     1
 10
0.0
 20
0.0
 30
0.0
  0
VERTEX
  5
1A9
  8
0
 10
1854.06969269
 20
-611.35196706
 30
0.0
  0
VERTEX
  5
1AA
  8
0
 10
1854.06969269
 20
-675.46298189
 30
0.0
  0
VERTEX
  5
1AB
  8
0
 10
1859.68217877
 20
-676.17008867
 30
0.0
  0
SEQEND
  5
1AC
  8
0
  0
LINE
  5
1AD
  8
0
 10
1859.68217877
 20
-612.05907384
 30
0.0
 11
1859.68217877
 21
-676.17008867
 31
0.0
  0
LINE
  5
1AE
  8
0
 10
1854.06969269
 20
-611.35196706
 30
0.0
 11
1859.68217877
 21
-612.05907384
 31
0.0
  0
LINE
  5
1AF
  8
0
 10
1889.42503175
 20
-580.17148884
 30
0.0
 11
1854.06969269
 21
-611.35196706
 31
0.0
  0
LINE
  5
1B0
  8
0
 10
1889.42503175
 20
-580.17148884
 30
0.0
 11
1895.03751783
 21
-580.87859562
 31
0.0
  0
LINE
  5
1B1
  8
0
 10
1895.03751783
 20
-644.98961045
 30
0.0
 11
1895.03751783
 21
-580.87859562
 31
0.0
  0
LINE
  5
1B2
  8
0
 10
1895.03751783
 20
-644.98961045
 30
0.0
 11
1859.68217877
 21
-676.17008867
 31
0.0
  0
LINE
  5
1B3
  8
0
 10
1895.03751783
 20
-580.87859562
 30
0.0
 11
1859.68217877
 21
-612.05907384
 31
0.0
  0
LINE
  5
1B4
  8
0
  6
STRICHPUNKT2
 62
     1
 10
1880.63379852
 20
-634.59367535
 30
0.0
 11
1868.47341201
 21
-633.06161066
 31
0.0
  0
LINE
  5
1B5
  8
0
  6
STRICHPUNKT2
 62
     1
 10
1877.3598483
 20
-634.1811964
 30
0.0
 11
1881.0721589
 21
-630.90724618
 31
0.0
  0
LINE
  5
1B6
  8
0
  6
STRICHPUNKT2
 62
     1
 10
1877.3598483
 20
-634.1811964
 30
0.0
 11
1873.6475377
 21
-637.45514661
 31
0.0
  0
LINE
  5
1B7
  8
0
  6
STRICHPUNKT2
 62
     1
 10
1877.3598483
 20
-634.1811964
 30
0.0
 11
1877.3598483
 21
-624.28170146
 31
0.0
  0
LINE
  5
1B8
  8
0
  6
STRICHPUNKT2
 62
     1
 10
1877.3598483
 20
-634.1811964
 30
0.0
 11
1877.3598483
 21
-644.08069133
 31
0.0
  0
LINE
  5
1B9
  8
0
  6
STRICHPUNKT2
 62
     1
 10
1871.74736222
 20
-633.47408961
 30
0.0
 11
1875.45967282
 21
-630.2001394
 31
0.0
  0
LINE
  5
1BA
  8
0
  6
STRICHPUNKT2
 62
     1
 10
1871.74736222
 20
-633.47408961
 30
0.0
 11
1868.03505162
 21
-636.74803983
 31
0.0
  0
LINE
  5
1BB
  8
0
  6
STRICHPUNKT2
 62
     1
 10
1871.74736222
 20
-633.47408961
 30
0.0
 11
1871.74736222
 21
-623.57459468
 31
0.0
  0
LINE
  5
1BC
  8
0
  6
STRICHPUNKT2
 62
     1
 10
1871.74736222
 20
-633.47408961
 30
0.0
 11
1871.74736222
 21
-643.37358455
 31
0.0
  0
POLYLINE
  5
1BD
  8
0
 66
     1
 10
0.0
 20
0.0
 30
0.0
  0
VERTEX
  5
347
  8
0
 10
1895.35514409
 20
-659.156085724017
 30
0.0
  0
VERTEX
  5
348
  8
0
 10
1895.456378326821
 20
-659.4897678770704
 30
0.0
  0
VERTEX
  5
349
  8
0
 10
1895.755981696043
 20
-659.8099380066445
 30
0.0
  0
VERTEX
  5
34A
  8
0
 10
1896.241822149864
 20
-660.1036312407908
 30
0.0
  0
VERTEX
  5
34B
  8
0
 10
1896.89422621256
 20
-660.35895485492
 30
0.0
  0
VERTEX
  5
34C
  8
0
 10
1897.68677563224
 20
-660.5655698521774
 30
0.0
  0
VERTEX
  5
34D
  8
0
 10
1898.587377153506
 20
-660.7151096276409
 30
0.0
  0
SEQEND
  5
3AC
  8
0
  0
POLYLINE
  5
1BE
  8
0
 66
     1
 10
0.0
 20
0.0
 30
0.0
  0
VERTEX
  5
34E
  8
0
 10
1902.122911056475
 20
-657.5970618361363
 30
0.0
  0
VERTEX
  5
34F
  8
0
 10
1901.191941587718
 20
-657.5129258520068
 30
0.0
  0
VERTEX
  5
350
  8
0
 10
1900.229829397107
 20
-657.4899426212985
 30
0.0
  0
VERTEX
  5
351
  8
0
 10
1899.27238098792
 20
-657.5289675007294
 30
0.0
  0
VERTEX
  5
352
  8
0
 10
1898.355229293545
 20
-657.6285481186459
 30
0.0
  0
VERTEX
  5
353
  8
0
 10
1897.512507542385
 20
-657.7849784272952
 30
0.0
  0
VERTEX
  5
354
  8
0
 10
1896.775578936609
 20
-657.9924366291638
 30
0.0
  0
VERTEX
  5
355
  8
0
 10
1896.171869421751
 20
-658.2432018442362
 30
0.0
  0
VERTEX
  5
356
  8
0
 10
1895.723846987443
 20
-658.5279414545673
 30
0.0
  0
VERTEX
  5
357
  8
0
 10
1895.448185486193
 20
-658.8360584321912
 30
0.0
  0
VERTEX
  5
358
  8
0
 10
1895.35514409
 20
-659.156085724017
 30
0.0
  0
SEQEND
  5
3AD
  8
0
  0
POLYLINE
  5
1BF
  8
0
 66
     1
 10
0.0
 20
0.0
 30
0.0
  0
VERTEX
  5
1C0
  8
0
 10
1902.12291105
 20
-657.59706182
 30
0.0
  0
VERTEX
  5
1C1
  8
0
 10
1939.53948491
 20
-662.31110703
 30
0.0
  0
SEQEND
  5
1C2
  8
0
  0
POLYLINE
  5
1C3
  8
0
 66
     1
 10
0.0
 20
0.0
 30
0.0
  0
VERTEX
  5
359
  8
0
 10
1942.77171796
 20
-663.87013094
 30
0.0
  0
VERTEX
  5
35A
  8
0
 10
1942.670483721254
 20
-663.5364487897891
 30
0.0
  0
VERTEX
  5
35B
  8
0
 10
1942.370880353454
 20
-663.2162786629623
 30
0.0
  0
VERTEX
  5
35C
  8
0
 10
1941.885039904145
 20
-662.9225854311426
 30
0.0
  0
VERTEX
  5
35D
  8
0
 10
1941.232635848544
 20
-662.6672618186295
 30
0.0
  0
VERTEX
  5
35E
  8
0
 10
1940.440086437818
 20
-662.4606468220417
 30
0.0
  0
VERTEX
  5
35F
  8
0
 10
1939.539484926475
 20
-662.3111070461363
 30
0.0
  0
SEQEND
  5
3AE
  8
0
  0
POLYLINE
  5
1C4
  8
0
 66
     1
 10
0.0
 20
0.0
 30
0.0
  0
VERTEX
  5
360
  8
0
 10
1936.003951023506
 20
-665.4291548376409
 30
0.0
  0
VERTEX
  5
361
  8
0
 10
1936.934920492491
 20
-665.5132908197024
 30
0.0
  0
VERTEX
  5
362
  8
0
 10
1937.897032682115
 20
-665.5362740484572
 30
0.0
  0
VERTEX
  5
363
  8
0
 10
1938.854481089241
 20
-665.4972491672623
 30
0.0
  0
VERTEX
  5
364
  8
0
 10
1939.771632780661
 20
-665.3976685478328
 30
0.0
  0
VERTEX
  5
365
  8
0
 10
1940.614354528182
 20
-665.241238237967
 30
0.0
  0
VERTEX
  5
366
  8
0
 10
1941.351283129861
 20
-665.0337800352067
 30
0.0
  0
VERTEX
  5
367
  8
0
 10
1941.954992640397
 20
-664.7830148195782
 30
0.0
  0
VERTEX
  5
368
  8
0
 10
1942.403015070384
 20
-664.49827520902
 30
0.0
  0
VERTEX
  5
369
  8
0
 10
1942.678676567525
 20
-664.1901582314758
 30
0.0
  0
VERTEX
  5
36A
  8
0
 10
1942.77171796
 20
-663.87013094
 30
0.0
  0
SEQEND
  5
3AF
  8
0
  0
LINE
  5
1C5
  8
0
 10
1936.00395101
 20
-665.42915485
 30
0.0
 11
1898.58737714
 21
-660.71510964
 31
0.0
  0
POLYLINE
  5
1C6
  8
0
 66
     1
 10
0.0
 20
0.0
 30
0.0
  0
VERTEX
  5
36B
  8
0
 10
1875.55615422
 20
-676.617153524017
 30
0.0
  0
VERTEX
  5
36C
  8
0
 10
1875.657388456821
 20
-676.9508356770705
 30
0.0
  0
VERTEX
  5
36D
  8
0
 10
1875.956991826043
 20
-677.2710058066446
 30
0.0
  0
VERTEX
  5
36E
  8
0
 10
1876.442832279864
 20
-677.5646990407909
 30
0.0
  0
VERTEX
  5
36F
  8
0
 10
1877.09523634256
 20
-677.82002265492
 30
0.0
  0
VERTEX
  5
370
  8
0
 10
1877.88778576224
 20
-678.0266376521774
 30
0.0
  0
VERTEX
  5
371
  8
0
 10
1878.788387283506
 20
-678.1761774276409
 30
0.0
  0
SEQEND
  5
3B0
  8
0
  0
POLYLINE
  5
1C7
  8
0
 66
     1
 10
0.0
 20
0.0
 30
0.0
  0
VERTEX
  5
372
  8
0
 10
1882.323921186475
 20
-675.0581296361363
 30
0.0
  0
VERTEX
  5
373
  8
0
 10
1881.392951717718
 20
-674.9739936520068
 30
0.0
  0
VERTEX
  5
374
  8
0
 10
1880.430839527107
 20
-674.9510104212985
 30
0.0
  0
VERTEX
  5
375
  8
0
 10
1879.47339111792
 20
-674.9900353007295
 30
0.0
  0
VERTEX
  5
376
  8
0
 10
1878.556239423545
 20
-675.0896159186459
 30
0.0
  0
VERTEX
  5
377
  8
0
 10
1877.713517672385
 20
-675.2460462272952
 30
0.0
  0
VERTEX
  5
378
  8
0
 10
1876.976589066609
 20
-675.4535044291638
 30
0.0
  0
VERTEX
  5
379
  8
0
 10
1876.372879551751
 20
-675.7042696442362
 30
0.0
  0
VERTEX
  5
37A
  8
0
 10
1875.924857117443
 20
-675.9890092545673
 30
0.0
  0
VERTEX
  5
37B
  8
0
 10
1875.649195616193
 20
-676.2971262321912
 30
0.0
  0
VERTEX
  5
37C
  8
0
 10
1875.55615422
 20
-676.617153524017
 30
0.0
  0
SEQEND
  5
3B1
  8
0
  0
POLYLINE
  5
1C8
  8
0
 66
     1
 10
0.0
 20
0.0
 30
0.0
  0
VERTEX
  5
1C9
  8
0
 10
1882.32392117
 20
-675.05812962
 30
0.0
  0
VERTEX
  5
1CA
  8
0
 10
1919.74049504
 20
-679.77217483
 30
0.0
  0
SEQEND
  5
1CB
  8
0
  0
POLYLINE
  5
1CC
  8
0
 66
     1
 10
0.0
 20
0.0
 30
0.0
  0
VERTEX
  5
37D
  8
0
 10
1922.97272809
 20
-681.33119874
 30
0.0
  0
VERTEX
  5
37E
  8
0
 10
1922.871493851254
 20
-680.9975165897891
 30
0.0
  0
VERTEX
  5
37F
  8
0
 10
1922.571890483454
 20
-680.6773464629623
 30
0.0
  0
VERTEX
  5
380
  8
0
 10
1922.086050034145
 20
-680.3836532311426
 30
0.0
  0
VERTEX
  5
381
  8
0
 10
1921.433645978544
 20
-680.1283296186296
 30
0.0
  0
VERTEX
  5
382
  8
0
 10
1920.641096567818
 20
-679.9217146220417
 30
0.0
  0
VERTEX
  5
383
  8
0
 10
1919.740495056475
 20
-679.7721748461363
 30
0.0
  0
SEQEND
  5
3B2
  8
0
  0
POLYLINE
  5
1CD
  8
0
 66
     1
 10
0.0
 20
0.0
 30
0.0
  0
VERTEX
  5
384
  8
0
 10
1916.204961153506
 20
-682.8902226376409
 30
0.0
  0
VERTEX
  5
385
  8
0
 10
1917.135930622491
 20
-682.9743586197025
 30
0.0
  0
VERTEX
  5
386
  8
0
 10
1918.098042812114
 20
-682.9973418484573
 30
0.0
  0
VERTEX
  5
387
  8
0
 10
1919.055491219241
 20
-682.9583169672624
 30
0.0
  0
VERTEX
  5
388
  8
0
 10
1919.972642910661
 20
-682.8587363478329
 30
0.0
  0
VERTEX
  5
389
  8
0
 10
1920.815364658182
 20
-682.702306037967
 30
0.0
  0
VERTEX
  5
38A
  8
0
 10
1921.552293259861
 20
-682.4948478352068
 30
0.0
  0
VERTEX
  5
38B
  8
0
 10
1922.156002770397
 20
-682.2440826195782
 30
0.0
  0
VERTEX
  5
38C
  8
0
 10
1922.604025200384
 20
-681.95934300902
 30
0.0
  0
VERTEX
  5
38D
  8
0
 10
1922.879686697525
 20
-681.6512260314759
 30
0.0
  0
VERTEX
  5
38E
  8
0
 10
1922.97272809
 20
-681.33119874
 30
0.0
  0
SEQEND
  5
3B3
  8
0
  0
LINE
  5
1CE
  8
0
 10
1916.20496113
 20
-682.89022265
 30
0.0
 11
1878.78838727
 21
-678.17617745
 31
0.0
  0
LINE
  5
1CF
  8
0
 10
1964.25817949
 20
-659.36744833
 30
0.0
 11
1928.90284043
 21
-690.54792655
 31
0.0
  0
LINE
  5
1D0
  8
0
 10
1865.29466485
 20
-682.5340497
 30
0.0
 11
1928.90284043
 21
-690.54792655
 31
0.0
  0
LINE
  5
1D1
  8
0
 10
1900.65000391
 20
-651.35357148
 30
0.0
 11
1865.29466485
 21
-682.5340497
 31
0.0
  0
LINE
  5
1D2
  8
0
 10
1964.25817949
 20
-659.36744833
 30
0.0
 11
1900.65000391
 21
-651.35357148
 31
0.0
  0
LINE
  5
1D3
  8
0
 10
1964.25817949
 20
-665.02430258
 30
0.0
 11
1964.25817949
 21
-659.36744833
 31
0.0
  0
POLYLINE
  5
1D4
  8
0
 66
     1
 10
0.0
 20
0.0
 30
0.0
  0
VERTEX
  5
1D5
  8
0
 10
1964.25817949
 20
-665.02430258
 30
0.0
  0
VERTEX
  5
1D6
  8
0
 10
1928.90284043
 20
-696.2047808
 30
0.0
  0
VERTEX
  5
1D7
  8
0
 10
1928.90284043
 20
-690.54792655
 30
0.0
  0
SEQEND
  5
1D8
  8
0
  0
LINE
  5
1D9
  8
0
 10
1865.29466485
 20
-688.19090395
 30
0.0
 11
1928.90284043
 21
-696.2047808
 31
0.0
  0
LINE
  5
1DA
  8
0
 10
1865.29466485
 20
-688.19090395
 30
0.0
 11
1865.29466485
 21
-682.5340497
 31
0.0
  0
LINE
  5
1DB
  8
0
  6
STRICHPUNKT2
 62
     1
 10
1880.55615422
 20
-674.26013093
 30
0.0
 11
1880.55615422
 21
-684.63103039
 31
0.0
  0
LINE
  5
1DC
  8
0
  6
STRICHPUNKT2
 62
     1
 10
1917.97272809
 20
-678.97417614
 30
0.0
 11
1917.97272809
 21
-689.3450756
 31
0.0
  0
LINE
  5
1DD
  8
0
  6
STRICHPUNKT2
 62
     1
 10
1873.54054662
 20
-675.73327006
 30
0.0
 11
1924.98833569
 21
-682.21508222
 31
0.0
  0
LINE
  5
1DE
  8
0
  6
STRICHPUNKT2
 62
     1
 10
1877.90450379
 20
-678.9556894
 30
0.0
 11
1883.20780465
 21
-674.27861767
 31
0.0
  0
LINE
  5
1DF
  8
0
  6
STRICHPUNKT2
 62
     1
 10
1915.32107766
 20
-683.66973461
 30
0.0
 11
1920.62437852
 21
-678.99266288
 31
0.0
  0
LINE
  5
1E0
  8
0
  6
STRICHPUNKT2
 62
     1
 10
1873.54054662
 20
-681.39012431
 30
0.0
 11
1924.98833569
 21
-687.87193647
 31
0.0
  0
LINE
  5
1E1
  8
0
  6
STRICHPUNKT2
 62
     1
 10
1877.90450379
 20
-684.61254365
 30
0.0
 11
1883.20780465
 21
-679.93547192
 31
0.0
  0
LINE
  5
1E2
  8
0
  6
STRICHPUNKT2
 62
     1
 10
1915.32107766
 20
-689.32658886
 30
0.0
 11
1920.62437852
 21
-684.64951712
 31
0.0
  0
LINE
  5
1E3
  8
0
  6
STRICHPUNKT2
 62
     1
 10
1900.35514409
 20
-656.79906313
 30
0.0
 11
1900.35514409
 21
-667.16996258
 31
0.0
  0
LINE
  5
1E4
  8
0
  6
STRICHPUNKT2
 62
     1
 10
1937.77171796
 20
-661.51310833
 30
0.0
 11
1937.77171796
 21
-671.88400779
 31
0.0
  0
LINE
  5
1E5
  8
0
  6
STRICHPUNKT2
 62
     1
 10
1893.33953649
 20
-658.27220225
 30
0.0
 11
1944.78732556
 21
-664.75401441
 31
0.0
  0
LINE
  5
1E6
  8
0
  6
STRICHPUNKT2
 62
     1
 10
1897.70349366
 20
-661.4946216
 30
0.0
 11
1903.00679452
 21
-656.81754986
 31
0.0
  0
LINE
  5
1E7
  8
0
  6
STRICHPUNKT2
 62
     1
 10
1935.12006753
 20
-666.2086668
 30
0.0
 11
1940.42336839
 21
-661.53159507
 31
0.0
  0
LINE
  5
1E8
  8
0
  6
STRICHPUNKT2
 62
     1
 10
1893.33953649
 20
-663.9290565
 30
0.0
 11
1944.78732556
 21
-670.41086866
 31
0.0
  0
LINE
  5
1E9
  8
0
  6
STRICHPUNKT2
 62
     1
 10
1897.70349366
 20
-667.15147585
 30
0.0
 11
1903.00679452
 21
-662.47440411
 31
0.0
  0
LINE
  5
1EA
  8
0
  6
STRICHPUNKT2
 62
     1
 10
1935.12006753
 20
-671.86552105
 30
0.0
 11
1940.42336839
 21
-667.18844932
 31
0.0
  0
POLYLINE
  5
1EB
  8
0
 66
     1
 10
0.0
 20
0.0
 30
0.0
  0
VERTEX
  5
38F
  8
0
 10
1859.682178779168
 20
-676.1700886776285
 30
0.0
  0
VERTEX
  5
390
  8
0
 10
1859.790021130388
 20
-677.2872730470972
 30
0.0
  0
VERTEX
  5
391
  8
0
 10
1860.109403850888
 20
-678.3886983646196
 30
0.0
  0
VERTEX
  5
392
  8
0
 10
1860.628053241938
 20
-679.4320374732947
 30
0.0
  0
VERTEX
  5
393
  8
0
 10
1861.326037898473
 20
-680.3771954366331
 30
0.0
  0
VERTEX
  5
394
  8
0
 10
1862.176534661809
 20
-681.1878503644679
 30
0.0
  0
VERTEX
  5
395
  8
0
 10
1863.146859418575
 20
-681.8328492428111
 30
0.0
  0
VERTEX
  5
396
  8
0
 10
1864.199723132857
 20
-682.2874051267019
 30
0.0
  0
VERTEX
  5
397
  8
0
 10
1865.294664842915
 20
-682.5340496885902
 30
0.0
  0
SEQEND
  5
3B4
  8
0
  0
LINE
  5
1EC
  8
0
 10
1900.65000391
 20
-651.35357148
 30
0.0
 11
1865.29466485
 21
-682.5340497
 31
0.0
  0
POLYLINE
  5
1ED
  8
0
 66
     1
 10
0.0
 20
0.0
 30
0.0
  0
VERTEX
  5
398
  8
0
 10
1895.037517839168
 20
-644.9896104576285
 30
0.0
  0
VERTEX
  5
399
  8
0
 10
1895.145360190388
 20
-646.1067948270971
 30
0.0
  0
VERTEX
  5
39A
  8
0
 10
1895.464742910888
 20
-647.2082201446195
 30
0.0
  0
VERTEX
  5
39B
  8
0
 10
1895.983392301938
 20
-648.2515592532947
 30
0.0
  0
VERTEX
  5
39C
  8
0
 10
1896.681376958473
 20
-649.196717216633
 30
0.0
  0
VERTEX
  5
39D
  8
0
 10
1897.531873721809
 20
-650.0073721444678
 30
0.0
  0
VERTEX
  5
39E
  8
0
 10
1898.502198478575
 20
-650.652371022811
 30
0.0
  0
VERTEX
  5
39F
  8
0
 10
1899.555062192857
 20
-651.1069269067018
 30
0.0
  0
VERTEX
  5
3A0
  8
0
 10
1900.650003902915
 20
-651.3535714685902
 30
0.0
  0
SEQEND
  5
3B5
  8
0
  0
LINE
  5
1EE
  8
0
 10
1895.03751783
 20
-644.98961045
 30
0.0
 11
1859.68217877
 21
-676.17008867
 31
0.0
  0
LINE
  5
1EF
  8
0
 10
1854.06969269
 20
-675.46298189
 30
0.0
 11
1859.68217877
 21
-676.17008867
 31
0.0
  0
POLYLINE
  5
1F0
  8
0
 66
     1
 10
0.0
 20
0.0
 30
0.0
  0
VERTEX
  5
3A1
  8
0
 10
1854.069692715408
 20
-675.4629818990209
 30
0.0
  0
VERTEX
  5
3A2
  8
0
 10
1854.285377416332
 20
-677.6973506368615
 30
0.0
  0
VERTEX
  5
3A3
  8
0
 10
1854.924142855603
 20
-679.9002012710913
 30
0.0
  0
VERTEX
  5
3A4
  8
0
 10
1855.961441635827
 20
-681.9868794879395
 30
0.0
  0
VERTEX
  5
3A5
  8
0
 10
1857.357410946946
 20
-683.877195414447
 30
0.0
  0
VERTEX
  5
3A6
  8
0
 10
1859.058404471667
 20
-685.4985052702858
 30
0.0
  0
VERTEX
  5
3A7
  8
0
 10
1860.999053983324
 20
-686.7885030274745
 30
0.0
  0
VERTEX
  5
3A8
  8
0
 10
1863.104781410158
 20
-687.6976147960706
 30
0.0
  0
VERTEX
  5
3A9
  8
0
 10
1865.294664828759
 20
-688.1909039209444
 30
0.0
  0
SEQEND
  5
3B6
  8
0
  0
LINE
  5
1F1
  8
0
 10
1865.29466485
 20
-688.19090395
 30
0.0
 11
1865.29466485
 21
-682.5340497
 31
0.0
  0
POLYLINE
  5
1F2
  8
0
 66
     1
 10
0.0
 20
0.0
 30
0.0
  0
VERTEX
  5
1F3
  8
0
 10
2085.52004493
 20
-464.08398348
 30
0.0
  0
VERTEX
  5
1F4
  8
0
 10
2085.52004493
 20
-532.08398348
 30
0.0
  0
VERTEX
  5
1F5
  8
0
 10
2091.52004493
 20
-532.08398348
 30
0.0
  0
SEQEND
  5
1F6
  8
0
  0
LINE
  5
1F7
  8
0
 10
2091.52004493
 20
-464.08398348
 30
0.0
 11
2091.52004493
 21
-532.08398348
 31
0.0
  0
LINE
  5
1F8
  8
0
 10
2085.52004493
 20
-464.08398348
 30
0.0
 11
2091.52004493
 21
-464.08398348
 31
0.0
  0
LINE
  5
1F9
  8
0
  6
STRICHPUNKT2
 62
     1
 10
2095.02004493
 20
-504.08398348
 30
0.0
 11
2082.02004493
 21
-504.08398348
 31
0.0
  0
POLYLINE
  5
1FA
  8
0
 66
     1
 10
0.0
 20
0.0
 30
0.0
  0
VERTEX
  5
1FB
  8
0
 10
2097.52004493
 20
-544.08398348
 30
0.0
  0
VERTEX
  5
1FC
  8
0
 10
2165.52004493
 20
-544.08398348
 30
0.0
  0
VERTEX
  5
1FD
  8
0
 10
2165.52004493
 20
-538.08398348
 30
0.0
  0
SEQEND
  5
1FE
  8
0
  0
LINE
  5
1FF
  8
0
 10
2097.52004493
 20
-538.08398348
 30
0.0
 11
2165.52004493
 21
-538.08398348
 31
0.0
  0
LINE
  5
200
  8
0
 10
2097.52004493
 20
-544.08398348
 30
0.0
 11
2097.52004493
 21
-538.08398348
 31
0.0
  0
LINE
  5
201
  8
0
  6
STRICHPUNKT2
 62
     1
 10
2105.52004493
 20
-535.58398348
 30
0.0
 11
2105.52004493
 21
-546.58398348
 31
0.0
  0
LINE
  5
202
  8
0
  6
STRICHPUNKT2
 62
     1
 10
2145.52004493
 20
-535.58398348
 30
0.0
 11
2145.52004493
 21
-546.58398348
 31
0.0
  0
LINE
  5
203
  8
0
  6
STRICHPUNKT2
 62
     1
 10
2145.52004493
 20
-535.58398348
 30
0.0
 11
2145.52004493
 21
-546.58398348
 31
0.0
  0
LINE
  5
204
  8
0
  6
STRICHPUNKT2
 62
     1
 10
2105.52004493
 20
-535.58398348
 30
0.0
 11
2105.52004493
 21
-546.58398348
 31
0.0
  0
POLYLINE
  5
205
  8
0
 66
     1
 10
0.0
 20
0.0
 30
0.0
  0
VERTEX
  5
206
  8
0
 10
2085.52004493
 20
-532.08398348
 30
0.0
 42
0.414213562
  0
VERTEX
  5
207
  8
0
 10
2097.52004493
 20
-544.08398348
 30
0.0
  0
VERTEX
  5
208
  8
0
 10
2097.52004493
 20
-538.08398348
 30
0.0
  0
SEQEND
  5
209
  8
0
  0
ARC
  5
20A
  8
0
 10
2097.52004493
 20
-532.08398348
 30
0.0
 40
6.0
 50
180.0
 51
-90.0
  0
LINE
  5
20B
  8
0
 10
2085.52004493
 20
-532.08398348
 30
0.0
 11
2091.52004493
 21
-532.08398348
 31
0.0
  0
CIRCLE
  5
20C
  8
0
 10
1987.42322325
 20
-504.08398348
 30
0.0
 40
7.0
  0
LINE
  5
20D
  8
0
 10
2037.42322325
 20
-464.08398348
 30
0.0
 11
2037.42322325
 21
-532.08398348
 31
0.0
  0
LINE
  5
20E
  8
0
 10
1937.42322325
 20
-532.08398348
 30
0.0
 11
2037.42322325
 21
-532.08398348
 31
0.0
  0
POLYLINE
  5
20F
  8
0
 66
     1
 10
0.0
 20
0.0
 30
0.0
  0
VERTEX
  5
210
  8
0
 10
1937.42322325
 20
-532.08398348
 30
0.0
  0
VERTEX
  5
211
  8
0
 10
1937.42322325
 20
-464.08398348
 30
0.0
  0
VERTEX
  5
212
  8
0
 10
2037.42322325
 20
-464.08398348
 30
0.0
  0
SEQEND
  5
213
  8
0
  0
LINE
  5
214
  8
0
  6
STRICHPUNKT2
 62
     1
 10
1987.42322325
 20
-504.08398348
 30
0.0
 11
1976.92322325
 21
-504.08398348
 31
0.0
  0
LINE
  5
215
  8
0
  6
STRICHPUNKT2
 62
     1
 10
1987.42322325
 20
-504.08398348
 30
0.0
 11
1997.92322325
 21
-504.08398348
 31
0.0
  0
LINE
  5
216
  8
0
  6
STRICHPUNKT2
 62
     1
 10
1987.42322325
 20
-504.08398348
 30
0.0
 11
1987.42322325
 21
-493.58398348
 31
0.0
  0
LINE
  5
217
  8
0
  6
STRICHPUNKT2
 62
     1
 10
1987.42322325
 20
-504.08398348
 30
0.0
 11
1987.42322325
 21
-514.58398348
 31
0.0
  0
LINE
  5
218
  8
0
  6
STRICHPUNKT2
 62
     1
 10
1987.42322325
 20
-504.08398348
 30
0.0
 11
1976.92322325
 21
-504.08398348
 31
0.0
  0
LINE
  5
219
  8
0
  6
STRICHPUNKT2
 62
     1
 10
1987.42322325
 20
-504.08398348
 30
0.0
 11
1997.92322325
 21
-504.08398348
 31
0.0
  0
LINE
  5
21A
  8
0
  6
STRICHPUNKT2
 62
     1
 10
1987.42322325
 20
-504.08398348
 30
0.0
 11
1987.42322325
 21
-493.58398348
 31
0.0
  0
LINE
  5
21B
  8
0
  6
STRICHPUNKT2
 62
     1
 10
1987.42322325
 20
-504.08398348
 30
0.0
 11
1987.42322325
 21
-514.58398348
 31
0.0
  0
LINE
  5
21C
  8
0
 10
1937.42322325
 20
-544.08398348
 30
0.0
 11
2037.42322325
 21
-544.08398348
 31
0.0
  0
LINE
  5
21D
  8
0
  6
STRICHPUNKT2
 62
     1
 10
2015.42322325
 20
-535.58398348
 30
0.0
 11
2015.42322325
 21
-546.58398348
 31
0.0
  0
LINE
  5
21E
  8
0
  6
STRICHPUNKT2
 62
     1
 10
2015.42322325
 20
-535.58398348
 30
0.0
 11
2015.42322325
 21
-546.58398348
 31
0.0
  0
LINE
  5
21F
  8
0
  6
STRICHPUNKT2
 62
     1
 10
1959.42322325
 20
-535.58398348
 30
0.0
 11
1959.42322325
 21
-546.58398348
 31
0.0
  0
LINE
  5
220
  8
0
  6
STRICHPUNKT2
 62
     1
 10
1959.42322325
 20
-535.58398348
 30
0.0
 11
1959.42322325
 21
-546.58398348
 31
0.0
  0
LINE
  5
221
  8
0
 10
2037.42322325
 20
-532.08398348
 30
0.0
 11
2037.42322325
 21
-544.08398348
 31
0.0
  0
LINE
  5
222
  8
0
 10
1937.42322325
 20
-544.08398348
 30
0.0
 11
2037.42322325
 21
-544.08398348
 31
0.0
  0
POLYLINE
  5
223
  8
0
 66
     1
 10
0.0
 20
0.0
 30
0.0
  0
VERTEX
  5
224
  8
0
 10
1937.42322325
 20
-544.08398348
 30
0.0
  0
VERTEX
  5
225
  8
0
 10
1937.42322325
 20
-532.08398348
 30
0.0
  0
VERTEX
  5
226
  8
0
 10
2037.42322325
 20
-532.08398348
 30
0.0
  0
SEQEND
  5
227
  8
0
  0
POLYLINE
  5
228
  8
0
 66
     1
 10
0.0
 20
0.0
 30
0.0
  0
VERTEX
  5
229
  8
0
 10
2085.52004493
 20
-573.92252551
 30
0.0
  0
VERTEX
  5
22A
  8
0
 10
2085.52004493
 20
-673.92252551
 30
0.0
  0
VERTEX
  5
22B
  8
0
 10
2091.52004493
 20
-673.92252551
 30
0.0
  0
SEQEND
  5
22C
  8
0
  0
LINE
  5
22D
  8
0
 10
2091.52004493
 20
-573.92252551
 30
0.0
 11
2091.52004493
 21
-673.92252551
 31
0.0
  0
LINE
  5
22E
  8
0
 10
2085.52004493
 20
-573.92252551
 30
0.0
 11
2091.52004493
 21
-573.92252551
 31
0.0
  0
LINE
  5
22F
  8
0
  6
STRICHPUNKT2
 62
     1
 10
2095.02004493
 20
-623.92252551
 30
0.0
 11
2082.02004493
 21
-623.92252551
 31
0.0
  0
POLYLINE
  5
230
  8
0
 66
     1
 10
0.0
 20
0.0
 30
0.0
 70
     1
  0
VERTEX
  5
231
  8
0
 10
2105.52004493
 20
-600.92252551
 30
0.0
 42
-1.0
  0
VERTEX
  5
232
  8
0
 10
2105.52004493
 20
-590.92252551
 30
0.0
  0
VERTEX
  5
233
  8
0
 10
2145.52004493
 20
-590.92252551
 30
0.0
 42
-1.0
  0
VERTEX
  5
234
  8
0
 10
2145.52004493
 20
-600.92252551
 30
0.0
  0
SEQEND
  5
235
  8
0
  0
POLYLINE
  5
236
  8
0
 66
     1
 10
0.0
 20
0.0
 30
0.0
 70
     1
  0
VERTEX
  5
237
  8
0
 10
2105.52004493
 20
-656.92252551
 30
0.0
 42
-1.0
  0
VERTEX
  5
238
  8
0
 10
2105.52004493
 20
-646.92252551
 30
0.0
  0
VERTEX
  5
239
  8
0
 10
2145.52004493
 20
-646.92252551
 30
0.0
 42
-1.0
  0
VERTEX
  5
23A
  8
0
 10
2145.52004493
 20
-656.92252551
 30
0.0
  0
SEQEND
  5
23B
  8
0
  0
LINE
  5
23C
  8
0
 10
2165.52004493
 20
-573.92252551
 30
0.0
 11
2165.52004493
 21
-673.92252551
 31
0.0
  0
LINE
  5
23D
  8
0
 10
2097.52004493
 20
-673.92252551
 30
0.0
 11
2165.52004493
 21
-673.92252551
 31
0.0
  0
LINE
  5
23E
  8
0
 10
2097.52004493
 20
-573.92252551
 30
0.0
 11
2097.52004493
 21
-673.92252551
 31
0.0
  0
LINE
  5
23F
  8
0
 10
2165.52004493
 20
-573.92252551
 30
0.0
 11
2097.52004493
 21
-573.92252551
 31
0.0
  0
LINE
  5
240
  8
0
  6
STRICHPUNKT2
 62
     1
 10
2098.02004493
 20
-651.92252551
 30
0.0
 11
2153.02004493
 21
-651.92252551
 31
0.0
  0
LINE
  5
241
  8
0
  6
STRICHPUNKT2
 62
     1
 10
2105.52004493
 20
-659.42252551
 30
0.0
 11
2105.52004493
 21
-644.42252551
 31
0.0
  0
LINE
  5
242
  8
0
  6
STRICHPUNKT2
 62
     1
 10
2145.52004493
 20
-659.42252551
 30
0.0
 11
2145.52004493
 21
-644.42252551
 31
0.0
  0
LINE
  5
243
  8
0
  6
STRICHPUNKT2
 62
     1
 10
2098.02004493
 20
-651.92252551
 30
0.0
 11
2153.02004493
 21
-651.92252551
 31
0.0
  0
LINE
  5
244
  8
0
  6
STRICHPUNKT2
 62
     1
 10
2105.52004493
 20
-659.42252551
 30
0.0
 11
2105.52004493
 21
-644.42252551
 31
0.0
  0
LINE
  5
245
  8
0
  6
STRICHPUNKT2
 62
     1
 10
2145.52004493
 20
-659.42252551
 30
0.0
 11
2145.52004493
 21
-644.42252551
 31
0.0
  0
LINE
  5
246
  8
0
  6
STRICHPUNKT2
 62
     1
 10
2098.02004493
 20
-595.92252551
 30
0.0
 11
2153.02004493
 21
-595.92252551
 31
0.0
  0
LINE
  5
247
  8
0
  6
STRICHPUNKT2
 62
     1
 10
2105.52004493
 20
-603.42252551
 30
0.0
 11
2105.52004493
 21
-588.42252551
 31
0.0
  0
LINE
  5
248
  8
0
  6
STRICHPUNKT2
 62
     1
 10
2145.52004493
 20
-603.42252551
 30
0.0
 11
2145.52004493
 21
-588.42252551
 31
0.0
  0
LINE
  5
249
  8
0
  6
STRICHPUNKT2
 62
     1
 10
2098.02004493
 20
-595.92252551
 30
0.0
 11
2153.02004493
 21
-595.92252551
 31
0.0
  0
LINE
  5
24A
  8
0
  6
STRICHPUNKT2
 62
     1
 10
2105.52004493
 20
-603.42252551
 30
0.0
 11
2105.52004493
 21
-588.42252551
 31
0.0
  0
LINE
  5
24B
  8
0
  6
STRICHPUNKT2
 62
     1
 10
2145.52004493
 20
-603.42252551
 30
0.0
 11
2145.52004493
 21
-588.42252551
 31
0.0
  0
LINE
  5
24C
  8
0
 10
2091.52004493
 20
-673.92252551
 30
0.0
 11
2097.52004493
 21
-673.92252551
 31
0.0
  0
LINE
  5
24D
  8
0
 10
2097.52004493
 20
-573.92252551
 30
0.0
 11
2097.52004493
 21
-673.92252551
 31
0.0
  0
LINE
  5
24E
  8
0
 10
2097.52004493
 20
-573.92252551
 30
0.0
 11
2091.52004493
 21
-573.92252551
 31
0.0
  0
TEXT
  5
24F
  8
TXT_DIM49
 10
2123.66520489
 20
-550.58398348
 30
0.0
 40
2.5
  1
80
  7
ARIAL
  0
LINE
  5
250
  8
0
 62
     4
 10
2086.52004493
 20
-551.08398348
 30
0.0
 11
2084.52004493
 21
-553.08398348
 31
0.0
  0
LINE
  5
251
  8
0
 62
     4
 10
2164.77004493
 20
-552.83398348
 30
0.0
 11
2166.27004493
 21
-551.33398348
 31
0.0
  0
LINE
  5
252
  8
0
 62
     4
 10
2085.52004493
 20
-552.08398348
 30
0.0
 11
2165.52004493
 21
-552.08398348
 31
0.0
  0
LINE
  5
253
  8
0
 62
     4
 10
2085.52004493
 20
-550.08398348
 30
0.0
 11
2085.52004493
 21
-554.08398348
 31
0.0
  0
LINE
  5
254
  8
0
 62
     4
 10
2165.52004493
 20
-550.08398348
 30
0.0
 11
2165.52004493
 21
-554.08398348
 31
0.0
  0
TEXT
  5
255
  8
TXT_DIM49
 10
2171.11468361
 20
-542.0114035
 30
0.0
 40
2.5
  1
6
 50
90.00020741
  7
ARIAL
  0
LINE
  5
256
  8
0
 62
     4
 10
2173.61468361
 20
-539.08398348
 30
0.0
 11
2171.61468361
 21
-537.08398348
 31
0.0
  0
LINE
  5
257
  8
0
 62
     4
 10
2171.86468361
 20
-543.33398348
 30
0.0
 11
2173.36468361
 21
-544.83398348
 31
0.0
  0
LINE
  5
258
  8
0
 62
     4
 10
2172.61468361
 20
-538.08398348
 30
0.0
 11
2172.61468361
 21
-544.08398348
 31
0.0
  0
LINE
  5
259
  8
0
 62
     4
 10
2170.61468361
 20
-538.08398348
 30
0.0
 11
2174.61468361
 21
-538.08398348
 31
0.0
  0
LINE
  5
25A
  8
0
 62
     4
 10
2170.61468361
 20
-544.08398348
 30
0.0
 11
2174.61468361
 21
-544.08398348
 31
0.0
  0
TEXT
  5
25B
  8
TXT_DIM49
 10
2087.59262491
 20
-454.52185603
 30
0.0
 40
2.5
  1
6
  7
ARIAL
  0
LINE
  5
25C
  8
0
 62
     4
 10
2086.52004493
 20
-455.02185603
 30
0.0
 11
2084.52004493
 21
-457.02185603
 31
0.0
  0
LINE
  5
25D
  8
0
 62
     4
 10
2090.77004493
 20
-456.77185603
 30
0.0
 11
2092.27004493
 21
-455.27185603
 31
0.0
  0
LINE
  5
25E
  8
0
 62
     4
 10
2085.52004493
 20
-456.02185603
 30
0.0
 11
2091.52004493
 21
-456.02185603
 31
0.0
  0
LINE
  5
25F
  8
0
 62
     4
 10
2085.52004493
 20
-458.02185603
 30
0.0
 11
2085.52004493
 21
-454.02185603
 31
0.0
  0
LINE
  5
260
  8
0
 62
     4
 10
2091.52004493
 20
-458.02185603
 30
0.0
 11
2091.52004493
 21
-454.02185603
 31
0.0
  0
TEXT
  5
261
  8
TXT_DIM49
 10
1984.64096331
 20
-555.55460217
 30
0.0
 40
2.5
  1
100
  7
ARIAL
  0
LINE
  5
262
  8
0
 62
     4
 10
2036.42322325
 20
-558.05460217
 30
0.0
 11
2038.42322325
 21
-556.05460217
 31
0.0
  0
LINE
  5
263
  8
0
 62
     4
 10
1938.17322325
 20
-556.30460217
 30
0.0
 11
1936.67322325
 21
-557.80460217
 31
0.0
  0
LINE
  5
264
  8
0
 62
     4
 10
2037.42322325
 20
-557.05460217
 30
0.0
 11
1937.42322325
 21
-557.05460217
 31
0.0
  0
LINE
  5
265
  8
0
 62
     4
 10
2037.42322325
 20
-555.05460217
 30
0.0
 11
2037.42322325
 21
-559.05460217
 31
0.0
  0
LINE
  5
266
  8
0
 62
     4
 10
1937.42322325
 20
-555.05460217
 30
0.0
 11
1937.42322325
 21
-559.05460217
 31
0.0
  0
TEXT
  5
267
  8
TXT_DIM49
 10
1924.74157577
 20
-505.93882352
 30
0.0
 40
2.5
  1
80
 50
90.00020741
  7
ARIAL
  0
LINE
  5
268
  8
0
 62
     4
 10
1927.24157577
 20
-465.08398348
 30
0.0
 11
1925.24157577
 21
-463.08398348
 31
0.0
  0
LINE
  5
269
  8
0
 62
     4
 10
1925.49157577
 20
-543.33398348
 30
0.0
 11
1926.99157577
 21
-544.83398348
 31
0.0
  0
LINE
  5
26A
  8
0
 62
     4
 10
1926.24157577
 20
-464.08398348
 30
0.0
 11
1926.24157577
 21
-544.08398348
 31
0.0
  0
LINE
  5
26B
  8
0
 62
     4
 10
1928.24157577
 20
-464.08398348
 30
0.0
 11
1924.24157577
 21
-464.08398348
 31
0.0
  0
LINE
  5
26C
  8
0
 62
     4
 10
1928.24157577
 20
-544.08398348
 30
0.0
 11
1924.24157577
 21
-544.08398348
 31
0.0
  0
TEXT
  5
26D
  8
TXT_DIM49
 10
2010.56838321
 20
-452.57329253
 30
0.0
 40
2.5
  1
50
  7
ARIAL
  0
LINE
  5
26E
  8
0
 62
     4
 10
2036.42322325
 20
-455.07329253
 30
0.0
 11
2038.42322325
 21
-453.07329253
 31
0.0
  0
LINE
  5
26F
  8
0
 62
     4
 10
1988.17322325
 20
-453.32329253
 30
0.0
 11
1986.67322325
 21
-454.82329253
 31
0.0
  0
LINE
  5
270
  8
0
 62
     4
 10
2037.42322325
 20
-454.07329253
 30
0.0
 11
1987.42322325
 21
-454.07329253
 31
0.0
  0
LINE
  5
271
  8
0
 62
     4
 10
2037.42322325
 20
-456.07329253
 30
0.0
 11
2037.42322325
 21
-452.07329253
 31
0.0
  0
LINE
  5
272
  8
0
 62
     4
 10
1987.42322325
 20
-456.07329253
 30
0.0
 11
1987.42322325
 21
-452.07329253
 31
0.0
  0
TEXT
  5
273
  8
TXT_DIM49
 10
1960.56838321
 20
-452.57329253
 30
0.0
 40
2.5
  1
50
  7
ARIAL
  0
LINE
  5
274
  8
0
 62
     4
 10
1938.42322325
 20
-453.07329253
 30
0.0
 11
1936.42322325
 21
-455.07329253
 31
0.0
  0
LINE
  5
275
  8
0
 62
     4
 10
1986.67322325
 20
-454.82329253
 30
0.0
 11
1988.17322325
 21
-453.32329253
 31
0.0
  0
LINE
  5
276
  8
0
 62
     4
 10
1937.42322325
 20
-454.07329253
 30
0.0
 11
1987.42322325
 21
-454.07329253
 31
0.0
  0
LINE
  5
277
  8
0
 62
     4
 10
1937.42322325
 20
-456.07329253
 30
0.0
 11
1937.42322325
 21
-452.07329253
 31
0.0
  0
LINE
  5
278
  8
0
 62
     4
 10
1987.42322325
 20
-456.07329253
 30
0.0
 11
1987.42322325
 21
-452.07329253
 31
0.0
  0
TEXT
  5
279
  8
TXT_DIM49
 10
2045.92322325
 20
-485.93882352
 30
0.0
 40
2.5
  1
40
 50
90.00020741
  7
ARIAL
  0
LINE
  5
27A
  8
0
 62
     4
 10
2048.42322325
 20
-465.08398348
 30
0.0
 11
2046.42322325
 21
-463.08398348
 31
0.0
  0
LINE
  5
27B
  8
0
 62
     4
 10
2046.67322325
 20
-503.33398348
 30
0.0
 11
2048.17322325
 21
-504.83398348
 31
0.0
  0
LINE
  5
27C
  8
0
 62
     4
 10
2047.42322325
 20
-464.08398348
 30
0.0
 11
2047.42322325
 21
-504.08398348
 31
0.0
  0
LINE
  5
27D
  8
0
 62
     4
 10
2045.42322325
 20
-464.08398348
 30
0.0
 11
2049.42322325
 21
-464.08398348
 31
0.0
  0
LINE
  5
27E
  8
0
 62
     4
 10
2045.42322325
 20
-504.08398348
 30
0.0
 11
2049.42322325
 21
-504.08398348
 31
0.0
  0
TEXT
  5
27F
  8
TXT_DIM49
 10
2045.92322325
 20
-525.93882352
 30
0.0
 40
2.5
  1
40
 50
90.00020741
  7
ARIAL
  0
LINE
  5
280
  8
0
 62
     4
 10
2048.42322325
 20
-505.08398348
 30
0.0
 11
2046.42322325
 21
-503.08398348
 31
0.0
  0
LINE
  5
281
  8
0
 62
     4
 10
2046.67322325
 20
-543.33398348
 30
0.0
 11
2048.17322325
 21
-544.83398348
 31
0.0
  0
LINE
  5
282
  8
0
 62
     4
 10
2047.42322325
 20
-504.08398348
 30
0.0
 11
2047.42322325
 21
-544.08398348
 31
0.0
  0
LINE
  5
283
  8
0
 62
     4
 10
2045.42322325
 20
-504.08398348
 30
0.0
 11
2049.42322325
 21
-504.08398348
 31
0.0
  0
LINE
  5
284
  8
0
 62
     4
 10
2045.42322325
 20
-544.08398348
 30
0.0
 11
2049.42322325
 21
-544.08398348
 31
0.0
  0
LINE
  5
285
  8
0
 62
     5
 10
1987.42322325
 20
-497.08398348
 30
0.0
 11
1994.0022582
 21
-491.2271466
 31
0.0
  0
TEXT
  5
286
  8
TXT_DIM49
 10
1994.0022582
 20
-492.4771466
 30
0.0
 40
2.5
  1
Ø14
  7
ARIAL
  0
TEXT
  5
287
  8
TXT_DIM49
 10
2176.32865235
 20
-626.70478545
 30
0.0
 40
2.5
  1
100
 50
90.00020741
  7
ARIAL
  0
LINE
  5
288
  8
0
 62
     4
 10
2178.82865235
 20
-574.92252551
 30
0.0
 11
2176.82865235
 21
-572.92252551
 31
0.0
  0
LINE
  5
289
  8
0
 62
     4
 10
2177.07865235
 20
-673.17252551
 30
0.0
 11
2178.57865235
 21
-674.67252551
 31
0.0
  0
LINE
  5
28A
  8
0
 62
     4
 10
2177.82865235
 20
-573.92252551
 30
0.0
 11
2177.82865235
 21
-673.92252551
 31
0.0
  0
LINE
  5
28B
  8
0
 62
     4
 10
2175.82865235
 20
-573.92252551
 30
0.0
 11
2179.82865235
 21
-573.92252551
 31
0.0
  0
LINE
  5
28C
  8
0
 62
     4
 10
2175.82865235
 20
-673.92252551
 30
0.0
 11
2179.82865235
 21
-673.92252551
 31
0.0
  0
TEXT
  5
28D
  8
TXT_DIM49
 10
2123.66520489
 20
-687.13917817
 30
0.0
 40
2.5
  1
80
  7
ARIAL
  0
LINE
  5
28E
  8
0
 62
     4
 10
2164.52004493
 20
-689.63917817
 30
0.0
 11
2166.52004493
 21
-687.63917817
 31
0.0
  0
LINE
  5
28F
  8
0
 62
     4
 10
2086.27004493
 20
-687.88917817
 30
0.0
 11
2084.77004493
 21
-689.38917817
 31
0.0
  0
LINE
  5
290
  8
0
 62
     4
 10
2165.52004493
 20
-688.63917817
 30
0.0
 11
2085.52004493
 21
-688.63917817
 31
0.0
  0
LINE
  5
291
  8
0
 62
     4
 10
2165.52004493
 20
-686.63917817
 30
0.0
 11
2165.52004493
 21
-690.63917817
 31
0.0
  0
LINE
  5
292
  8
0
 62
     4
 10
2085.52004493
 20
-686.63917817
 30
0.0
 11
2085.52004493
 21
-690.63917817
 31
0.0
  0
TEXT
  5
293
  8
TXT_DIM49
 10
2170.33066198
 20
-586.77736555
 30
0.0
 40
2.5
  1
22
 50
90.00020741
  7
ARIAL
  0
LINE
  5
294
  8
0
 62
     4
 10
2172.83066198
 20
-574.92252551
 30
0.0
 11
2170.83066198
 21
-572.92252551
 31
0.0
  0
LINE
  5
295
  8
0
 62
     4
 10
2171.08066198
 20
-595.17252551
 30
0.0
 11
2172.58066198
 21
-596.67252551
 31
0.0
  0
LINE
  5
296
  8
0
 62
     4
 10
2171.83066198
 20
-573.92252551
 30
0.0
 11
2171.83066198
 21
-595.92252551
 31
0.0
  0
LINE
  5
297
  8
0
 62
     4
 10
2169.83066198
 20
-573.92252551
 30
0.0
 11
2173.83066198
 21
-573.92252551
 31
0.0
  0
LINE
  5
298
  8
0
 62
     4
 10
2169.83066198
 20
-595.92252551
 30
0.0
 11
2173.83066198
 21
-595.92252551
 31
0.0
  0
TEXT
  5
299
  8
TXT_DIM49
 10
2170.33066198
 20
-625.77736555
 30
0.0
 40
2.5
  1
56
 50
90.00020741
  7
ARIAL
  0
LINE
  5
29A
  8
0
 62
     4
 10
2172.83066198
 20
-596.92252551
 30
0.0
 11
2170.83066198
 21
-594.92252551
 31
0.0
  0
LINE
  5
29B
  8
0
 62
     4
 10
2171.08066198
 20
-651.17252551
 30
0.0
 11
2172.58066198
 21
-652.67252551
 31
0.0
  0
LINE
  5
29C
  8
0
 62
     4
 10
2171.83066198
 20
-595.92252551
 30
0.0
 11
2171.83066198
 21
-651.92252551
 31
0.0
  0
LINE
  5
29D
  8
0
 62
     4
 10
2169.83066198
 20
-595.92252551
 30
0.0
 11
2173.83066198
 21
-595.92252551
 31
0.0
  0
LINE
  5
29E
  8
0
 62
     4
 10
2169.83066198
 20
-651.92252551
 30
0.0
 11
2173.83066198
 21
-651.92252551
 31
0.0
  0
TEXT
  5
29F
  8
TXT_DIM49
 10
2170.33066198
 20
-664.77736555
 30
0.0
 40
2.5
  1
22
 50
90.00020741
  7
ARIAL
  0
LINE
  5
2A0
  8
0
 62
     4
 10
2172.83066198
 20
-652.92252551
 30
0.0
 11
2170.83066198
 21
-650.92252551
 31
0.0
  0
LINE
  5
2A1
  8
0
 62
     4
 10
2171.08066198
 20
-673.17252551
 30
0.0
 11
2172.58066198
 21
-674.67252551
 31
0.0
  0
LINE
  5
2A2
  8
0
 62
     4
 10
2171.83066198
 20
-651.92252551
 30
0.0
 11
2171.83066198
 21
-673.92252551
 31
0.0
  0
LINE
  5
2A3
  8
0
 62
     4
 10
2169.83066198
 20
-651.92252551
 30
0.0
 11
2173.83066198
 21
-651.92252551
 31
0.0
  0
LINE
  5
2A4
  8
0
 62
     4
 10
2169.83066198
 20
-673.92252551
 30
0.0
 11
2173.83066198
 21
-673.92252551
 31
0.0
  0
TEXT
  5
2A5
  8
TXT_DIM49
 10
2153.66520489
 20
-568.63904332
 30
0.0
 40
2.5
  1
20
  7
ARIAL
  0
LINE
  5
2A6
  8
0
 62
     4
 10
2164.52004493
 20
-571.13904332
 30
0.0
 11
2166.52004493
 21
-569.13904332
 31
0.0
  0
LINE
  5
2A7
  8
0
 62
     4
 10
2146.27004493
 20
-569.38904332
 30
0.0
 11
2144.77004493
 21
-570.88904332
 31
0.0
  0
LINE
  5
2A8
  8
0
 62
     4
 10
2165.52004493
 20
-570.13904332
 30
0.0
 11
2145.52004493
 21
-570.13904332
 31
0.0
  0
LINE
  5
2A9
  8
0
 62
     4
 10
2165.52004493
 20
-572.13904332
 30
0.0
 11
2165.52004493
 21
-568.13904332
 31
0.0
  0
LINE
  5
2AA
  8
0
 62
     4
 10
2145.52004493
 20
-572.13904332
 30
0.0
 11
2145.52004493
 21
-568.13904332
 31
0.0
  0
TEXT
  5
2AB
  8
TXT_DIM49
 10
2123.66520489
 20
-568.63904332
 30
0.0
 40
2.5
  1
40
  7
ARIAL
  0
LINE
  5
2AC
  8
0
 62
     4
 10
2144.52004493
 20
-571.13904332
 30
0.0
 11
2146.52004493
 21
-569.13904332
 31
0.0
  0
LINE
  5
2AD
  8
0
 62
     4
 10
2106.27004493
 20
-569.38904332
 30
0.0
 11
2104.77004493
 21
-570.88904332
 31
0.0
  0
LINE
  5
2AE
  8
0
 62
     4
 10
2145.52004493
 20
-570.13904332
 30
0.0
 11
2105.52004493
 21
-570.13904332
 31
0.0
  0
LINE
  5
2AF
  8
0
 62
     4
 10
2145.52004493
 20
-572.13904332
 30
0.0
 11
2145.52004493
 21
-568.13904332
 31
0.0
  0
LINE
  5
2B0
  8
0
 62
     4
 10
2105.52004493
 20
-572.13904332
 30
0.0
 11
2105.52004493
 21
-568.13904332
 31
0.0
  0
TEXT
  5
2B1
  8
TXT_DIM49
 10
2153.66520489
 20
-678.08332047
 30
0.0
 40
2.5
  1
20
  7
ARIAL
  0
LINE
  5
2B2
  8
0
 62
     4
 10
2164.52004493
 20
-680.58332047
 30
0.0
 11
2166.52004493
 21
-678.58332047
 31
0.0
  0
LINE
  5
2B3
  8
0
 62
     4
 10
2146.27004493
 20
-678.83332047
 30
0.0
 11
2144.77004493
 21
-680.33332047
 31
0.0
  0
LINE
  5
2B4
  8
0
 62
     4
 10
2165.52004493
 20
-679.58332047
 30
0.0
 11
2145.52004493
 21
-679.58332047
 31
0.0
  0
LINE
  5
2B5
  8
0
 62
     4
 10
2165.52004493
 20
-677.58332047
 30
0.0
 11
2165.52004493
 21
-681.58332047
 31
0.0
  0
LINE
  5
2B6
  8
0
 62
     4
 10
2145.52004493
 20
-677.58332047
 30
0.0
 11
2145.52004493
 21
-681.58332047
 31
0.0
  0
TEXT
  5
2B7
  8
TXT_DIM49
 10
2123.66520489
 20
-678.08332047
 30
0.0
 40
2.5
  1
40
  7
ARIAL
  0
LINE
  5
2B8
  8
0
 62
     4
 10
2144.52004493
 20
-680.58332047
 30
0.0
 11
2146.52004493
 21
-678.58332047
 31
0.0
  0
LINE
  5
2B9
  8
0
 62
     4
 10
2106.27004493
 20
-678.83332047
 30
0.0
 11
2104.77004493
 21
-680.33332047
 31
0.0
  0
LINE
  5
2BA
  8
0
 62
     4
 10
2145.52004493
 20
-679.58332047
 30
0.0
 11
2105.52004493
 21
-679.58332047
 31
0.0
  0
LINE
  5
2BB
  8
0
 62
     4
 10
2145.52004493
 20
-677.58332047
 30
0.0
 11
2145.52004493
 21
-681.58332047
 31
0.0
  0
LINE
  5
2BC
  8
0
 62
     4
 10
2105.52004493
 20
-677.58332047
 30
0.0
 11
2105.52004493
 21
-681.58332047
 31
0.0
  0
LINE
  5
2BD
  8
0
 62
     5
 10
2125.52004493
 20
-590.92252551
 30
0.0
 11
2129.27603215
 21
-585.51430317
 31
0.0
  0
TEXT
  5
2BE
  8
TXT_DIM49
 10
2129.27603215
 20
-586.76430317
 30
0.0
 40
2.5
  1
Slobgat 10 x 50
  7
ARIAL
  0
LINE
  5
2BF
  8
0
 62
     5
 10
2125.52004493
 20
-646.92252551
 30
0.0
 11
2129.10606212
 21
-641.20723972
 31
0.0
  0
TEXT
  5
2C0
  8
TXT_DIM49
 10
2129.10606212
 20
-642.45723972
 30
0.0
 40
2.5
  1
Slobgat 10 x 50
  7
ARIAL
  0
ENDSEC
  0
EOF
